999
DXF file: C:\Users\sesa63760\Dev\_Creo\CAD\MCADPP0003355_3D-CAD\drw0001_1.dxf
999
Pro/ENGINEER 2019471 by Parametric Technology Corporation
  0
SECTION
  2
HEADER
  9
$ACADVER
  1
AC1024
  9
$DWGCODEPAGE
  3
ANSI_1252
  9
$EXTMAX
 10
91.719709134
 20
129.7178743467
 30
0.0
  9
$EXTMIN
 10
0.0
 20
0.0
 30
0.0
  9
$LIMMIN
 10
0.0
 20
0.0
  9
$LIMMAX
 10
91.719709134
 20
129.7178743467
  9
$VIEWCTR
 10
45.859854567
 20
64.8589371733
  9
$VIEWSIZE
 40
129.7178743467
  9
$CLAYER
  8
0
  9
$LTSCALE
 40
8.4556836611
  9
$CELTYPE
  6
BYLAYER
  9
$DIMSCALE
 40
1.0
  9
$DIMASZ
 40
1.0919012992
  9
$DIMEXO
 40
1.0
  9
$DIMDLI
 40
5.8421087113
  9
$DIMEXE
 40
1.0
  9
$DIMCEN
 40
1.3836573264
  9
$DIMLFAC
 40
1.0
  9
$DIMBLK
  1
_FILLED
  9
$DIMALT
 70
0
  9
$DIMALTF
 40
0.0393700787
  9
$DIMTXT
 40
1.5286618189
  9
$DIMTOL
 70
1
  9
$DIMLIM
 70
0
  9
$DIMTFAC
 40
1.0
  9
$DIMTP
 40
0.01
  9
$DIMTM
 40
0.01
  9
$DIMGAP
 40
0.625
  9
$DIMDSEP
 70
46
  9
$AUNITS
 70
0
  9
$PDMODE
 70
3
  9
$PDSIZE
 40
0.3125
  9
$HANDSEED
  5
4C8
  9
$TILEMODE
 70
1
  9
$MEASUREMENT
 70
1
  9
$INSUNITS
 70
4
  0
ENDSEC
  0
SECTION
  2
CLASSES
  0
CLASS
  1
ACDBDICTIONARYWDFLT
  2
AcDbDictionaryWithDefault
  3
AutoCAD 2000
 90
0
 91
1
280
0
281
0
  0
CLASS
  1
ACDBPLACEHOLDER
  2
AcDbPlaceHolder
  3
AutoCAD 2000
 90
0
 91
1
280
0
281
0
  0
CLASS
  1
LAYOUT
  2
AcDbLayout
  3
AutoCAD 2000
 90
0
 91
0
280
0
281
0
  0
ENDSEC
  0
SECTION
  2
TABLES
  0
TABLE
  2
VPORT
  5
8
100
AcDbSymbolTable
 70
2
  0
VPORT
  5
1F4
100
AcDbSymbolTableRecord
100
AcDbViewportTableRecord
  2
*ACTIVE
 70
0
 10
0.0
 20
0.0
 11
1.0
 21
1.0
 12
45.859854567
 22
64.8589371733
 13
0.0
 23
0.0
 14
1.0
 24
1.0
 15
0.0
 25
0.0
 16
0.0
 26
0.0
 36
1.0
 17
0.0
 27
0.0
 37
0.0
 40
129.7178743467
 41
0.7070707071
 42
50.0
 43
0.0
 44
0.0
 50
0.0
 51
0.0
 71
0
 72
100
 73
1
 74
1
 75
0
 76
0
 77
0
 78
0
  0
ENDTAB
  0
TABLE
  2
LTYPE
  5
5
100
AcDbSymbolTable
 70
6
  0
LTYPE
  5
14
100
AcDbSymbolTableRecord
100
AcDbLinetypeTableRecord
  2
BYBLOCK
 70
0
  3

 72
65
 73
0
 40
0.0
  0
LTYPE
  5
15
100
AcDbSymbolTableRecord
100
AcDbLinetypeTableRecord
  2
BYLAYER
 70
0
  3

 72
65
 73
0
 40
0.0
  0
LTYPE
  5
16
100
AcDbSymbolTableRecord
100
AcDbLinetypeTableRecord
  2
CONTINUOUS
 70
64
  3
Solid line
 72
65
 73
0
 40
0.0
  0
LTYPE
  5
1F5
100
AcDbSymbolTableRecord
100
AcDbLinetypeTableRecord
  2
CENTER
 70
64
  3
____ _ ____ _ ____ _ ____ _ ____ _ ____ _ ____
 72
65
 73
4
 40
0.6
 49
0.375
 74
0
 49
-0.075
 74
0
 49
0.075
 74
0
 49
-0.075
 74
0
  0
LTYPE
  5
1F6
100
AcDbSymbolTableRecord
100
AcDbLinetypeTableRecord
  2
HIDDEN
 70
64
  3
- - - - - - - - - - - - - - - - - - - -
 72
65
 73
2
 40
0.2
 49
0.1
 74
0
 49
-0.1
 74
0
  0
LTYPE
  5
1F7
100
AcDbSymbolTableRecord
100
AcDbLinetypeTableRecord
  2
PHANTOM
 70
64
  3
_____ _ _ _____ _ _ _____ _ _ _____
 72
65
 73
6
 40
0.8
 49
0.45
 74
0
 49
-0.05
 74
0
 49
0.1
 74
0
 49
-0.05
 74
0
 49
0.1
 74
0
 49
-0.05
 74
0
  0
LTYPE
  5
1F8
100
AcDbSymbolTableRecord
100
AcDbLinetypeTableRecord
  2
DOT
 70
64
  3
. . . . . . . . . . . . . . . . . . . .
 72
65
 73
2
 40
0.2
 49
0.1
 74
0
 49
-0.1
 74
0
  0
LTYPE
  5
1F9
100
AcDbSymbolTableRecord
100
AcDbLinetypeTableRecord
  2
DASHED
 70
64
  3
- - - - - - - - - - - - - - - - - - - -
 72
65
 73
2
 40
0.2
 49
0.1
 74
0
 49
-0.1
 74
0
  0
ENDTAB
  0
TABLE
  2
LAYER
  5
2
100
AcDbSymbolTable
 70
36
  0
LAYER
  5
10
100
AcDbSymbolTableRecord
100
AcDbLayerTableRecord
  2
0
 70
0
 62
7
  6
CONTINUOUS
370
-3
390
F
  0
LAYER
  5
1FA
100
AcDbSymbolTableRecord
100
AcDbLayerTableRecord
  2
DEFAULT_1
 70
0
 62
7
  6
CENTER
370
-3
390
F
  0
LAYER
  5
1FB
100
AcDbSymbolTableRecord
100
AcDbLayerTableRecord
  2
DEFAULT_2
 70
0
 62
8
  6
HIDDEN
370
-3
390
F
  0
LAYER
  5
1FC
100
AcDbSymbolTableRecord
100
AcDbLayerTableRecord
  2
DEFAULT_3
 70
0
 62
7
  6
PHANTOM
370
-3
390
F
  0
LAYER
  5
1FD
100
AcDbSymbolTableRecord
100
AcDbLayerTableRecord
  2
00_COMPONENTS
 70
0
 62
7
  6
CONTINUOUS
370
-3
390
F
  0
LAYER
  5
1FE
100
AcDbSymbolTableRecord
100
AcDbLayerTableRecord
  2
01_1_DEFAULT_DATUMS
 70
0
 62
7
  6
CONTINUOUS
370
-3
390
F
  0
LAYER
  5
1FF
100
AcDbSymbolTableRecord
100
AcDbLayerTableRecord
  2
01_PLANES
 70
0
 62
7
  6
CONTINUOUS
370
-3
390
F
  0
LAYER
  5
200
100
AcDbSymbolTableRecord
100
AcDbLayerTableRecord
  2
02_COORD_SYS
 70
0
 62
7
  6
CONTINUOUS
370
-3
390
F
  0
LAYER
  5
201
100
AcDbSymbolTableRecord
100
AcDbLayerTableRecord
  2
03_AXES
 70
0
 62
7
  6
CONTINUOUS
370
-3
390
F
  0
LAYER
  5
202
100
AcDbSymbolTableRecord
100
AcDbLayerTableRecord
  2
04_POINTS
 70
0
 62
7
  6
CONTINUOUS
370
-3
390
F
  0
LAYER
  5
203
100
AcDbSymbolTableRecord
100
AcDbLayerTableRecord
  2
05_CURVES
 70
0
 62
7
  6
CONTINUOUS
370
-3
390
F
  0
LAYER
  5
204
100
AcDbSymbolTableRecord
100
AcDbLayerTableRecord
  2
06_SURFS
 70
0
 62
7
  6
CONTINUOUS
370
-3
390
F
  0
LAYER
  5
205
100
AcDbSymbolTableRecord
100
AcDbLayerTableRecord
  2
07_COSMETICS
 70
0
 62
7
  6
CONTINUOUS
370
-3
390
F
  0
LAYER
  5
206
100
AcDbSymbolTableRecord
100
AcDbLayerTableRecord
  2
10_NOTES
 70
0
 62
7
  6
CONTINUOUS
370
-3
390
F
  0
LAYER
  5
207
100
AcDbSymbolTableRecord
100
AcDbLayerTableRecord
  2
11_NOTES_PUB
 70
0
 62
7
  6
CONTINUOUS
370
-3
390
F
  0
LAYER
  5
208
100
AcDbSymbolTableRecord
100
AcDbLayerTableRecord
  2
13_REF_GTOL
 70
0
 62
7
  6
CONTINUOUS
370
-3
390
F
  0
LAYER
  5
209
100
AcDbSymbolTableRecord
100
AcDbLayerTableRecord
  2
16_MISC
 70
0
 62
7
  6
CONTINUOUS
370
-3
390
F
  0
LAYER
  5
20A
100
AcDbSymbolTableRecord
100
AcDbLayerTableRecord
  2
17_NO_PRINT
 70
0
 62
7
  6
CONTINUOUS
370
-3
390
F
  0
LAYER
  5
20B
100
AcDbSymbolTableRecord
100
AcDbLayerTableRecord
  2
18_DATUM_CAMS_JOINTS
 70
0
 62
7
  6
CONTINUOUS
370
-3
390
F
  0
LAYER
  5
20C
100
AcDbSymbolTableRecord
100
AcDbLayerTableRecord
  2
19_DATUM_FUNCTIONAL
 70
0
 62
7
  6
CONTINUOUS
370
-3
390
F
  0
LAYER
  5
20D
100
AcDbSymbolTableRecord
100
AcDbLayerTableRecord
  2
20_DATUM_KINEMATIC_SCHEME
 70
0
 62
7
  6
CONTINUOUS
370
-3
390
F
  0
ENDTAB
  0
TABLE
  2
STYLE
  5
3
100
AcDbSymbolTable
 70
1
  0
STYLE
  5
11
100
AcDbSymbolTableRecord
100
AcDbTextStyleTableRecord
  2
STANDARD
 70
0
 40
0.0
 41
0.8
 50
0.0
 71
0
 42
0.2
  3
txt
  4

  0
STYLE
  5
20E
100
AcDbSymbolTableRecord
100
AcDbTextStyleTableRecord
  2
TEXTSTYLE_1
 70
0
 40
0.0
 41
0.8
 50
0.0
 71
0
 42
0.2
  3
gdt
  4

  0
ENDTAB
  0
TABLE
  2
VIEW
  5
6
100
AcDbSymbolTable
 70
0
  0
ENDTAB
  0
TABLE
  2
UCS
  5
7
100
AcDbSymbolTable
 70
0
  0
ENDTAB
  0
TABLE
  2
APPID
  5
9
100
AcDbSymbolTable
 70
1
  0
APPID
  5
20F
100
AcDbSymbolTableRecord
100
AcDbRegAppTableRecord
  2
ACAD
 70
0
  0
ENDTAB
  0
TABLE
  2
BLOCK_RECORD
  5
1
100
AcDbSymbolTable
 70
0
  0
BLOCK_RECORD
  5
210
100
AcDbSymbolTableRecord
100
AcDbBlockTableRecord
  2
*Model_Space
  0
BLOCK_RECORD
  5
211
100
AcDbSymbolTableRecord
100
AcDbBlockTableRecord
  2
*Paper_Space
  0
BLOCK_RECORD
  5
212
100
AcDbSymbolTableRecord
100
AcDbBlockTableRecord
  2
_FILLED
  0
ENDTAB
  0
TABLE
  2
DIMSTYLE
  5
A
100
AcDbSymbolTable
 70
1
100
AcDbDimStyleTable
 71
0
  0
DIMSTYLE
105
213
100
AcDbSymbolTableRecord
100
AcDbDimStyleTableRecord
  2
STANDARD
 70
0
  3

  4

 40
1.0
 41
1.0919012992
 42
1.0
 43
0.38
 44
1.0
 45
0.0
 46
0.0
 47
0.01
 48
0.01
140
1.5286618189
141
0.09
142
0.0
143
25.4
144
1.0
145
0.0
146
1.0
147
0.625
 71
1
 72
0
 73
0
 74
0
 75
0
 76
0
 77
1
 78
8
 79
2
170
0
171
1
172
0
173
0
174
0
175
0
176
0
177
0
178
0
270
2
179
2
271
2
272
2
273
2
274
2
275
0
280
0
281
0
282
0
283
1
284
8
285
0
286
0
287
3
288
0
340
11
278
46
341
212
342
212
343
212
344
212
  0
ENDTAB
  0
ENDSEC
  0
SECTION
  2
BLOCKS
  0
BLOCK
  5
20
100
AcDbEntity
  8
0
100
AcDbBlockBegin
  2
*Model_Space
 70
0
 10
0.0
 20
0.0
 30
0.0
  3
*Model_Space
  1

  0
ENDBLK
  5
21
100
AcDbEntity
  8
0
100
AcDbBlockEnd
  0
BLOCK
  5
1C
100
AcDbEntity
  8
0
100
AcDbBlockBegin
  2
*Paper_Space
 70
0
 10
0.0
 20
0.0
 30
0.0
  3
*Paper_Space
  1

  0
ENDBLK
  5
1D
100
AcDbEntity
  8
0
100
AcDbBlockEnd
  0
BLOCK
  5
214
100
AcDbEntity
  8
0
100
AcDbBlockBegin
  2
_FILLED
 70
64
 10
0.0
 20
0.0
  3
_FILLED
  1

  0
SOLID
  5
215
100
AcDbEntity
  8
0
  6
BYBLOCK
 62
0
100
AcDbTrace
 10
0.0
 20
0.0
 11
-1.0
 21
0.25
 12
-1.0
 22
-0.25
 13
-1.0
 23
-0.25
  0
ENDBLK
  5
216
100
AcDbEntity
  8
0
  6
BYBLOCK
 62
0
100
AcDbBlockEnd
  0
ENDSEC
  0
SECTION
  2
ENTITIES
  0
LINE
  5
217
100
AcDbEntity
  8
0
100
AcDbLine
 62
7
  6
CONTINUOUS
 10
36.105696775
 20
25.4955498902
 11
35.6118778944
 21
25.780649904
  0
LINE
  5
218
100
AcDbEntity
  8
0
100
AcDbLine
 62
7
  6
CONTINUOUS
 10
29.9893467231
 20
29.0267463528
 11
29.4930378644
 21
29.3132839236
  0
LINE
  5
219
100
AcDbEntity
  8
0
100
AcDbLine
 62
7
  6
CONTINUOUS
 10
23.8705066931
 20
32.5593803723
 11
23.3535697208
 21
32.8578273207
  0
LINE
  5
21A
100
AcDbEntity
  8
0
100
AcDbLine
 62
7
  6
CONTINUOUS
 10
18.0201972954
 20
35.9369816664
 11
17.2009141819
 21
36.4099842918
  0
LINE
  5
21B
100
AcDbEntity
  8
0
100
AcDbLine
 62
7
  6
CONTINUOUS
 10
11.5783830106
 20
39.6560807406
 11
10.6758964173
 21
40.1769833958
  0
LINE
  5
21C
100
AcDbEntity
  8
0
100
AcDbLine
 62
7
  6
CONTINUOUS
 10
10.6405415199
 20
42.2389791114
 11
42.3473415955
 21
23.9334636787
  0
LINE
  5
21D
100
AcDbEntity
  8
0
100
AcDbLine
 62
7
  6
CONTINUOUS
 10
42.4180519792
 20
23.9742880941
 11
42.4463363682
 21
23.9579584639
  0
LINE
  5
21E
100
AcDbEntity
  8
0
100
AcDbLine
 62
7
  6
CONTINUOUS
 10
43.0827298217
 20
24.3253782024
 11
43.0544454327
 21
24.3417078326
  0
LINE
  5
21F
100
AcDbEntity
  8
0
100
AcDbLine
 62
7
  6
CONTINUOUS
 10
42.4463363682
 20
21.8347262952
 11
41.5650138986
 21
22.343682984
  0
LINE
  5
220
100
AcDbEntity
  8
0
100
AcDbLine
 62
7
  6
CONTINUOUS
 10
13.1615931554
 20
45.4189767137
 11
13.5658116246
 21
44.73791279
  0
LINE
  5
221
100
AcDbEntity
  8
0
100
AcDbLine
 62
7
  6
CONTINUOUS
 10
13.7779427758
 20
44.8603860361
 11
13.3737243066
 21
45.5414499599
  0
LINE
  5
222
100
AcDbEntity
  8
0
100
AcDbLine
 62
7
  6
CONTINUOUS
 10
12.6840032415
 20
47.7586055017
 11
13.8256633614
 21
45.8350330276
  0
LINE
  5
223
100
AcDbEntity
  8
0
100
AcDbLine
 62
7
  6
CONTINUOUS
 10
14.2298818306
 20
45.1539691038
 11
15.4179522971
 21
43.1522002701
  0
LINE
  5
224
100
AcDbEntity
  8
0
100
AcDbLine
 62
7
  6
CONTINUOUS
 10
15.6300834483
 20
43.2746735162
 11
14.4420129818
 21
45.27644235
  0
LINE
  5
225
100
AcDbEntity
  8
0
100
AcDbLine
 62
7
  6
CONTINUOUS
 10
14.0377945126
 20
45.9575062737
 11
12.8961343927
 21
47.8810787479
  0
LINE
  5
226
100
AcDbEntity
  8
0
100
AcDbLine
 62
7
  6
CONTINUOUS
 10
16.0414307979
 20
43.5809853181
 11
14.8698698857
 21
45.5549373579
  0
LINE
  5
227
100
AcDbEntity
  8
0
100
AcDbLine
 62
7
  6
CONTINUOUS
 10
14.4656514165
 20
46.2360012817
 11
13.3405008509
 21
48.1317569619
  0
LINE
  5
228
100
AcDbEntity
  8
0
100
AcDbLine
 62
7
  6
CONTINUOUS
 10
10.6405415199
 20
42.2389791114
 11
10.6405415199
 21
80.4512922331
  0
LINE
  5
229
100
AcDbEntity
  8
0
100
AcDbLine
 62
7
  6
CONTINUOUS
 10
10.6758964173
 20
40.1769833958
 11
10.6758964173
 21
42.2185674136
  0
LINE
  5
22A
100
AcDbEntity
  8
0
100
AcDbLine
 62
7
  6
CONTINUOUS
 10
10.6758964174
 20
80.5125286862
 11
10.6758964174
 21
82.6354349707
  0
LINE
  5
22B
100
AcDbEntity
  8
0
100
AcDbLine
 62
7
  6
CONTINUOUS
 10
11.5783830106
 20
82.1142971367
 11
11.5783830106
 21
79.9914895961
  0
LINE
  5
22C
100
AcDbEntity
  8
0
100
AcDbLine
 62
7
  6
CONTINUOUS
 10
11.5783830106
 20
41.6975283236
 11
11.5783830106
 21
39.6560807406
  0
LINE
  5
22D
100
AcDbEntity
  8
0
100
AcDbLine
 62
7
  6
CONTINUOUS
 10
20.396070262
 20
89.4007286313
 11
19.4113651302
 21
87.6951598447
  0
LINE
  5
22E
100
AcDbEntity
  8
0
100
AcDbLine
 62
7
  6
CONTINUOUS
 10
45.743457782
 20
104.6752210709
 11
20.396070262
 21
89.4007286313
  0
LINE
  5
22F
100
AcDbEntity
  8
0
100
AcDbLine
 62
7
  6
CONTINUOUS
 10
45.743457782
 20
105.3474171288
 11
50.6838314092
 21
108.1997261463
  0
LINE
  5
230
100
AcDbEntity
  8
0
100
AcDbLine
 62
7
  6
CONTINUOUS
 10
10.6758964174
 20
82.6354349707
 11
19.4253042294
 21
87.6868777732
  0
LINE
  5
231
100
AcDbEntity
  8
0
100
AcDbLine
 62
7
  6
CONTINUOUS
 10
15.5339400917
 20
45.9709936717
 11
15.1297216225
 21
46.6520575955
  0
LINE
  5
232
100
AcDbEntity
  8
0
100
AcDbLine
 62
7
  6
CONTINUOUS
 10
19.2937662785
 20
41.8648339215
 11
19.6979847477
 21
41.1837699977
  0
LINE
  5
233
100
AcDbEntity
  8
0
100
AcDbLine
 62
7
  6
CONTINUOUS
 10
19.9101158989
 20
41.3062432438
 11
19.5058974297
 21
41.9873071676
  0
LINE
  5
234
100
AcDbEntity
  8
0
100
AcDbLine
 62
7
  6
CONTINUOUS
 10
18.8016873621
 20
44.2288750944
 11
19.9578364845
 21
42.2808902353
  0
LINE
  5
235
100
AcDbEntity
  8
0
100
AcDbLine
 62
7
  6
CONTINUOUS
 10
20.3620549537
 20
41.5998263115
 11
21.5363370178
 21
39.6212894283
  0
LINE
  5
236
100
AcDbEntity
  8
0
100
AcDbLine
 62
7
  6
CONTINUOUS
 10
21.748468169
 20
39.7437626744
 11
20.5741861049
 21
41.7222995577
  0
LINE
  5
237
100
AcDbEntity
  8
0
100
AcDbLine
 62
7
  6
CONTINUOUS
 10
20.1699676357
 20
42.4033634815
 11
19.0138185133
 21
44.3513483406
  0
LINE
  5
238
100
AcDbEntity
  8
0
100
AcDbLine
 62
7
  6
CONTINUOUS
 10
22.1590289276
 20
40.051399796
 11
21.0020430088
 21
42.0007945656
  0
LINE
  5
239
100
AcDbEntity
  8
0
100
AcDbLine
 62
7
  6
CONTINUOUS
 10
20.5978245396
 20
42.6818584894
 11
19.4589715625
 21
44.6007012349
  0
LINE
  5
23A
100
AcDbEntity
  8
0
100
AcDbLine
 62
7
  6
CONTINUOUS
 10
11.5783830106
 20
82.1142971367
 11
20.3270853287
 21
87.1651721656
  0
LINE
  5
23B
100
AcDbEntity
  8
0
100
AcDbLine
 62
7
  6
CONTINUOUS
 10
10.6405415199
 20
80.4512922331
 11
10.7112519036
 21
80.4921166485
  0
LINE
  5
23C
100
AcDbEntity
  8
0
100
AcDbLine
 62
7
  6
CONTINUOUS
 10
11.5783830106
 20
79.9914895961
 11
17.3059240921
 21
83.2982672425
  0
LINE
  5
23D
100
AcDbEntity
  8
0
100
AcDbLine
 62
7
  6
CONTINUOUS
 10
52.2160078936
 20
26.2976641726
 11
51.2313598747
 21
26.8661672254
  0
LINE
  5
23E
100
AcDbEntity
  8
0
100
AcDbLine
 62
7
  6
CONTINUOUS
 10
21.6661132148
 20
42.4168508795
 11
21.2618947456
 21
43.0979148032
  0
LINE
  5
23F
100
AcDbEntity
  8
0
100
AcDbLine
 62
7
  6
CONTINUOUS
 10
25.4090950529
 20
38.2721640518
 11
25.8133135221
 21
37.5911001281
  0
LINE
  5
240
100
AcDbEntity
  8
0
100
AcDbLine
 62
7
  6
CONTINUOUS
 10
26.0254446733
 20
37.7135733742
 11
25.6212262041
 21
38.394637298
  0
LINE
  5
241
100
AcDbEntity
  8
0
100
AcDbLine
 62
7
  6
CONTINUOUS
 10
24.897326166
 20
40.6693806722
 11
26.0731652589
 21
38.6882203657
  0
LINE
  5
242
100
AcDbEntity
  8
0
100
AcDbLine
 62
7
  6
CONTINUOUS
 10
26.4773837281
 20
38.0071564419
 11
27.6188735519
 21
36.0838708979
  0
LINE
  5
243
100
AcDbEntity
  8
0
100
AcDbLine
 62
7
  6
CONTINUOUS
 10
27.8310047031
 20
36.2063441441
 11
26.6895148792
 21
38.1296296881
  0
LINE
  5
244
100
AcDbEntity
  8
0
100
AcDbLine
 62
7
  6
CONTINUOUS
 10
26.2852964101
 20
38.8106936118
 11
25.1094573172
 21
40.7918539183
  0
LINE
  5
245
100
AcDbEntity
  8
0
100
AcDbLine
 62
7
  6
CONTINUOUS
 10
28.2556011716
 20
36.4903326292
 11
27.1173717832
 21
38.408124696
  0
LINE
  5
246
100
AcDbEntity
  8
0
100
AcDbLine
 62
7
  6
CONTINUOUS
 10
26.713153314
 20
39.0891886198
 11
25.5405746565
 21
41.0648554491
  0
LINE
  5
247
100
AcDbEntity
  8
0
100
AcDbLine
 62
7
  6
CONTINUOUS
 10
27.7814419891
 20
38.8241810098
 11
27.3772235199
 21
39.5052449336
  0
LINE
  5
248
100
AcDbEntity
  8
0
100
AcDbLine
 62
7
  6
CONTINUOUS
 10
17.2009141819
 20
36.4099842918
 11
17.2009141819
 21
38.4514318748
  0
LINE
  5
249
100
AcDbEntity
  8
0
100
AcDbLine
 62
7
  6
CONTINUOUS
 10
17.2009141819
 20
76.7453931474
 11
17.2009141819
 21
78.8682006879
  0
LINE
  5
24A
100
AcDbEntity
  8
0
100
AcDbLine
 62
7
  6
CONTINUOUS
 10
18.0201972955
 20
78.3951980625
 11
18.0201972955
 21
76.272390522
  0
LINE
  5
24B
100
AcDbEntity
  8
0
100
AcDbLine
 62
7
  6
CONTINUOUS
 10
18.0201972954
 20
37.9784292494
 11
18.0201972954
 21
35.9369816664
  0
LINE
  5
24C
100
AcDbEntity
  8
0
100
AcDbLine
 62
7
  6
CONTINUOUS
 10
19.3916935522
 20
51.1077215835
 11
19.3916935522
 21
47.9305233261
  0
LINE
  5
24D
100
AcDbEntity
  8
0
100
AcDbLine
 62
7
  6
CONTINUOUS
 10
19.7452454708
 20
50.9036029059
 11
19.7452454708
 21
48.134645403
  0
LINE
  5
24E
100
AcDbEntity
  8
0
100
AcDbLine
 62
7
  6
CONTINUOUS
 10
20.4878913595
 20
87.0725853623
 11
20.4878913595
 21
83.978167056
  0
LINE
  5
24F
100
AcDbEntity
  8
0
100
AcDbLine
 62
7
  6
CONTINUOUS
 10
21.4897034572
 20
82.4953139321
 11
22.1968072944
 21
82.903558086
  0
LINE
  5
250
100
AcDbEntity
  8
0
100
AcDbLine
 62
7
  6
CONTINUOUS
 10
20.9568409013
 20
81.5782016867
 11
21.4897034572
 21
81.8858481904
  0
LINE
  5
251
100
AcDbEntity
  8
0
100
AcDbLine
 62
7
  6
CONTINUOUS
 10
17.2009141819
 20
78.8682994319
 11
25.9494134101
 21
83.9192176663
  0
LINE
  5
252
100
AcDbEntity
  8
0
100
AcDbLine
 62
7
  6
CONTINUOUS
 10
18.0201972955
 20
78.3951980625
 11
26.7686965209
 21
83.4458941216
  0
LINE
  5
253
100
AcDbEntity
  8
0
100
AcDbLine
 62
7
  6
CONTINUOUS
 10
19.3916935522
 20
47.9305233261
 11
21.506166882
 21
46.7097591973
  0
LINE
  5
254
100
AcDbEntity
  8
0
100
AcDbLine
 62
7
  6
CONTINUOUS
 10
31.6427180873
 20
40.911762872
 11
33.7571914171
 21
39.6909987432
  0
LINE
  5
255
100
AcDbEntity
  8
0
100
AcDbLine
 62
7
  6
CONTINUOUS
 10
19.7452454708
 20
48.134645403
 11
21.506166882
 21
47.1179999519
  0
LINE
  5
256
100
AcDbEntity
  8
0
100
AcDbLine
 62
7
  6
CONTINUOUS
 10
31.9962700059
 20
41.1158849489
 11
33.7571914171
 21
40.0992394978
  0
LINE
  5
257
100
AcDbEntity
  8
0
100
AcDbLine
 62
7
  6
CONTINUOUS
 10
24.1304095732
 20
45.9589061189
 11
26.8819357652
 21
44.3703476693
  0
LINE
  5
258
100
AcDbEntity
  8
0
100
AcDbLine
 62
7
  6
CONTINUOUS
 10
24.4839614918
 20
46.1630281959
 11
26.8819357652
 21
44.7785884238
  0
LINE
  5
259
100
AcDbEntity
  8
0
100
AcDbLine
 62
7
  6
CONTINUOUS
 10
43.0827298217
 20
36.5320893385
 11
43.0544454327
 21
36.5484189686
  0
LINE
  5
25A
100
AcDbEntity
  8
0
100
AcDbLine
 62
7
  6
CONTINUOUS
 10
31.4546218179
 20
34.7339265246
 11
31.8588402871
 21
34.0528626008
  0
LINE
  5
25B
100
AcDbEntity
  8
0
100
AcDbLine
 62
7
  6
CONTINUOUS
 10
32.0709714382
 20
34.175335847
 11
31.666752969
 21
34.8563997707
  0
LINE
  5
25C
100
AcDbEntity
  8
0
100
AcDbLine
 62
7
  6
CONTINUOUS
 10
30.9740751953
 20
37.0785370433
 11
32.1186920239
 21
35.1499828384
  0
LINE
  5
25D
100
AcDbEntity
  8
0
100
AcDbLine
 62
7
  6
CONTINUOUS
 10
32.522910493
 20
34.4689189146
 11
33.66563516
 21
32.5435527951
  0
LINE
  5
25E
100
AcDbEntity
  8
0
100
AcDbLine
 62
7
  6
CONTINUOUS
 10
33.8777663112
 20
32.6660260412
 11
32.7350416442
 21
34.5913921608
  0
LINE
  5
25F
100
AcDbEntity
  8
0
100
AcDbLine
 62
7
  6
CONTINUOUS
 10
32.330823175
 20
35.2724560846
 11
31.1862063465
 21
37.2010102894
  0
LINE
  5
260
100
AcDbEntity
  8
0
100
AcDbLine
 62
7
  6
CONTINUOUS
 10
34.330399613
 20
32.9027755277
 11
33.1628985481
 21
34.8698871687
  0
LINE
  5
261
100
AcDbEntity
  8
0
100
AcDbLine
 62
7
  6
CONTINUOUS
 10
32.7586800789
 20
35.5509510925
 11
31.5892868525
 21
37.5212508189
  0
LINE
  5
262
100
AcDbEntity
  8
0
100
AcDbLine
 62
7
  6
CONTINUOUS
 10
33.8269687541
 20
35.2859434826
 11
33.4227502849
 21
35.9670074064
  0
LINE
  5
263
100
AcDbEntity
  8
0
100
AcDbLine
 62
7
  6
CONTINUOUS
 10
20.9568409013
 20
81.1904571249
 11
20.9568409013
 21
81.5782016867
  0
LINE
  5
264
100
AcDbEntity
  8
0
100
AcDbLine
 62
7
  6
CONTINUOUS
 10
21.1949951967
 20
83.5699297008
 11
21.1949951967
 21
81.7156993125
  0
LINE
  5
265
100
AcDbEntity
  8
0
100
AcDbLine
 62
7
  6
CONTINUOUS
 10
21.4897034572
 20
81.344418294
 11
21.4897034572
 21
82.4953139321
  0
LINE
  5
266
100
AcDbEntity
  8
0
100
AcDbLine
 62
7
  6
CONTINUOUS
 10
21.506166882
 20
46.7097591973
 11
21.506166882
 21
49.8869574547
  0
LINE
  5
267
100
AcDbEntity
  8
0
100
AcDbLine
 62
7
  6
CONTINUOUS
 10
23.3535697208
 20
32.8578273207
 11
23.3535697208
 21
34.8992749037
  0
LINE
  5
268
100
AcDbEntity
  8
0
100
AcDbLine
 62
7
  6
CONTINUOUS
 10
23.3535697208
 20
73.1932361763
 11
23.3535697208
 21
75.3160437168
  0
LINE
  5
269
100
AcDbEntity
  8
0
100
AcDbLine
 62
7
  6
CONTINUOUS
 10
23.8705066932
 20
75.0175967685
 11
23.8705066932
 21
72.8947892279
  0
LINE
  5
26A
100
AcDbEntity
  8
0
100
AcDbLine
 62
7
  6
CONTINUOUS
 10
23.8705066931
 20
34.6008279554
 11
23.8705066931
 21
32.5593803723
  0
LINE
  5
26B
100
AcDbEntity
  8
0
100
AcDbLine
 62
7
  6
CONTINUOUS
 10
24.1304095732
 20
48.400496898
 11
24.1304095732
 21
45.9589061189
  0
LINE
  5
26C
100
AcDbEntity
  8
0
100
AcDbLine
 62
7
  6
CONTINUOUS
 10
24.4839614919
 20
48.1963782204
 11
24.4839614919
 21
46.1630281959
  0
LINE
  5
26D
100
AcDbEntity
  8
0
100
AcDbLine
 62
7
  6
CONTINUOUS
 10
15.1283847815
 20
73.8538774567
 11
14.4643145755
 21
73.4378211429
  0
LINE
  5
26E
100
AcDbEntity
  8
0
100
AcDbLine
 62
7
  6
CONTINUOUS
 10
13.8243265205
 20
73.0368528888
 11
13.1602563145
 21
72.6207965749
  0
LINE
  5
26F
100
AcDbEntity
  8
0
100
AcDbLine
 62
7
  6
CONTINUOUS
 10
13.5644747837
 20
71.9397326512
 11
14.2285449897
 21
72.355788965
  0
LINE
  5
270
100
AcDbEntity
  8
0
100
AcDbLine
 62
7
  6
CONTINUOUS
 10
14.8685330447
 20
72.7567572191
 11
15.5326032507
 21
73.172813533
  0
LINE
  5
271
100
AcDbEntity
  8
0
100
AcDbLine
 62
7
  6
CONTINUOUS
 10
13.6176167175
 20
75.5347631801
 11
13.3222690547
 21
75.3642451454
  0
LINE
  5
272
100
AcDbEntity
  8
0
100
AcDbLine
 62
7
  6
CONTINUOUS
 10
12.9133054104
 20
75.0517148909
 11
12.7011742592
 21
74.9292416448
  0
LINE
  5
273
100
AcDbEntity
  8
0
100
AcDbLine
 62
7
  6
CONTINUOUS
 10
13.3689543906
 20
75.283383289
 11
13.5810855418
 21
75.4058565352
  0
LINE
  5
274
100
AcDbEntity
  8
0
100
AcDbLine
 62
7
  6
CONTINUOUS
 10
18.0201972955
 20
76.272390522
 11
23.7477383769
 21
79.5791681683
  0
LINE
  5
275
100
AcDbEntity
  8
0
100
AcDbLine
 62
7
  6
CONTINUOUS
 10
13.8243265205
 20
73.0368528888
 11
14.0364576716
 21
73.1593261349
  0
LINE
  5
276
100
AcDbEntity
  8
0
100
AcDbLine
 62
7
  6
CONTINUOUS
 10
13.1602563145
 20
72.6207965749
 11
13.3723874656
 21
72.7432698211
  0
LINE
  5
277
100
AcDbEntity
  8
0
100
AcDbLine
 62
7
  6
CONTINUOUS
 10
14.2285449897
 20
72.355788965
 11
14.4406761408
 21
72.4782622112
  0
LINE
  5
278
100
AcDbEntity
  8
0
100
AcDbLine
 62
7
  6
CONTINUOUS
 10
56.9773205174
 20
30.183645296
 11
56.9418519765
 21
30.2039166914
  0
LINE
  5
279
100
AcDbEntity
  8
0
100
AcDbLine
 62
7
  6
CONTINUOUS
 10
21.506166882
 20
49.8869574547
 11
19.3916935522
 21
51.1077215835
  0
LINE
  5
27A
100
AcDbEntity
  8
0
100
AcDbLine
 62
7
  6
CONTINUOUS
 10
26.8819357652
 20
46.8119384484
 11
24.1304095732
 21
48.400496898
  0
LINE
  5
27B
100
AcDbEntity
  8
0
100
AcDbLine
 62
7
  6
CONTINUOUS
 10
33.7571914171
 20
42.8681970006
 11
31.6427180873
 21
44.0889611294
  0
LINE
  5
27C
100
AcDbEntity
  8
0
100
AcDbLine
 62
7
  6
CONTINUOUS
 10
35.2338177605
 20
44.6561898577
 11
28.0920095365
 21
48.7794214784
  0
LINE
  5
27D
100
AcDbEntity
  8
0
100
AcDbLine
 62
7
  6
CONTINUOUS
 10
31.0972258684
 20
47.4037409855
 11
29.6830064181
 21
48.2202224946
  0
LINE
  5
27E
100
AcDbEntity
  8
0
100
AcDbLine
 62
7
  6
CONTINUOUS
 10
58.6916479798
 20
32.3163047123
 11
58.6562924935
 21
32.33671675
  0
LINE
  5
27F
100
AcDbEntity
  8
0
100
AcDbLine
 62
7
  6
CONTINUOUS
 10
37.6573784586
 20
30.6409811735
 11
38.0615969278
 21
29.9599172498
  0
LINE
  5
280
100
AcDbEntity
  8
0
100
AcDbLine
 62
7
  6
CONTINUOUS
 10
38.2737280789
 20
30.0823904959
 11
37.8695096097
 21
30.7634544197
  0
LINE
  5
281
100
AcDbEntity
  8
0
100
AcDbLine
 62
7
  6
CONTINUOUS
 10
13.1602563145
 20
72.6207965749
 11
13.5644747837
 21
71.9397326512
  0
LINE
  5
282
100
AcDbEntity
  8
0
100
AcDbLine
 62
7
  6
CONTINUOUS
 10
13.7766059348
 20
72.0622058973
 11
13.3723874656
 21
72.7432698211
  0
LINE
  5
283
100
AcDbEntity
  8
0
100
AcDbLine
 62
7
  6
CONTINUOUS
 10
37.1670564558
 20
33.0020621391
 11
38.3214486646
 21
31.0570374874
  0
LINE
  5
284
100
AcDbEntity
  8
0
100
AcDbLine
 62
7
  6
CONTINUOUS
 10
38.7256671337
 20
30.3759735636
 11
39.9106119379
 21
28.3794711292
  0
LINE
  5
285
100
AcDbEntity
  8
0
100
AcDbLine
 62
7
  6
CONTINUOUS
 10
40.122743089
 20
28.5019443754
 11
38.9377982849
 21
30.4984468098
  0
LINE
  5
286
100
AcDbEntity
  8
0
100
AcDbLine
 62
7
  6
CONTINUOUS
 10
38.5335798157
 20
31.1795107335
 11
37.379187607
 21
33.1245353853
  0
LINE
  5
287
100
AcDbEntity
  8
0
100
AcDbLine
 62
7
  6
CONTINUOUS
 10
12.7011742592
 20
74.9292416448
 11
13.8243265205
 21
73.0368528888
  0
LINE
  5
288
100
AcDbEntity
  8
0
100
AcDbLine
 62
7
  6
CONTINUOUS
 10
14.2285449897
 20
72.355788965
 11
15.4447907328
 21
70.3065478709
  0
LINE
  5
289
100
AcDbEntity
  8
0
100
AcDbLine
 62
7
  6
CONTINUOUS
 10
15.6569218839
 20
70.429021117
 11
14.4406761408
 21
72.4782622112
  0
LINE
  5
28A
100
AcDbEntity
  8
0
100
AcDbLine
 62
7
  6
CONTINUOUS
 10
14.0364576716
 20
73.1593261349
 11
12.9133054104
 21
75.0517148909
  0
LINE
  5
28B
100
AcDbEntity
  8
0
100
AcDbLine
 62
7
  6
CONTINUOUS
 10
40.5228822259
 20
28.8271407901
 11
39.3656551888
 21
30.7769418177
  0
LINE
  5
28C
100
AcDbEntity
  8
0
100
AcDbLine
 62
7
  6
CONTINUOUS
 10
38.9614367196
 20
31.4580057415
 11
37.8347622779
 21
33.3563289864
  0
LINE
  5
28D
100
AcDbEntity
  8
0
100
AcDbLine
 62
7
  6
CONTINUOUS
 10
16.0569867115
 20
70.7543427348
 11
14.8685330447
 21
72.7567572191
  0
LINE
  5
28E
100
AcDbEntity
  8
0
100
AcDbLine
 62
7
  6
CONTINUOUS
 10
14.4643145755
 20
73.4378211429
 11
13.3689543906
 21
75.283383289
  0
LINE
  5
28F
100
AcDbEntity
  8
0
100
AcDbLine
 62
7
  6
CONTINUOUS
 10
40.0297253948
 20
31.1929981315
 11
39.6255069256
 21
31.8740620553
  0
LINE
  5
290
100
AcDbEntity
  8
0
100
AcDbLine
 62
7
  6
CONTINUOUS
 10
15.5326032507
 20
73.172813533
 11
15.1283847815
 21
73.8538774567
  0
LINE
  5
291
100
AcDbEntity
  8
0
100
AcDbLine
 62
7
  6
CONTINUOUS
 10
25.1303589008
 20
60.4505906479
 11
25.1303589008
 21
57.5648964178
  0
LINE
  5
292
100
AcDbEntity
  8
0
100
AcDbLine
 62
7
  6
CONTINUOUS
 10
25.4839108194
 20
60.2464719703
 11
25.4839108194
 21
57.7690184948
  0
LINE
  5
293
100
AcDbEntity
  8
0
100
AcDbLine
 62
7
  6
CONTINUOUS
 10
26.8819357652
 20
44.3703476693
 11
26.8819357652
 21
46.8119384484
  0
LINE
  5
294
100
AcDbEntity
  8
0
100
AcDbLine
 62
7
  6
CONTINUOUS
 10
26.9297056444
 20
83.3529375546
 11
26.9297056444
 21
80.2590379849
  0
LINE
  5
295
100
AcDbEntity
  8
0
100
AcDbLine
 62
7
  6
CONTINUOUS
 10
27.2585071027
 20
77.5706456518
 11
27.2585071026
 21
78.0749684239
  0
LINE
  5
296
100
AcDbEntity
  8
0
100
AcDbLine
 62
7
  6
CONTINUOUS
 10
27.6368094816
 20
79.8508006297
 11
27.6368094816
 21
78.7916557531
  0
LINE
  5
297
100
AcDbEntity
  8
0
100
AcDbLine
 62
7
  6
CONTINUOUS
 10
27.6424352862
 20
77.8557972258
 11
27.6424493047
 21
78.7916557531
  0
LINE
  5
298
100
AcDbEntity
  8
0
100
AcDbLine
 62
7
  6
CONTINUOUS
 10
28.053008335
 20
55.8775421533
 11
28.053008335
 21
58.7632363834
  0
LINE
  5
299
100
AcDbEntity
  8
0
100
AcDbLine
 62
7
  6
CONTINUOUS
 10
28.0920095365
 20
48.7794214784
 11
28.0920095365
 21
52.861933564
  0
LINE
  5
29A
100
AcDbEntity
  8
0
100
AcDbLine
 62
7
  6
CONTINUOUS
 10
27.6424493047
 20
78.7916557531
 11
28.3495531419
 21
79.199899907
  0
LINE
  5
29B
100
AcDbEntity
  8
0
100
AcDbLine
 62
7
  6
CONTINUOUS
 10
27.2585071026
 20
78.0749684239
 11
27.6424418896
 21
78.2966319534
  0
LINE
  5
29C
100
AcDbEntity
  8
0
100
AcDbLine
 62
7
  6
CONTINUOUS
 10
23.3535697208
 20
75.3161424608
 11
32.102068949
 21
80.3670606952
  0
LINE
  5
29D
100
AcDbEntity
  8
0
100
AcDbLine
 62
7
  6
CONTINUOUS
 10
16.2691178627
 20
70.876815981
 11
16.0569867115
 21
70.7543427349
  0
LINE
  5
29E
100
AcDbEntity
  8
0
100
AcDbLine
 62
7
  6
CONTINUOUS
 10
15.4447907328
 20
70.3065478709
 11
15.6569218839
 21
70.429021117
  0
LINE
  5
29F
100
AcDbEntity
  8
0
100
AcDbLine
 62
7
  6
CONTINUOUS
 10
16.3723624083
 20
70.7917993209
 11
15.9220753948
 21
70.5318275442
  0
LINE
  5
2A0
100
AcDbEntity
  8
0
100
AcDbLine
 62
7
  6
CONTINUOUS
 10
23.8705066932
 20
75.0175967685
 11
32.6190059186
 21
80.0682928275
  0
LINE
  5
2A1
100
AcDbEntity
  8
0
100
AcDbLine
 62
7
  6
CONTINUOUS
 10
19.73411584
 20
72.0034806535
 11
19.4403456813
 21
71.8338733857
  0
LINE
  5
2A2
100
AcDbEntity
  8
0
100
AcDbLine
 62
7
  6
CONTINUOUS
 10
19.0310175271
 20
71.5219373132
 11
18.818886376
 21
71.399464067
  0
LINE
  5
2A3
100
AcDbEntity
  8
0
100
AcDbLine
 62
7
  6
CONTINUOUS
 10
19.4874545277
 20
71.7522779832
 11
19.6995856788
 21
71.8747512294
  0
LINE
  5
2A4
100
AcDbEntity
  8
0
100
AcDbLine
 62
7
  6
CONTINUOUS
 10
48.3152982171
 20
39.5530960771
 11
48.2870138281
 21
39.5694257073
  0
LINE
  5
2A5
100
AcDbEntity
  8
0
100
AcDbLine
 62
7
  6
CONTINUOUS
 10
45.4868828682
 20
41.798505943
 11
45.4585984792
 21
41.8148355732
  0
LINE
  5
2A6
100
AcDbEntity
  8
0
100
AcDbLine
 62
7
  6
CONTINUOUS
 10
29.6830064181
 20
51.5779253845
 11
31.0972258684
 21
50.7614438755
  0
LINE
  5
2A7
100
AcDbEntity
  8
0
100
AcDbLine
 62
7
  6
CONTINUOUS
 10
58.8158007409
 20
35.1234724934
 11
58.7804452546
 21
35.1438845311
  0
LINE
  5
2A8
100
AcDbEntity
  8
0
100
AcDbLine
 62
7
  6
CONTINUOUS
 10
28.0920095365
 20
52.861933564
 11
35.2338177605
 21
48.7387019434
  0
LINE
  5
2A9
100
AcDbEntity
  8
0
100
AcDbLine
 62
7
  6
CONTINUOUS
 10
19.2924294376
 20
69.0666537827
 11
19.6966479068
 21
68.3855898589
  0
LINE
  5
2AA
100
AcDbEntity
  8
0
100
AcDbLine
 62
7
  6
CONTINUOUS
 10
19.908779058
 20
68.5080631051
 11
19.5045605888
 21
69.1891270288
  0
LINE
  5
2AB
100
AcDbEntity
  8
0
100
AcDbLine
 62
7
  6
CONTINUOUS
 10
18.818886376
 20
71.399464067
 11
19.9564996436
 21
69.4827100965
  0
LINE
  5
2AC
100
AcDbEntity
  8
0
100
AcDbLine
 62
7
  6
CONTINUOUS
 10
20.3607181128
 20
68.8016461727
 11
21.5631474573
 21
66.7756841995
  0
LINE
  5
2AD
100
AcDbEntity
  8
0
100
AcDbLine
 62
7
  6
CONTINUOUS
 10
21.7752786085
 20
66.8981574457
 11
20.5728492639
 21
68.9241194189
  0
LINE
  5
2AE
100
AcDbEntity
  8
0
100
AcDbLine
 62
7
  6
CONTINUOUS
 10
20.1686307948
 20
69.6051833427
 11
19.0310175271
 21
71.5219373132
  0
LINE
  5
2AF
100
AcDbEntity
  8
0
100
AcDbLine
 62
7
  6
CONTINUOUS
 10
22.1745554158
 20
67.2248067915
 11
21.0007061679
 21
69.2026144268
  0
LINE
  5
2B0
100
AcDbEntity
  8
0
100
AcDbLine
 62
7
  6
CONTINUOUS
 10
20.5964876987
 20
69.8836783506
 11
19.4874545277
 21
71.7522779832
  0
LINE
  5
2B1
100
AcDbEntity
  8
0
100
AcDbLine
 62
7
  6
CONTINUOUS
 10
21.6647763738
 20
69.6186707407
 11
21.2605579046
 21
70.2997346645
  0
LINE
  5
2B2
100
AcDbEntity
  8
0
100
AcDbLine
 62
7
  6
CONTINUOUS
 10
29.4930378644
 20
29.3132839236
 11
29.4930378644
 21
31.3547315066
  0
LINE
  5
2B3
100
AcDbEntity
  8
0
100
AcDbLine
 62
7
  6
CONTINUOUS
 10
29.4930378645
 20
69.6486927792
 11
29.4930378645
 21
71.7715003197
  0
LINE
  5
2B4
100
AcDbEntity
  8
0
100
AcDbLine
 62
7
  6
CONTINUOUS
 10
29.6830064181
 20
48.2202224946
 11
29.6830064181
 21
51.5779253845
  0
LINE
  5
2B5
100
AcDbEntity
  8
0
100
AcDbLine
 62
7
  6
CONTINUOUS
 10
29.9893467231
 20
71.4849627489
 11
29.9893467231
 21
69.3621552084
  0
LINE
  5
2B6
100
AcDbEntity
  8
0
100
AcDbLine
 62
7
  6
CONTINUOUS
 10
29.9893467231
 20
31.0681939358
 11
29.9893467231
 21
29.0267463528
  0
LINE
  5
2B7
100
AcDbEntity
  8
0
100
AcDbLine
 62
7
  6
CONTINUOUS
 10
31.0972258684
 20
47.4037409855
 11
31.0972258684
 21
50.7614438755
  0
LINE
  5
2B8
100
AcDbEntity
  8
0
100
AcDbLine
 62
7
  6
CONTINUOUS
 10
31.4510118746
 20
57.0976846973
 11
31.4510118746
 21
54.2119904672
  0
LINE
  5
2B9
100
AcDbEntity
  8
0
100
AcDbLine
 62
7
  6
CONTINUOUS
 10
31.6427180873
 20
44.0889611294
 11
31.6427180873
 21
40.911762872
  0
LINE
  5
2BA
100
AcDbEntity
  8
0
100
AcDbLine
 62
7
  6
CONTINUOUS
 10
31.8045637932
 20
56.8935660197
 11
31.8045637932
 21
54.4161125441
  0
LINE
  5
2BB
100
AcDbEntity
  8
0
100
AcDbLine
 62
7
  6
CONTINUOUS
 10
31.9962700059
 20
43.8848424518
 11
31.9962700059
 21
41.1158849489
  0
LINE
  5
2BC
100
AcDbEntity
  8
0
100
AcDbLine
 62
7
  6
CONTINUOUS
 10
21.2605579046
 20
70.2997346645
 11
20.5964876987
 21
69.8836783506
  0
LINE
  5
2BD
100
AcDbEntity
  8
0
100
AcDbLine
 62
7
  6
CONTINUOUS
 10
19.9564996436
 20
69.4827100965
 11
19.2924294376
 21
69.0666537827
  0
LINE
  5
2BE
100
AcDbEntity
  8
0
100
AcDbLine
 62
7
  6
CONTINUOUS
 10
19.6966479068
 20
68.3855898589
 11
20.3607181128
 21
68.8016461727
  0
LINE
  5
2BF
100
AcDbEntity
  8
0
100
AcDbLine
 62
7
  6
CONTINUOUS
 10
21.0007061679
 20
69.2026144268
 11
21.6647763738
 21
69.6186707407
  0
LINE
  5
2C0
100
AcDbEntity
  8
0
100
AcDbLine
 62
7
  6
CONTINUOUS
 10
23.8705066932
 20
72.8947892279
 11
29.5980477746
 21
76.2015668743
  0
LINE
  5
2C1
100
AcDbEntity
  8
0
100
AcDbLine
 62
7
  6
CONTINUOUS
 10
19.9564996436
 20
69.4827100965
 11
20.1686307948
 21
69.6051833427
  0
LINE
  5
2C2
100
AcDbEntity
  8
0
100
AcDbLine
 62
7
  6
CONTINUOUS
 10
20.3607181128
 20
68.8016461727
 11
20.5728492639
 21
68.9241194189
  0
LINE
  5
2C3
100
AcDbEntity
  8
0
100
AcDbLine
 62
7
  6
CONTINUOUS
 10
33.7818670034
 20
75.2471414797
 11
34.4889708406
 21
75.6553856336
  0
LINE
  5
2C4
100
AcDbEntity
  8
0
100
AcDbLine
 62
7
  6
CONTINUOUS
 10
33.2489891145
 20
74.4814871561
 11
33.7818670034
 21
74.7891425122
  0
LINE
  5
2C5
100
AcDbEntity
  8
0
100
AcDbLine
 62
7
  6
CONTINUOUS
 10
25.1303589008
 20
57.5648964178
 11
28.053008335
 21
55.8775421533
  0
LINE
  5
2C6
100
AcDbEntity
  8
0
100
AcDbLine
 62
7
  6
CONTINUOUS
 10
31.4510118746
 20
54.2119904672
 11
33.9500889271
 21
52.769180299
  0
LINE
  5
2C7
100
AcDbEntity
  8
0
100
AcDbLine
 62
7
  6
CONTINUOUS
 10
25.4839108194
 20
57.7690184948
 11
28.053008335
 21
56.2857829078
  0
LINE
  5
2C8
100
AcDbEntity
  8
0
100
AcDbLine
 62
7
  6
CONTINUOUS
 10
31.8045637932
 20
54.4161125441
 11
33.9500889271
 21
53.1774210535
  0
LINE
  5
2C9
100
AcDbEntity
  8
0
100
AcDbLine
 62
7
  6
CONTINUOUS
 10
45.4868828682
 20
47.8406238298
 11
45.4585984792
 21
47.8569534599
  0
LINE
  5
2CA
100
AcDbEntity
  8
0
100
AcDbLine
 62
7
  6
CONTINUOUS
 10
28.053008335
 20
58.7632363834
 11
25.1303589008
 21
60.4505906479
  0
LINE
  5
2CB
100
AcDbEntity
  8
0
100
AcDbLine
 62
7
  6
CONTINUOUS
 10
25.407758212
 20
65.473983913
 11
25.8119766812
 21
64.7929199893
  0
LINE
  5
2CC
100
AcDbEntity
  8
0
100
AcDbLine
 62
7
  6
CONTINUOUS
 10
26.0241078323
 20
64.9153932354
 11
25.6198893631
 21
65.5964571592
  0
LINE
  5
2CD
100
AcDbEntity
  8
0
100
AcDbLine
 62
7
  6
CONTINUOUS
 10
24.9140221054
 20
67.8408172702
 11
26.071828418
 21
65.8900402269
  0
LINE
  5
2CE
100
AcDbEntity
  8
0
100
AcDbLine
 62
7
  6
CONTINUOUS
 10
26.4760468871
 20
65.2089763031
 11
27.6461870659
 21
63.2374180438
  0
LINE
  5
2CF
100
AcDbEntity
  8
0
100
AcDbLine
 62
7
  6
CONTINUOUS
 10
27.8583182171
 20
63.3598912899
 11
26.6881780383
 21
65.3314495493
  0
LINE
  5
2D0
100
AcDbEntity
  8
0
100
AcDbLine
 62
7
  6
CONTINUOUS
 10
26.2839595691
 20
66.012513473
 11
25.1261532566
 21
67.9632905164
  0
LINE
  5
2D1
100
AcDbEntity
  8
0
100
AcDbLine
 62
7
  6
CONTINUOUS
 10
28.2715717295
 20
63.6629914159
 11
27.1160349422
 21
65.6099445572
  0
LINE
  5
2D2
100
AcDbEntity
  8
0
100
AcDbLine
 62
7
  6
CONTINUOUS
 10
26.711816473
 20
66.291008481
 11
25.5685365524
 21
68.2173101422
  0
LINE
  5
2D3
100
AcDbEntity
  8
0
100
AcDbLine
 62
7
  6
CONTINUOUS
 10
27.7801051482
 20
66.0260008711
 11
27.375886679
 21
66.7070647948
  0
LINE
  5
2D4
100
AcDbEntity
  8
0
100
AcDbLine
 62
7
  6
CONTINUOUS
 10
31.4532849769
 20
61.9357463858
 11
31.8575034461
 21
61.254682462
  0
LINE
  5
2D5
100
AcDbEntity
  8
0
100
AcDbLine
 62
7
  6
CONTINUOUS
 10
32.7800150421
 20
79.9753362605
 11
32.7800150421
 21
76.8814366909
  0
LINE
  5
2D6
100
AcDbEntity
  8
0
100
AcDbLine
 62
7
  6
CONTINUOUS
 10
33.2489891145
 20
74.0937425942
 11
33.2489891145
 21
74.4814871561
  0
LINE
  5
2D7
100
AcDbEntity
  8
0
100
AcDbLine
 62
7
  6
CONTINUOUS
 10
33.4871188793
 20
76.4731993357
 11
33.4871188793
 21
74.6189706192
  0
LINE
  5
2D8
100
AcDbEntity
  8
0
100
AcDbLine
 62
7
  6
CONTINUOUS
 10
33.7571914171
 20
39.6909987432
 11
33.7571914171
 21
42.8681970006
  0
LINE
  5
2D9
100
AcDbEntity
  8
0
100
AcDbLine
 62
7
  6
CONTINUOUS
 10
33.7818670034
 20
74.2477409409
 11
33.7818670034
 21
75.2471414797
  0
LINE
  5
2DA
100
AcDbEntity
  8
0
100
AcDbLine
 62
7
  6
CONTINUOUS
 10
33.9500889271
 20
52.769180299
 11
33.9500889271
 21
55.6548745291
  0
LINE
  5
2DB
100
AcDbEntity
  8
0
100
AcDbLine
 62
7
  6
CONTINUOUS
 10
35.2338177605
 20
44.6561898577
 11
35.2338177605
 21
48.7387019434
  0
LINE
  5
2DC
100
AcDbEntity
  8
0
100
AcDbLine
 62
7
  6
CONTINUOUS
 10
35.6118778944
 20
25.780649904
 11
35.6118778944
 21
27.822097487
  0
LINE
  5
2DD
100
AcDbEntity
  8
0
100
AcDbLine
 62
7
  6
CONTINUOUS
 10
35.6118778945
 20
66.1160587596
 11
35.6118778945
 21
68.2388663001
  0
LINE
  5
2DE
100
AcDbEntity
  8
0
100
AcDbLine
 62
7
  6
CONTINUOUS
 10
27.375886679
 20
66.7070647948
 11
26.711816473
 21
66.291008481
  0
LINE
  5
2DF
100
AcDbEntity
  8
0
100
AcDbLine
 62
7
  6
CONTINUOUS
 10
26.071828418
 20
65.8900402269
 11
25.407758212
 21
65.473983913
  0
LINE
  5
2E0
100
AcDbEntity
  8
0
100
AcDbLine
 62
7
  6
CONTINUOUS
 10
25.8119766812
 20
64.7929199893
 11
26.4760468871
 21
65.2089763031
  0
LINE
  5
2E1
100
AcDbEntity
  8
0
100
AcDbLine
 62
7
  6
CONTINUOUS
 10
27.1160349422
 20
65.6099445572
 11
27.7801051482
 21
66.0260008711
  0
LINE
  5
2E2
100
AcDbEntity
  8
0
100
AcDbLine
 62
7
  6
CONTINUOUS
 10
29.4930378645
 20
71.7715990636
 11
38.2415370926
 21
76.8225172981
  0
LINE
  5
2E3
100
AcDbEntity
  8
0
100
AcDbLine
 62
7
  6
CONTINUOUS
 10
22.3866865669
 20
67.3472800377
 11
22.1745554158
 21
67.2248067915
  0
LINE
  5
2E4
100
AcDbEntity
  8
0
100
AcDbLine
 62
7
  6
CONTINUOUS
 10
21.5631474573
 20
66.7756841995
 11
21.7752786085
 21
66.8981574457
  0
LINE
  5
2E5
100
AcDbEntity
  8
0
100
AcDbLine
 62
7
  6
CONTINUOUS
 10
22.4888615308
 20
67.2605167943
 11
22.0385745173
 21
67.0005450176
  0
LINE
  5
2E6
100
AcDbEntity
  8
0
100
AcDbLine
 62
7
  6
CONTINUOUS
 10
29.9893467231
 20
71.4849627489
 11
38.7378459486
 21
76.535658808
  0
LINE
  5
2E7
100
AcDbEntity
  8
0
100
AcDbLine
 62
7
  6
CONTINUOUS
 10
25.8506149625
 20
68.4721981269
 11
25.528686118
 21
68.2863335313
  0
LINE
  5
2E8
100
AcDbEntity
  8
0
100
AcDbLine
 62
7
  6
CONTINUOUS
 10
25.1261532566
 20
67.9632905163
 11
24.9140221054
 21
67.8408172702
  0
LINE
  5
2E9
100
AcDbEntity
  8
0
100
AcDbLine
 62
7
  6
CONTINUOUS
 10
25.5685365524
 20
68.2173101422
 11
25.7806677036
 21
68.3397833884
  0
LINE
  5
2EA
100
AcDbEntity
  8
0
100
AcDbLine
 62
7
  6
CONTINUOUS
 10
29.9893467231
 20
69.3621552084
 11
35.7168878046
 21
72.6689328547
  0
LINE
  5
2EB
100
AcDbEntity
  8
0
100
AcDbLine
 62
7
  6
CONTINUOUS
 10
26.071828418
 20
65.8900402269
 11
26.2839595691
 21
66.012513473
  0
LINE
  5
2EC
100
AcDbEntity
  8
0
100
AcDbLine
 62
7
  6
CONTINUOUS
 10
33.9500889271
 20
55.6548745291
 11
31.4510118746
 21
57.0976846973
  0
LINE
  5
2ED
100
AcDbEntity
  8
0
100
AcDbLine
 62
7
  6
CONTINUOUS
 10
43.0827298217
 20
50.4534555505
 11
43.0544454327
 21
50.4697851807
  0
LINE
  5
2EE
100
AcDbEntity
  8
0
100
AcDbLine
 62
7
  6
CONTINUOUS
 10
64.2604900407
 20
38.2669465622
 11
64.2251345544
 21
38.2873586
  0
LINE
  5
2EF
100
AcDbEntity
  8
0
100
AcDbLine
 62
7
  6
CONTINUOUS
 10
48.3152982171
 20
49.4736004452
 11
48.2870138281
 21
49.4899300754
  0
LINE
  5
2F0
100
AcDbEntity
  8
0
100
AcDbLine
 62
7
  6
CONTINUOUS
 10
32.0696345973
 20
61.3771557082
 11
31.6654161281
 21
62.0582196319
  0
LINE
  5
2F1
100
AcDbEntity
  8
0
100
AcDbLine
 62
7
  6
CONTINUOUS
 10
30.9896758545
 20
64.2518190688
 11
32.1173551829
 21
62.3518026996
  0
LINE
  5
2F2
100
AcDbEntity
  8
0
100
AcDbLine
 62
7
  6
CONTINUOUS
 10
32.5215736521
 20
61.6707387759
 11
33.6939763207
 21
59.6953684686
  0
LINE
  5
2F3
100
AcDbEntity
  8
0
100
AcDbLine
 62
7
  6
CONTINUOUS
 10
33.9061074718
 20
59.8178417148
 11
32.7337048033
 21
61.793212022
  0
LINE
  5
2F4
100
AcDbEntity
  8
0
100
AcDbLine
 62
7
  6
CONTINUOUS
 10
32.3294863341
 20
62.4742759458
 11
31.2018746392
 21
64.3741783598
  0
LINE
  5
2F5
100
AcDbEntity
  8
0
100
AcDbLine
 62
7
  6
CONTINUOUS
 10
34.3474632603
 20
60.0735925782
 11
33.1615617072
 21
62.07170703
  0
LINE
  5
2F6
100
AcDbEntity
  8
0
100
AcDbLine
 62
7
  6
CONTINUOUS
 10
32.757343238
 20
62.7527709537
 11
31.6162326586
 21
64.6754175122
  0
LINE
  5
2F7
100
AcDbEntity
  8
0
100
AcDbLine
 62
7
  6
CONTINUOUS
 10
33.8256319132
 20
62.4877633438
 11
33.421413444
 21
63.1688272676
  0
LINE
  5
2F8
100
AcDbEntity
  8
0
100
AcDbLine
 62
7
  6
CONTINUOUS
 10
37.5990489975
 20
59.0820508375
 11
38.0032674666
 21
58.4009869138
  0
LINE
  5
2F9
100
AcDbEntity
  8
0
100
AcDbLine
 62
7
  6
CONTINUOUS
 10
36.105696775
 20
67.9537662863
 11
36.105696775
 21
65.8309587458
  0
LINE
  5
2FA
100
AcDbEntity
  8
0
100
AcDbLine
 62
7
  6
CONTINUOUS
 10
36.105696775
 20
27.5369974732
 11
36.105696775
 21
25.4955498902
  0
LINE
  5
2FB
100
AcDbEntity
  8
0
100
AcDbLine
 62
7
  6
CONTINUOUS
 10
38.898855072
 20
76.442702241
 11
38.898855072
 21
73.3488026713
  0
LINE
  5
2FC
100
AcDbEntity
  8
0
100
AcDbLine
 62
7
  6
CONTINUOUS
 10
39.3678102418
 20
70.5611194879
 11
39.3678102418
 21
70.9488640497
  0
LINE
  5
2FD
100
AcDbEntity
  8
0
100
AcDbLine
 62
7
  6
CONTINUOUS
 10
26.4760468871
 20
65.2089763031
 11
26.6881780383
 21
65.3314495493
  0
LINE
  5
2FE
100
AcDbEntity
  8
0
100
AcDbLine
 62
7
  6
CONTINUOUS
 10
39.9006881306
 20
71.8659674428
 11
40.6077919678
 21
72.2742115967
  0
LINE
  5
2FF
100
AcDbEntity
  8
0
100
AcDbLine
 62
7
  6
CONTINUOUS
 10
39.3678102418
 20
70.9488640497
 11
39.9006881306
 21
71.2565194059
  0
LINE
  5
300
100
AcDbEntity
  8
0
100
AcDbLine
 62
7
  6
CONTINUOUS
 10
35.6118778945
 20
68.2389650441
 11
44.3603771226
 21
73.2898832785
  0
LINE
  5
301
100
AcDbEntity
  8
0
100
AcDbLine
 62
7
  6
CONTINUOUS
 10
28.4837798802
 20
63.7853349261
 11
28.2716487291
 21
63.6628616799
  0
LINE
  5
302
100
AcDbEntity
  8
0
100
AcDbLine
 62
7
  6
CONTINUOUS
 10
27.6461870659
 20
63.2374180438
 11
27.8583182171
 21
63.3598912899
  0
LINE
  5
303
100
AcDbEntity
  8
0
100
AcDbLine
 62
7
  6
CONTINUOUS
 10
28.6053606533
 20
63.7292342677
 11
28.3263343026
 21
63.5681392906
  0
LINE
  5
304
100
AcDbEntity
  8
0
100
AcDbLine
 62
7
  6
CONTINUOUS
 10
36.105696775
 20
67.9537662863
 11
44.8541960005
 21
73.0044623454
  0
LINE
  5
305
100
AcDbEntity
  8
0
100
AcDbLine
 62
7
  6
CONTINUOUS
 10
31.967114085
 20
64.9409156003
 11
31.5889885284
 21
64.7226060115
  0
LINE
  5
306
100
AcDbEntity
  8
0
100
AcDbLine
 62
7
  6
CONTINUOUS
 10
31.6162326586
 20
64.6754175122
 11
31.8283638097
 21
64.7978907584
  0
LINE
  5
307
100
AcDbEntity
  8
0
100
AcDbLine
 62
7
  6
CONTINUOUS
 10
31.2018746392
 20
64.3741783598
 11
30.9897434881
 21
64.2517051136
  0
LINE
  5
308
100
AcDbEntity
  8
0
100
AcDbLine
 62
7
  6
CONTINUOUS
 10
38.2153986178
 20
58.5234601599
 11
37.8111801486
 21
59.2045240837
  0
LINE
  5
309
100
AcDbEntity
  8
0
100
AcDbLine
 62
7
  6
CONTINUOUS
 10
37.1296825684
 20
61.4078239526
 11
38.2631192034
 21
59.4981071514
  0
LINE
  5
30A
100
AcDbEntity
  8
0
100
AcDbLine
 62
7
  6
CONTINUOUS
 10
38.6673376726
 20
58.8170432276
 11
39.8508000538
 21
56.8230385139
  0
LINE
  5
30B
100
AcDbEntity
  8
0
100
AcDbLine
 62
7
  6
CONTINUOUS
 10
40.0629312049
 20
56.94551176
 11
38.8794688238
 21
58.9395164738
  0
LINE
  5
30C
100
AcDbEntity
  8
0
100
AcDbLine
 62
7
  6
CONTINUOUS
 10
38.4752503546
 20
59.6205803975
 11
37.3418137196
 21
61.5302971988
  0
LINE
  5
30D
100
AcDbEntity
  8
0
100
AcDbLine
 62
7
  6
CONTINUOUS
 10
40.4879662075
 20
57.2287613633
 11
39.3073257277
 21
59.2180114817
  0
LINE
  5
30E
100
AcDbEntity
  8
0
100
AcDbLine
 62
7
  6
CONTINUOUS
 10
38.9031072585
 20
59.8990754055
 11
37.7724925249
 21
61.8040376115
  0
LINE
  5
30F
100
AcDbEntity
  8
0
100
AcDbLine
 62
7
  6
CONTINUOUS
 10
39.9713959337
 20
59.6340677955
 11
39.5671774645
 21
60.3151317193
  0
LINE
  5
310
100
AcDbEntity
  8
0
100
AcDbLine
 62
7
  6
CONTINUOUS
 10
39.6059589093
 20
72.9405653161
 11
39.6059589093
 21
71.0863584263
  0
LINE
  5
311
100
AcDbEntity
  8
0
100
AcDbLine
 62
7
  6
CONTINUOUS
 10
39.9006881306
 20
70.7150960079
 11
39.9006881306
 21
71.8659674428
  0
LINE
  5
312
100
AcDbEntity
  8
0
100
AcDbLine
 62
7
  6
CONTINUOUS
 10
41.5650138986
 20
22.343682984
 11
41.5650138986
 21
24.385130567
  0
LINE
  5
313
100
AcDbEntity
  8
0
100
AcDbLine
 62
7
  6
CONTINUOUS
 10
41.5650138986
 20
62.6790918396
 11
41.5650138986
 21
64.8018993802
  0
LINE
  5
314
100
AcDbEntity
  8
0
100
AcDbLine
 62
7
  6
CONTINUOUS
 10
42.3473415955
 20
23.9334636787
 11
42.3473415955
 21
62.1457768004
  0
LINE
  5
315
100
AcDbEntity
  8
0
100
AcDbLine
 62
7
  6
CONTINUOUS
 10
42.4463363682
 20
21.8347262952
 11
42.4463363682
 21
23.9579584639
  0
LINE
  5
316
100
AcDbEntity
  8
0
100
AcDbLine
 62
7
  6
CONTINUOUS
 10
42.4463363682
 20
62.1702715856
 11
42.4463363682
 21
64.2931778701
  0
LINE
  5
317
100
AcDbEntity
  8
0
100
AcDbLine
 62
7
  6
CONTINUOUS
 10
43.0544454327
 20
62.5213614219
 11
43.0544454327
 21
50.4697851807
  0
LINE
  5
318
100
AcDbEntity
  8
0
100
AcDbLine
 62
7
  6
CONTINUOUS
 10
43.0544454327
 20
36.5484189686
 11
43.0544454327
 21
24.3417078326
  0
LINE
  5
319
100
AcDbEntity
  8
0
100
AcDbLine
 62
7
  6
CONTINUOUS
 10
43.0827298217
 20
24.3253782024
 11
43.0827298217
 21
36.5320893385
  0
LINE
  5
31A
100
AcDbEntity
  8
0
100
AcDbLine
 62
7
  6
CONTINUOUS
 10
43.0827298217
 20
50.4534555505
 11
43.0827298217
 21
62.537691324
  0
LINE
  5
31B
100
AcDbEntity
  8
0
100
AcDbLine
 62
7
  6
CONTINUOUS
 10
33.421413444
 20
63.1688272676
 11
32.757343238
 21
62.7527709537
  0
LINE
  5
31C
100
AcDbEntity
  8
0
100
AcDbLine
 62
7
  6
CONTINUOUS
 10
32.1173551829
 20
62.3518026996
 11
31.4532849769
 21
61.9357463858
  0
LINE
  5
31D
100
AcDbEntity
  8
0
100
AcDbLine
 62
7
  6
CONTINUOUS
 10
31.8575034461
 20
61.254682462
 11
32.5215736521
 21
61.6707387759
  0
LINE
  5
31E
100
AcDbEntity
  8
0
100
AcDbLine
 62
7
  6
CONTINUOUS
 10
33.1615617072
 20
62.07170703
 11
33.8256319132
 21
62.4877633438
  0
LINE
  5
31F
100
AcDbEntity
  8
0
100
AcDbLine
 62
7
  6
CONTINUOUS
 10
36.105696775
 20
65.8309587458
 11
41.8332378565
 21
69.1377363921
  0
LINE
  5
320
100
AcDbEntity
  8
0
100
AcDbLine
 62
7
  6
CONTINUOUS
 10
32.1173551829
 20
62.3518026996
 11
32.3294863341
 21
62.4742759458
  0
LINE
  5
321
100
AcDbEntity
  8
0
100
AcDbLine
 62
7
  6
CONTINUOUS
 10
25.1303589008
 20
57.5648964178
 11
25.4839108194
 21
57.7690184948
  0
LINE
  5
322
100
AcDbEntity
  8
0
100
AcDbLine
 62
7
  6
CONTINUOUS
 10
32.5215736521
 20
61.6707387759
 11
32.7337048033
 21
61.793212022
  0
LINE
  5
323
100
AcDbEntity
  8
0
100
AcDbLine
 62
7
  6
CONTINUOUS
 10
77.5633954136
 20
86.9765831754
 11
82.5037690408
 21
89.8288921929
  0
LINE
  5
324
100
AcDbEntity
  8
0
100
AcDbLine
 62
7
  6
CONTINUOUS
 10
45.853837258
 20
68.4289929444
 11
46.5609410952
 21
68.8372370983
  0
LINE
  5
325
100
AcDbEntity
  8
0
100
AcDbLine
 62
7
  6
CONTINUOUS
 10
76.7455794359
 20
39.8401330915
 11
77.3456168033
 21
39.4937091931
  0
LINE
  5
326
100
AcDbEntity
  8
0
100
AcDbLine
 62
7
  6
CONTINUOUS
 10
42.3473415955
 20
62.1457768004
 11
10.6405415199
 21
80.4512922331
  0
LINE
  5
327
100
AcDbEntity
  8
0
100
AcDbLine
 62
7
  6
CONTINUOUS
 10
17.2009141819
 20
76.7453931474
 11
18.0201972955
 21
76.272390522
  0
LINE
  5
328
100
AcDbEntity
  8
0
100
AcDbLine
 62
7
  6
CONTINUOUS
 10
11.5783830106
 20
79.9914895961
 11
10.6758964174
 21
80.5125286862
  0
LINE
  5
329
100
AcDbEntity
  8
0
100
AcDbLine
 62
7
  6
CONTINUOUS
 10
23.3535697208
 20
73.1932361763
 11
23.8705066932
 21
72.8947892279
  0
LINE
  5
32A
100
AcDbEntity
  8
0
100
AcDbLine
 62
7
  6
CONTINUOUS
 10
29.4930378645
 20
69.6486927792
 11
29.9893467231
 21
69.3621552084
  0
LINE
  5
32B
100
AcDbEntity
  8
0
100
AcDbLine
 62
7
  6
CONTINUOUS
 10
35.6118778945
 20
66.1160587596
 11
36.105696775
 21
65.8309587458
  0
LINE
  5
32C
100
AcDbEntity
  8
0
100
AcDbLine
 62
7
  6
CONTINUOUS
 10
41.5650138986
 20
62.6790918396
 11
42.4463363682
 21
62.1702715856
  0
LINE
  5
32D
100
AcDbEntity
  8
0
100
AcDbLine
 62
7
  6
CONTINUOUS
 10
45.0152051239
 20
72.9115144921
 11
45.0152051239
 21
69.8176062087
  0
LINE
  5
32E
100
AcDbEntity
  8
0
100
AcDbLine
 62
7
  6
CONTINUOUS
 10
45.3209593691
 20
67.1241449915
 11
45.3209593691
 21
67.5118895512
  0
LINE
  5
32F
100
AcDbEntity
  8
0
100
AcDbLine
 62
7
  6
CONTINUOUS
 10
45.4585984792
 20
47.8569534599
 11
45.4585984792
 21
41.8148355732
  0
LINE
  5
330
100
AcDbEntity
  8
0
100
AcDbLine
 62
7
  6
CONTINUOUS
 10
45.4868828682
 20
41.798505943
 11
45.4868828682
 21
47.8406238298
  0
LINE
  5
331
100
AcDbEntity
  8
0
100
AcDbLine
 62
7
  6
CONTINUOUS
 10
45.7223089612
 20
69.4093688535
 11
45.7223089612
 21
67.743607463
  0
LINE
  5
332
100
AcDbEntity
  8
0
100
AcDbLine
 62
7
  6
CONTINUOUS
 10
45.743457782
 20
104.6752210709
 11
45.743457782
 21
105.3474171288
  0
LINE
  5
333
100
AcDbEntity
  8
0
100
AcDbLine
 62
7
  6
CONTINUOUS
 10
45.853837258
 20
67.2781366646
 11
45.853837258
 21
68.4289929447
  0
LINE
  5
334
100
AcDbEntity
  8
0
100
AcDbLine
 62
7
  6
CONTINUOUS
 10
15.1297216225
 20
46.6520575955
 11
14.4656514165
 21
46.2360012817
  0
LINE
  5
335
100
AcDbEntity
  8
0
100
AcDbLine
 62
7
  6
CONTINUOUS
 10
13.8256633614
 20
45.8350330276
 11
13.1615931554
 21
45.4189767137
  0
LINE
  5
336
100
AcDbEntity
  8
0
100
AcDbLine
 62
7
  6
CONTINUOUS
 10
13.5658116246
 20
44.73791279
 11
14.2298818306
 21
45.1539691038
  0
LINE
  5
337
100
AcDbEntity
  8
0
100
AcDbLine
 62
7
  6
CONTINUOUS
 10
14.8698698857
 20
45.5549373579
 11
15.5339400917
 21
45.9709936717
  0
LINE
  5
338
100
AcDbEntity
  8
0
100
AcDbLine
 62
7
  6
CONTINUOUS
 10
39.5671774645
 20
60.3151317193
 11
38.9031072585
 21
59.8990754055
  0
LINE
  5
339
100
AcDbEntity
  8
0
100
AcDbLine
 62
7
  6
CONTINUOUS
 10
38.2631192034
 20
59.4981071514
 11
37.5990489975
 21
59.0820508375
  0
LINE
  5
33A
100
AcDbEntity
  8
0
100
AcDbLine
 62
7
  6
CONTINUOUS
 10
52.2160078936
 20
71.0298946779
 11
77.5633954136
 21
86.3043871174
  0
LINE
  5
33B
100
AcDbEntity
  8
0
100
AcDbLine
 62
7
  6
CONTINUOUS
 10
45.3209593691
 20
67.5118895511
 11
45.853837258
 21
67.8195449072
  0
LINE
  5
33C
100
AcDbEntity
  8
0
100
AcDbLine
 62
7
  6
CONTINUOUS
 10
41.5650138986
 20
64.8019981241
 11
50.313716222
 21
69.853033615
  0
LINE
  5
33D
100
AcDbEntity
  8
0
100
AcDbLine
 62
7
  6
CONTINUOUS
 10
13.6176167174
 20
48.3860578105
 11
13.2996640283
 21
48.2024888356
  0
LINE
  5
33E
100
AcDbEntity
  8
0
100
AcDbLine
 62
7
  6
CONTINUOUS
 10
12.8961343927
 20
47.8810787479
 11
12.6840032415
 21
47.7586055017
  0
LINE
  5
33F
100
AcDbEntity
  8
0
100
AcDbLine
 62
7
  6
CONTINUOUS
 10
13.3405008509
 20
48.1317569619
 11
13.5526320021
 21
48.2542302081
  0
LINE
  5
340
100
AcDbEntity
  8
0
100
AcDbLine
 62
7
  6
CONTINUOUS
 10
34.5595944114
 20
60.1960658244
 11
34.3474632603
 21
60.0735925782
  0
LINE
  5
341
100
AcDbEntity
  8
0
100
AcDbLine
 62
7
  6
CONTINUOUS
 10
33.6939763207
 20
59.6953684686
 11
33.9061074718
 21
59.8178417148
  0
LINE
  5
342
100
AcDbEntity
  8
0
100
AcDbLine
 62
7
  6
CONTINUOUS
 10
34.7218597759
 20
60.1979517411
 11
34.3872126147
 21
60.0047442658
  0
LINE
  5
343
100
AcDbEntity
  8
0
100
AcDbLine
 62
7
  6
CONTINUOUS
 10
38.0836132075
 20
62.0628350074
 11
37.7382097739
 21
61.8634174324
  0
LINE
  5
344
100
AcDbEntity
  8
0
100
AcDbLine
 62
7
  6
CONTINUOUS
 10
37.7724925249
 20
61.8040376115
 11
37.984623676
 21
61.9265108576
  0
LINE
  5
345
100
AcDbEntity
  8
0
100
AcDbLine
 62
7
  6
CONTINUOUS
 10
37.3418137196
 20
61.5302971988
 11
37.1296825684
 21
61.4078239527
  0
LINE
  5
346
100
AcDbEntity
  8
0
100
AcDbLine
 62
7
  6
CONTINUOUS
 10
42.4463363682
 20
64.2931778701
 11
51.1957441803
 21
69.3445589576
  0
LINE
  5
347
100
AcDbEntity
  8
0
100
AcDbLine
 62
7
  6
CONTINUOUS
 10
51.2313027618
 20
69.3243258913
 11
56.9773205174
 21
72.6417709867
  0
LINE
  5
348
100
AcDbEntity
  8
0
100
AcDbLine
 62
7
  6
CONTINUOUS
 10
13.8256633614
 20
45.8350330276
 11
14.0377945126
 21
45.9575062737
  0
LINE
  5
349
100
AcDbEntity
  8
0
100
AcDbLine
 62
7
  6
CONTINUOUS
 10
42.3473415955
 20
62.1457768004
 11
42.4180519792
 21
62.1866012158
  0
LINE
  5
34A
100
AcDbEntity
  8
0
100
AcDbLine
 62
7
  6
CONTINUOUS
 10
42.4463363682
 20
62.1702715856
 11
43.0827298217
 21
62.537691324
  0
LINE
  5
34B
100
AcDbEntity
  8
0
100
AcDbLine
 62
7
  6
CONTINUOUS
 10
42.4463363682
 20
64.2931778701
 11
41.5650138986
 21
64.8019981241
  0
LINE
  5
34C
100
AcDbEntity
  8
0
100
AcDbLine
 62
7
  6
CONTINUOUS
 10
36.105696775
 20
67.9538650302
 11
35.6118778945
 21
68.2389650441
  0
LINE
  5
34D
100
AcDbEntity
  8
0
100
AcDbLine
 62
7
  6
CONTINUOUS
 10
29.9893467231
 20
71.4850614928
 11
29.4930378645
 21
71.7715990636
  0
LINE
  5
34E
100
AcDbEntity
  8
0
100
AcDbLine
 62
7
  6
CONTINUOUS
 10
23.8705066932
 20
75.0176955124
 11
23.3535697208
 21
75.3161424608
  0
LINE
  5
34F
100
AcDbEntity
  8
0
100
AcDbLine
 62
7
  6
CONTINUOUS
 10
18.0201972955
 20
78.3952968065
 11
17.2009141819
 21
78.8682994319
  0
LINE
  5
350
100
AcDbEntity
  8
0
100
AcDbLine
 62
7
  6
CONTINUOUS
 10
11.5783830106
 20
82.1143958806
 11
10.6758964174
 21
82.6354349707
  0
LINE
  5
351
100
AcDbEntity
  8
0
100
AcDbLine
 62
7
  6
CONTINUOUS
 10
48.2870138281
 20
53.458132387
 11
48.2870138281
 21
49.4899300754
  0
LINE
  5
352
100
AcDbEntity
  8
0
100
AcDbLine
 62
7
  6
CONTINUOUS
 10
48.2870138281
 20
43.4151526564
 11
48.2870138281
 21
39.5694257073
  0
LINE
  5
353
100
AcDbEntity
  8
0
100
AcDbLine
 62
7
  6
CONTINUOUS
 10
48.3152982171
 20
39.5530960771
 11
48.3152982171
 21
43.4314825585
  0
LINE
  5
354
100
AcDbEntity
  8
0
100
AcDbLine
 62
7
  6
CONTINUOUS
 10
48.3152982171
 20
49.4736004452
 11
48.3152982171
 21
53.4744622892
  0
LINE
  5
355
100
AcDbEntity
  8
0
100
AcDbLine
 62
7
  6
CONTINUOUS
 10
51.2313027618
 20
69.3243258913
 11
52.2160078936
 21
71.0298946779
  0
LINE
  5
356
100
AcDbEntity
  8
0
100
AcDbLine
 62
7
  6
CONTINUOUS
 10
38.0032674666
 20
58.4009869138
 11
38.6673376726
 21
58.8170432276
  0
LINE
  5
357
100
AcDbEntity
  8
0
100
AcDbLine
 62
7
  6
CONTINUOUS
 10
39.3073257277
 20
59.2180114817
 11
39.9713959337
 21
59.6340677955
  0
LINE
  5
358
100
AcDbEntity
  8
0
100
AcDbLine
 62
7
  6
CONTINUOUS
 10
38.2631192034
 20
59.4981071514
 11
38.4752503546
 21
59.6205803975
  0
LINE
  5
359
100
AcDbEntity
  8
0
100
AcDbLine
 62
7
  6
CONTINUOUS
 10
14.2298818306
 20
45.1539691038
 11
14.4420129817
 21
45.27644235
  0
LINE
  5
35A
100
AcDbEntity
  8
0
100
AcDbLine
 62
7
  6
CONTINUOUS
 10
19.3916935522
 20
47.9305233261
 11
19.7452454708
 21
48.134645403
  0
LINE
  5
35B
100
AcDbEntity
  8
0
100
AcDbLine
 62
7
  6
CONTINUOUS
 10
38.6673376726
 20
58.8170432276
 11
38.8794688238
 21
58.9395164738
  0
LINE
  5
35C
100
AcDbEntity
  8
0
100
AcDbLine
 62
7
  6
CONTINUOUS
 10
31.4510118746
 20
54.2119904672
 11
31.8045637932
 21
54.4161125441
  0
LINE
  5
35D
100
AcDbEntity
  8
0
100
AcDbLine
 62
7
  6
CONTINUOUS
 10
64.2604900407
 20
72.9682992902
 11
58.8158007409
 21
69.8248252214
  0
LINE
  5
35E
100
AcDbEntity
  8
0
100
AcDbLine
 62
7
  6
CONTINUOUS
 10
29.6830064181
 20
51.5779253845
 11
29.9995142003
 21
51.760660147
  0
LINE
  5
35F
100
AcDbEntity
  8
0
100
AcDbLine
 62
7
  6
CONTINUOUS
 10
16.253561949
 20
43.7034585642
 11
16.0414307979
 21
43.5809853181
  0
LINE
  5
360
100
AcDbEntity
  8
0
100
AcDbLine
 62
7
  6
CONTINUOUS
 10
15.4179522971
 20
43.1522002701
 11
15.6300834483
 21
43.2746735162
  0
LINE
  5
361
100
AcDbEntity
  8
0
100
AcDbLine
 62
7
  6
CONTINUOUS
 10
16.3723624083
 20
43.6430939513
 11
16.0972692129
 21
43.4842697689
  0
LINE
  5
362
100
AcDbEntity
  8
0
100
AcDbLine
 62
7
  6
CONTINUOUS
 10
40.7000973586
 20
57.3512346094
 11
40.4879662075
 21
57.2287613633
  0
LINE
  5
363
100
AcDbEntity
  8
0
100
AcDbLine
 62
7
  6
CONTINUOUS
 10
39.8508000538
 20
56.8230385139
 11
40.0629312049
 21
56.94551176
  0
LINE
  5
364
100
AcDbEntity
  8
0
100
AcDbLine
 62
7
  6
CONTINUOUS
 10
40.8383588984
 20
57.3198711482
 11
40.5361120195
 21
57.1453698729
  0
LINE
  5
365
100
AcDbEntity
  8
0
100
AcDbLine
 62
7
  6
CONTINUOUS
 10
19.7341158399
 20
44.8547752839
 11
19.4177400539
 21
44.672116729
  0
LINE
  5
366
100
AcDbEntity
  8
0
100
AcDbLine
 62
7
  6
CONTINUOUS
 10
19.0138185133
 20
44.3513483406
 11
18.8016873621
 21
44.2288750944
  0
LINE
  5
367
100
AcDbEntity
  8
0
100
AcDbLine
 62
7
  6
CONTINUOUS
 10
19.4589715625
 20
44.6007012349
 11
19.6711027136
 21
44.7231744811
  0
LINE
  5
368
100
AcDbEntity
  8
0
100
AcDbLine
 62
7
  6
CONTINUOUS
 10
27.2585071026
 20
78.0749684239
 11
27.6424352862
 21
77.8557972258
  0
LINE
  5
369
100
AcDbEntity
  8
0
100
AcDbLine
 62
7
  6
CONTINUOUS
 10
17.3059240921
 20
83.2982672425
 11
21.089938208
 21
81.1136150975
  0
LINE
  5
36A
100
AcDbEntity
  8
0
100
AcDbLine
 62
7
  6
CONTINUOUS
 10
23.7477383769
 20
79.5791681683
 11
27.2425937469
 21
77.5614581264
  0
LINE
  5
36B
100
AcDbEntity
  8
0
100
AcDbLine
 62
7
  6
CONTINUOUS
 10
29.5980477746
 20
76.2015668743
 11
33.3820618905
 21
74.0169147293
  0
LINE
  5
36C
100
AcDbEntity
  8
0
100
AcDbLine
 62
7
  6
CONTINUOUS
 10
35.7168878046
 20
72.6689328547
 11
39.5009019205
 21
70.4842807097
  0
LINE
  5
36D
100
AcDbEntity
  8
0
100
AcDbLine
 62
7
  6
CONTINUOUS
 10
41.8332378565
 20
69.1377363921
 11
45.4540379247
 21
67.0473137897
  0
LINE
  5
36E
100
AcDbEntity
  8
0
100
AcDbLine
 62
7
  6
CONTINUOUS
 10
20.9568409013
 20
81.5782016867
 11
21.4257396493
 21
81.3074889927
  0
LINE
  5
36F
100
AcDbEntity
  8
0
100
AcDbLine
 62
7
  6
CONTINUOUS
 10
33.2489891145
 20
74.4814871561
 11
33.7178633319
 21
74.2107886245
  0
LINE
  5
370
100
AcDbEntity
  8
0
100
AcDbLine
 62
7
  6
CONTINUOUS
 10
39.3678102418
 20
70.9488640497
 11
39.8367033618
 21
70.6781546049
  0
LINE
  5
371
100
AcDbEntity
  8
0
100
AcDbLine
 62
7
  6
CONTINUOUS
 10
45.3209593691
 20
67.5118895512
 11
45.7898393643
 21
67.241187684
  0
LINE
  5
372
100
AcDbEntity
  8
0
100
AcDbLine
 62
7
  6
CONTINUOUS
 10
27.6424493047
 20
78.7916557531
 11
28.5079174882
 21
78.2919887684
  0
LINE
  5
373
100
AcDbEntity
  8
0
100
AcDbLine
 62
7
  6
CONTINUOUS
 10
33.7818670034
 20
75.2471414797
 11
34.6473856318
 21
74.7474453712
  0
LINE
  5
374
100
AcDbEntity
  8
0
100
AcDbLine
 62
7
  6
CONTINUOUS
 10
21.4897034572
 20
82.4953139321
 11
22.4864225659
 21
81.9198709047
  0
LINE
  5
375
100
AcDbEntity
  8
0
100
AcDbLine
 62
7
  6
CONTINUOUS
 10
39.9006881306
 20
71.8659674428
 11
40.8973862784
 21
71.2905365169
  0
LINE
  5
376
100
AcDbEntity
  8
0
100
AcDbLine
 62
7
  6
CONTINUOUS
 10
45.853837258
 20
68.4289929447
 11
46.8505222813
 21
67.8535695962
  0
LINE
  5
377
100
AcDbEntity
  8
0
100
AcDbLine
 62
7
  6
CONTINUOUS
 10
28.3495531419
 20
79.199899907
 11
29.2150213254
 21
78.7002329222
  0
LINE
  5
378
100
AcDbEntity
  8
0
100
AcDbLine
 62
7
  6
CONTINUOUS
 10
34.4889708406
 20
75.6553856336
 11
35.3544894691
 21
75.1556895251
  0
LINE
  5
379
100
AcDbEntity
  8
0
100
AcDbLine
 62
7
  6
CONTINUOUS
 10
22.1968072944
 20
82.903558086
 11
23.1935264031
 21
82.3281150586
  0
LINE
  5
37A
100
AcDbEntity
  8
0
100
AcDbLine
 62
7
  6
CONTINUOUS
 10
40.6077919678
 20
72.2742115967
 11
41.6044901156
 21
71.6987806708
  0
LINE
  5
37B
100
AcDbEntity
  8
0
100
AcDbLine
 62
7
  6
CONTINUOUS
 10
46.5609410952
 20
68.8372370983
 11
47.5576261185
 21
68.26181375
  0
LINE
  5
37C
100
AcDbEntity
  8
0
100
AcDbLine
 62
7
  6
CONTINUOUS
 10
47.6338012604
 20
68.3057932262
 11
45.0152051239
 21
69.8176062087
  0
LINE
  5
37D
100
AcDbEntity
  8
0
100
AcDbLine
 62
7
  6
CONTINUOUS
 10
41.6806652562
 20
71.7427601462
 11
38.898855072
 21
73.3488026713
  0
LINE
  5
37E
100
AcDbEntity
  8
0
100
AcDbLine
 62
7
  6
CONTINUOUS
 10
35.5618252262
 20
75.2753941657
 11
32.7800192427
 21
76.8814342657
  0
LINE
  5
37F
100
AcDbEntity
  8
0
100
AcDbLine
 62
7
  6
CONTINUOUS
 10
29.4223570825
 20
78.8199375629
 11
26.9297056444
 21
80.2590379849
  0
LINE
  5
380
100
AcDbEntity
  8
0
100
AcDbLine
 62
7
  6
CONTINUOUS
 10
20.4878913595
 20
83.978167056
 11
23.2697275222
 21
82.3721095326
  0
LINE
  5
381
100
AcDbEntity
  8
0
100
AcDbLine
 62
7
  6
CONTINUOUS
 10
21.2618947456
 20
43.0979148032
 11
20.5978245396
 21
42.6818584894
  0
LINE
  5
382
100
AcDbEntity
  8
0
100
AcDbLine
 62
7
  6
CONTINUOUS
 10
19.9578364845
 20
42.2808902353
 11
19.2937662785
 21
41.8648339215
  0
LINE
  5
383
100
AcDbEntity
  8
0
100
AcDbLine
 62
7
  6
CONTINUOUS
 10
19.6979847477
 20
41.1837699977
 11
20.3620549537
 21
41.5998263115
  0
LINE
  5
384
100
AcDbEntity
  8
0
100
AcDbLine
 62
7
  6
CONTINUOUS
 10
21.0020430088
 20
42.0007945656
 11
21.6661132148
 21
42.4168508795
  0
LINE
  5
385
100
AcDbEntity
  8
0
100
AcDbLine
 62
7
  6
CONTINUOUS
 10
31.0972258684
 20
50.7614438755
 11
31.4137336506
 21
50.944178638
  0
LINE
  5
386
100
AcDbEntity
  8
0
100
AcDbLine
 62
7
  6
CONTINUOUS
 10
29.6830064181
 20
49.6979784732
 11
28.0920095365
 21
48.7794214784
  0
LINE
  5
387
100
AcDbEntity
  8
0
100
AcDbLine
 62
7
  6
CONTINUOUS
 10
24.1304095732
 20
45.9589061189
 11
24.4839614918
 21
46.1630281959
  0
LINE
  5
388
100
AcDbEntity
  8
0
100
AcDbLine
 62
7
  6
CONTINUOUS
 10
82.5037690408
 20
79.4593114953
 11
81.2056678164
 21
78.7098568777
  0
LINE
  5
389
100
AcDbEntity
  8
0
100
AcDbLine
 62
7
  6
CONTINUOUS
 10
19.9578364845
 20
42.2808902353
 11
20.1699676357
 21
42.4033634815
  0
LINE
  5
38A
100
AcDbEntity
  8
0
100
AcDbLine
 62
7
  6
CONTINUOUS
 10
20.3620549537
 20
41.5998263115
 11
20.5741861049
 21
41.7222995577
  0
LINE
  5
38B
100
AcDbEntity
  8
0
100
AcDbLine
 62
7
  6
CONTINUOUS
 10
31.0972258684
 20
47.4037409855
 11
34.3216312225
 21
49.2653411725
  0
LINE
  5
38C
100
AcDbEntity
  8
0
100
AcDbLine
 62
7
  6
CONTINUOUS
 10
11.5783830048
 20
39.6559695703
 11
13.3465556991
 21
40.6766964402
  0
LINE
  5
38D
100
AcDbEntity
  8
0
100
AcDbLine
 62
7
  6
CONTINUOUS
 10
51.2313027618
 20
69.3243258913
 11
51.1958190048
 21
69.3445157564
  0
LINE
  5
38E
100
AcDbEntity
  8
0
100
AcDbLine
 62
7
  6
CONTINUOUS
 10
80.0289056105
 20
51.2491567669
 11
80.7360094477
 21
50.8409194117
  0
LINE
  5
38F
100
AcDbEntity
  8
0
100
AcDbLine
 62
7
  6
CONTINUOUS
 10
80.0289056105
 20
52.6373595367
 11
81.2311235546
 21
51.9432743854
  0
LINE
  5
390
100
AcDbEntity
  8
0
100
AcDbLine
 62
7
  6
CONTINUOUS
 10
80.0289056105
 20
53.0454369949
 11
82.5037690408
 21
51.6165790712
  0
LINE
  5
391
100
AcDbEntity
  8
0
100
AcDbLine
 62
7
  6
CONTINUOUS
 10
19.4253042294
 20
87.6868777732
 11
51.1957441803
 21
69.3446206726
  0
LINE
  5
392
100
AcDbEntity
  8
0
100
AcDbLine
 62
7
  6
CONTINUOUS
 10
27.3772235199
 20
39.5052449336
 11
26.713153314
 21
39.0891886198
  0
LINE
  5
393
100
AcDbEntity
  8
0
100
AcDbLine
 62
7
  6
CONTINUOUS
 10
26.0731652589
 20
38.6882203657
 11
25.4090950529
 21
38.2721640518
  0
LINE
  5
394
100
AcDbEntity
  8
0
100
AcDbLine
 62
7
  6
CONTINUOUS
 10
22.3711600788
 20
40.1738730422
 11
22.1590289276
 21
40.051399796
  0
LINE
  5
395
100
AcDbEntity
  8
0
100
AcDbLine
 62
7
  6
CONTINUOUS
 10
21.5363370178
 20
39.6212894283
 11
21.748468169
 21
39.7437626744
  0
LINE
  5
396
100
AcDbEntity
  8
0
100
AcDbLine
 62
7
  6
CONTINUOUS
 10
22.4888615308
 20
40.1118114247
 11
22.2153274156
 21
39.9538873724
  0
LINE
  5
397
100
AcDbEntity
  8
0
100
AcDbLine
 62
7
  6
CONTINUOUS
 10
25.8506149625
 20
41.3234927573
 11
25.5060911336
 21
41.1245830193
  0
LINE
  5
398
100
AcDbEntity
  8
0
100
AcDbLine
 62
7
  6
CONTINUOUS
 10
25.5405746565
 20
41.0648554491
 11
25.7527058077
 21
41.1873286953
  0
LINE
  5
399
100
AcDbEntity
  8
0
100
AcDbLine
 62
7
  6
CONTINUOUS
 10
25.1094573172
 20
40.7918539183
 11
24.897326166
 21
40.6693806722
  0
LINE
  5
39A
100
AcDbEntity
  8
0
100
AcDbLine
 62
7
  6
CONTINUOUS
 10
48.3152982171
 20
53.4744622892
 11
43.0827298217
 21
50.4534555505
  0
LINE
  5
39B
100
AcDbEntity
  8
0
100
AcDbLine
 62
7
  6
CONTINUOUS
 10
18.0201972897
 20
35.9368704961
 11
19.7883699839
 21
36.957597366
  0
LINE
  5
39C
100
AcDbEntity
  8
0
100
AcDbLine
 62
7
  6
CONTINUOUS
 10
58.6916479798
 20
72.4886345981
 11
56.9773205174
 21
72.6417709867
  0
LINE
  5
39D
100
AcDbEntity
  8
0
100
AcDbLine
 62
7
  6
CONTINUOUS
 10
20.396070262
 20
89.4007286313
 11
52.2160078936
 21
71.0298946779
  0
LINE
  5
39E
100
AcDbEntity
  8
0
100
AcDbLine
 62
7
  6
CONTINUOUS
 10
58.8158007409
 20
69.8248252214
 11
58.7804452546
 21
69.8452372591
  0
LINE
  5
39F
100
AcDbEntity
  8
0
100
AcDbLine
 62
7
  6
CONTINUOUS
 10
58.6573184138
 20
72.4870345923
 11
58.7804452546
 21
69.8452372591
  0
LINE
  5
3A0
100
AcDbEntity
  8
0
100
AcDbLine
 62
7
  6
CONTINUOUS
 10
58.8158007409
 20
69.8248252214
 11
58.6916479798
 21
72.4886345981
  0
LINE
  5
3A1
100
AcDbEntity
  8
0
100
AcDbLine
 62
7
  6
CONTINUOUS
 10
58.7804452546
 20
35.1438845311
 11
58.6562924935
 21
32.33671675
  0
LINE
  5
3A2
100
AcDbEntity
  8
0
100
AcDbLine
 62
7
  6
CONTINUOUS
 10
58.6916479798
 20
32.3163047123
 11
58.8158007409
 21
35.1234724934
  0
LINE
  5
3A3
100
AcDbEntity
  8
0
100
AcDbLine
 62
7
  6
CONTINUOUS
 10
25.8133135221
 20
37.5911001281
 11
26.4773837281
 21
38.0071564419
  0
LINE
  5
3A4
100
AcDbEntity
  8
0
100
AcDbLine
 62
7
  6
CONTINUOUS
 10
27.1173717832
 20
38.408124696
 11
27.7814419891
 21
38.8241810098
  0
LINE
  5
3A5
100
AcDbEntity
  8
0
100
AcDbLine
 62
7
  6
CONTINUOUS
 10
26.0731652589
 20
38.6882203657
 11
26.2852964101
 21
38.8106936118
  0
LINE
  5
3A6
100
AcDbEntity
  8
0
100
AcDbLine
 62
7
  6
CONTINUOUS
 10
26.4773837281
 20
38.0071564419
 11
26.6895148792
 21
38.1296296881
  0
LINE
  5
3A7
100
AcDbEntity
  8
0
100
AcDbLine
 62
7
  6
CONTINUOUS
 10
31.6427180873
 20
40.911762872
 11
31.9962700059
 21
41.1158849489
  0
LINE
  5
3A8
100
AcDbEntity
  8
0
100
AcDbLine
 62
7
  6
CONTINUOUS
 10
48.2870138281
 20
49.4899300754
 11
45.4585984792
 21
47.8569534599
  0
LINE
  5
3A9
100
AcDbEntity
  8
0
100
AcDbLine
 62
7
  6
CONTINUOUS
 10
45.4868828682
 20
47.8406238298
 11
48.3152982171
 21
49.4736004452
  0
LINE
  5
3AA
100
AcDbEntity
  8
0
100
AcDbLine
 62
7
  6
CONTINUOUS
 10
64.2251345544
 20
38.2873586
 11
64.2251345544
 21
72.9478869126
  0
LINE
  5
3AB
100
AcDbEntity
  8
0
100
AcDbLine
 62
7
  6
CONTINUOUS
 10
64.2604900407
 20
38.2669465622
 11
64.2604900407
 21
72.9682992902
  0
LINE
  5
3AC
100
AcDbEntity
  8
0
100
AcDbLine
 62
7
  6
CONTINUOUS
 10
33.4227502849
 20
35.9670074064
 11
32.7586800789
 21
35.5509510925
  0
LINE
  5
3AD
100
AcDbEntity
  8
0
100
AcDbLine
 62
7
  6
CONTINUOUS
 10
32.1186920239
 20
35.1499828384
 11
31.4546218179
 21
34.7339265246
  0
LINE
  5
3AE
100
AcDbEntity
  8
0
100
AcDbLine
 62
7
  6
CONTINUOUS
 10
31.8588402871
 20
34.0528626008
 11
32.522910493
 21
34.4689189146
  0
LINE
  5
3AF
100
AcDbEntity
  8
0
100
AcDbLine
 62
7
  6
CONTINUOUS
 10
33.1628985481
 20
34.8698871687
 11
33.8269687541
 21
35.2859434826
  0
LINE
  5
3B0
100
AcDbEntity
  8
0
100
AcDbLine
 62
7
  6
CONTINUOUS
 10
28.4677323228
 20
36.6128058754
 11
28.2556011716
 21
36.4903326292
  0
LINE
  5
3B1
100
AcDbEntity
  8
0
100
AcDbLine
 62
7
  6
CONTINUOUS
 10
27.6188735519
 20
36.0838708979
 11
27.8310047031
 21
36.2063441441
  0
LINE
  5
3B2
100
AcDbEntity
  8
0
100
AcDbLine
 62
7
  6
CONTINUOUS
 10
28.6053606533
 20
36.5805288981
 11
28.3039842456
 21
36.4065301866
  0
LINE
  5
3B3
100
AcDbEntity
  8
0
100
AcDbLine
 62
7
  6
CONTINUOUS
 10
31.967114085
 20
37.7922102307
 11
31.566414298
 21
37.5608674818
  0
LINE
  5
3B4
100
AcDbEntity
  8
0
100
AcDbLine
 62
7
  6
CONTINUOUS
 10
31.5892868525
 20
37.5212508189
 11
31.8014180037
 21
37.643724065
  0
LINE
  5
3B5
100
AcDbEntity
  8
0
100
AcDbLine
 62
7
  6
CONTINUOUS
 10
31.1862063465
 20
37.2010102894
 11
30.9740751953
 21
37.0785370433
  0
LINE
  5
3B6
100
AcDbEntity
  8
0
100
AcDbLine
 62
7
  6
CONTINUOUS
 10
32.1186920239
 20
35.1499828384
 11
32.330823175
 21
35.2724560846
  0
LINE
  5
3B7
100
AcDbEntity
  8
0
100
AcDbLine
 62
7
  6
CONTINUOUS
 10
23.8705066873
 20
32.559269202
 11
25.6386793816
 21
33.579996072
  0
LINE
  5
3B8
100
AcDbEntity
  8
0
100
AcDbLine
 62
7
  6
CONTINUOUS
 10
32.522910493
 20
34.4689189146
 11
32.7350416442
 21
34.5913921608
  0
LINE
  5
3B9
100
AcDbEntity
  8
0
100
AcDbLine
 62
7
  6
CONTINUOUS
 10
48.3152982171
 20
43.4314825585
 11
45.4868828682
 21
41.798505943
  0
LINE
  5
3BA
100
AcDbEntity
  8
0
100
AcDbLine
 62
7
  6
CONTINUOUS
 10
33.66563516
 20
32.5435527951
 11
33.8777663112
 21
32.6660260412
  0
LINE
  5
3BB
100
AcDbEntity
  8
0
100
AcDbLine
 62
7
  6
CONTINUOUS
 10
34.5425307642
 20
33.0252487739
 11
34.330399613
 21
32.9027755277
  0
LINE
  5
3BC
100
AcDbEntity
  8
0
100
AcDbLine
 62
7
  6
CONTINUOUS
 10
34.7218597758
 20
33.0492463715
 11
34.3648402309
 21
32.8431222715
  0
LINE
  5
3BD
100
AcDbEntity
  8
0
100
AcDbLine
 62
7
  6
CONTINUOUS
 10
48.2870138281
 20
39.5694257073
 11
43.0544454327
 21
36.5484189686
  0
LINE
  5
3BE
100
AcDbEntity
  8
0
100
AcDbLine
 62
7
  6
CONTINUOUS
 10
43.0827298217
 20
36.5320893385
 11
48.3152982171
 21
39.5530960771
  0
LINE
  5
3BF
100
AcDbEntity
  8
0
100
AcDbLine
 62
7
  6
CONTINUOUS
 10
38.0836132075
 20
33.6077257704
 11
37.7881167775
 21
33.4371218453
  0
LINE
  5
3C0
100
AcDbEntity
  8
0
100
AcDbLine
 62
7
  6
CONTINUOUS
 10
29.9893467173
 20
29.0266351825
 11
31.7575194116
 21
30.0473620524
  0
LINE
  5
3C1
100
AcDbEntity
  8
0
100
AcDbLine
 62
7
  6
CONTINUOUS
 10
39.6255069256
 20
31.8740620553
 11
38.9614367196
 21
31.4580057415
  0
LINE
  5
3C2
100
AcDbEntity
  8
0
100
AcDbLine
 62
7
  6
CONTINUOUS
 10
38.3214486646
 20
31.0570374874
 11
37.6573784586
 21
30.6409811735
  0
LINE
  5
3C3
100
AcDbEntity
  8
0
100
AcDbLine
 62
7
  6
CONTINUOUS
 10
38.0615969278
 20
29.9599172498
 11
38.7256671337
 21
30.3759735636
  0
LINE
  5
3C4
100
AcDbEntity
  8
0
100
AcDbLine
 62
7
  6
CONTINUOUS
 10
39.3656551888
 20
30.7769418177
 11
40.0297253948
 21
31.1929981315
  0
LINE
  5
3C5
100
AcDbEntity
  8
0
100
AcDbLine
 62
7
  6
CONTINUOUS
 10
37.379187607
 20
33.1245353853
 11
37.1670564558
 21
33.0020621391
  0
LINE
  5
3C6
100
AcDbEntity
  8
0
100
AcDbLine
 62
7
  6
CONTINUOUS
 10
37.8347622779
 20
33.3563289864
 11
38.0468934291
 21
33.4788022326
  0
LINE
  5
3C7
100
AcDbEntity
  8
0
100
AcDbLine
 62
7
  6
CONTINUOUS
 10
38.3214486646
 20
31.0570374874
 11
38.5335798157
 21
31.1795107335
  0
LINE
  5
3C8
100
AcDbEntity
  8
0
100
AcDbLine
 62
7
  6
CONTINUOUS
 10
38.7256671337
 20
30.3759735636
 11
38.9377982849
 21
30.4984468098
  0
LINE
  5
3C9
100
AcDbEntity
  8
0
100
AcDbLine
 62
7
  6
CONTINUOUS
 10
58.6562924935
 20
32.33671675
 11
56.9418519765
 21
30.2039166914
  0
LINE
  5
3CA
100
AcDbEntity
  8
0
100
AcDbLine
 62
7
  6
CONTINUOUS
 10
56.9773205174
 20
30.183645296
 11
58.6916479798
 21
32.3163047123
  0
LINE
  5
3CB
100
AcDbEntity
  8
0
100
AcDbLine
 62
7
  6
CONTINUOUS
 10
40.7350133771
 20
28.9496140363
 11
40.522882226
 21
28.8271407901
  0
LINE
  5
3CC
100
AcDbEntity
  8
0
100
AcDbLine
 62
7
  6
CONTINUOUS
 10
39.9106119379
 20
28.3794711292
 11
40.122743089
 21
28.5019443754
  0
LINE
  5
3CD
100
AcDbEntity
  8
0
100
AcDbLine
 62
7
  6
CONTINUOUS
 10
40.8383588983
 20
28.8647619112
 11
40.3880718848
 21
28.6047901345
  0
LINE
  5
3CE
100
AcDbEntity
  8
0
100
AcDbLine
 62
7
  6
CONTINUOUS
 10
81.2311235546
 20
51.9432743854
 11
81.5845340524
 21
52.1473148135
  0
LINE
  5
3CF
100
AcDbEntity
  8
0
100
AcDbLine
 62
7
  6
CONTINUOUS
 10
80.0289056105
 20
50.4326752578
 11
80.7360094477
 21
50.8409194117
  0
LINE
  5
3D0
100
AcDbEntity
  8
0
100
AcDbLine
 62
7
  6
CONTINUOUS
 10
36.1056967692
 20
25.4954387199
 11
37.8738694635
 21
26.5161655898
  0
LINE
  5
3D1
100
AcDbEntity
  8
0
100
AcDbLine
 62
7
  6
CONTINUOUS
 10
79.6507665059
 20
79.6075592591
 11
81.2056678164
 21
78.7098568777
  0
LINE
  5
3D2
100
AcDbEntity
  8
0
100
AcDbLine
 62
7
  6
CONTINUOUS
 10
77.3456168033
 20
39.4937091931
 11
77.3456168033
 21
40.1714061993
  0
LINE
  5
3D3
100
AcDbEntity
  8
0
100
AcDbLine
 62
7
  6
CONTINUOUS
 10
77.5633954136
 20
86.3043871174
 11
77.5633954136
 21
86.9765831754
  0
LINE
  5
3D4
100
AcDbEntity
  8
0
100
AcDbLine
 62
7
  6
CONTINUOUS
 10
80.0289056105
 20
77.6222057482
 11
80.0289056105
 21
50.4326752578
  0
LINE
  5
3D5
100
AcDbEntity
  8
0
100
AcDbLine
 62
7
  6
CONTINUOUS
 10
58.7804452546
 20
35.1438845311
 11
64.2251345544
 21
38.2873586
  0
LINE
  5
3D6
100
AcDbEntity
  8
0
100
AcDbLine
 62
7
  6
CONTINUOUS
 10
58.8158007409
 20
35.1234724934
 11
64.2604900407
 21
38.2669465622
  0
LINE
  5
3D7
100
AcDbEntity
  8
0
100
AcDbLine
 62
7
  6
CONTINUOUS
 10
42.3473415955
 20
23.9334636787
 11
43.0544454327
 21
24.3417078326
  0
LINE
  5
3D8
100
AcDbEntity
  8
0
100
AcDbLine
 62
7
  6
CONTINUOUS
 10
42.4463363682
 20
23.9579584639
 11
43.0827298217
 21
24.3253782024
  0
LINE
  5
3D9
100
AcDbEntity
  8
0
100
AcDbLine
 62
7
  6
CONTINUOUS
 10
80.846215882
 20
80.5970966563
 11
80.4799599071
 21
80.8085498583
  0
LINE
  5
3DA
100
AcDbEntity
  8
0
100
AcDbLine
 62
7
  6
CONTINUOUS
 10
45.743457782
 20
104.6752210709
 11
77.5633954136
 21
86.3043871174
  0
LINE
  5
3DB
100
AcDbEntity
  8
0
100
AcDbLine
 62
7
  6
CONTINUOUS
 10
82.5037690408
 20
89.8288921929
 11
82.5037690408
 21
79.4593114953
  0
LINE
  5
3DC
100
AcDbEntity
  8
0
100
AcDbLine
 62
7
  6
CONTINUOUS
 10
82.5037690408
 20
51.6165790712
 11
82.5037690408
 21
42.4717519994
  0
LINE
  5
3DD
100
AcDbEntity
  8
0
100
AcDbLine
 62
7
  6
CONTINUOUS
 10
80.7360094477
 20
50.8409194117
 11
81.2311235546
 21
51.9432743854
  0
LINE
  5
3DE
100
AcDbEntity
  8
0
100
AcDbLine
 62
7
  6
CONTINUOUS
 10
56.9418519765
 20
30.203992062
 11
42.4463363682
 21
21.8347262952
  0
LINE
  5
3DF
100
AcDbEntity
  8
0
100
AcDbLine
 62
7
  6
CONTINUOUS
 10
51.2313598747
 20
26.8661672254
 11
56.9773205174
 21
30.183645296
  0
LINE
  5
3E0
100
AcDbEntity
  8
0
100
AcDbLine
 62
7
  6
CONTINUOUS
 10
82.5037690408
 20
42.4717519994
 11
77.3456168033
 21
39.4937091931
  0
LINE
  5
3E1
100
AcDbEntity
  8
0
100
AcDbLine
 62
7
  6
CONTINUOUS
 10
77.3456168033
 20
40.1714061993
 11
52.2160078936
 21
26.2976641726
  0
LINE
  5
3E2
100
AcDbEntity
  8
0
100
AcDbLine
 62
7
  6
CONTINUOUS
 10
45.743457782
 20
105.3474171288
 11
77.5633954136
 21
86.9765831754
  0
LINE
  5
3E3
100
AcDbEntity
  8
0
100
AcDbLine
 62
7
  6
CONTINUOUS
 10
80.846215882
 20
80.5970966563
 11
80.6868473748
 21
80.824707096
  0
LINE
  5
3E4
100
AcDbEntity
  8
0
100
AcDbLine
 62
7
  6
CONTINUOUS
 10
79.6431028469
 20
79.6477959663
 11
80.0289056105
 21
77.6222057482
  0
LINE
  5
3E5
100
AcDbEntity
  8
0
100
AcDbLine
 62
7
  6
CONTINUOUS
 10
81.2056678164
 20
78.7098568777
 11
80.846215882
 21
80.5970966563
  0
LINE
  5
3E6
100
AcDbEntity
  8
0
100
AcDbLine
 62
7
  6
CONTINUOUS
 10
50.6838314092
 20
108.1997261463
 11
82.5037690408
 21
89.8288921929
  0
ARC
  5
3E7
100
AcDbEntity
  8
0
100
AcDbCircle
 62
7
  6
CONTINUOUS
 10
21.3111340605
 20
43.3810648841
 40
3.0656275821
100
AcDbArc
 50
180.0170303053
 51
183.4634489497
  0
ARC
  5
3E8
100
AcDbEntity
  8
0
100
AcDbCircle
 62
7
  6
CONTINUOUS
 10
15.194634938
 20
46.9123474107
 40
3.0656275821
100
AcDbArc
 50
180.0170303053
 51
183.4634489497
  0
ARC
  5
3E9
100
AcDbEntity
  8
0
100
AcDbCircle
 62
7
  6
CONTINUOUS
 10
16.4526527453
 20
45.2484122236
 40
1.8585674344
100
AcDbArc
 50
254.4290481596
 51
257.4585027544
  0
ARC
  5
3EA
100
AcDbEntity
  8
0
100
AcDbCircle
 62
7
  6
CONTINUOUS
 10
22.5689522799
 20
41.7163446565
 40
1.8577576303
100
AcDbArc
 50
254.4284786183
 51
257.4874563404
  0
ARC
  5
3EB
100
AcDbEntity
  8
0
100
AcDbCircle
 62
7
  6
CONTINUOUS
 10
14.9798711431
 20
47.6843400625
 40
1.7745668844
100
AcDbArc
 50
160.0163901279
 51
163.5379408393
  0
ARC
  5
3EC
100
AcDbEntity
  8
0
100
AcDbCircle
 62
7
  6
CONTINUOUS
 10
21.0958524142
 20
44.1532306246
 40
1.7740210593
100
AcDbArc
 50
160.0159279757
 51
163.51627789
  0
ARC
  5
3ED
100
AcDbEntity
  8
0
100
AcDbCircle
 62
7
  6
CONTINUOUS
 10
27.2014740992
 20
40.6256060013
 40
1.7625484789
100
AcDbArc
 50
160.0068321382
 51
163.0580804115
  0
ARC
  5
3EE
100
AcDbEntity
  8
0
100
AcDbCircle
 62
7
  6
CONTINUOUS
 10
16.4225829768
 20
45.1103914629
 40
1.71731055
100
AcDbArc
 50
257.4378682368
 51
260.5777524865
  0
ARC
  5
3EF
100
AcDbEntity
  8
0
100
AcDbCircle
 62
7
  6
CONTINUOUS
 10
22.538987542
 20
41.5785751153
 40
1.7167684511
100
AcDbArc
 50
257.4675920532
 51
260.5779490711
  0
ARC
  5
3F0
100
AcDbEntity
  8
0
100
AcDbCircle
 62
7
  6
CONTINUOUS
 10
27.1041410654
 20
40.6602925607
 40
1.6592219016
100
AcDbArc
 50
158.4362907701
 51
159.9832527329
  0
ARC
  5
3F1
100
AcDbEntity
  8
0
100
AcDbCircle
 62
7
  6
CONTINUOUS
 10
14.8640935916
 20
47.7255067446
 40
1.6516917164
100
AcDbArc
 50
158.0357937891
 51
159.9858956769
  0
ARC
  5
3F2
100
AcDbEntity
  8
0
100
AcDbCircle
 62
7
  6
CONTINUOUS
 10
20.9801910251
 20
44.1943757287
 40
1.6512624313
100
AcDbArc
 50
158.0128369123
 51
159.9860650763
  0
ARC
  5
3F3
100
AcDbEntity
  8
0
100
AcDbCircle
 62
7
  6
CONTINUOUS
 10
27.0141388438
 20
40.6962957789
 40
1.5622865726
100
AcDbArc
 50
153.8403937481
 51
158.4511187977
  0
ARC
  5
3F4
100
AcDbEntity
  8
0
100
AcDbCircle
 62
7
  6
CONTINUOUS
 10
14.7736118098
 20
47.7622566348
 40
1.5540318674
100
AcDbArc
 50
153.8303921737
 51
158.0446365835
  0
ARC
  5
3F5
100
AcDbEntity
  8
0
100
AcDbCircle
 62
7
  6
CONTINUOUS
 10
20.889682155
 20
44.2311683599
 40
1.5535613722
100
AcDbArc
 50
153.8298476661
 51
158.0213268881
  0
ARC
  5
3F6
100
AcDbEntity
  8
0
100
AcDbCircle
 62
7
  6
CONTINUOUS
 10
21.5723904127
 20
40.6572670836
 40
0.9306155813
100
AcDbArc
 50
300.0624022252
 51
312.5116583798
  0
ARC
  5
3F7
100
AcDbEntity
  8
0
100
AcDbCircle
 62
7
  6
CONTINUOUS
 10
15.4560747907
 20
44.1882891513
 40
0.9302982921
100
AcDbArc
 50
300.0606567185
 51
312.3972245722
  0
ARC
  5
3F8
100
AcDbEntity
  8
0
100
AcDbCircle
 62
7
  6
CONTINUOUS
 10
19.7576667341
 20
43.8015337037
 40
0.9239140075
100
AcDbArc
 50
110.0260021065
 51
119.9695366577
  0
ARC
  5
3F9
100
AcDbEntity
  8
0
100
AcDbCircle
 62
7
  6
CONTINUOUS
 10
13.6410410562
 20
47.3330750936
 40
0.9236265392
100
AcDbArc
 50
110.1549860804
 51
119.9707573766
  0
ARC
  5
3FA
100
AcDbEntity
  8
0
100
AcDbCircle
 62
7
  6
CONTINUOUS
 10
25.8722939983
 20
40.2739872762
 40
0.9197423657
100
AcDbArc
 50
112.3204045221
 51
119.9847834601
  0
ARC
  5
3FB
100
AcDbEntity
  8
0
100
AcDbCircle
 62
7
  6
CONTINUOUS
 10
15.194634938
 20
74.0610527803
 40
3.0656275821
100
AcDbArc
 50
180.0170303053
 51
183.4634489497
  0
ARC
  5
3FC
100
AcDbEntity
  8
0
100
AcDbCircle
 62
7
  6
CONTINUOUS
 10
21.3111340606
 20
70.5297702537
 40
3.0656275821
100
AcDbArc
 50
180.0170303053
 51
183.4634489497
  0
ARC
  5
3FD
100
AcDbEntity
  8
0
100
AcDbCircle
 62
7
  6
CONTINUOUS
 10
16.4498671912
 20
72.3860974097
 40
1.8472039952
100
AcDbArc
 50
254.4205231916
 51
257.8667750181
  0
ARC
  5
3FE
100
AcDbEntity
  8
0
100
AcDbCircle
 62
7
  6
CONTINUOUS
 10
22.5661779419
 20
68.8540646203
 40
1.8464307061
100
AcDbArc
 50
254.4199010006
 51
257.8947149884
  0
ARC
  5
3FF
100
AcDbEntity
  8
0
100
AcDbCircle
 62
7
  6
CONTINUOUS
 10
27.2141855684
 20
67.7700408839
 40
1.7759540163
100
AcDbArc
 50
160.0175765015
 51
163.5929387757
  0
ARC
  5
400
100
AcDbEntity
  8
0
100
AcDbCircle
 62
7
  6
CONTINUOUS
 10
14.9726719275
 20
74.8354603215
 40
1.7669758492
100
AcDbArc
 50
160.0102015946
 51
163.2355558396
  0
ARC
  5
401
100
AcDbEntity
  8
0
100
AcDbCircle
 62
7
  6
CONTINUOUS
 10
21.0886866403
 20
71.3043409512
 40
1.766464848
100
AcDbArc
 50
160.0098036111
 51
163.215114014
  0
ARC
  5
402
100
AcDbEntity
  8
0
100
AcDbCircle
 62
7
  6
CONTINUOUS
 10
16.4212608312
 20
72.2516025713
 40
1.709700951
100
AcDbArc
 50
257.8566700414
 51
260.5803473282
  0
ARC
  5
403
100
AcDbEntity
  8
0
100
AcDbCircle
 62
7
  6
CONTINUOUS
 10
22.5376703502
 20
68.719809777
 40
1.7091828988
100
AcDbArc
 50
257.8853045384
 51
260.5805110075
  0
ARC
  5
404
100
AcDbEntity
  8
0
100
AcDbCircle
 62
7
  6
CONTINUOUS
 10
27.0981129646
 20
67.8112621775
 40
1.6527829038
100
AcDbArc
 50
158.0940859855
 51
159.985474229
  0
ARC
  5
405
100
AcDbEntity
  8
0
100
AcDbCircle
 62
7
  6
CONTINUOUS
 10
14.8585130487
 20
74.8763223838
 40
1.6457259502
100
AcDbArc
 50
157.7155334994
 51
159.9884329212
  0
ARC
  5
406
100
AcDbEntity
  8
0
100
AcDbCircle
 62
7
  6
CONTINUOUS
 10
20.9746369695
 20
71.3451821556
 40
1.6453247059
100
AcDbArc
 50
157.6938977566
 51
159.9886178042
  0
ARC
  5
407
100
AcDbEntity
  8
0
100
AcDbCircle
 62
7
  6
CONTINUOUS
 10
27.0077001593
 20
67.8479035108
 40
1.5552278502
100
AcDbArc
 50
153.831788791
 51
158.1038199111
  0
ARC
  5
408
100
AcDbEntity
  8
0
100
AcDbCircle
 62
7
  6
CONTINUOUS
 10
14.7676572306
 20
74.9136679547
 40
1.5474942853
100
AcDbArc
 50
153.8230769027
 51
157.7193587984
  0
ARC
  5
409
100
AcDbEntity
  8
0
100
AcDbCircle
 62
7
  6
CONTINUOUS
 10
20.8837561806
 20
71.3825679238
 40
1.5470546491
100
AcDbArc
 50
153.8226044902
 51
157.6973766676
  0
ARC
  5
40A
100
AcDbEntity
  8
0
100
AcDbCircle
 62
7
  6
CONTINUOUS
 10
25.873726288
 20
67.4198525517
 40
0.9229182309
100
AcDbArc
 50
110.4799515089
 51
119.9736833272
  0
ARC
  5
40B
100
AcDbEntity
  8
0
100
AcDbCircle
 62
7
  6
CONTINUOUS
 10
19.7570986055
 20
70.9518054609
 40
0.9222731956
100
AcDbArc
 50
108.1313484664
 51
119.987572082
  0
ARC
  5
40C
100
AcDbEntity
  8
0
100
AcDbCircle
 62
7
  6
CONTINUOUS
 10
13.6405070701
 20
74.4832614901
 40
0.9220767435
100
AcDbArc
 50
108.2624871271
 51
119.9879869535
  0
ARC
  5
40D
100
AcDbEntity
  8
0
100
AcDbCircle
 62
7
  6
CONTINUOUS
 10
39.6606314281
 20
32.1340153706
 40
3.0656275821
100
AcDbArc
 50
180.0170303053
 51
183.4634489497
  0
ARC
  5
40E
100
AcDbEntity
  8
0
100
AcDbCircle
 62
7
  6
CONTINUOUS
 10
33.5441323056
 20
36.3184998309
 40
3.0656275821
100
AcDbArc
 50
180.0170303053
 51
183.4634489497
  0
ARC
  5
40F
100
AcDbEntity
  8
0
100
AcDbCircle
 62
7
  6
CONTINUOUS
 10
27.4276331831
 20
39.8497823575
 40
3.0656275821
100
AcDbArc
 50
180.0170303053
 51
183.4634489497
  0
ARC
  5
410
100
AcDbEntity
  8
0
100
AcDbCircle
 62
7
  6
CONTINUOUS
 10
34.8186359164
 20
34.7172103633
 40
1.9233395157
100
AcDbArc
 50
254.4569113497
 51
255.3343213021
  0
ARC
  5
411
100
AcDbEntity
  8
0
100
AcDbCircle
 62
7
  6
CONTINUOUS
 10
34.8097347587
 20
34.6833455275
 40
1.888324429
100
AcDbArc
 50
255.3354532602
 51
255.847413181
  0
ARC
  5
412
100
AcDbEntity
  8
0
100
AcDbCircle
 62
7
  6
CONTINUOUS
 10
28.689134887
 20
38.1994403595
 40
1.8725969473
100
AcDbArc
 50
254.4380071465
 51
256.9602750202
  0
ARC
  5
413
100
AcDbEntity
  8
0
100
AcDbCircle
 62
7
  6
CONTINUOUS
 10
34.8016450812
 20
34.6511360389
 40
1.8551145955
100
AcDbArc
 50
255.8464482125
 51
256.688947066
  0
ARC
  5
414
100
AcDbEntity
  8
0
100
AcDbCircle
 62
7
  6
CONTINUOUS
 10
40.915881486
 20
30.4591308808
 40
1.8472770536
100
AcDbArc
 50
254.4205816952
 51
257.8641363625
  0
ARC
  5
415
100
AcDbEntity
  8
0
100
AcDbCircle
 62
7
  6
CONTINUOUS
 10
39.4387142212
 20
32.9084074888
 40
1.7670241657
100
AcDbArc
 50
160.0102393472
 51
163.2374881
  0
ARC
  5
416
100
AcDbEntity
  8
0
100
AcDbCircle
 62
7
  6
CONTINUOUS
 10
34.7746520907
 20
34.5309390624
 40
1.7319325467
100
AcDbArc
 50
256.6424325236
 51
260.5717835267
  0
ARC
  5
417
100
AcDbEntity
  8
0
100
AcDbCircle
 62
7
  6
CONTINUOUS
 10
33.2876232291
 20
37.1047305543
 40
1.7304694155
100
AcDbArc
 50
159.9870645738
 51
162.0376157818
  0
ARC
  5
418
100
AcDbEntity
  8
0
100
AcDbCircle
 62
7
  6
CONTINUOUS
 10
28.6572275528
 20
38.0570687308
 40
1.7266977027
100
AcDbArc
 50
256.9258233834
 51
260.5740669826
  0
ARC
  5
419
100
AcDbEntity
  8
0
100
AcDbCircle
 62
7
  6
CONTINUOUS
 10
40.8872657892
 20
30.3246133685
 40
1.7097498938
100
AcDbArc
 50
257.8539656221
 51
260.5803317786
  0
ARC
  5
41A
100
AcDbEntity
  8
0
100
AcDbCircle
 62
7
  6
CONTINUOUS
 10
33.2373028233
 20
37.1228206429
 40
1.6769965908
100
AcDbArc
 50
159.3656660166
 51
159.9794271029
  0
ARC
  5
41B
100
AcDbEntity
  8
0
100
AcDbCircle
 62
7
  6
CONTINUOUS
 10
39.324545018
 20
32.9492715211
 40
1.6457638911
100
AcDbArc
 50
157.7175787096
 51
159.9884155323
  0
ARC
  5
41C
100
AcDbEntity
  8
0
100
AcDbCircle
 62
7
  6
CONTINUOUS
 10
39.2336915624
 20
32.9866132918
 40
1.547535857
100
AcDbArc
 50
153.8231217019
 51
157.7214367038
  0
ARC
  5
41D
100
AcDbEntity
  8
0
100
AcDbCircle
 62
7
  6
CONTINUOUS
 10
27.6918926327
 20
37.1216555895
 40
0.9253652942
100
AcDbArc
 50
300.0357433966
 51
310.4636476751
  0
ARC
  5
41E
100
AcDbEntity
  8
0
100
AcDbCircle
 62
7
  6
CONTINUOUS
 10
38.1064948901
 20
32.5562403492
 40
0.9220583205
100
AcDbArc
 50
108.2748501899
 51
119.9880256055
  0
ARC
  5
41F
100
AcDbEntity
  8
0
100
AcDbCircle
 62
7
  6
CONTINUOUS
 10
33.8126003939
 20
33.583979894
 40
0.9177242769
100
AcDbArc
 50
300.0080590835
 51
306.3458533037
  0
ARC
  5
420
100
AcDbEntity
  8
0
100
AcDbCircle
 62
7
  6
CONTINUOUS
 10
31.985986853
 20
36.7479234165
 40
0.9138182548
100
AcDbArc
 50
116.8194819417
 51
119.9959102373
  0
ARC
  5
421
100
AcDbEntity
  8
0
100
AcDbCircle
 62
7
  6
CONTINUOUS
 10
27.4276331831
 20
66.9984877271
 40
3.0656275821
100
AcDbArc
 50
180.0170303053
 51
183.4634489497
  0
ARC
  5
422
100
AcDbEntity
  8
0
100
AcDbCircle
 62
7
  6
CONTINUOUS
 10
39.6606314281
 20
60.5891246076
 40
3.0656275821
100
AcDbArc
 50
180.0170303053
 51
183.4634489497
  0
ARC
  5
423
100
AcDbEntity
  8
0
100
AcDbCircle
 62
7
  6
CONTINUOUS
 10
33.5438580975
 20
63.4672018156
 40
3.065353373
100
AcDbArc
 50
180.0169685613
 51
183.4570957077
  0
ARC
  5
424
100
AcDbEntity
  8
0
100
AcDbCircle
 62
7
  6
CONTINUOUS
 10
34.8123264883
 20
61.8425189491
 40
1.8991076873
100
AcDbArc
 50
254.4511554059
 51
256.2994928116
  0
ARC
  5
425
100
AcDbEntity
  8
0
100
AcDbCircle
 62
7
  6
CONTINUOUS
 10
40.9222523994
 20
58.9392443408
 40
1.873073749
100
AcDbArc
 50
254.4382817919
 51
256.943453452
  0
ARC
  5
426
100
AcDbEntity
  8
0
100
AcDbCircle
 62
7
  6
CONTINUOUS
 10
28.6861796703
 20
65.33662865
 40
1.8607092637
100
AcDbArc
 50
254.4305267075
 51
257.382027797
  0
ARC
  5
427
100
AcDbEntity
  8
0
100
AcDbCircle
 62
7
  6
CONTINUOUS
 10
39.4340572147
 20
61.3650886955
 40
1.7621103489
100
AcDbArc
 50
160.0065084119
 51
163.0404724809
  0
ARC
  5
428
100
AcDbEntity
  8
0
100
AcDbCircle
 62
7
  6
CONTINUOUS
 10
34.7759539617
 20
61.6868433485
 40
1.7392474825
100
AcDbArc
 50
256.2489703374
 51
260.568323956
  0
ARC
  5
429
100
AcDbEntity
  8
0
100
AcDbCircle
 62
7
  6
CONTINUOUS
 10
33.2952518657
 20
64.2507701922
 40
1.7385497025
100
AcDbArc
 50
159.9905580239
 51
162.4265335861
  0
ARC
  5
42A
100
AcDbEntity
  8
0
100
AcDbCircle
 62
7
  6
CONTINUOUS
 10
40.8902820204
 20
58.7967248947
 40
1.7270165859
100
AcDbArc
 50
256.9085167155
 51
260.5739325207
  0
ARC
  5
42B
100
AcDbEntity
  8
0
100
AcDbCircle
 62
7
  6
CONTINUOUS
 10
28.6558315622
 20
65.197943486
 40
1.718744194
100
AcDbArc
 50
257.3593416018
 51
260.5772239879
  0
ARC
  5
42C
100
AcDbEntity
  8
0
100
AcDbCircle
 62
7
  6
CONTINUOUS
 10
33.2303179288
 20
64.2741082492
 40
1.6695497473
100
AcDbArc
 50
158.9789732201
 51
159.9806234409
  0
ARC
  5
42D
100
AcDbEntity
  8
0
100
AcDbCircle
 62
7
  6
CONTINUOUS
 10
39.3373817516
 20
61.3995440267
 40
1.6594807724
100
AcDbArc
 50
158.4499858419
 51
159.9831728507
  0
ARC
  5
42E
100
AcDbEntity
  8
0
100
AcDbCircle
 62
7
  6
CONTINUOUS
 10
33.1409870585
 20
64.3090966151
 40
1.5736133745
100
AcDbArc
 50
153.8554699979
 51
159.0013992654
  0
ARC
  5
42F
100
AcDbEntity
  8
0
100
AcDbCircle
 62
7
  6
CONTINUOUS
 10
39.2473961647
 20
61.435521678
 40
1.5625704072
100
AcDbArc
 50
153.8407525945
 51
158.4650128563
  0
ARC
  5
430
100
AcDbEntity
  8
0
100
AcDbCircle
 62
7
  6
CONTINUOUS
 10
27.6895276083
 20
64.2737821382
 40
0.9295104582
100
AcDbArc
 50
300.0563928389
 51
312.1085173607
  0
ARC
  5
431
100
AcDbEntity
  8
0
100
AcDbCircle
 62
7
  6
CONTINUOUS
 10
39.9249755355
 20
57.860873551
 40
0.9252153315
100
AcDbArc
 50
300.0350573787
 51
310.3994736199
  0
ARC
  5
432
100
AcDbEntity
  8
0
100
AcDbCircle
 62
7
  6
CONTINUOUS
 10
33.8110894645
 20
60.7350336635
 40
0.9205135998
100
AcDbArc
 50
300.016393897
 51
308.0041278198
  0
ARC
  5
433
100
AcDbEntity
  8
0
100
AcDbCircle
 62
7
  6
CONTINUOUS
 10
38.1052342127
 20
61.0134430752
 40
0.9196150069
100
AcDbArc
 50
112.3916657854
 51
119.9851874702
  0
ARC
  5
434
100
AcDbEntity
  8
0
100
AcDbCircle
 62
7
  6
CONTINUOUS
 10
31.9868899402
 20
63.8950230028
 40
0.9156613968
100
AcDbArc
 50
115.0250650066
 51
119.9946170915
  0
SPLINE
  5
435
100
AcDbEntity
  8
0
100
AcDbSpline
 62
7
  6
CONTINUOUS
 70
0
 71
3
 72
9
 73
5
 74
0
 42
0.0000001
 43
0.0000001
 44
0.0000000001
 40
0.0
 40
0.0
 40
0.0
 40
0.0
 40
0.2475642925
 40
1.0
 40
1.0
 40
1.0
 40
1.0
 10
15.9220765976
 20
43.3831200832
 30
0.0
 10
15.8997581246
 20
43.3702354531
 30
0.0
 10
15.8074366728
 20
43.3219998662
 30
0.0
 10
15.7069451966
 20
43.2897490304
 30
0.0
 10
15.6300834483
 20
43.2746735162
 30
0.0
  0
SPLINE
  5
436
100
AcDbEntity
  8
0
100
AcDbSpline
 62
7
  6
CONTINUOUS
 70
0
 71
3
 72
9
 73
5
 74
0
 42
0.0000001
 43
0.0000001
 44
0.0000000001
 40
0.0
 40
0.0
 40
0.0
 40
0.0
 40
0.24783817
 40
1.0
 40
1.0
 40
1.0
 40
1.0
 10
15.9012090441
 20
42.9293665932
 30
0.0
 10
15.9248882985
 20
42.9430321471
 30
0.0
 10
16.0182533243
 20
43.0018970359
 30
0.0
 10
16.1020153372
 20
43.075720352
 30
0.0
 10
16.1579027276
 20
43.1370479654
 30
0.0
  0
SPLINE
  5
437
100
AcDbEntity
  8
0
100
AcDbSpline
 62
7
  6
CONTINUOUS
 70
0
 71
3
 72
9
 73
5
 74
0
 42
0.0000001
 43
0.0000001
 44
0.0000000001
 40
0.0
 40
0.0
 40
0.0
 40
0.0
 40
0.4824926722
 40
1.0
 40
1.0
 40
1.0
 40
1.0
 10
16.1579027276
 20
43.1370479654
 30
0.0
 10
16.2184498334
 20
43.203488883
 30
0.0
 10
16.3278769788
 20
43.3563815134
 30
0.0
 10
16.4036733016
 20
43.5278806416
 30
0.0
 10
16.435211546
 20
43.618990622
 30
0.0
  0
SPLINE
  5
438
100
AcDbEntity
  8
0
100
AcDbSpline
 62
7
  6
CONTINUOUS
 70
0
 71
3
 72
9
 73
5
 74
0
 42
0.0000001
 43
0.0000001
 44
0.0000000001
 40
0.0
 40
0.0
 40
0.0
 40
0.0
 40
0.2336815216
 40
1.0
 40
1.0
 40
1.0
 40
1.0
 10
16.435211546
 20
43.618990622
 30
0.0
 10
16.4543613863
 20
43.6743120775
 30
0.0
 10
16.5242187824
 20
43.9152320421
 30
0.0
 10
16.5484432735
 20
44.1679526393
 30
0.0
 10
16.5484432735
 20
44.3599314835
 30
0.0
  0
SPLINE
  5
439
100
AcDbEntity
  8
0
100
AcDbSpline
 62
7
  6
CONTINUOUS
 70
0
 71
3
 72
9
 73
5
 74
0
 42
0.0000001
 43
0.0000001
 44
0.0000000001
 40
0.0
 40
0.0
 40
0.0
 40
0.0
 40
0.2475946962
 40
1.0
 40
1.0
 40
1.0
 40
1.0
 10
22.0385756924
 20
39.8518376049
 30
0.0
 10
22.0163910614
 20
39.8390302919
 30
0.0
 10
21.9246472539
 20
39.7910678746
 30
0.0
 10
21.8248280377
 20
39.7588894214
 30
0.0
 10
21.748468169
 20
39.7437626744
 30
0.0
  0
SPLINE
  5
43A
100
AcDbEntity
  8
0
100
AcDbSpline
 62
7
  6
CONTINUOUS
 70
0
 71
3
 72
9
 73
5
 74
0
 42
0.0000001
 43
0.0000001
 44
0.0000000001
 40
0.0
 40
0.0
 40
0.0
 40
0.0
 40
0.24783817
 40
1.0
 40
1.0
 40
1.0
 40
1.0
 10
22.0177081666
 20
39.3980840666
 30
0.0
 10
22.041387421
 20
39.4117496205
 30
0.0
 10
22.1347524468
 20
39.4706145093
 30
0.0
 10
22.2185144598
 20
39.5444378254
 30
0.0
 10
22.2744018502
 20
39.6057654388
 30
0.0
  0
SPLINE
  5
43B
100
AcDbEntity
  8
0
100
AcDbSpline
 62
7
  6
CONTINUOUS
 70
0
 71
3
 72
9
 73
5
 74
0
 42
0.0000001
 43
0.0000001
 44
0.0000000001
 40
0.0
 40
0.0
 40
0.0
 40
0.0
 40
0.4824259566
 40
1.0
 40
1.0
 40
1.0
 40
1.0
 10
22.2744018502
 20
39.6057654388
 30
0.0
 10
22.3351423187
 20
39.6724185416
 30
0.0
 10
22.4448815639
 20
39.8258707497
 30
0.0
 10
22.5207733097
 20
39.9980167511
 30
0.0
 10
22.552321687
 20
40.0894763484
 30
0.0
  0
SPLINE
  5
43C
100
AcDbEntity
  8
0
100
AcDbSpline
 62
7
  6
CONTINUOUS
 70
0
 71
3
 72
9
 73
5
 74
0
 42
0.0000001
 43
0.0000001
 44
0.0000000001
 40
0.0
 40
0.0
 40
0.0
 40
0.0
 40
0.2337276627
 40
1.0
 40
1.0
 40
1.0
 40
1.0
 10
22.552321687
 20
40.0894763484
 30
0.0
 10
22.5713681517
 20
40.1446925636
 30
0.0
 10
22.6408369591
 20
40.385076474
 30
0.0
 10
22.664942396
 20
40.6371563676
 30
0.0
 10
22.664942396
 20
40.8286489569
 30
0.0
  0
LINE
  5
43D
100
AcDbEntity
  8
0
100
AcDbLine
 62
7
  6
CONTINUOUS
 10
19.4113651302
 20
87.6951598447
 11
19.4253042294
 21
87.6868777732
  0
SPLINE
  5
43E
100
AcDbEntity
  8
0
100
AcDbSpline
 62
7
  6
CONTINUOUS
 70
0
 71
3
 72
9
 73
5
 74
0
 42
0.0000001
 43
0.0000001
 44
0.0000000001
 40
0.0
 40
0.0
 40
0.0
 40
0.0
 40
0.2551330498
 40
1.0
 40
1.0
 40
1.0
 40
1.0
 10
79.6397863689
 20
79.7194369139
 30
0.0
 10
79.6397863689
 20
79.7133364571
 30
0.0
 10
79.6400538926
 20
79.6894267477
 30
0.0
 10
79.6414113868
 20
79.6655258926
 30
0.0
 10
79.6431028469
 20
79.6477959663
 30
0.0
  0
SPLINE
  5
43F
100
AcDbEntity
  8
0
100
AcDbSpline
 62
7
  6
CONTINUOUS
 70
0
 71
3
 72
9
 73
5
 74
0
 42
0.0000001
 43
0.0000001
 44
0.0000000001
 40
0.0
 40
0.0
 40
0.0
 40
0.0
 40
0.4945290915
 40
1.0
 40
1.0
 40
1.0
 40
1.0
 10
28.1550751287
 20
36.3205545328
 30
0.0
 10
28.105819353
 20
36.2921175249
 30
0.0
 10
28.0005713598
 20
36.2439109068
 30
0.0
 10
27.8883767769
 20
36.2157232694
 30
0.0
 10
27.8310047031
 20
36.2063441441
 30
0.0
  0
LINE
  5
440
100
AcDbEntity
  8
0
100
AcDbLine
 62
7
  6
CONTINUOUS
 10
51.2313598747
 20
26.8662331745
 11
51.195976694
 21
26.8866292229
  0
SPLINE
  5
441
100
AcDbEntity
  8
0
100
AcDbSpline
 62
7
  6
CONTINUOUS
 70
0
 71
3
 72
9
 73
5
 74
0
 42
0.0000001
 43
0.0000001
 44
0.0000000001
 40
0.0
 40
0.0
 40
0.0
 40
0.0
 40
0.24783817
 40
1.0
 40
1.0
 40
1.0
 40
1.0
 10
28.1342072891
 20
35.86680154
 30
0.0
 10
28.1578865435
 20
35.8804670939
 30
0.0
 10
28.2512515693
 20
35.9393319827
 30
0.0
 10
28.3350135823
 20
36.0131552988
 30
0.0
 10
28.3909009727
 20
36.0744829122
 30
0.0
  0
SPLINE
  5
442
100
AcDbEntity
  8
0
100
AcDbSpline
 62
7
  6
CONTINUOUS
 70
0
 71
3
 72
9
 73
5
 74
0
 42
0.0000001
 43
0.0000001
 44
0.0000000001
 40
0.0
 40
0.0
 40
0.0
 40
0.0
 40
0.4835944241
 40
1.0
 40
1.0
 40
1.0
 40
1.0
 10
28.3909009727
 20
36.0744829122
 30
0.0
 10
28.4482415884
 20
36.1374052118
 30
0.0
 10
28.5524564067
 20
36.2810893861
 30
0.0
 10
28.6265359492
 20
36.441931546
 30
0.0
 10
28.6578261274
 20
36.5272829751
 30
0.0
  0
SPLINE
  5
443
100
AcDbEntity
  8
0
100
AcDbSpline
 62
7
  6
CONTINUOUS
 70
0
 71
3
 72
9
 73
5
 74
0
 42
0.0000001
 43
0.0000001
 44
0.0000000001
 40
0.0
 40
0.0
 40
0.0
 40
0.0
 40
0.2329212484
 40
1.0
 40
1.0
 40
1.0
 40
1.0
 10
28.6578261274
 20
36.5272829751
 30
0.0
 10
28.6787319001
 20
36.5843084599
 30
0.0
 10
28.7552036819
 20
36.834006646
 30
0.0
 10
28.7814415185
 20
37.0973421786
 30
0.0
 10
28.7814415185
 20
37.2973664303
 30
0.0
  0
SPLINE
  5
444
100
AcDbEntity
  8
0
100
AcDbSpline
 62
7
  6
CONTINUOUS
 70
0
 71
3
 72
9
 73
5
 74
0
 42
0.0000001
 43
0.0000001
 44
0.0000000001
 40
0.0
 40
0.0
 40
0.0
 40
0.0
 40
0.4922045488
 40
1.0
 40
1.0
 40
1.0
 40
1.0
 10
34.2715743185
 20
32.7892719068
 30
0.0
 10
34.2126027038
 20
32.7552244247
 30
0.0
 10
34.0845732498
 20
32.6994611546
 30
0.0
 10
33.9476929678
 20
32.67277512
 30
0.0
 10
33.8777663112
 20
32.6660260412
 30
0.0
  0
SPLINE
  5
445
100
AcDbEntity
  8
0
100
AcDbSpline
 62
7
  6
CONTINUOUS
 70
0
 71
3
 72
9
 73
5
 74
0
 42
0.0000001
 43
0.0000001
 44
0.0000000001
 40
0.0
 40
0.0
 40
0.0
 40
0.0
 40
0.24783817
 40
1.0
 40
1.0
 40
1.0
 40
1.0
 10
34.2507064117
 20
32.3355190134
 30
0.0
 10
34.2743856661
 20
32.3491845673
 30
0.0
 10
34.3677506918
 20
32.4080494561
 30
0.0
 10
34.4515127048
 20
32.4818727722
 30
0.0
 10
34.5074000952
 20
32.5432003856
 30
0.0
  0
SPLINE
  5
446
100
AcDbEntity
  8
0
100
AcDbSpline
 62
7
  6
CONTINUOUS
 70
0
 71
3
 72
11
 73
7
 74
0
 42
0.0000001
 43
0.0000001
 44
0.0000000001
 40
0.0
 40
0.0
 40
0.0
 40
0.0
 40
0.2204852302
 40
0.4584039182
 40
0.7179649429
 40
1.0
 40
1.0
 40
1.0
 40
1.0
 10
34.5074000952
 20
32.5432003856
 30
0.0
 10
34.5722986925
 20
32.6144163802
 30
0.0
 10
34.688696531
 20
32.7800802789
 30
0.0
 10
34.8103816525
 20
33.0713641885
 30
0.0
 10
34.8831015653
 20
33.4057362465
 30
0.0
 10
34.897940641
 20
33.6428357181
 30
0.0
 10
34.897940641
 20
33.7660839037
 30
0.0
  0
SPLINE
  5
447
100
AcDbEntity
  8
0
100
AcDbSpline
 62
7
  6
CONTINUOUS
 70
0
 71
3
 72
9
 73
5
 74
0
 42
0.0000001
 43
0.0000001
 44
0.0000000001
 40
0.0
 40
0.0
 40
0.0
 40
0.0
 40
0.247982754
 40
1.0
 40
1.0
 40
1.0
 40
1.0
 10
40.3880725184
 20
28.6047890344
 30
0.0
 10
40.3676563745
 20
28.5930034723
 30
0.0
 10
40.2835132832
 20
28.5486658514
 30
0.0
 10
40.1924980922
 20
28.5175900449
 30
0.0
 10
40.122743089
 20
28.5019443754
 30
0.0
  0
SPLINE
  5
448
100
AcDbEntity
  8
0
100
AcDbSpline
 62
7
  6
CONTINUOUS
 70
0
 71
3
 72
9
 73
5
 74
0
 42
0.0000001
 43
0.0000001
 44
0.0000000001
 40
0.0
 40
0.0
 40
0.0
 40
0.0
 40
0.24783817
 40
1.0
 40
1.0
 40
1.0
 40
1.0
 10
40.3672055342
 20
28.1510345531
 30
0.0
 10
40.3908847886
 20
28.164700107
 30
0.0
 10
40.4842498144
 20
28.2235649958
 30
0.0
 10
40.5680118273
 20
28.2973883119
 30
0.0
 10
40.6238992177
 20
28.3587159253
 30
0.0
  0
SPLINE
  5
449
100
AcDbEntity
  8
0
100
AcDbSpline
 62
7
  6
CONTINUOUS
 70
0
 71
3
 72
9
 73
5
 74
0
 42
0.0000001
 43
0.0000001
 44
0.0000000001
 40
0.0
 40
0.0
 40
0.0
 40
0.0
 40
0.4815285768
 40
1.0
 40
1.0
 40
1.0
 40
1.0
 10
40.6238992177
 20
28.3587159253
 30
0.0
 10
40.6872326365
 20
28.4282143829
 30
0.0
 10
40.8011324224
 20
28.5892175409
 30
0.0
 10
40.8782149559
 20
28.7700828994
 30
0.0
 10
40.9098464973
 20
28.8662558061
 30
0.0
  0
SPLINE
  5
44A
100
AcDbEntity
  8
0
100
AcDbSpline
 62
7
  6
CONTINUOUS
 70
0
 71
3
 72
9
 73
5
 74
0
 42
0.0000001
 43
0.0000001
 44
0.0000000001
 40
0.0
 40
0.0
 40
0.0
 40
0.0
 40
0.234349263
 40
1.0
 40
1.0
 40
1.0
 40
1.0
 10
40.9098464973
 20
28.8662558061
 30
0.0
 10
40.9275343194
 20
28.9200340667
 30
0.0
 10
40.9919050016
 20
29.1531580825
 30
0.0
 10
41.0144397635
 20
29.396639176
 30
0.0
 10
41.0144397635
 20
29.5815994433
 30
0.0
  0
SPLINE
  5
44B
100
AcDbEntity
  8
0
100
AcDbSpline
 62
7
  6
CONTINUOUS
 70
0
 71
3
 72
9
 73
5
 74
0
 42
0.0000001
 43
0.0000001
 44
0.0000000001
 40
0.0
 40
0.0
 40
0.0
 40
0.0
 40
0.4944953977
 40
1.0
 40
1.0
 40
1.0
 40
1.0
 10
40.3880733789
 20
57.0598967741
 30
0.0
 10
40.338666563
 20
57.031372539
 30
0.0
 10
40.233070343
 20
56.9830435087
 30
0.0
 10
40.1204967507
 20
56.9548609405
 30
0.0
 10
40.0629312049
 20
56.94551176
 30
0.0
  0
SPLINE
  5
44C
100
AcDbEntity
  8
0
100
AcDbSpline
 62
7
  6
CONTINUOUS
 70
0
 71
3
 72
9
 73
5
 74
0
 42
0.0000001
 43
0.0000001
 44
0.0000000001
 40
0.0
 40
0.0
 40
0.0
 40
0.0
 40
0.24783817
 40
1.0
 40
1.0
 40
1.0
 40
1.0
 10
40.3672055342
 20
56.6061437901
 30
0.0
 10
40.3908847886
 20
56.619809344
 30
0.0
 10
40.4842498144
 20
56.6786742328
 30
0.0
 10
40.5680118274
 20
56.7524975489
 30
0.0
 10
40.6238992178
 20
56.8138251623
 30
0.0
  0
SPLINE
  5
44D
100
AcDbEntity
  8
0
100
AcDbSpline
 62
7
  6
CONTINUOUS
 70
0
 71
3
 72
11
 73
7
 74
0
 42
0.0000001
 43
0.0000001
 44
0.0000000001
 40
0.0
 40
0.0
 40
0.0
 40
0.0
 40
0.2204852302
 40
0.4584039182
 40
0.7179649429
 40
1.0
 40
1.0
 40
1.0
 40
1.0
 10
40.6238992178
 20
56.8138251623
 30
0.0
 10
40.688797815
 20
56.8850411568
 30
0.0
 10
40.8051956535
 20
57.0507050556
 30
0.0
 10
40.9268807751
 20
57.3419889652
 30
0.0
 10
40.9996006879
 20
57.6763610232
 30
0.0
 10
41.0144397636
 20
57.9134604948
 30
0.0
 10
41.0144397636
 20
58.0367086803
 30
0.0
  0
SPLINE
  5
44E
100
AcDbEntity
  8
0
100
AcDbSpline
 62
7
  6
CONTINUOUS
 70
0
 71
3
 72
9
 73
5
 74
0
 42
0.0000001
 43
0.0000001
 44
0.0000000001
 40
0.0
 40
0.0
 40
0.0
 40
0.0
 40
0.4931800507
 40
1.0
 40
1.0
 40
1.0
 40
1.0
 10
34.271574343
 20
59.9379772263
 30
0.0
 10
34.2165246679
 20
59.9061944836
 30
0.0
 10
34.0977861133
 20
59.8534032382
 30
0.0
 10
33.9709418459
 20
59.8258233606
 30
0.0
 10
33.9061074718
 20
59.8178417148
 30
0.0
  0
SPLINE
  5
44F
100
AcDbEntity
  8
0
100
AcDbSpline
 62
7
  6
CONTINUOUS
 70
0
 71
3
 72
9
 73
5
 74
0
 42
0.0000001
 43
0.0000001
 44
0.0000000001
 40
0.0
 40
0.0
 40
0.0
 40
0.0
 40
0.24783817
 40
1.0
 40
1.0
 40
1.0
 40
1.0
 10
34.2507064117
 20
59.484224383
 30
0.0
 10
34.2743856661
 20
59.4978899369
 30
0.0
 10
34.3677506919
 20
59.5567548257
 30
0.0
 10
34.4515127048
 20
59.6305781418
 30
0.0
 10
34.5074000952
 20
59.6919057552
 30
0.0
  0
SPLINE
  5
450
100
AcDbEntity
  8
0
100
AcDbSpline
 62
7
  6
CONTINUOUS
 70
0
 71
3
 72
11
 73
7
 74
0
 42
0.0000001
 43
0.0000001
 44
0.0000000001
 40
0.0
 40
0.0
 40
0.0
 40
0.0
 40
0.2204852302
 40
0.4584039182
 40
0.7179649429
 40
1.0
 40
1.0
 40
1.0
 40
1.0
 10
34.5074000952
 20
59.6919057552
 30
0.0
 10
34.5722986925
 20
59.7631217497
 30
0.0
 10
34.688696531
 20
59.9287856485
 30
0.0
 10
34.8103816526
 20
60.2200695581
 30
0.0
 10
34.8831015654
 20
60.5544416161
 30
0.0
 10
34.8979406411
 20
60.7915410877
 30
0.0
 10
34.8979406411
 20
60.9147892732
 30
0.0
  0
SPLINE
  5
451
100
AcDbEntity
  8
0
100
AcDbSpline
 62
7
  6
CONTINUOUS
 70
0
 71
3
 72
9
 73
5
 74
0
 42
0.0000001
 43
0.0000001
 44
0.0000000001
 40
0.0
 40
0.0
 40
0.0
 40
0.0
 40
0.2474869771
 40
1.0
 40
1.0
 40
1.0
 40
1.0
 10
28.155074906
 20
63.4692602892
 30
0.0
 10
28.1324187692
 20
63.4561806057
 30
0.0
 10
28.0386384707
 20
63.4072565907
 30
0.0
 10
27.9364472875
 20
63.3748301075
 30
0.0
 10
27.8583182171
 20
63.3598912899
 30
0.0
  0
SPLINE
  5
452
100
AcDbEntity
  8
0
100
AcDbSpline
 62
7
  6
CONTINUOUS
 70
0
 71
3
 72
9
 73
5
 74
0
 42
0.0000001
 43
0.0000001
 44
0.0000000001
 40
0.0
 40
0.0
 40
0.0
 40
0.0
 40
0.24783817
 40
1.0
 40
1.0
 40
1.0
 40
1.0
 10
28.1342072892
 20
63.0155069096
 30
0.0
 10
28.1578865436
 20
63.0291724635
 30
0.0
 10
28.2512515694
 20
63.0880373523
 30
0.0
 10
28.3350135823
 20
63.1618606684
 30
0.0
 10
28.3909009727
 20
63.2231882818
 30
0.0
  0
SPLINE
  5
453
100
AcDbEntity
  8
0
100
AcDbSpline
 62
7
  6
CONTINUOUS
 70
0
 71
3
 72
9
 73
5
 74
0
 42
0.0000001
 43
0.0000001
 44
0.0000000001
 40
0.0
 40
0.0
 40
0.0
 40
0.0
 40
0.4826602341
 40
1.0
 40
1.0
 40
1.0
 40
1.0
 10
28.3909009727
 20
63.2231882818
 30
0.0
 10
28.4509620474
 20
63.2890958567
 30
0.0
 10
28.5596035868
 20
63.4405840995
 30
0.0
 10
28.6351559913
 20
63.6104593553
 30
0.0
 10
28.6666663484
 20
63.700691714
 30
0.0
  0
SPLINE
  5
454
100
AcDbEntity
  8
0
100
AcDbSpline
 62
7
  6
CONTINUOUS
 70
0
 71
3
 72
9
 73
5
 74
0
 42
0.0000001
 43
0.0000001
 44
0.0000000001
 40
0.0
 40
0.0
 40
0.0
 40
0.0
 40
0.2335656848
 40
1.0
 40
1.0
 40
1.0
 40
1.0
 10
28.6666663484
 20
63.700691714
 30
0.0
 10
28.6860772933
 20
63.7562764648
 30
0.0
 10
28.7569165904
 20
63.9985405202
 30
0.0
 10
28.7814415185
 20
64.2528712624
 30
0.0
 10
28.7814415185
 20
64.4460717998
 30
0.0
  0
SPLINE
  5
455
100
AcDbEntity
  8
0
100
AcDbSpline
 62
7
  6
CONTINUOUS
 70
0
 71
3
 72
9
 73
5
 74
0
 42
0.0000001
 43
0.0000001
 44
0.0000000001
 40
0.0
 40
0.0
 40
0.0
 40
0.0
 40
0.2480135758
 40
1.0
 40
1.0
 40
1.0
 40
1.0
 10
22.0385750885
 20
67.0005440259
 30
0.0
 10
22.0183048675
 20
66.9888427834
 30
0.0
 10
21.9347863335
 20
66.944805508
 30
0.0
 10
21.8444910045
 20
66.9138327584
 30
0.0
 10
21.7752786085
 20
66.8981574457
 30
0.0
  0
SPLINE
  5
456
100
AcDbEntity
  8
0
100
AcDbSpline
 62
7
  6
CONTINUOUS
 70
0
 71
3
 72
9
 73
5
 74
0
 42
0.0000001
 43
0.0000001
 44
0.0000000001
 40
0.0
 40
0.0
 40
0.0
 40
0.0
 40
0.24783817
 40
1.0
 40
1.0
 40
1.0
 40
1.0
 10
22.0177081666
 20
66.5467894362
 30
0.0
 10
22.041387421
 20
66.5604549901
 30
0.0
 10
22.1347524468
 20
66.6193198789
 30
0.0
 10
22.2185144598
 20
66.693143195
 30
0.0
 10
22.2744018502
 20
66.7544708084
 30
0.0
  0
SPLINE
  5
457
100
AcDbEntity
  8
0
100
AcDbSpline
 62
7
  6
CONTINUOUS
 70
0
 71
3
 72
9
 73
5
 74
0
 42
0.0000001
 43
0.0000001
 44
0.0000000001
 40
0.0
 40
0.0
 40
0.0
 40
0.0
 40
0.4814532184
 40
1.0
 40
1.0
 40
1.0
 40
1.0
 10
22.2744018502
 20
66.7544708084
 30
0.0
 10
22.337952381
 20
66.8242075122
 30
0.0
 10
22.4521984448
 20
66.9858469111
 30
0.0
 10
22.5293731965
 20
67.1674460898
 30
0.0
 10
22.5610072635
 20
67.2640157275
 30
0.0
  0
SPLINE
  5
458
100
AcDbEntity
  8
0
100
AcDbSpline
 62
7
  6
CONTINUOUS
 70
0
 71
3
 72
9
 73
5
 74
0
 42
0.0000001
 43
0.0000001
 44
0.0000000001
 40
0.0
 40
0.0
 40
0.0
 40
0.0
 40
0.2344015316
 40
1.0
 40
1.0
 40
1.0
 40
1.0
 10
22.5610072635
 20
67.2640157275
 30
0.0
 10
22.5785836539
 20
67.3176713532
 30
0.0
 10
22.6425369795
 20
67.5501815298
 30
0.0
 10
22.664942396
 20
67.7929420043
 30
0.0
 10
22.664942396
 20
67.9773543264
 30
0.0
  0
SPLINE
  5
459
100
AcDbEntity
  8
0
100
AcDbSpline
 62
7
  6
CONTINUOUS
 70
0
 71
3
 72
9
 73
5
 74
0
 42
0.0000001
 43
0.0000001
 44
0.0000000001
 40
0.0
 40
0.0
 40
0.0
 40
0.0
 40
0.2479854181
 40
1.0
 40
1.0
 40
1.0
 40
1.0
 10
15.9220760231
 20
70.5318264532
 30
0.0
 10
15.9016724563
 20
70.5200481585
 30
0.0
 10
15.8175832109
 20
70.475736417
 30
0.0
 10
15.7266301046
 20
70.4446694209
 30
0.0
 10
15.6569218839
 20
70.429021117
 30
0.0
  0
SPLINE
  5
45A
100
AcDbEntity
  8
0
100
AcDbSpline
 62
7
  6
CONTINUOUS
 70
0
 71
3
 72
9
 73
5
 74
0
 42
0.0000001
 43
0.0000001
 44
0.0000000001
 40
0.0
 40
0.0
 40
0.0
 40
0.0
 40
0.24783817
 40
1.0
 40
1.0
 40
1.0
 40
1.0
 10
15.9012090441
 20
70.0780719628
 30
0.0
 10
15.9248882985
 20
70.0917375167
 30
0.0
 10
16.0182533243
 20
70.1506024055
 30
0.0
 10
16.1020153373
 20
70.2244257216
 30
0.0
 10
16.1579027277
 20
70.285753335
 30
0.0
  0
SPLINE
  5
45B
100
AcDbEntity
  8
0
100
AcDbSpline
 62
7
  6
CONTINUOUS
 70
0
 71
3
 72
9
 73
5
 74
0
 42
0.0000001
 43
0.0000001
 44
0.0000000001
 40
0.0
 40
0.0
 40
0.0
 40
0.0
 40
0.4815220895
 40
1.0
 40
1.0
 40
1.0
 40
1.0
 10
16.1579027277
 20
70.285753335
 30
0.0
 10
16.2212548404
 20
70.3552723061
 30
0.0
 10
16.3351844544
 20
70.5163302219
 30
0.0
 10
16.4122749735
 20
70.6972587417
 30
0.0
 10
16.4439067593
 20
70.7934657955
 30
0.0
  0
SPLINE
  5
45C
100
AcDbEntity
  8
0
100
AcDbSpline
 62
7
  6
CONTINUOUS
 70
0
 71
3
 72
9
 73
5
 74
0
 42
0.0000001
 43
0.0000001
 44
0.0000000001
 40
0.0
 40
0.0
 40
0.0
 40
0.0
 40
0.2343537622
 40
1.0
 40
1.0
 40
1.0
 40
1.0
 10
16.4439067593
 20
70.7934657955
 30
0.0
 10
16.4615849728
 20
70.8472335104
 30
0.0
 10
16.5259196617
 20
71.0803047088
 30
0.0
 10
16.5484432735
 20
71.3237237592
 30
0.0
 10
16.5484432735
 20
71.508636853
 30
0.0
  0
SPLINE
  5
45D
100
AcDbEntity
  8
0
100
AcDbSpline
 62
7
  6
CONTINUOUS
 70
0
 71
3
 72
16
 73
12
 74
0
 42
0.0000001
 43
0.0000001
 44
0.0000000001
 40
0.0
 40
0.0
 40
0.0
 40
0.0
 40
0.0428661927
 40
0.0875179843
 40
0.1869227693
 40
0.3042341777
 40
0.4379562952
 40
0.5823666705
 40
0.7295793887
 40
0.8712649891
 40
1.0
 40
1.0
 40
1.0
 40
1.0
 10
80.6869387259
 20
80.8248653194
 30
0.0
 10
80.6655586169
 20
80.8372099916
 30
0.0
 10
80.6184172088
 20
80.8568003101
 30
0.0
 10
80.5109663456
 20
80.8725048036
 30
0.0
 10
80.3592722105
 20
80.8429357796
 30
0.0
 10
80.1805867333
 20
80.7448978321
 30
0.0
 10
80.0088111777
 20
80.5929878893
 30
0.0
 10
79.8573104859
 20
80.3989569787
 30
0.0
 10
79.7379409031
 20
80.1784346917
 30
0.0
 10
79.6605490173
 20
79.9494981183
 30
0.0
 10
79.6397863689
 20
79.793579651
 30
0.0
 10
79.6397863689
 20
79.7194369139
 30
0.0
  0
SPLINE
  5
45E
100
AcDbEntity
  8
0
100
AcDbSpline
 62
7
  6
CONTINUOUS
 70
0
 71
3
 72
11
 73
7
 74
0
 42
0.0000001
 43
0.0000001
 44
0.0000000001
 40
0.0
 40
0.0
 40
0.0
 40
0.0
 40
0.2793444339
 40
0.5382966176
 40
0.777610252
 40
1.0
 40
1.0
 40
1.0
 40
1.0
 10
12.3995123166
 20
46.7552636986
 30
0.0
 10
12.3995123166
 20
46.8539659357
 30
0.0
 10
12.4103720303
 20
47.0444393833
 30
0.0
 10
12.4632880275
 20
47.3150588285
 30
0.0
 10
12.5517479815
 20
47.5550967143
 30
0.0
 10
12.6363767003
 20
47.6961056102
 30
0.0
 10
12.6840032415
 20
47.7586055017
 30
0.0
  0
SPLINE
  5
45F
100
AcDbEntity
  8
0
100
AcDbSpline
 62
7
  6
CONTINUOUS
 70
0
 71
3
 72
17
 73
13
 74
0
 42
0.0000001
 43
0.0000001
 44
0.0000000001
 40
0.0
 40
0.0
 40
0.0
 40
0.0
 40
0.0441392413
 40
0.0914375875
 40
0.1424845873
 40
0.1975871407
 40
0.31942944
 40
0.4541452547
 40
0.5962036582
 40
0.7389076033
 40
0.8754431345
 40
1.0
 40
1.0
 40
1.0
 40
1.0
 10
15.4179522971
 20
43.1522002701
 30
0.0
 10
15.343530064
 20
43.1376032377
 30
0.0
 10
15.185608558
 20
43.1247729931
 30
0.0
 10
14.9411126913
 20
43.152251409
 30
0.0
 10
14.6865864457
 20
43.225040636
 30
0.0
 10
14.3280334643
 20
43.38542294
 30
0.0
 10
13.8844644056
 20
43.693747652
 30
0.0
 10
13.402669644
 20
44.1848718594
 30
0.0
 10
12.9854816323
 20
44.7762526412
 30
0.0
 10
12.6619592722
 20
45.4271106479
 30
0.0
 10
12.4542360835
 20
46.0921255406
 30
0.0
 10
12.3995123166
 20
46.5412495378
 30
0.0
 10
12.3995123166
 20
46.7552636986
 30
0.0
  0
SPLINE
  5
460
100
AcDbEntity
  8
0
100
AcDbSpline
 62
7
  6
CONTINUOUS
 70
0
 71
3
 72
9
 73
5
 74
0
 42
0.0000001
 43
0.0000001
 44
0.0000000001
 40
0.0
 40
0.0
 40
0.0
 40
0.0
 40
0.5066393725
 40
1.0
 40
1.0
 40
1.0
 40
1.0
 10
12.8961343927
 20
47.8810787479
 30
0.0
 10
12.9351612419
 20
47.9322933392
 30
0.0
 10
13.0216262576
 20
48.0266416149
 30
0.0
 10
13.1253344764
 20
48.101843794
 30
0.0
 10
13.1796360916
 20
48.1331947363
 30
0.0
  0
SPLINE
  5
461
100
AcDbEntity
  8
0
100
AcDbSpline
 62
7
  6
CONTINUOUS
 70
0
 71
3
 72
20
 73
16
 74
0
 42
0.0000001
 43
0.0000001
 44
0.0000000001
 40
0.0
 40
0.0
 40
0.0
 40
0.0
 40
0.0623916819
 40
0.1288094473
 40
0.2703028116
 40
0.4173644604
 40
0.5616164664
 40
0.6302527571
 40
0.6953793391
 40
0.7563616134
 40
0.8128308468
 40
0.8647636242
 40
0.9125655821
 40
0.9571670874
 40
1.0
 40
1.0
 40
1.0
 40
1.0
 10
16.5484432735
 20
71.508636853
 30
0.0
 10
16.5484432735
 20
71.6382219981
 30
0.0
 10
16.5308193018
 20
71.9059426378
 30
0.0
 10
16.4324516072
 20
72.4595175113
 30
0.0
 10
16.1946693914
 20
73.1623481388
 30
0.0
 10
15.7650865338
 20
73.9562266992
 30
0.0
 10
15.3023194521
 20
74.5489209969
 30
0.0
 10
14.885847621
 20
74.9500439951
 30
0.0
 10
14.5667394998
 20
75.1998998573
 30
0.0
 10
14.2424419042
 20
75.3982805513
 30
0.0
 10
13.9195527408
 20
75.5409694097
 30
0.0
 10
13.6045037154
 20
75.6247222803
 30
0.0
 10
13.3034604196
 20
75.6468187517
 30
0.0
 10
13.0231102719
 20
75.6057943722
 30
0.0
 10
12.8532933435
 20
75.5351737842
 30
0.0
 10
12.7762417207
 20
75.490706459
 30
0.0
  0
SPLINE
  5
462
100
AcDbEntity
  8
0
100
AcDbSpline
 62
7
  6
CONTINUOUS
 70
0
 71
3
 72
20
 73
16
 74
0
 42
0.0000001
 43
0.0000001
 44
0.0000000001
 40
0.0
 40
0.0
 40
0.0
 40
0.0
 40
0.0623916819
 40
0.1288094473
 40
0.2703028116
 40
0.4173644604
 40
0.5616164664
 40
0.6302527571
 40
0.6953793391
 40
0.7563616134
 40
0.8128308468
 40
0.8647636242
 40
0.9125655821
 40
0.9571670874
 40
1.0
 40
1.0
 40
1.0
 40
1.0
 10
22.664942396
 20
67.9773543264
 30
0.0
 10
22.664942396
 20
68.1069394715
 30
0.0
 10
22.6473184243
 20
68.3746601112
 30
0.0
 10
22.5489507297
 20
68.9282349847
 30
0.0
 10
22.3111685139
 20
69.6310656122
 30
0.0
 10
21.8815856563
 20
70.4249441726
 30
0.0
 10
21.4188185746
 20
71.0176384703
 30
0.0
 10
21.0023467435
 20
71.4187614685
 30
0.0
 10
20.6832386223
 20
71.6686173307
 30
0.0
 10
20.3589410267
 20
71.8669980247
 30
0.0
 10
20.0360518634
 20
72.0096868831
 30
0.0
 10
19.7210028379
 20
72.0934397537
 30
0.0
 10
19.4199595422
 20
72.1155362251
 30
0.0
 10
19.1396093944
 20
72.0745118456
 30
0.0
 10
18.969792466
 20
72.0038912576
 30
0.0
 10
18.8927408432
 20
71.9594239324
 30
0.0
  0
SPLINE
  5
463
100
AcDbEntity
  8
0
100
AcDbSpline
 62
7
  6
CONTINUOUS
 70
0
 71
3
 72
20
 73
16
 74
0
 42
0.0000001
 43
0.0000001
 44
0.0000000001
 40
0.0
 40
0.0
 40
0.0
 40
0.0
 40
0.0623916819
 40
0.1288094473
 40
0.2703028116
 40
0.4173644604
 40
0.5616164664
 40
0.6302527571
 40
0.6953793391
 40
0.7563616134
 40
0.8128308468
 40
0.8647636242
 40
0.9125655821
 40
0.9571670874
 40
1.0
 40
1.0
 40
1.0
 40
1.0
 10
28.7814415185
 20
64.4460717998
 30
0.0
 10
28.7814415185
 20
64.5756569449
 30
0.0
 10
28.7638175468
 20
64.8433775846
 30
0.0
 10
28.6654498522
 20
65.3969524581
 30
0.0
 10
28.4276676365
 20
66.0997830856
 30
0.0
 10
27.9980847789
 20
66.893661646
 30
0.0
 10
27.5353176971
 20
67.4863559437
 30
0.0
 10
27.118845866
 20
67.8874789419
 30
0.0
 10
26.7997377448
 20
68.1373348041
 30
0.0
 10
26.4754401492
 20
68.3357154981
 30
0.0
 10
26.1525509859
 20
68.4784043565
 30
0.0
 10
25.8375019605
 20
68.5621572271
 30
0.0
 10
25.5364586647
 20
68.5842536985
 30
0.0
 10
25.2561085169
 20
68.543229319
 30
0.0
 10
25.0862915885
 20
68.472608731
 30
0.0
 10
25.0092399657
 20
68.4281414058
 30
0.0
  0
SPLINE
  5
464
100
AcDbEntity
  8
0
100
AcDbSpline
 62
7
  6
CONTINUOUS
 70
0
 71
3
 72
20
 73
16
 74
0
 42
0.0000001
 43
0.0000001
 44
0.0000000001
 40
0.0
 40
0.0
 40
0.0
 40
0.0
 40
0.0623916819
 40
0.1288094473
 40
0.2703028116
 40
0.4173644604
 40
0.5616164664
 40
0.6302527571
 40
0.6953793391
 40
0.7563616134
 40
0.8128308468
 40
0.8647636242
 40
0.9125655821
 40
0.9571670874
 40
1.0
 40
1.0
 40
1.0
 40
1.0
 10
34.8979406411
 20
60.9147892732
 30
0.0
 10
34.8979406411
 20
61.0443744183
 30
0.0
 10
34.8803166694
 20
61.312095058
 30
0.0
 10
34.7819489748
 20
61.8656699315
 30
0.0
 10
34.544166759
 20
62.568500559
 30
0.0
 10
34.1145839014
 20
63.3623791194
 30
0.0
 10
33.6518168196
 20
63.9550734171
 30
0.0
 10
33.2353449886
 20
64.3561964153
 30
0.0
 10
32.9162368673
 20
64.6060522775
 30
0.0
 10
32.5919392717
 20
64.8044329715
 30
0.0
 10
32.2690501084
 20
64.9471218299
 30
0.0
 10
31.954001083
 20
65.0308747005
 30
0.0
 10
31.6529577872
 20
65.0529711719
 30
0.0
 10
31.3726076394
 20
65.0119467924
 30
0.0
 10
31.202790711
 20
64.9413262044
 30
0.0
 10
31.1257390883
 20
64.8968588792
 30
0.0
  0
SPLINE
  5
465
100
AcDbEntity
  8
0
100
AcDbSpline
 62
7
  6
CONTINUOUS
 70
0
 71
3
 72
20
 73
16
 74
0
 42
0.0000001
 43
0.0000001
 44
0.0000000001
 40
0.0
 40
0.0
 40
0.0
 40
0.0
 40
0.0623916819
 40
0.1288094473
 40
0.2703028116
 40
0.4173644604
 40
0.5616164664
 40
0.6302527571
 40
0.6953793391
 40
0.7563616134
 40
0.8128308468
 40
0.8647636242
 40
0.9125655821
 40
0.9571670874
 40
1.0
 40
1.0
 40
1.0
 40
1.0
 10
41.0144397636
 20
58.0367086803
 30
0.0
 10
41.0144397636
 20
58.1662938254
 30
0.0
 10
40.9968157919
 20
58.4340144651
 30
0.0
 10
40.8984480973
 20
58.9875893386
 30
0.0
 10
40.6606658815
 20
59.6904199661
 30
0.0
 10
40.2310830239
 20
60.4842985265
 30
0.0
 10
39.7683159421
 20
61.0769928242
 30
0.0
 10
39.3518441111
 20
61.4781158224
 30
0.0
 10
39.0327359899
 20
61.7279716846
 30
0.0
 10
38.7084383942
 20
61.9263523786
 30
0.0
 10
38.3855492309
 20
62.069041237
 30
0.0
 10
38.0705002055
 20
62.1527941076
 30
0.0
 10
37.7694569097
 20
62.174890579
 30
0.0
 10
37.489106762
 20
62.1338661995
 30
0.0
 10
37.3192898335
 20
62.0632456115
 30
0.0
 10
37.2422382108
 20
62.0187782863
 30
0.0
  0
SPLINE
  5
466
100
AcDbEntity
  8
0
100
AcDbSpline
 62
7
  6
CONTINUOUS
 70
0
 71
3
 72
20
 73
16
 74
0
 42
0.0000001
 43
0.0000001
 44
0.0000000001
 40
0.0
 40
0.0
 40
0.0
 40
0.0
 40
0.0623916819
 40
0.1288094473
 40
0.2703028116
 40
0.4173644604
 40
0.5616164664
 40
0.6302527571
 40
0.6953793391
 40
0.7563616134
 40
0.8128308468
 40
0.8647636242
 40
0.9125655821
 40
0.9571670874
 40
1.0
 40
1.0
 40
1.0
 40
1.0
 10
41.0144397635
 20
29.5815994433
 30
0.0
 10
41.0144397635
 20
29.7111845884
 30
0.0
 10
40.9968157918
 20
29.9789052281
 30
0.0
 10
40.8984480972
 20
30.5324801016
 30
0.0
 10
40.6606658815
 20
31.2353107291
 30
0.0
 10
40.2310830239
 20
32.0291892895
 30
0.0
 10
39.7683159421
 20
32.6218835872
 30
0.0
 10
39.3518441111
 20
33.0230065855
 30
0.0
 10
39.0327359898
 20
33.2728624476
 30
0.0
 10
38.7084383942
 20
33.4712431416
 30
0.0
 10
38.3855492309
 20
33.613932
 30
0.0
 10
38.0705002055
 20
33.6976848707
 30
0.0
 10
37.7694569097
 20
33.719781342
 30
0.0
 10
37.4891067619
 20
33.6787569625
 30
0.0
 10
37.3192898335
 20
33.6081363745
 30
0.0
 10
37.2422382107
 20
33.5636690493
 30
0.0
  0
SPLINE
  5
467
100
AcDbEntity
  8
0
100
AcDbSpline
 62
7
  6
CONTINUOUS
 70
0
 71
3
 72
20
 73
16
 74
0
 42
0.0000001
 43
0.0000001
 44
0.0000000001
 40
0.0
 40
0.0
 40
0.0
 40
0.0
 40
0.0623916819
 40
0.1288094473
 40
0.2703028116
 40
0.4173644604
 40
0.5616164664
 40
0.6302527571
 40
0.6953793391
 40
0.7563616134
 40
0.8128308468
 40
0.8647636242
 40
0.9125655821
 40
0.9571670874
 40
1.0
 40
1.0
 40
1.0
 40
1.0
 10
34.897940641
 20
33.7660839037
 30
0.0
 10
34.897940641
 20
33.8956690487
 30
0.0
 10
34.8803166693
 20
34.1633896884
 30
0.0
 10
34.7819489747
 20
34.7169645619
 30
0.0
 10
34.5441667589
 20
35.4197951895
 30
0.0
 10
34.1145839014
 20
36.2136737498
 30
0.0
 10
33.6518168196
 20
36.8063680475
 30
0.0
 10
33.2353449885
 20
37.2074910458
 30
0.0
 10
32.9162368673
 20
37.4573469079
 30
0.0
 10
32.5919392717
 20
37.6557276019
 30
0.0
 10
32.2690501084
 20
37.7984164603
 30
0.0
 10
31.9540010829
 20
37.882169331
 30
0.0
 10
31.6529577872
 20
37.9042658023
 30
0.0
 10
31.3726076394
 20
37.8632414228
 30
0.0
 10
31.202790711
 20
37.7926208348
 30
0.0
 10
31.1257390882
 20
37.7481535097
 30
0.0
  0
SPLINE
  5
468
100
AcDbEntity
  8
0
100
AcDbSpline
 62
7
  6
CONTINUOUS
 70
0
 71
3
 72
20
 73
16
 74
0
 42
0.0000001
 43
0.0000001
 44
0.0000000001
 40
0.0
 40
0.0
 40
0.0
 40
0.0
 40
0.0623916819
 40
0.1288094473
 40
0.2703028116
 40
0.4173644604
 40
0.5616164664
 40
0.6302527571
 40
0.6953793391
 40
0.7563616134
 40
0.8128308468
 40
0.8647636242
 40
0.9125655821
 40
0.9571670874
 40
1.0
 40
1.0
 40
1.0
 40
1.0
 10
28.7814415185
 20
37.2973664303
 30
0.0
 10
28.7814415185
 20
37.4269515753
 30
0.0
 10
28.7638175468
 20
37.694672215
 30
0.0
 10
28.6654498522
 20
38.2482470885
 30
0.0
 10
28.4276676364
 20
38.9510777161
 30
0.0
 10
27.9980847788
 20
39.7449562764
 30
0.0
 10
27.5353176971
 20
40.3376505741
 30
0.0
 10
27.118845866
 20
40.7387735724
 30
0.0
 10
26.7997377448
 20
40.9886294345
 30
0.0
 10
26.4754401492
 20
41.1870101285
 30
0.0
 10
26.1525509858
 20
41.3296989869
 30
0.0
 10
25.8375019604
 20
41.4134518576
 30
0.0
 10
25.5364586646
 20
41.4355483289
 30
0.0
 10
25.2561085169
 20
41.3945239494
 30
0.0
 10
25.0862915885
 20
41.3239033614
 30
0.0
 10
25.0092399657
 20
41.2794360363
 30
0.0
  0
SPLINE
  5
469
100
AcDbEntity
  8
0
100
AcDbSpline
 62
7
  6
CONTINUOUS
 70
0
 71
3
 72
20
 73
16
 74
0
 42
0.0000001
 43
0.0000001
 44
0.0000000001
 40
0.0
 40
0.0
 40
0.0
 40
0.0
 40
0.0623916819
 40
0.1288094473
 40
0.2703028116
 40
0.4173644604
 40
0.5616164664
 40
0.6302527571
 40
0.6953793391
 40
0.7563616134
 40
0.8128308468
 40
0.8647636242
 40
0.9125655821
 40
0.9571670874
 40
1.0
 40
1.0
 40
1.0
 40
1.0
 10
22.664942396
 20
40.8286489569
 30
0.0
 10
22.664942396
 20
40.9582341019
 30
0.0
 10
22.6473184243
 20
41.2259547416
 30
0.0
 10
22.5489507297
 20
41.7795296151
 30
0.0
 10
22.3111685139
 20
42.4823602427
 30
0.0
 10
21.8815856563
 20
43.276238803
 30
0.0
 10
21.4188185745
 20
43.8689331007
 30
0.0
 10
21.0023467435
 20
44.270056099
 30
0.0
 10
20.6832386223
 20
44.5199119611
 30
0.0
 10
20.3589410266
 20
44.7182926551
 30
0.0
 10
20.0360518633
 20
44.8609815135
 30
0.0
 10
19.7210028379
 20
44.9447343842
 30
0.0
 10
19.4199595421
 20
44.9668308555
 30
0.0
 10
19.1396093944
 20
44.925806476
 30
0.0
 10
18.9697924659
 20
44.855185888
 30
0.0
 10
18.8927408432
 20
44.8107185629
 30
0.0
  0
SPLINE
  5
46A
100
AcDbEntity
  8
0
100
AcDbSpline
 62
7
  6
CONTINUOUS
 70
0
 71
3
 72
20
 73
16
 74
0
 42
0.0000001
 43
0.0000001
 44
0.0000000001
 40
0.0
 40
0.0
 40
0.0
 40
0.0
 40
0.0623916819
 40
0.1288094473
 40
0.2703028116
 40
0.4173644604
 40
0.5616164664
 40
0.6302527571
 40
0.6953793391
 40
0.7563616134
 40
0.8128308468
 40
0.8647636242
 40
0.9125655821
 40
0.9571670874
 40
1.0
 40
1.0
 40
1.0
 40
1.0
 10
16.5484432735
 20
44.3599314835
 30
0.0
 10
16.5484432735
 20
44.4895166285
 30
0.0
 10
16.5308193018
 20
44.7572372682
 30
0.0
 10
16.4324516072
 20
45.3108121417
 30
0.0
 10
16.1946693914
 20
46.0136427693
 30
0.0
 10
15.7650865338
 20
46.8075213296
 30
0.0
 10
15.302319452
 20
47.4002156273
 30
0.0
 10
14.885847621
 20
47.8013386256
 30
0.0
 10
14.5667394998
 20
48.0511944877
 30
0.0
 10
14.2424419041
 20
48.2495751817
 30
0.0
 10
13.9195527408
 20
48.3922640401
 30
0.0
 10
13.6045037154
 20
48.4760169108
 30
0.0
 10
13.3034604196
 20
48.4981133821
 30
0.0
 10
13.0231102719
 20
48.4570890026
 30
0.0
 10
12.8532933434
 20
48.3864684146
 30
0.0
 10
12.7762417207
 20
48.3420010895
 30
0.0
  0
SPLINE
  5
46B
100
AcDbEntity
  8
0
100
AcDbSpline
 62
7
  6
CONTINUOUS
 70
0
 71
3
 72
11
 73
7
 74
0
 42
0.0000001
 43
0.0000001
 44
0.0000000001
 40
0.0
 40
0.0
 40
0.0
 40
0.0
 40
0.2794053512
 40
0.5383694185
 40
0.7776549653
 40
1.0
 40
1.0
 40
1.0
 40
1.0
 10
18.5160114392
 20
43.223981172
 30
0.0
 10
18.5160114392
 20
43.3228859861
 30
0.0
 10
18.5269147284
 20
43.513735913
 30
0.0
 10
18.5800526804
 20
43.7848486812
 30
0.0
 10
18.6688849104
 20
44.0252337592
 30
0.0
 10
18.753868742
 20
44.1663604579
 30
0.0
 10
18.8016873621
 20
44.2288750944
 30
0.0
  0
SPLINE
  5
46C
100
AcDbEntity
  8
0
100
AcDbSpline
 62
7
  6
CONTINUOUS
 70
0
 71
3
 72
17
 73
13
 74
0
 42
0.0000001
 43
0.0000001
 44
0.0000000001
 40
0.0
 40
0.0
 40
0.0
 40
0.0
 40
0.0441246633
 40
0.0914035732
 40
0.1424301983
 40
0.1975144235
 40
0.3193326717
 40
0.4540457982
 40
0.5961203496
 40
0.73885216
 40
0.8754182654
 40
1.0
 40
1.0
 40
1.0
 40
1.0
 10
21.5363370178
 20
39.6212894283
 30
0.0
 10
21.461939515
 20
39.6065514223
 30
0.0
 10
21.3040367583
 20
39.5934467992
 30
0.0
 10
21.0595010409
 20
39.6205817103
 30
0.0
 10
20.8048926545
 20
39.693087445
 30
0.0
 10
20.4461611771
 20
39.8531696851
 30
0.0
 10
20.0022952116
 20
40.1613018012
 30
0.0
 10
19.5201302297
 20
40.6524004557
 30
0.0
 10
19.1025721455
 20
41.2439398652
 30
0.0
 10
18.7787353295
 20
41.8950886718
 30
0.0
 10
18.5707972618
 20
42.5604594789
 30
0.0
 10
18.5160114392
 20
43.0098450892
 30
0.0
 10
18.5160114392
 20
43.223981172
 30
0.0
  0
SPLINE
  5
46D
100
AcDbEntity
  8
0
100
AcDbSpline
 62
7
  6
CONTINUOUS
 70
0
 71
3
 72
9
 73
5
 74
0
 42
0.0000001
 43
0.0000001
 44
0.0000000001
 40
0.0
 40
0.0
 40
0.0
 40
0.0
 40
0.5065747018
 40
1.0
 40
1.0
 40
1.0
 40
1.0
 10
19.0138185133
 20
44.3513483406
 30
0.0
 10
19.0527344795
 20
44.4022242854
 30
0.0
 10
19.1388930822
 20
44.4959577482
 30
0.0
 10
19.2421033735
 20
44.5707169951
 30
0.0
 10
19.2961352148
 20
44.6019122079
 30
0.0
  0
SPLINE
  5
46E
100
AcDbEntity
  8
0
100
AcDbSpline
 62
7
  6
CONTINUOUS
 70
0
 71
3
 72
10
 73
6
 74
0
 42
0.0000001
 43
0.0000001
 44
0.0000000001
 40
0.0
 40
0.0
 40
0.0
 40
0.0
 40
0.2788146637
 40
0.5380278532
 40
1.0
 40
1.0
 40
1.0
 40
1.0
 10
24.6325105617
 20
39.6926986454
 30
0.0
 10
24.6325105617
 20
39.787973152
 30
0.0
 10
24.6427258058
 20
39.9722275417
 30
0.0
 10
24.7055615464
 20
40.3083256366
 30
0.0
 10
24.8055325618
 20
40.5409506771
 30
0.0
 10
24.897326166
 20
40.6693806722
 30
0.0
  0
SPLINE
  5
46F
100
AcDbEntity
  8
0
100
AcDbSpline
 62
7
  6
CONTINUOUS
 70
0
 71
3
 72
17
 73
13
 74
0
 42
0.0000001
 43
0.0000001
 44
0.0000000001
 40
0.0
 40
0.0
 40
0.0
 40
0.0
 40
0.0443958132
 40
0.0920274269
 40
0.1434195983
 40
0.1988303175
 40
0.321072922
 40
0.4558284905
 40
0.5976107452
 40
0.7398429618
 40
0.8758624731
 40
1.0
 40
1.0
 40
1.0
 40
1.0
 10
27.6188735519
 20
36.0838708979
 30
0.0
 10
27.5440641903
 20
36.0716411435
 30
0.0
 10
27.3858841225
 20
36.0634030762
 30
0.0
 10
27.1421127726
 20
36.0966142046
 30
0.0
 10
26.8890150931
 20
36.1741271489
 30
0.0
 10
26.5335218435
 20
36.3394898252
 30
0.0
 10
26.0949924715
 20
36.6509828031
 30
0.0
 10
25.6194645355
 20
37.1424659579
 30
0.0
 10
25.2085225989
 20
37.7311199074
 30
0.0
 10
24.8902983956
 20
38.3770421226
 30
0.0
 10
24.6861914526
 20
39.0360374327
 30
0.0
 10
24.6325105617
 20
39.4807434006
 30
0.0
 10
24.6325105617
 20
39.6926986454
 30
0.0
  0
SPLINE
  5
470
100
AcDbEntity
  8
0
100
AcDbSpline
 62
7
  6
CONTINUOUS
 70
0
 71
3
 72
9
 73
5
 74
0
 42
0.0000001
 43
0.0000001
 44
0.0000000001
 40
0.0
 40
0.0
 40
0.0
 40
0.0
 40
0.5077679022
 40
1.0
 40
1.0
 40
1.0
 40
1.0
 10
25.1094573172
 20
40.7918539183
 30
0.0
 10
25.1502271742
 20
40.8488957197
 30
0.0
 10
25.2416644669
 20
40.953836128
 30
0.0
 10
25.3537715743
 20
41.036645782
 30
0.0
 10
25.4126343705
 20
41.0706296337
 30
0.0
  0
SPLINE
  5
471
100
AcDbEntity
  8
0
100
AcDbSpline
 62
7
  6
CONTINUOUS
 70
0
 71
3
 72
9
 73
5
 74
0
 42
0.0000001
 43
0.0000001
 44
0.0000000001
 40
0.0
 40
0.0
 40
0.0
 40
0.0
 40
0.2774971641
 40
1.0
 40
1.0
 40
1.0
 40
1.0
 10
30.7490096842
 20
36.1614161188
 30
0.0
 10
30.7490096842
 20
36.2493491639
 30
0.0
 10
30.7647798005
 20
36.565045566
 30
0.0
 10
30.853032509
 20
36.8842049732
 30
0.0
 10
30.9740751953
 20
37.0785370433
 30
0.0
  0
SPLINE
  5
472
100
AcDbEntity
  8
0
100
AcDbSpline
 62
7
  6
CONTINUOUS
 70
0
 71
3
 72
16
 73
12
 74
0
 42
0.0000001
 43
0.0000001
 44
0.0000000001
 40
0.0
 40
0.0
 40
0.0
 40
0.0
 40
0.09304559
 40
0.1451968458
 40
0.2012748672
 40
0.324378034
 40
0.4592331002
 40
0.6004586103
 40
0.7417320684
 40
0.8767052251
 40
1.0
 40
1.0
 40
1.0
 40
1.0
 10
33.66563516
 20
32.5435527951
 30
0.0
 10
33.5097141557
 20
32.5285038397
 30
0.0
 10
33.2603926639
 20
32.5577389817
 30
0.0
 10
32.9402691431
 20
32.6696862336
 30
0.0
 10
32.5913062408
 20
32.8451303747
 30
0.0
 10
32.163810862
 20
33.1628286133
 30
0.0
 10
31.7016639073
 20
33.654624035
 30
0.0
 10
31.3040119801
 20
34.2371697131
 30
0.0
 10
30.9969870283
 20
34.8724265265
 30
0.0
 10
30.8005021335
 20
35.5185470236
 30
0.0
 10
30.7490096842
 20
35.9538449836
 30
0.0
 10
30.7490096842
 20
36.1614161188
 30
0.0
  0
SPLINE
  5
473
100
AcDbEntity
  8
0
100
AcDbSpline
 62
7
  6
CONTINUOUS
 70
0
 71
3
 72
9
 73
5
 74
0
 42
0.0000001
 43
0.0000001
 44
0.0000000001
 40
0.0
 40
0.0
 40
0.0
 40
0.0
 40
0.5103837021
 40
1.0
 40
1.0
 40
1.0
 40
1.0
 10
31.1862063465
 20
37.2010102894
 30
0.0
 10
31.2298692019
 20
37.2711102957
 30
0.0
 10
31.3305868573
 20
37.3998894663
 30
0.0
 10
31.460520701
 20
37.4997366617
 30
0.0
 10
31.529134216
 20
37.5393458517
 30
0.0
  0
SPLINE
  5
474
100
AcDbEntity
  8
0
100
AcDbSpline
 62
7
  6
CONTINUOUS
 70
0
 71
3
 72
17
 73
13
 74
0
 42
0.0000001
 43
0.0000001
 44
0.0000000001
 40
0.0
 40
0.0
 40
0.0
 40
0.0
 40
0.0439386371
 40
0.0909639237
 40
0.1417220018
 40
0.1965631534
 40
0.3180598086
 40
0.4527337968
 40
0.5950195474
 40
0.7381188757
 40
0.8750892189
 40
1.0
 40
1.0
 40
1.0
 40
1.0
 10
39.9106119379
 20
28.3794711292
 30
0.0
 10
39.8365603056
 20
28.362861749
 30
0.0
 10
39.67894201
 20
28.3461050874
 30
0.0
 10
39.4339119544
 20
28.3686568138
 30
0.0
 10
39.1782437197
 20
28.437375485
 30
0.0
 10
38.8171813991
 20
28.5934371147
 30
0.0
 10
38.369406837
 20
28.8989709007
 30
0.0
 10
37.8823574137
 20
29.389686621
 30
0.0
 10
37.4599054041
 20
29.9832929415
 30
0.0
 10
37.1319043619
 20
30.6382702005
 30
0.0
 10
36.9211180988
 20
31.3083400859
 30
0.0
 10
36.8655088067
 20
31.7611838823
 30
0.0
 10
36.8655088067
 20
31.9769316585
 30
0.0
  0
SPLINE
  5
475
100
AcDbEntity
  8
0
100
AcDbSpline
 62
7
  6
CONTINUOUS
 70
0
 71
3
 72
11
 73
7
 74
0
 42
0.0000001
 43
0.0000001
 44
0.0000000001
 40
0.0
 40
0.0
 40
0.0
 40
0.0
 40
0.2802041283
 40
0.5393179725
 40
0.7782301363
 40
1.0
 40
1.0
 40
1.0
 40
1.0
 10
36.8655088067
 20
31.9769316585
 30
0.0
 10
36.8655088067
 20
32.0785101316
 30
0.0
 10
36.8769949317
 20
32.2743236263
 30
0.0
 10
36.9331081074
 20
32.5519211057
 30
0.0
 10
37.0269329443
 20
32.7968230436
 30
0.0
 10
37.1166738868
 20
32.9394125433
 30
0.0
 10
37.1670564558
 20
33.0020621391
 30
0.0
  0
SPLINE
  5
476
100
AcDbEntity
  8
0
100
AcDbSpline
 62
7
  6
CONTINUOUS
 70
0
 71
3
 72
9
 73
5
 74
0
 42
0.0000001
 43
0.0000001
 44
0.0000000001
 40
0.0
 40
0.0
 40
0.0
 40
0.0
 40
0.5057434729
 40
1.0
 40
1.0
 40
1.0
 40
1.0
 10
37.379187607
 20
33.1245353853
 30
0.0
 10
37.4165575651
 20
33.171004091
 30
0.0
 10
37.4985419623
 20
33.2567425991
 30
0.0
 10
37.5951637551
 20
33.3257240868
 30
0.0
 10
37.645632626
 20
33.3548626127
 30
0.0
  0
SPLINE
  5
477
100
AcDbEntity
  8
0
100
AcDbSpline
 62
7
  6
CONTINUOUS
 70
0
 71
3
 72
10
 73
6
 74
0
 42
0.0000001
 43
0.0000001
 44
0.0000000001
 40
0.0
 40
0.0
 40
0.0
 40
0.0
 40
0.2787780904
 40
0.5379822499
 40
1.0
 40
1.0
 40
1.0
 40
1.0
 10
36.8655088068
 20
60.4320408954
 30
0.0
 10
36.8655088068
 20
60.5272014603
 30
0.0
 10
36.8756997671
 20
60.7112428191
 30
0.0
 10
36.938386992
 20
61.0469980927
 30
0.0
 10
37.0381069091
 20
61.2794257794
 30
0.0
 10
37.1296825684
 20
61.4078239526
 30
0.0
  0
SPLINE
  5
478
100
AcDbEntity
  8
0
100
AcDbSpline
 62
7
  6
CONTINUOUS
 70
0
 71
3
 72
17
 73
13
 74
0
 42
0.0000001
 43
0.0000001
 44
0.0000000001
 40
0.0
 40
0.0
 40
0.0
 40
0.0
 40
0.0444046551
 40
0.0920474837
 40
0.1434511395
 40
0.1988720379
 40
0.3211277348
 40
0.4558844423
 40
0.5976574268
 40
0.7398739585
 40
0.8758763624
 40
1.0
 40
1.0
 40
1.0
 40
1.0
 10
39.8508000538
 20
56.8230385139
 30
0.0
 10
39.7759788352
 20
56.8108868516
 30
0.0
 10
39.6177920527
 20
56.8027997832
 30
0.0
 10
39.3740463976
 20
56.8361989022
 30
0.0
 10
39.1209974491
 20
56.913866504
 30
0.0
 10
38.7656071701
 20
57.0793916044
 30
0.0
 10
38.3272458283
 20
57.390986975
 30
0.0
 10
37.8519262799
 20
57.8824796899
 30
0.0
 10
37.4411914541
 20
58.4710416186
 30
0.0
 10
37.123142633
 20
59.1167992717
 30
0.0
 10
36.9191552623
 20
59.775594573
 30
0.0
 10
36.8655088068
 20
60.2201539596
 30
0.0
 10
36.8655088068
 20
60.4320408954
 30
0.0
  0
SPLINE
  5
479
100
AcDbEntity
  8
0
100
AcDbSpline
 62
7
  6
CONTINUOUS
 70
0
 71
3
 72
9
 73
5
 74
0
 42
0.0000001
 43
0.0000001
 44
0.0000000001
 40
0.0
 40
0.0
 40
0.0
 40
0.0
 40
0.5078064928
 40
1.0
 40
1.0
 40
1.0
 40
1.0
 10
37.3418137196
 20
61.5302971988
 30
0.0
 10
37.3826372055
 20
61.5875357823
 30
0.0
 10
37.474232858
 20
61.6928343348
 30
0.0
 10
37.5866183114
 20
61.7759005756
 30
0.0
 10
37.6456326184
 20
61.8099718792
 30
0.0
  0
SPLINE
  5
47A
100
AcDbEntity
  8
0
100
AcDbSpline
 62
7
  6
CONTINUOUS
 70
0
 71
3
 72
9
 73
5
 74
0
 42
0.0000001
 43
0.0000001
 44
0.0000000001
 40
0.0
 40
0.0
 40
0.0
 40
0.0
 40
0.2785311591
 40
1.0
 40
1.0
 40
1.0
 40
1.0
 10
30.7489730194
 20
63.3105000549
 30
0.0
 10
30.7489780638
 20
63.4013628725
 30
0.0
 10
30.7658189228
 20
63.7262203089
 30
0.0
 10
30.8602274264
 20
64.0552567248
 30
0.0
 10
30.9896758545
 20
64.2518190688
 30
0.0
  0
SPLINE
  5
47B
100
AcDbEntity
  8
0
100
AcDbSpline
 62
7
  6
CONTINUOUS
 70
0
 71
3
 72
16
 73
12
 74
0
 42
0.0000001
 43
0.0000001
 44
0.0000000001
 40
0.0
 40
0.0
 40
0.0
 40
0.0
 40
0.0924743709
 40
0.1443281306
 40
0.2001488724
 40
0.3229336964
 40
0.4577785888
 40
0.5992558254
 40
0.7409384646
 40
0.8763499129
 40
1.0
 40
1.0
 40
1.0
 40
1.0
 10
33.6939763207
 20
59.6953684686
 30
0.0
 10
33.5385838931
 20
59.6762383799
 30
0.0
 10
33.2884540509
 20
59.7001941864
 30
0.0
 10
32.9666307974
 20
59.8072611443
 30
0.0
 10
32.6148426117
 20
59.9787587218
 30
0.0
 10
32.1829112317
 20
60.2940898005
 30
0.0
 10
31.7153111709
 20
60.7859001595
 30
0.0
 10
31.3123125557
 20
61.3710267924
 30
0.0
 10
31.000798698
 20
62.0106675399
 30
0.0
 10
30.8013129487
 20
62.6620412911
 30
0.0
 10
30.7489613969
 20
63.1011518661
 30
0.0
 10
30.7489730194
 20
63.3105000549
 30
0.0
  0
SPLINE
  5
47C
100
AcDbEntity
  8
0
100
AcDbSpline
 62
7
  6
CONTINUOUS
 70
0
 71
3
 72
9
 73
5
 74
0
 42
0.0000001
 43
0.0000001
 44
0.0000000001
 40
0.0
 40
0.0
 40
0.0
 40
0.0
 40
0.5092963013
 40
1.0
 40
1.0
 40
1.0
 40
1.0
 10
31.2018746392
 20
64.3741783598
 30
0.0
 10
31.2445056435
 20
64.4389118622
 30
0.0
 10
31.3417004794
 20
64.5578755852
 30
0.0
 10
31.4644575063
 20
64.6507134467
 30
0.0
 10
31.5291337444
 20
64.6880520432
 30
0.0
  0
SPLINE
  5
47D
100
AcDbEntity
  8
0
100
AcDbSpline
 62
7
  6
CONTINUOUS
 70
0
 71
3
 72
10
 73
6
 74
0
 42
0.0000001
 43
0.0000001
 44
0.0000000001
 40
0.0
 40
0.0
 40
0.0
 40
0.0
 40
0.2797473948
 40
0.5391857571
 40
1.0
 40
1.0
 40
1.0
 40
1.0
 10
24.6325105617
 20
66.8414040149
 30
0.0
 10
24.6325105617
 20
66.939595041
 30
0.0
 10
24.6433576279
 20
67.1292967472
 30
0.0
 10
24.7100520761
 20
67.4741238025
 30
0.0
 10
24.8165807688
 20
67.7117176011
 30
0.0
 10
24.9140221054
 20
67.8408172702
 30
0.0
  0
SPLINE
  5
47E
100
AcDbEntity
  8
0
100
AcDbSpline
 62
7
  6
CONTINUOUS
 70
0
 71
3
 72
17
 73
13
 74
0
 42
0.0000001
 43
0.0000001
 44
0.0000000001
 40
0.0
 40
0.0
 40
0.0
 40
0.0
 40
0.0441763254
 40
0.091523853
 40
0.1426222836
 40
0.1977710321
 40
0.3196738289
 40
0.4543962571
 40
0.5964138224
 40
0.7390474391
 40
0.8755058518
 40
1.0
 40
1.0
 40
1.0
 40
1.0
 10
27.6461870659
 20
63.2374180438
 30
0.0
 10
27.5717033461
 20
63.2231762425
 30
0.0
 10
27.4137362627
 20
63.2110369322
 30
0.0
 10
27.1693424459
 20
63.2393798546
 30
0.0
 10
26.9150246284
 20
63.3128823349
 30
0.0
 10
26.556923259
 20
63.4740190111
 30
0.0
 10
26.1141039266
 20
63.7828270809
 30
0.0
 10
25.6332435088
 20
64.2740136127
 30
0.0
 10
25.2169889298
 20
64.8649928313
 30
0.0
 10
24.8942594483
 20
65.5151165419
 30
0.0
 10
24.6870779384
 20
66.1792333494
 30
0.0
 10
24.6325105617
 20
66.6276974092
 30
0.0
 10
24.6325105617
 20
66.8414040149
 30
0.0
  0
SPLINE
  5
47F
100
AcDbEntity
  8
0
100
AcDbSpline
 62
7
  6
CONTINUOUS
 70
0
 71
3
 72
9
 73
5
 74
0
 42
0.0000001
 43
0.0000001
 44
0.0000000001
 40
0.0
 40
0.0
 40
0.0
 40
0.0
 40
0.5068036007
 40
1.0
 40
1.0
 40
1.0
 40
1.0
 10
25.1261532566
 20
67.9632905164
 30
0.0
 10
25.1654560118
 20
68.0153625924
 30
0.0
 10
25.2526880692
 20
68.1112679764
 30
0.0
 10
25.3576520458
 20
68.1875911859
 30
0.0
 10
25.4126343362
 20
68.2193350549
 30
0.0
  0
SPLINE
  5
480
100
AcDbEntity
  8
0
100
AcDbSpline
 62
7
  6
CONTINUOUS
 70
0
 71
3
 72
9
 73
5
 74
0
 42
0.0000001
 43
0.0000001
 44
0.0000000001
 40
0.0
 40
0.0
 40
0.0
 40
0.0
 40
0.5057377199
 40
1.0
 40
1.0
 40
1.0
 40
1.0
 10
12.9133054104
 20
75.0517148909
 30
0.0
 10
12.9506638362
 20
75.0981527091
 30
0.0
 10
13.0326177184
 20
75.1838352237
 30
0.0
 10
13.1291925938
 20
75.252776115
 30
0.0
 10
13.1796361365
 20
75.2819000213
 30
0.0
  0
SPLINE
  5
481
100
AcDbEntity
  8
0
100
AcDbSpline
 62
7
  6
CONTINUOUS
 70
0
 71
3
 72
17
 73
13
 74
0
 42
0.0000001
 43
0.0000001
 44
0.0000000001
 40
0.0
 40
0.0
 40
0.0
 40
0.0
 40
0.0439373587
 40
0.0909608635
 40
0.1417170367
 40
0.1965564538
 40
0.3180507965
 40
0.452724482
 40
0.5950117197
 40
0.7381136569
 40
0.8750868762
 40
1.0
 40
1.0
 40
1.0
 40
1.0
 10
15.4447907328
 20
70.3065478709
 30
0.0
 10
15.3707416874
 20
70.2899251261
 30
0.0
 10
15.2131256609
 20
70.2731423176
 30
0.0
 10
14.9680923057
 20
70.2956611547
 30
0.0
 10
14.7124167043
 20
70.3643526195
 30
0.0
 10
14.3513379935
 20
70.5203852846
 30
0.0
 10
13.9035357325
 20
70.8259002357
 30
0.0
 10
13.4164516231
 20
71.3166129309
 30
0.0
 10
12.9939647835
 20
71.9102337564
 30
0.0
 10
12.665934066
 20
72.5652381483
 30
0.0
 10
12.4551274883
 20
73.2353414266
 30
0.0
 10
12.3995123167
 20
73.6882098256
 30
0.0
 10
12.3995123167
 20
73.9039690681
 30
0.0
  0
SPLINE
  5
482
100
AcDbEntity
  8
0
100
AcDbSpline
 62
7
  6
CONTINUOUS
 70
0
 71
3
 72
11
 73
7
 74
0
 42
0.0000001
 43
0.0000001
 44
0.0000000001
 40
0.0
 40
0.0
 40
0.0
 40
0.0
 40
0.2802097666
 40
0.5393246267
 40
0.7782341202
 40
1.0
 40
1.0
 40
1.0
 40
1.0
 10
12.3995123167
 20
73.9039690681
 30
0.0
 10
12.3995123167
 20
74.0055665349
 30
0.0
 10
12.4110026333
 20
74.2014152557
 30
0.0
 10
12.4671372502
 20
74.4790586274
 30
0.0
 10
12.5609980836
 20
74.7239922161
 30
0.0
 10
12.6507732871
 20
74.8665914895
 30
0.0
 10
12.7011742592
 20
74.9292416448
 30
0.0
  0
SPLINE
  5
483
100
AcDbEntity
  8
0
100
AcDbSpline
 62
7
  6
CONTINUOUS
 70
0
 71
3
 72
11
 73
7
 74
0
 42
0.0000001
 43
0.0000001
 44
0.0000000001
 40
0.0
 40
0.0
 40
0.0
 40
0.0
 40
0.2802695068
 40
0.5393950939
 40
0.7782762636
 40
1.0
 40
1.0
 40
1.0
 40
1.0
 10
18.5160114392
 20
70.3726865415
 30
0.0
 10
18.5160114392
 20
70.4744853653
 30
0.0
 10
18.5275462374
 20
70.6707074971
 30
0.0
 10
18.5839084246
 20
70.9488372351
 30
0.0
 10
18.6781513284
 20
71.1941059828
 30
0.0
 10
18.7682901459
 20
71.3368083287
 30
0.0
 10
18.818886376
 20
71.399464067
 30
0.0
  0
SPLINE
  5
484
100
AcDbEntity
  8
0
100
AcDbSpline
 62
7
  6
CONTINUOUS
 70
0
 71
3
 72
17
 73
13
 74
0
 42
0.0000001
 43
0.0000001
 44
0.0000000001
 40
0.0
 40
0.0
 40
0.0
 40
0.0
 40
0.043923845
 40
0.0909284777
 40
0.1416644578
 40
0.1964854806
 40
0.3179552844
 40
0.4526257391
 40
0.5949287309
 40
0.7380583226
 40
0.8750620363
 40
1.0
 40
1.0
 40
1.0
 40
1.0
 10
21.5631474573
 20
66.7756841995
 30
0.0
 10
21.489125949
 20
66.7589197129
 30
0.0
 10
21.3315341957
 20
66.7418595395
 30
0.0
 10
21.0864660459
 20
66.7640294203
 30
0.0
 10
20.8307124904
 20
66.8324321982
 30
0.0
 10
20.4694601693
 20
66.9881574506
 30
0.0
 10
20.0213643227
 20
67.2934723992
 30
0.0
 10
19.5339125082
 20
67.7841527597
 30
0.0
 10
19.1110563715
 20
68.3779272004
 30
0.0
 10
18.7827109762
 20
69.033219181
 30
0.0
 10
18.5716889672
 20
69.7036764768
 30
0.0
 10
18.5160114392
 20
70.1568057259
 30
0.0
 10
18.5160114392
 20
70.3726865415
 30
0.0
  0
SPLINE
  5
485
100
AcDbEntity
  8
0
100
AcDbSpline
 62
7
  6
CONTINUOUS
 70
0
 71
3
 72
9
 73
5
 74
0
 42
0.0000001
 43
0.0000001
 44
0.0000000001
 40
0.0
 40
0.0
 40
0.0
 40
0.0
 40
0.5056768655
 40
1.0
 40
1.0
 40
1.0
 40
1.0
 10
19.0310175271
 20
71.5219373132
 30
0.0
 10
19.0682532184
 20
71.5680480555
 30
0.0
 10
19.1498828584
 20
71.6531376698
 30
0.0
 10
19.2459602493
 20
71.7216485714
 30
0.0
 10
19.2961352656
 20
71.750617483
 30
0.0
  0
SPLINE
  5
486
100
AcDbEntity
  8
0
100
AcDbSpline
 62
7
  6
CONTINUOUS
 70
0
 71
3
 72
10
 73
6
 74
0
 42
0.0000001
 43
0.0000001
 44
0.0000000001
 40
0.0
 40
0.0
 40
0.0
 40
0.0
 40
0.2770813916
 40
0.5358513333
 40
1.0
 40
1.0
 40
1.0
 40
1.0
 10
22.3944375706
 20
40.9848214575
 30
0.0
 10
22.3944375706
 20
40.8949189974
 30
0.0
 10
22.3853348241
 20
40.7207262476
 30
0.0
 10
22.3293174565
 20
40.4009416733
 30
0.0
 10
22.2407796669
 20
40.1778782349
 30
0.0
 10
22.1590289276
 20
40.051399796
 30
0.0
  0
SPLINE
  5
487
100
AcDbEntity
  8
0
100
AcDbSpline
 62
7
  6
CONTINUOUS
 70
0
 71
3
 72
16
 73
12
 74
0
 42
0.0000001
 43
0.0000001
 44
0.0000000001
 40
0.0
 40
0.0
 40
0.0
 40
0.0
 40
0.0926641832
 40
0.1446174135
 40
0.2005242091
 40
0.3234151563
 40
0.4582624765
 40
0.599654608
 40
0.7412003424
 40
0.8764673524
 40
1.0
 40
1.0
 40
1.0
 40
1.0
 10
19.4589715625
 20
44.6007012349
 30
0.0
 10
19.6145447765
 20
44.6184527191
 30
0.0
 10
19.8643980342
 20
44.5927111775
 30
0.0
 10
20.1856389776
 20
44.4840030739
 30
0.0
 10
20.5364648045
 20
44.3111828679
 30
0.0
 10
20.9668883077
 20
43.9950740039
 30
0.0
 10
21.4326416109
 20
43.5033012643
 30
0.0
 10
21.8338400914
 20
42.9190818247
 30
0.0
 10
22.1438512558
 20
42.2809515815
 30
0.0
 10
22.342363956
 20
41.6313797696
 30
0.0
 10
22.3944375706
 20
41.1935652689
 30
0.0
 10
22.3944375706
 20
40.9848214575
 30
0.0
  0
SPLINE
  5
488
100
AcDbEntity
  8
0
100
AcDbSpline
 62
7
  6
CONTINUOUS
 70
0
 71
3
 72
12
 73
8
 74
0
 42
0.0000001
 43
0.0000001
 44
0.0000000001
 40
0.0
 40
0.0
 40
0.0
 40
0.0
 40
0.1081632494
 40
0.2183738677
 40
0.4513420426
 40
0.7104805138
 40
1.0
 40
1.0
 40
1.0
 40
1.0
 10
37.2422382108
 20
62.0187782863
 30
0.0
 10
37.190997192
 20
61.98920654
 30
0.0
 10
37.092491349
 20
61.920437304
 30
0.0
 10
36.9158217304
 20
61.746605535
 30
0.0
 10
36.7407325544
 20
61.4613038543
 30
0.0
 10
36.6190531
 20
61.0477325615
 30
0.0
 10
36.5950039814
 20
60.7465714562
 30
0.0
 10
36.5950039814
 20
60.5882133961
 30
0.0
  0
SPLINE
  5
489
100
AcDbEntity
  8
0
100
AcDbSpline
 62
7
  6
CONTINUOUS
 70
0
 71
3
 72
9
 73
5
 74
0
 42
0.0000001
 43
0.0000001
 44
0.0000000001
 40
0.0
 40
0.0
 40
0.0
 40
0.0
 40
0.2473123567
 40
1.0
 40
1.0
 40
1.0
 40
1.0
 10
31.5995517082
 20
64.7247246888
 30
0.0
 10
31.617522648
 20
64.7331148413
 30
0.0
 10
31.6912681735
 20
64.7646935456
 30
0.0
 10
31.7690488997
 20
64.7867005296
 30
0.0
 10
31.8283638098
 20
64.7978907584
 30
0.0
  0
SPLINE
  5
48A
100
AcDbEntity
  8
0
100
AcDbSpline
 62
7
  6
CONTINUOUS
 70
0
 71
3
 72
12
 73
8
 74
0
 42
0.0000001
 43
0.0000001
 44
0.0000000001
 40
0.0
 40
0.0
 40
0.0
 40
0.0
 40
0.1081632494
 40
0.2183738677
 40
0.4513420426
 40
0.7104805138
 40
1.0
 40
1.0
 40
1.0
 40
1.0
 10
25.0092399657
 20
41.2794360363
 30
0.0
 10
24.9579989469
 20
41.2498642899
 30
0.0
 10
24.859493104
 20
41.1810950539
 30
0.0
 10
24.6828234853
 20
41.0072632849
 30
0.0
 10
24.5077343093
 20
40.7219616043
 30
0.0
 10
24.3860548549
 20
40.3083903114
 30
0.0
 10
24.3620057363
 20
40.0072292061
 30
0.0
 10
24.3620057363
 20
39.848871146
 30
0.0
  0
SPLINE
  5
48B
100
AcDbEntity
  8
0
100
AcDbSpline
 62
7
  6
CONTINUOUS
 70
0
 71
3
 72
9
 73
5
 74
0
 42
0.0000001
 43
0.0000001
 44
0.0000000001
 40
0.0
 40
0.0
 40
0.0
 40
0.0
 40
0.247743556
 40
1.0
 40
1.0
 40
1.0
 40
1.0
 10
31.573689405
 20
37.5634444875
 30
0.0
 10
31.5915121763
 20
37.5724551995
 30
0.0
 10
31.6646245144
 20
37.6064759585
 30
0.0
 10
31.7421546635
 20
37.6308723412
 30
0.0
 10
31.8014180037
 20
37.643724065
 30
0.0
  0
SPLINE
  5
48C
100
AcDbEntity
  8
0
100
AcDbSpline
 62
7
  6
CONTINUOUS
 70
0
 71
3
 72
9
 73
5
 74
0
 42
0.0000001
 43
0.0000001
 44
0.0000000001
 40
0.0
 40
0.0
 40
0.0
 40
0.0
 40
0.2559597633
 40
1.0
 40
1.0
 40
1.0
 40
1.0
 10
22.3711600788
 20
40.1738730422
 30
0.0
 10
22.3588949619
 20
40.1548973993
 30
0.0
 10
22.30879614
 20
40.0822075034
 30
0.0
 10
22.249684145
 20
40.0156280652
 30
0.0
 10
22.2012447835
 20
39.9712732495
 30
0.0
  0
SPLINE
  5
48D
100
AcDbEntity
  8
0
100
AcDbSpline
 62
7
  6
CONTINUOUS
 70
0
 71
3
 72
9
 73
5
 74
0
 42
0.0000001
 43
0.0000001
 44
0.0000000001
 40
0.0
 40
0.0
 40
0.0
 40
0.0
 40
0.2462533952
 40
1.0
 40
1.0
 40
1.0
 40
1.0
 10
19.441275559
 20
44.6695853828
 30
0.0
 10
19.4594977834
 20
44.676233227
 30
0.0
 10
19.5343169819
 20
44.7009456617
 30
0.0
 10
19.6121140457
 20
44.7164436539
 30
0.0
 10
19.6711027136
 20
44.7231744811
 30
0.0
  0
SPLINE
  5
48E
100
AcDbEntity
  8
0
100
AcDbSpline
 62
7
  6
CONTINUOUS
 70
0
 71
3
 72
10
 73
6
 74
0
 42
0.0000001
 43
0.0000001
 44
0.0000000001
 40
0.0
 40
0.0
 40
0.0
 40
0.0
 40
0.278268911
 40
0.5373458511
 40
1.0
 40
1.0
 40
1.0
 40
1.0
 10
28.5109366931
 20
37.4535389309
 30
0.0
 10
28.5109366931
 20
37.3599617771
 30
0.0
 10
28.5010800993
 20
37.1788825296
 30
0.0
 10
28.4404393048
 20
36.8479055179
 30
0.0
 10
28.3441697772
 20
36.6182451468
 30
0.0
 10
28.2556011716
 20
36.4903326292
 30
0.0
  0
SPLINE
  5
48F
100
AcDbEntity
  8
0
100
AcDbSpline
 62
7
  6
CONTINUOUS
 70
0
 71
3
 72
16
 73
12
 74
0
 42
0.0000001
 43
0.0000001
 44
0.0000000001
 40
0.0
 40
0.0
 40
0.0
 40
0.0
 40
0.091971775
 40
0.1435553651
 40
0.1991391535
 40
0.3216235765
 40
0.4564479818
 40
0.5981473277
 40
0.740201794
 40
0.876020234
 40
1.0
 40
1.0
 40
1.0
 40
1.0
 10
25.5405746565
 20
41.0648554491
 30
0.0
 10
25.6953767267
 20
41.0877116617
 30
0.0
 10
25.9461210906
 20
41.0686559863
 30
0.0
 10
26.2693884095
 20
40.9661321597
 30
0.0
 10
26.623629746
 20
40.798367224
 30
0.0
 10
27.0594928829
 20
40.4853701675
 30
0.0
 10
27.5319737705
 20
39.9937596297
 30
0.0
 10
27.9398172055
 20
39.4064857781
 30
0.0
 10
28.2554382305
 20
38.7630181617
 30
0.0
 10
28.4577670082
 20
38.1070017248
 30
0.0
 10
28.5109366931
 20
37.6644774738
 30
0.0
 10
28.5109366931
 20
37.4535389309
 30
0.0
  0
SPLINE
  5
490
100
AcDbEntity
  8
0
100
AcDbSpline
 62
7
  6
CONTINUOUS
 70
0
 71
3
 72
12
 73
8
 74
0
 42
0.0000001
 43
0.0000001
 44
0.0000000001
 40
0.0
 40
0.0
 40
0.0
 40
0.0
 40
0.1081632494
 40
0.2183738677
 40
0.4513420426
 40
0.7104805138
 40
1.0
 40
1.0
 40
1.0
 40
1.0
 10
31.1257390883
 20
64.8968588792
 30
0.0
 10
31.0744980695
 20
64.8672871329
 30
0.0
 10
30.9759922265
 20
64.7985178969
 30
0.0
 10
30.7993226079
 20
64.6246861279
 30
0.0
 10
30.6242334318
 20
64.3393844472
 30
0.0
 10
30.5025539775
 20
63.9258131544
 30
0.0
 10
30.4785048589
 20
63.6246520491
 30
0.0
 10
30.4785048589
 20
63.466293989
 30
0.0
  0
SPLINE
  5
491
100
AcDbEntity
  8
0
100
AcDbSpline
 62
7
  6
CONTINUOUS
 70
0
 71
3
 72
9
 73
5
 74
0
 42
0.0000001
 43
0.0000001
 44
0.0000000001
 40
0.0
 40
0.0
 40
0.0
 40
0.0
 40
0.2463403398
 40
1.0
 40
1.0
 40
1.0
 40
1.0
 10
25.5508160202
 20
68.2844374347
 30
0.0
 10
25.5690250044
 20
68.2912436
 30
0.0
 10
25.643787805
 20
68.3165804391
 30
0.0
 10
25.7216225789
 20
68.3326586158
 30
0.0
 10
25.7806677036
 20
68.3397833884
 30
0.0
  0
SPLINE
  5
492
100
AcDbEntity
  8
0
100
AcDbSpline
 62
7
  6
CONTINUOUS
 70
0
 71
3
 72
9
 73
5
 74
0
 42
0.0000001
 43
0.0000001
 44
0.0000000001
 40
0.0
 40
0.0
 40
0.0
 40
0.0
 40
0.2555191927
 40
1.0
 40
1.0
 40
1.0
 40
1.0
 10
28.4677323228
 20
36.6128058754
 30
0.0
 10
28.4549917752
 20
36.5944057266
 30
0.0
 10
28.4029717845
 20
36.5239257494
 30
0.0
 10
28.342047682
 20
36.4599227922
 30
0.0
 10
28.2924227507
 20
36.4176211408
 30
0.0
  0
SPLINE
  5
493
100
AcDbEntity
  8
0
100
AcDbSpline
 62
7
  6
CONTINUOUS
 70
0
 71
3
 72
11
 73
7
 74
0
 42
0.0000001
 43
0.0000001
 44
0.0000000001
 40
0.0
 40
0.0
 40
0.0
 40
0.0
 40
0.2799802862
 40
0.5390533201
 40
0.7780710936
 40
1.0
 40
1.0
 40
1.0
 40
1.0
 10
34.6274358157
 20
33.9222564043
 30
0.0
 10
34.6274358157
 20
33.8214305636
 30
0.0
 10
34.6161152071
 20
33.6270133159
 30
0.0
 10
34.5608481804
 20
33.3512363322
 30
0.0
 10
34.4684436982
 20
33.1075935463
 30
0.0
 10
34.3800550709
 20
32.9653984002
 30
0.0
 10
34.330399613
 20
32.9027755277
 30
0.0
  0
SPLINE
  5
494
100
AcDbEntity
  8
0
100
AcDbSpline
 62
7
  6
CONTINUOUS
 70
0
 71
3
 72
17
 73
13
 74
0
 42
0.0000001
 43
0.0000001
 44
0.0000000001
 40
0.0
 40
0.0
 40
0.0
 40
0.0
 40
0.043989788
 40
0.0910859114
 40
0.1419195104
 40
0.1968293053
 40
0.3184172742
 40
0.4531029747
 40
0.5953296429
 40
0.7383255705
 40
0.8751819933
 40
1.0
 40
1.0
 40
1.0
 40
1.0
 10
31.5892868525
 20
37.5212508189
 30
0.0
 10
31.6634395148
 20
37.5373314099
 30
0.0
 10
31.8211448893
 20
37.5530542805
 30
0.0
 10
32.0660417726
 20
37.5292030591
 30
0.0
 10
32.3214162462
 20
37.4594097683
 30
0.0
 10
32.6818271731
 20
37.3022049773
 30
0.0
 10
33.1285033748
 20
36.9959291318
 30
0.0
 10
33.6141781914
 20
36.5050970086
 30
0.0
 10
34.0352507653
 20
35.9120674848
 30
0.0
 10
34.362076958
 20
35.2581661184
 30
0.0
 10
34.5720591663
 20
34.5894193243
 30
0.0
 10
34.6274358157
 20
34.1375500121
 30
0.0
 10
34.6274358157
 20
33.9222564043
 30
0.0
  0
SPLINE
  5
495
100
AcDbEntity
  8
0
100
AcDbSpline
 62
7
  6
CONTINUOUS
 70
0
 71
3
 72
9
 73
5
 74
0
 42
0.0000001
 43
0.0000001
 44
0.0000000001
 40
0.0
 40
0.0
 40
0.0
 40
0.0
 40
0.2462779041
 40
1.0
 40
1.0
 40
1.0
 40
1.0
 10
13.3227955812
 20
48.2001424506
 30
0.0
 10
13.3410142347
 20
48.2068352701
 30
0.0
 10
13.4158182308
 20
48.2317250908
 30
0.0
 10
13.4936267726
 20
48.2473876827
 30
0.0
 10
13.5526320021
 20
48.2542302081
 30
0.0
  0
SPLINE
  5
496
100
AcDbEntity
  8
0
100
AcDbSpline
 62
7
  6
CONTINUOUS
 70
0
 71
3
 72
12
 73
8
 74
0
 42
0.0000001
 43
0.0000001
 44
0.0000000001
 40
0.0
 40
0.0
 40
0.0
 40
0.0
 40
0.1081632494
 40
0.2183738677
 40
0.4513420426
 40
0.7104805138
 40
1.0
 40
1.0
 40
1.0
 40
1.0
 10
18.8927408432
 20
44.8107185629
 30
0.0
 10
18.8414998244
 20
44.7811468165
 30
0.0
 10
18.7429939814
 20
44.7123775805
 30
0.0
 10
18.5663243628
 20
44.5385458115
 30
0.0
 10
18.3912351868
 20
44.2532441309
 30
0.0
 10
18.2695557324
 20
43.839672838
 30
0.0
 10
18.2455066138
 20
43.5385117327
 30
0.0
 10
18.2455066138
 20
43.3801536726
 30
0.0
  0
SPLINE
  5
497
100
AcDbEntity
  8
0
100
AcDbSpline
 62
7
  6
CONTINUOUS
 70
0
 71
3
 72
9
 73
5
 74
0
 42
0.0000001
 43
0.0000001
 44
0.0000000001
 40
0.0
 40
0.0
 40
0.0
 40
0.0
 40
0.2545584319
 40
1.0
 40
1.0
 40
1.0
 40
1.0
 10
34.5425307642
 20
33.0252487739
 30
0.0
 10
34.528844493
 20
33.0079883628
 30
0.0
 10
34.4729726632
 20
32.9418906479
 30
0.0
 10
34.4084559583
 20
32.8830224201
 30
0.0
 10
34.3564969975
 20
32.8447949828
 30
0.0
  0
SPLINE
  5
498
100
AcDbEntity
  8
0
100
AcDbSpline
 62
7
  6
CONTINUOUS
 70
0
 71
3
 72
12
 73
8
 74
0
 42
0.0000001
 43
0.0000001
 44
0.0000000001
 40
0.0
 40
0.0
 40
0.0
 40
0.0
 40
0.1081632494
 40
0.2183738677
 40
0.4513420426
 40
0.7104805138
 40
1.0
 40
1.0
 40
1.0
 40
1.0
 10
25.0092399657
 20
68.4281414058
 30
0.0
 10
24.9579989469
 20
68.3985696595
 30
0.0
 10
24.859493104
 20
68.3298004235
 30
0.0
 10
24.6828234854
 20
68.1559686545
 30
0.0
 10
24.5077343093
 20
67.8706669738
 30
0.0
 10
24.386054855
 20
67.457095681
 30
0.0
 10
24.3620057364
 20
67.1559345757
 30
0.0
 10
24.3620057364
 20
66.9975765156
 30
0.0
  0
SPLINE
  5
499
100
AcDbEntity
  8
0
100
AcDbSpline
 62
7
  6
CONTINUOUS
 70
0
 71
3
 72
9
 73
5
 74
0
 42
0.0000001
 43
0.0000001
 44
0.0000000001
 40
0.0
 40
0.0
 40
0.0
 40
0.0
 40
0.2539082594
 40
1.0
 40
1.0
 40
1.0
 40
1.0
 10
31.6678880294
 20
37.7137984516
 30
0.0
 10
31.6724375004
 20
37.7258796692
 30
0.0
 10
31.6909075254
 20
37.7732501602
 30
0.0
 10
31.7116183916
 20
37.8197528196
 30
0.0
 10
31.728377329
 20
37.8537834899
 30
0.0
  0
SPLINE
  5
49A
100
AcDbEntity
  8
0
100
AcDbSpline
 62
7
  6
CONTINUOUS
 70
0
 71
3
 72
9
 73
5
 74
0
 42
0.0000001
 43
0.0000001
 44
0.0000000001
 40
0.0
 40
0.0
 40
0.0
 40
0.0
 40
0.2772186982
 40
1.0
 40
1.0
 40
1.0
 40
1.0
 10
40.7439349382
 20
29.737771944
 30
0.0
 10
40.7439349382
 20
29.6506152616
 30
0.0
 10
40.7284107863
 20
29.337358762
 30
0.0
 10
40.6417578302
 20
29.020807203
 30
0.0
 10
40.5228822259
 20
28.8271407901
 30
0.0
  0
SPLINE
  5
49B
100
AcDbEntity
  8
0
100
AcDbSpline
 62
7
  6
CONTINUOUS
 70
0
 71
3
 72
16
 73
12
 74
0
 42
0.0000001
 43
0.0000001
 44
0.0000000001
 40
0.0
 40
0.0
 40
0.0
 40
0.0
 40
0.0931978045
 40
0.1454270844
 40
0.2015722355
 40
0.3247579926
 40
0.4596152727
 40
0.600774752
 40
0.7419409759
 40
0.8767986389
 40
1.0
 40
1.0
 40
1.0
 40
1.0
 10
37.8347622779
 20
33.3563289864
 30
0.0
 10
37.9908079777
 20
33.3703192914
 30
0.0
 10
38.239909826
 20
33.3397239294
 30
0.0
 10
38.5595867818
 20
33.2265141132
 30
0.0
 10
38.9078092549
 20
33.0500518449
 30
0.0
 10
39.3341479563
 20
32.7317419768
 30
0.0
 10
39.7948731892
 20
32.2399498443
 30
0.0
 10
40.1911298939
 20
31.6580709566
 30
0.0
 10
40.4969815574
 20
31.0239493129
 30
0.0
 10
40.6926703959
 20
30.3791888455
 30
0.0
 10
40.7439349382
 20
29.9448814785
 30
0.0
 10
40.7439349382
 20
29.737771944
 30
0.0
  0
SPLINE
  5
49C
100
AcDbEntity
  8
0
100
AcDbSpline
 62
7
  6
CONTINUOUS
 70
0
 71
3
 72
9
 73
5
 74
0
 42
0.0000001
 43
0.0000001
 44
0.0000000001
 40
0.0
 40
0.0
 40
0.0
 40
0.0
 40
0.2467118446
 40
1.0
 40
1.0
 40
1.0
 40
1.0
 10
25.5229890675
 20
41.1248175087
 30
0.0
 10
25.5411250341
 20
41.1322654457
 30
0.0
 10
25.6155760878
 20
41.1601325191
 30
0.0
 10
25.6934853923
 20
41.1785849207
 30
0.0
 10
25.7527058077
 20
41.1873286953
 30
0.0
  0
SPLINE
  5
49D
100
AcDbEntity
  8
0
100
AcDbSpline
 62
7
  6
CONTINUOUS
 70
0
 71
3
 72
9
 73
5
 74
0
 42
0.0000001
 43
0.0000001
 44
0.0000000001
 40
0.0
 40
0.0
 40
0.0
 40
0.0
 40
0.2459182911
 40
1.0
 40
1.0
 40
1.0
 40
1.0
 10
19.470090468
 20
71.8282837415
 30
0.0
 10
19.4883474056
 20
71.8342860307
 30
0.0
 10
19.5633136229
 20
71.8564517841
 30
0.0
 10
19.6408799052
 20
71.8696057054
 30
0.0
 10
19.6995856788
 20
71.8747512294
 30
0.0
  0
SPLINE
  5
49E
100
AcDbEntity
  8
0
100
AcDbSpline
 62
7
  6
CONTINUOUS
 70
0
 71
3
 72
10
 73
6
 74
0
 42
0.0000001
 43
0.0000001
 44
0.0000000001
 40
0.0
 40
0.0
 40
0.0
 40
0.0
 40
0.2771483655
 40
0.5359359854
 40
1.0
 40
1.0
 40
1.0
 40
1.0
 10
16.2779384481
 20
44.5161039841
 30
0.0
 10
16.2779384481
 20
44.4259948572
 30
0.0
 10
16.2687941213
 20
44.2514143532
 30
0.0
 10
16.2125214111
 20
43.9309964363
 30
0.0
 10
16.1235588464
 20
43.7075556096
 30
0.0
 10
16.0414307979
 20
43.5809853181
 30
0.0
  0
SPLINE
  5
49F
100
AcDbEntity
  8
0
100
AcDbSpline
 62
7
  6
CONTINUOUS
 70
0
 71
3
 72
12
 73
8
 74
0
 42
0.0000001
 43
0.0000001
 44
0.0000000001
 40
0.0
 40
0.0
 40
0.0
 40
0.0
 40
0.1081632494
 40
0.2183738677
 40
0.4513420426
 40
0.7104805138
 40
1.0
 40
1.0
 40
1.0
 40
1.0
 10
31.1257390882
 20
37.7481535097
 30
0.0
 10
31.0744980694
 20
37.7185817633
 30
0.0
 10
30.9759922265
 20
37.6498125273
 30
0.0
 10
30.7993226079
 20
37.4759807583
 30
0.0
 10
30.6242334318
 20
37.1906790777
 30
0.0
 10
30.5025539774
 20
36.7771077848
 30
0.0
 10
30.4785048589
 20
36.4759466795
 30
0.0
 10
30.4785048589
 20
36.3175886194
 30
0.0
  0
SPLINE
  5
4A0
100
AcDbEntity
  8
0
100
AcDbSpline
 62
7
  6
CONTINUOUS
 70
0
 71
3
 72
16
 73
12
 74
0
 42
0.0000001
 43
0.0000001
 44
0.0000000001
 40
0.0
 40
0.0
 40
0.0
 40
0.0
 40
0.0926245629
 40
0.1445570067
 40
0.200445757
 40
0.3233142074
 40
0.4581605347
 40
0.5995700749
 40
0.7411443998
 40
0.876442317
 40
1.0
 40
1.0
 40
1.0
 40
1.0
 10
13.3405008509
 20
48.1317569619
 30
0.0
 10
13.4960349354
 20
48.1497934296
 30
0.0
 10
13.7459418471
 20
48.1244221039
 30
0.0
 10
14.067298775
 20
48.0160569443
 30
0.0
 10
14.4183188018
 20
47.84351553
 30
0.0
 10
14.8490490672
 20
47.5275766099
 30
0.0
 10
15.3151807924
 20
47.0358088397
 30
0.0
 10
15.7167520423
 20
46.451415238
 30
0.0
 10
16.0270773979
 20
45.8129839802
 30
0.0
 10
16.2258035944
 20
45.1630498866
 30
0.0
 10
16.2779384481
 20
44.7249709979
 30
0.0
 10
16.2779384481
 20
44.5161039841
 30
0.0
  0
SPLINE
  5
4A1
100
AcDbEntity
  8
0
100
AcDbSpline
 62
7
  6
CONTINUOUS
 70
0
 71
3
 72
9
 73
5
 74
0
 42
0.0000001
 43
0.0000001
 44
0.0000000001
 40
0.0
 40
0.0
 40
0.0
 40
0.0
 40
0.2459427863
 40
1.0
 40
1.0
 40
1.0
 40
1.0
 10
37.8173598269
 20
33.4317930098
 30
0.0
 10
37.8356151992
 20
33.4378446162
 30
0.0
 10
37.9105748645
 20
33.4602049553
 30
0.0
 10
37.988163091
 20
33.4735367536
 30
0.0
 10
38.0468934291
 20
33.4788022326
 30
0.0
  0
SPLINE
  5
4A2
100
AcDbEntity
  8
0
100
AcDbSpline
 62
7
  6
CONTINUOUS
 70
0
 71
3
 72
9
 73
5
 74
0
 42
0.0000001
 43
0.0000001
 44
0.0000000001
 40
0.0
 40
0.0
 40
0.0
 40
0.0
 40
0.2562682354
 40
1.0
 40
1.0
 40
1.0
 40
1.0
 10
40.7350133771
 20
28.9496140363
 30
0.0
 10
40.7231022425
 20
28.930208989
 30
0.0
 10
40.6744274001
 20
28.8558706679
 30
0.0
 10
40.6166665239
 20
28.7873759547
 30
0.0
 10
40.5691151527
 20
28.7414916104
 30
0.0
  0
SPLINE
  5
4A3
100
AcDbEntity
  8
0
100
AcDbSpline
 62
7
  6
CONTINUOUS
 70
0
 71
3
 72
9
 73
5
 74
0
 42
0.0000001
 43
0.0000001
 44
0.0000000001
 40
0.0
 40
0.0
 40
0.0
 40
0.0
 40
0.2524442277
 40
1.0
 40
1.0
 40
1.0
 40
1.0
 10
40.5691151527
 20
28.7414916104
 30
0.0
 10
40.5553589624
 20
28.7282176762
 30
0.0
 10
40.4993302145
 20
28.6772549635
 30
0.0
 10
40.4370985386
 20
28.6330901285
 30
0.0
 10
40.3880725184
 20
28.6047890344
 30
0.0
  0
SPLINE
  5
4A4
100
AcDbEntity
  8
0
100
AcDbSpline
 62
7
  6
CONTINUOUS
 70
0
 71
3
 72
10
 73
6
 74
0
 42
0.0000001
 43
0.0000001
 44
0.0000000001
 40
0.0
 40
0.0
 40
0.0
 40
0.0
 40
0.2783057394
 40
0.5373919736
 40
1.0
 40
1.0
 40
1.0
 40
1.0
 10
40.7439349382
 20
58.192881181
 30
0.0
 10
40.7439349382
 20
58.0991896749
 30
0.0
 10
40.7340543901
 20
57.9178964013
 30
0.0
 10
40.673266896
 20
57.5865734184
 30
0.0
 10
40.5767506122
 20
57.3567116562
 30
0.0
 10
40.4879662075
 20
57.2287613633
 30
0.0
  0
SPLINE
  5
4A5
100
AcDbEntity
  8
0
100
AcDbSpline
 62
7
  6
CONTINUOUS
 70
0
 71
3
 72
12
 73
8
 74
0
 42
0.0000001
 43
0.0000001
 44
0.0000000001
 40
0.0
 40
0.0
 40
0.0
 40
0.0
 40
0.1081632494
 40
0.2183738677
 40
0.4513420426
 40
0.7104805138
 40
1.0
 40
1.0
 40
1.0
 40
1.0
 10
18.8927408432
 20
71.9594239324
 30
0.0
 10
18.8414998244
 20
71.9298521861
 30
0.0
 10
18.7429939815
 20
71.8610829501
 30
0.0
 10
18.5663243628
 20
71.6872511811
 30
0.0
 10
18.3912351868
 20
71.4019495004
 30
0.0
 10
18.2695557324
 20
70.9883782076
 30
0.0
 10
18.2455066138
 20
70.6872171023
 30
0.0
 10
18.2455066138
 20
70.5288590422
 30
0.0
  0
SPLINE
  5
4A6
100
AcDbEntity
  8
0
100
AcDbSpline
 62
7
  6
CONTINUOUS
 70
0
 71
3
 72
9
 73
5
 74
0
 42
0.0000001
 43
0.0000001
 44
0.0000000001
 40
0.0
 40
0.0
 40
0.0
 40
0.0
 40
0.245940668
 40
1.0
 40
1.0
 40
1.0
 40
1.0
 10
13.3515551637
 20
75.3588940139
 30
0.0
 10
13.369810678
 20
75.3649413702
 30
0.0
 10
13.4447709383
 20
75.38728494
 30
0.0
 10
13.5223573015
 20
75.4006014013
 30
0.0
 10
13.5810855418
 20
75.4058565352
 30
0.0
  0
SPLINE
  5
4A7
100
AcDbEntity
  8
0
100
AcDbSpline
 62
7
  6
CONTINUOUS
 70
0
 71
3
 72
16
 73
12
 74
0
 42
0.0000001
 43
0.0000001
 44
0.0000000001
 40
0.0
 40
0.0
 40
0.0
 40
0.0
 40
0.0919506522
 40
0.1435227411
 40
0.1990964057
 40
0.321567955
 40
0.4563914649
 40
0.5981002882
 40
0.7401705949
 40
0.8760062557
 40
1.0
 40
1.0
 40
1.0
 40
1.0
 10
37.7724925249
 20
61.8040376115
 30
0.0
 10
37.9272680192
 20
61.8270539137
 30
0.0
 10
38.1780379292
 20
61.8082098229
 30
0.0
 10
38.5013670909
 20
61.7058813955
 30
0.0
 10
38.8557134188
 20
61.5382771244
 30
0.0
 10
39.2917453184
 20
61.225379979
 30
0.0
 10
39.7644355154
 20
60.7337770096
 30
0.0
 10
40.1724863017
 20
60.1464095559
 30
0.0
 10
40.4882826906
 20
59.5027763578
 30
0.0
 10
40.6907308994
 20
58.8465592716
 30
0.0
 10
40.7439349382
 20
58.4038881613
 30
0.0
 10
40.7439349382
 20
58.192881181
 30
0.0
  0
SPLINE
  5
4A8
100
AcDbEntity
  8
0
100
AcDbSpline
 62
7
  6
CONTINUOUS
 70
0
 71
3
 72
12
 73
8
 74
0
 42
0.0000001
 43
0.0000001
 44
0.0000000001
 40
0.0
 40
0.0
 40
0.0
 40
0.0
 40
0.1081632494
 40
0.2183738677
 40
0.4513420426
 40
0.7104805138
 40
1.0
 40
1.0
 40
1.0
 40
1.0
 10
12.7762417207
 20
75.490706459
 30
0.0
 10
12.7250007019
 20
75.4611347127
 30
0.0
 10
12.626494859
 20
75.3923654767
 30
0.0
 10
12.4498252403
 20
75.2185337077
 30
0.0
 10
12.2747360643
 20
74.933232027
 30
0.0
 10
12.1530566099
 20
74.5196607342
 30
0.0
 10
12.1290074913
 20
74.2184996289
 30
0.0
 10
12.1290074913
 20
74.0601415688
 30
0.0
  0
SPLINE
  5
4A9
100
AcDbEntity
  8
0
100
AcDbSpline
 62
7
  6
CONTINUOUS
 70
0
 71
3
 72
9
 73
5
 74
0
 42
0.0000001
 43
0.0000001
 44
0.0000000001
 40
0.0
 40
0.0
 40
0.0
 40
0.0
 40
0.2555049752
 40
1.0
 40
1.0
 40
1.0
 40
1.0
 10
40.7000973586
 20
57.3512346094
 30
0.0
 10
40.6873419794
 20
57.3328523889
 30
0.0
 10
40.6352618937
 20
57.2624412776
 30
0.0
 10
40.5742813163
 20
57.1985187615
 30
0.0
 10
40.5246195315
 20
57.1562811243
 30
0.0
  0
SPLINE
  5
4AA
100
AcDbEntity
  8
0
100
AcDbSpline
 62
7
  6
CONTINUOUS
 70
0
 71
3
 72
19
 73
15
 74
0
 42
0.0000001
 43
0.0000001
 44
0.0000000001
 40
0.0
 40
0.0
 40
0.0
 40
0.0
 40
0.1320614527
 40
0.2752316323
 40
0.4223624378
 40
0.5655525377
 40
0.6334276342
 40
0.6977521143
 40
0.7579749247
 40
0.8137929259
 40
0.8652372269
 40
0.9127358336
 40
0.957201252
 40
1.0
 40
1.0
 40
1.0
 40
1.0
 10
12.1346066009
 20
73.8758527586
 30
0.0
 10
12.1504616563
 20
73.6101749964
 30
0.0
 10
12.2498149251
 20
73.0597310837
 30
0.0
 10
12.5512968971
 20
72.2597120418
 30
0.0
 10
12.9898269271
 20
71.4997921276
 30
0.0
 10
13.4500397075
 20
70.9384311126
 30
0.0
 10
13.8588789458
 20
70.5619452322
 30
0.0
 10
14.1699429954
 20
70.3290960438
 30
0.0
 10
14.4847026004
 20
70.1454717303
 30
0.0
 10
14.7971819525
 20
70.0148483274
 30
0.0
 10
15.1014701757
 20
69.9399778127
 30
0.0
 10
15.3919373151
 20
69.9232906703
 30
0.0
 10
15.6624426606
 20
69.9659545427
 30
0.0
 10
15.8265026392
 20
70.0349580882
 30
0.0
 10
15.9012090441
 20
70.0780719628
 30
0.0
  0
SPLINE
  5
4AB
100
AcDbEntity
  8
0
100
AcDbSpline
 62
7
  6
CONTINUOUS
 70
0
 71
3
 72
19
 73
15
 74
0
 42
0.0000001
 43
0.0000001
 44
0.0000000001
 40
0.0
 40
0.0
 40
0.0
 40
0.0
 40
0.1320614527
 40
0.2752316323
 40
0.4223624378
 40
0.5655525377
 40
0.6334276342
 40
0.6977521143
 40
0.7579749247
 40
0.8137929259
 40
0.8652372269
 40
0.9127358336
 40
0.957201252
 40
1.0
 40
1.0
 40
1.0
 40
1.0
 10
18.2511057234
 20
70.344570232
 30
0.0
 10
18.2669607789
 20
70.0788924698
 30
0.0
 10
18.3663140477
 20
69.5284485571
 30
0.0
 10
18.6677960196
 20
68.7284295152
 30
0.0
 10
19.1063260496
 20
67.968509601
 30
0.0
 10
19.56653883
 20
67.407148586
 30
0.0
 10
19.9753780684
 20
67.0306627056
 30
0.0
 10
20.2864421179
 20
66.7978135172
 30
0.0
 10
20.6012017229
 20
66.6141892037
 30
0.0
 10
20.9136810751
 20
66.4835658008
 30
0.0
 10
21.2179692982
 20
66.4086952861
 30
0.0
 10
21.5084364377
 20
66.3920081437
 30
0.0
 10
21.7789417831
 20
66.4346720161
 30
0.0
 10
21.9430017617
 20
66.5036755616
 30
0.0
 10
22.0177081666
 20
66.5467894362
 30
0.0
  0
SPLINE
  5
4AC
100
AcDbEntity
  8
0
100
AcDbSpline
 62
7
  6
CONTINUOUS
 70
0
 71
3
 72
10
 73
6
 74
0
 42
0.0000001
 43
0.0000001
 44
0.0000000001
 40
0.0
 40
0.0
 40
0.0
 40
0.0
 40
0.2796628926
 40
0.5390812733
 40
1.0
 40
1.0
 40
1.0
 40
1.0
 10
34.6274358157
 20
61.0709617739
 30
0.0
 10
34.6274358157
 20
60.9730358776
 30
0.0
 10
34.6166470033
 20
60.7838289257
 30
0.0
 10
34.5503078789
 20
60.4397917506
 30
0.0
 10
34.4443857927
 20
60.2026429842
 30
0.0
 10
34.3474632603
 20
60.0735925782
 30
0.0
  0
SPLINE
  5
4AD
100
AcDbEntity
  8
0
100
AcDbSpline
 62
7
  6
CONTINUOUS
 70
0
 71
3
 72
17
 73
13
 74
0
 42
0.0000001
 43
0.0000001
 44
0.0000000001
 40
0.0
 40
0.0
 40
0.0
 40
0.0
 40
0.0441957243
 40
0.091568833
 40
0.142693945
 40
0.1978666197
 40
0.3198006819
 40
0.4545264441
 40
0.5965227803
 40
0.7391199179
 40
0.8755383554
 40
1.0
 40
1.0
 40
1.0
 40
1.0
 10
31.6162326586
 20
64.6754175122
 30
0.0
 10
31.6907477481
 20
64.6894753756
 30
0.0
 10
31.8487374925
 20
64.7012571774
 30
0.0
 10
32.0930775478
 20
64.6724672148
 30
0.0
 10
32.3472866251
 20
64.5985960314
 30
0.0
 10
32.7051531169
 20
64.4370697206
 30
0.0
 10
33.1475833541
 20
64.1280124682
 30
0.0
 10
33.6279591491
 20
63.6367948303
 30
0.0
 10
34.0437298812
 20
63.0460245841
 30
0.0
 10
34.3660485256
 20
62.396281956
 30
0.0
 10
34.5729494293
 20
61.7326308786
 30
0.0
 10
34.6274358157
 20
61.2845089398
 30
0.0
 10
34.6274358157
 20
61.0709617739
 30
0.0
  0
SPLINE
  5
4AE
100
AcDbEntity
  8
0
100
AcDbSpline
 62
7
  6
CONTINUOUS
 70
0
 71
3
 72
19
 73
15
 74
0
 42
0.0000001
 43
0.0000001
 44
0.0000000001
 40
0.0
 40
0.0
 40
0.0
 40
0.0
 40
0.1320614527
 40
0.2752316323
 40
0.4223624378
 40
0.5655525377
 40
0.6334276342
 40
0.6977521143
 40
0.7579749247
 40
0.8137929259
 40
0.8652372269
 40
0.9127358336
 40
0.957201252
 40
1.0
 40
1.0
 40
1.0
 40
1.0
 10
24.3676048459
 20
66.8132877054
 30
0.0
 10
24.3834599014
 20
66.5476099432
 30
0.0
 10
24.4828131702
 20
65.9971660305
 30
0.0
 10
24.7842951421
 20
65.1971469886
 30
0.0
 10
25.2228251721
 20
64.4372270744
 30
0.0
 10
25.6830379525
 20
63.8758660594
 30
0.0
 10
26.0918771909
 20
63.499380179
 30
0.0
 10
26.4029412404
 20
63.2665309906
 30
0.0
 10
26.7177008454
 20
63.0829066771
 30
0.0
 10
27.0301801976
 20
62.9522832742
 30
0.0
 10
27.3344684208
 20
62.8774127595
 30
0.0
 10
27.6249355602
 20
62.8607256171
 30
0.0
 10
27.8954409056
 20
62.9033894895
 30
0.0
 10
28.0595008842
 20
62.972393035
 30
0.0
 10
28.1342072892
 20
63.0155069096
 30
0.0
  0
SPLINE
  5
4AF
100
AcDbEntity
  8
0
100
AcDbSpline
 62
7
  6
CONTINUOUS
 70
0
 71
3
 72
19
 73
15
 74
0
 42
0.0000001
 43
0.0000001
 44
0.0000000001
 40
0.0
 40
0.0
 40
0.0
 40
0.0
 40
0.1320551944
 40
0.2752224026
 40
0.4223532071
 40
0.5655453522
 40
0.6334218751
 40
0.6977478455
 40
0.7579720551
 40
0.8137912458
 40
0.8652364288
 40
0.912735571
 40
0.9572012148
 40
1.0
 40
1.0
 40
1.0
 40
1.0
 10
30.4840829533
 20
63.2823576414
 30
0.0
 10
30.4999095053
 20
63.0166753085
 30
0.0
 10
30.5992184
 20
62.4662079266
 30
0.0
 10
30.9006605937
 20
61.6661400769
 30
0.0
 10
31.3391761078
 20
60.9061545014
 30
0.0
 10
31.7993949315
 20
60.3447344782
 30
0.0
 10
32.2082492994
 20
59.9682025027
 30
0.0
 10
32.519328805
 20
59.7353216697
 30
0.0
 10
32.8341065504
 20
59.5516699966
 30
0.0
 10
33.1466055725
 20
59.4210242903
 30
0.0
 10
33.4509140453
 20
59.3461374088
 30
0.0
 10
33.7414010391
 20
59.329440376
 30
0.0
 10
34.0119248345
 20
59.3721013436
 30
0.0
 10
34.1759955969
 20
59.4411079634
 30
0.0
 10
34.2507064117
 20
59.484224383
 30
0.0
  0
SPLINE
  5
4B0
100
AcDbEntity
  8
0
100
AcDbSpline
 62
7
  6
CONTINUOUS
 70
0
 71
3
 72
19
 73
15
 74
0
 42
0.0000001
 43
0.0000001
 44
0.0000000001
 40
0.0
 40
0.0
 40
0.0
 40
0.0
 40
0.1320614527
 40
0.2752316323
 40
0.4223624378
 40
0.5655525377
 40
0.6334276342
 40
0.6977521143
 40
0.7579749247
 40
0.8137929259
 40
0.8652372269
 40
0.9127358336
 40
0.957201252
 40
1.0
 40
1.0
 40
1.0
 40
1.0
 10
36.600603091
 20
60.4039245859
 30
0.0
 10
36.6164581464
 20
60.1382468237
 30
0.0
 10
36.7158114152
 20
59.587802911
 30
0.0
 10
37.0172933872
 20
58.7877838691
 30
0.0
 10
37.4558234172
 20
58.0278639549
 30
0.0
 10
37.9160361976
 20
57.4665029399
 30
0.0
 10
38.3248754359
 20
57.0900170595
 30
0.0
 10
38.6359394855
 20
56.8571678711
 30
0.0
 10
38.9506990905
 20
56.6735435576
 30
0.0
 10
39.2631784426
 20
56.5429201547
 30
0.0
 10
39.5674666658
 20
56.46804964
 30
0.0
 10
39.8579338052
 20
56.4513624976
 30
0.0
 10
40.1284391506
 20
56.49402637
 30
0.0
 10
40.2924991293
 20
56.5630299155
 30
0.0
 10
40.3672055342
 20
56.6061437901
 30
0.0
  0
SPLINE
  5
4B1
100
AcDbEntity
  8
0
100
AcDbSpline
 62
7
  6
CONTINUOUS
 70
0
 71
3
 72
19
 73
15
 74
0
 42
0.0000001
 43
0.0000001
 44
0.0000000001
 40
0.0
 40
0.0
 40
0.0
 40
0.0
 40
0.1320614527
 40
0.2752316323
 40
0.4223624378
 40
0.5655525377
 40
0.6334276342
 40
0.6977521143
 40
0.7579749247
 40
0.8137929259
 40
0.8652372269
 40
0.9127358336
 40
0.957201252
 40
1.0
 40
1.0
 40
1.0
 40
1.0
 10
36.6006030909
 20
31.9488153489
 30
0.0
 10
36.6164581464
 20
31.6831375867
 30
0.0
 10
36.7158114152
 20
31.132693674
 30
0.0
 10
37.0172933872
 20
30.3326746322
 30
0.0
 10
37.4558234172
 20
29.5727547179
 30
0.0
 10
37.9160361975
 20
29.011393703
 30
0.0
 10
38.3248754359
 20
28.6349078226
 30
0.0
 10
38.6359394855
 20
28.4020586342
 30
0.0
 10
38.9506990904
 20
28.2184343206
 30
0.0
 10
39.2631784426
 20
28.0878109177
 30
0.0
 10
39.5674666658
 20
28.0129404031
 30
0.0
 10
39.8579338052
 20
27.9962532606
 30
0.0
 10
40.1284391506
 20
28.038917133
 30
0.0
 10
40.2924991292
 20
28.1079206785
 30
0.0
 10
40.3672055342
 20
28.1510345531
 30
0.0
  0
SPLINE
  5
4B2
100
AcDbEntity
  8
0
100
AcDbSpline
 62
7
  6
CONTINUOUS
 70
0
 71
3
 72
19
 73
15
 74
0
 42
0.0000001
 43
0.0000001
 44
0.0000000001
 40
0.0
 40
0.0
 40
0.0
 40
0.0
 40
0.1320614527
 40
0.2752316323
 40
0.4223624378
 40
0.5655525377
 40
0.6334276342
 40
0.6977521143
 40
0.7579749247
 40
0.8137929259
 40
0.8652372269
 40
0.9127358336
 40
0.957201252
 40
1.0
 40
1.0
 40
1.0
 40
1.0
 10
30.4841039684
 20
36.1332998092
 30
0.0
 10
30.4999590239
 20
35.867622047
 30
0.0
 10
30.5993122927
 20
35.3171781343
 30
0.0
 10
30.9007942646
 20
34.5171590925
 30
0.0
 10
31.3393242946
 20
33.7572391782
 30
0.0
 10
31.799537075
 20
33.1958781633
 30
0.0
 10
32.2083763134
 20
32.8193922829
 30
0.0
 10
32.5194403629
 20
32.5865430945
 30
0.0
 10
32.8341999679
 20
32.4029187809
 30
0.0
 10
33.1466793201
 20
32.272295378
 30
0.0
 10
33.4509675432
 20
32.1974248634
 30
0.0
 10
33.7414346827
 20
32.1807377209
 30
0.0
 10
34.0119400281
 20
32.2234015933
 30
0.0
 10
34.1760000067
 20
32.2924051388
 30
0.0
 10
34.2507064117
 20
32.3355190134
 30
0.0
  0
SPLINE
  5
4B3
100
AcDbEntity
  8
0
100
AcDbSpline
 62
7
  6
CONTINUOUS
 70
0
 71
3
 72
19
 73
15
 74
0
 42
0.0000001
 43
0.0000001
 44
0.0000000001
 40
0.0
 40
0.0
 40
0.0
 40
0.0
 40
0.1320614527
 40
0.2752316323
 40
0.4223624378
 40
0.5655525377
 40
0.6334276342
 40
0.6977521143
 40
0.7579749247
 40
0.8137929259
 40
0.8652372269
 40
0.9127358336
 40
0.957201252
 40
1.0
 40
1.0
 40
1.0
 40
1.0
 10
24.3676048459
 20
39.6645823358
 30
0.0
 10
24.3834599014
 20
39.3989045736
 30
0.0
 10
24.4828131702
 20
38.8484606609
 30
0.0
 10
24.7842951421
 20
38.0484416191
 30
0.0
 10
25.2228251721
 20
37.2885217048
 30
0.0
 10
25.6830379525
 20
36.7271606899
 30
0.0
 10
26.0918771909
 20
36.3506748095
 30
0.0
 10
26.4029412404
 20
36.1178256211
 30
0.0
 10
26.7177008454
 20
35.9342013075
 30
0.0
 10
27.0301801975
 20
35.8035779046
 30
0.0
 10
27.3344684207
 20
35.72870739
 30
0.0
 10
27.6249355602
 20
35.7120202475
 30
0.0
 10
27.8954409056
 20
35.7546841199
 30
0.0
 10
28.0595008842
 20
35.8236876654
 30
0.0
 10
28.1342072891
 20
35.86680154
 30
0.0
  0
SPLINE
  5
4B4
100
AcDbEntity
  8
0
100
AcDbSpline
 62
7
  6
CONTINUOUS
 70
0
 71
3
 72
19
 73
15
 74
0
 42
0.0000001
 43
0.0000001
 44
0.0000000001
 40
0.0
 40
0.0
 40
0.0
 40
0.0
 40
0.1320614527
 40
0.2752316323
 40
0.4223624378
 40
0.5655525377
 40
0.6334276342
 40
0.6977521143
 40
0.7579749247
 40
0.8137929259
 40
0.8652372269
 40
0.9127358336
 40
0.957201252
 40
1.0
 40
1.0
 40
1.0
 40
1.0
 10
18.2511057234
 20
43.1958648624
 30
0.0
 10
18.2669607788
 20
42.9301871002
 30
0.0
 10
18.3663140476
 20
42.3797431875
 30
0.0
 10
18.6677960196
 20
41.5797241457
 30
0.0
 10
19.1063260496
 20
40.8198042314
 30
0.0
 10
19.56653883
 20
40.2584432165
 30
0.0
 10
19.9753780683
 20
39.8819573361
 30
0.0
 10
20.2864421179
 20
39.6491081477
 30
0.0
 10
20.6012017229
 20
39.4654838341
 30
0.0
 10
20.913681075
 20
39.3348604312
 30
0.0
 10
21.2179692982
 20
39.2599899166
 30
0.0
 10
21.5084364376
 20
39.2433027741
 30
0.0
 10
21.778941783
 20
39.2859666465
 30
0.0
 10
21.9430017617
 20
39.354970192
 30
0.0
 10
22.0177081666
 20
39.3980840666
 30
0.0
  0
SPLINE
  5
4B5
100
AcDbEntity
  8
0
100
AcDbSpline
 62
7
  6
CONTINUOUS
 70
0
 71
3
 72
19
 73
15
 74
0
 42
0.0000001
 43
0.0000001
 44
0.0000000001
 40
0.0
 40
0.0
 40
0.0
 40
0.0
 40
0.1320614527
 40
0.2752316323
 40
0.4223624378
 40
0.5655525377
 40
0.6334276342
 40
0.6977521143
 40
0.7579749247
 40
0.8137929259
 40
0.8652372269
 40
0.9127358336
 40
0.957201252
 40
1.0
 40
1.0
 40
1.0
 40
1.0
 10
12.1346066008
 20
46.727147389
 30
0.0
 10
12.1504616563
 20
46.4614696268
 30
0.0
 10
12.2498149251
 20
45.9110257141
 30
0.0
 10
12.5512968971
 20
45.1110066723
 30
0.0
 10
12.9898269271
 20
44.351086758
 30
0.0
 10
13.4500397074
 20
43.7897257431
 30
0.0
 10
13.8588789458
 20
43.4132398627
 30
0.0
 10
14.1699429954
 20
43.1803906743
 30
0.0
 10
14.4847026003
 20
42.9967663607
 30
0.0
 10
14.7971819525
 20
42.8661429578
 30
0.0
 10
15.1014701757
 20
42.7912724432
 30
0.0
 10
15.3919373151
 20
42.7745853007
 30
0.0
 10
15.6624426605
 20
42.8172491731
 30
0.0
 10
15.8265026391
 20
42.8862527186
 30
0.0
 10
15.9012090441
 20
42.9293665932
 30
0.0
  0
SPLINE
  5
4B6
100
AcDbEntity
  8
0
100
AcDbSpline
 62
7
  6
CONTINUOUS
 70
0
 71
3
 72
9
 73
5
 74
0
 42
0.0000001
 43
0.0000001
 44
0.0000000001
 40
0.0
 40
0.0
 40
0.0
 40
0.0
 40
0.2549571755
 40
1.0
 40
1.0
 40
1.0
 40
1.0
 10
34.5595944115
 20
60.1960658244
 30
0.0
 10
34.5462879599
 20
60.1783485513
 30
0.0
 10
34.4919679868
 20
60.1104929845
 30
0.0
 10
34.4288919136
 20
60.0495614468
 30
0.0
 10
34.3778664829
 20
60.009699879
 30
0.0
  0
SPLINE
  5
4B7
100
AcDbEntity
  8
0
100
AcDbSpline
 62
7
  6
CONTINUOUS
 70
0
 71
3
 72
10
 73
6
 74
0
 42
0.0000001
 43
0.0000001
 44
0.0000000001
 40
0.0
 40
0.0
 40
0.0
 40
0.0
 40
0.2773291317
 40
0.5361896069
 40
1.0
 40
1.0
 40
1.0
 40
1.0
 10
28.5109366932
 20
64.6022443005
 30
0.0
 10
28.5109366932
 20
64.5116185152
 30
0.0
 10
28.5016692059
 20
64.3360681424
 30
0.0
 10
28.4448354379
 20
64.0140611775
 30
0.0
 10
28.3546390679
 20
63.789764987
 30
0.0
 10
28.2715717295
 20
63.6629914159
 30
0.0
  0
SPLINE
  5
4B8
100
AcDbEntity
  8
0
100
AcDbSpline
 62
7
  6
CONTINUOUS
 70
0
 71
3
 72
16
 73
12
 74
0
 42
0.0000001
 43
0.0000001
 44
0.0000000001
 40
0.0
 40
0.0
 40
0.0
 40
0.0
 40
0.0925250921
 40
0.144405163
 40
0.2002483854
 40
0.3230599645
 40
0.4579036365
 40
0.59935697
 40
0.7410033394
 40
0.8763791822
 40
1.0
 40
1.0
 40
1.0
 40
1.0
 10
25.5685365524
 20
68.2173101422
 30
0.0
 10
25.723969825
 20
68.2360657418
 30
0.0
 10
25.9740100756
 20
68.2116301909
 30
0.0
 10
26.2956581448
 20
68.1041316091
 30
0.0
 10
26.64716634
 20
67.9322954918
 30
0.0
 10
27.0786690299
 20
67.6167873976
 30
0.0
 10
27.5457541307
 20
67.1250343342
 30
0.0
 10
27.9482650423
 20
66.5402031984
 30
0.0
 10
28.2593826668
 20
65.9010140009
 30
0.0
 10
28.4586473402
 20
65.2501670822
 30
0.0
 10
28.5109366932
 20
64.8114218328
 30
0.0
 10
28.5109366932
 20
64.6022443005
 30
0.0
  0
SPLINE
  5
4B9
100
AcDbEntity
  8
0
100
AcDbSpline
 62
7
  6
CONTINUOUS
 70
0
 71
3
 72
12
 73
8
 74
0
 42
0.0000001
 43
0.0000001
 44
0.0000000001
 40
0.0
 40
0.0
 40
0.0
 40
0.0
 40
0.1081632494
 40
0.2183738677
 40
0.4513420426
 40
0.7104805138
 40
1.0
 40
1.0
 40
1.0
 40
1.0
 10
37.2422382107
 20
33.5636690493
 30
0.0
 10
37.1909971919
 20
33.534097303
 30
0.0
 10
37.092491349
 20
33.465328067
 30
0.0
 10
36.9158217304
 20
33.291496298
 30
0.0
 10
36.7407325543
 20
33.0061946173
 30
0.0
 10
36.6190531
 20
32.5926233245
 30
0.0
 10
36.5950039814
 20
32.2914622192
 30
0.0
 10
36.5950039814
 20
32.1331041591
 30
0.0
  0
SPLINE
  5
4BA
100
AcDbEntity
  8
0
100
AcDbSpline
 62
7
  6
CONTINUOUS
 70
0
 71
3
 72
9
 73
5
 74
0
 42
0.0000001
 43
0.0000001
 44
0.0000000001
 40
0.0
 40
0.0
 40
0.0
 40
0.0
 40
0.2467268603
 40
1.0
 40
1.0
 40
1.0
 40
1.0
 10
37.7549198531
 20
61.8637204479
 30
0.0
 10
37.7730523571
 20
61.8711932642
 30
0.0
 10
37.8474886129
 20
61.8991583951
 30
0.0
 10
37.9253982285
 20
61.9177035797
 30
0.0
 10
37.984623676
 20
61.9265108576
 30
0.0
  0
SPLINE
  5
4BB
100
AcDbEntity
  8
0
100
AcDbSpline
 62
7
  6
CONTINUOUS
 70
0
 71
3
 72
9
 73
5
 74
0
 42
0.0000001
 43
0.0000001
 44
0.0000000001
 40
0.0
 40
0.0
 40
0.0
 40
0.0
 40
0.2558750769
 40
1.0
 40
1.0
 40
1.0
 40
1.0
 10
28.4837798802
 20
63.7853349261
 30
0.0
 10
28.4714208284
 20
63.7664731067
 30
0.0
 10
28.4209432166
 20
63.6942202143
 30
0.0
 10
28.3614729318
 20
63.6281494897
 30
0.0
 10
28.3127986795
 20
63.5842004797
 30
0.0
  0
SPLINE
  5
4BC
100
AcDbEntity
  8
0
100
AcDbSpline
 62
7
  6
CONTINUOUS
 70
0
 71
3
 72
9
 73
5
 74
0
 42
0.0000001
 43
0.0000001
 44
0.0000000001
 40
0.0
 40
0.0
 40
0.0
 40
0.0
 40
0.2771370407
 40
1.0
 40
1.0
 40
1.0
 40
1.0
 10
22.3944375707
 20
68.1335268271
 30
0.0
 10
22.3944375707
 20
68.0465979551
 30
0.0
 10
22.378985424
 20
67.7340586245
 30
0.0
 10
22.2927984258
 20
67.4182724952
 30
0.0
 10
22.1745554158
 20
67.2248067915
 30
0.0
  0
SPLINE
  5
4BD
100
AcDbEntity
  8
0
100
AcDbSpline
 62
7
  6
CONTINUOUS
 70
0
 71
3
 72
16
 73
12
 74
0
 42
0.0000001
 43
0.0000001
 44
0.0000000001
 40
0.0
 40
0.0
 40
0.0
 40
0.0
 40
0.0932426631
 40
0.1454948324
 40
0.2016596416
 40
0.3248695194
 40
0.4597273606
 40
0.6008674287
 40
0.7420021985
 40
0.8768260101
 40
1.0
 40
1.0
 40
1.0
 40
1.0
 10
19.4874545277
 20
71.7522779832
 30
0.0
 10
19.6435354941
 20
71.7659583814
 30
0.0
 10
19.8925718346
 20
71.7349656994
 30
0.0
 10
20.2121171007
 20
71.62138694
 30
0.0
 10
20.560121667
 20
71.4446276578
 30
0.0
 10
20.9861207092
 20
71.1261399127
 30
0.0
 10
21.4464287593
 20
70.6343500533
 30
0.0
 10
21.8422763689
 20
70.052667569
 30
0.0
 10
22.1477841704
 20
69.4188792807
 30
0.0
 10
22.343239776
 20
68.7745178353
 30
0.0
 10
22.3944375707
 20
68.3405009855
 30
0.0
 10
22.3944375707
 20
68.1335268271
 30
0.0
  0
SPLINE
  5
4BE
100
AcDbEntity
  8
0
100
AcDbSpline
 62
7
  6
CONTINUOUS
 70
0
 71
3
 72
9
 73
5
 74
0
 42
0.0000001
 43
0.0000001
 44
0.0000000001
 40
0.0
 40
0.0
 40
0.0
 40
0.0
 40
0.2559358272
 40
1.0
 40
1.0
 40
1.0
 40
1.0
 10
16.253561949
 20
43.7034585642
 30
0.0
 10
16.2412701493
 20
43.6845152593
 30
0.0
 10
16.191063769
 20
43.6119495156
 30
0.0
 10
16.1318499878
 20
43.5455145621
 30
0.0
 10
16.0833438718
 20
43.5012750232
 30
0.0
  0
SPLINE
  5
4BF
100
AcDbEntity
  8
0
100
AcDbSpline
 62
7
  6
CONTINUOUS
 70
0
 71
3
 72
9
 73
5
 74
0
 42
0.0000001
 43
0.0000001
 44
0.0000000001
 40
0.0
 40
0.0
 40
0.0
 40
0.0
 40
0.2562703765
 40
1.0
 40
1.0
 40
1.0
 40
1.0
 10
16.2691178627
 20
70.876815981
 30
0.0
 10
16.2572092552
 20
70.8574078656
 30
0.0
 10
16.2085445595
 20
70.7830577669
 30
0.0
 10
16.150793334
 20
70.7145493908
 30
0.0
 10
16.1032483182
 20
70.6686541262
 30
0.0
  0
SPLINE
  5
4C0
100
AcDbEntity
  8
0
100
AcDbSpline
 62
7
  6
CONTINUOUS
 70
0
 71
3
 72
9
 73
5
 74
0
 42
0.0000001
 43
0.0000001
 44
0.0000000001
 40
0.0
 40
0.0
 40
0.0
 40
0.0
 40
0.2524478931
 40
1.0
 40
1.0
 40
1.0
 40
1.0
 10
16.1032483182
 20
70.6686541262
 30
0.0
 10
16.0894835202
 20
70.6553669491
 30
0.0
 10
16.033418876
 20
70.6043546919
 30
0.0
 10
15.9711405677
 20
70.5601497691
 30
0.0
 10
15.9220760231
 20
70.5318264532
 30
0.0
  0
SPLINE
  5
4C1
100
AcDbEntity
  8
0
100
AcDbSpline
 62
7
  6
CONTINUOUS
 70
0
 71
3
 72
16
 73
12
 74
0
 42
0.0000001
 43
0.0000001
 44
0.0000000001
 40
0.0
 40
0.0
 40
0.0
 40
0.0
 40
0.0932016659
 40
0.145432918
 40
0.2015797635
 40
0.3247676008
 40
0.4596249308
 40
0.6007827384
 40
0.7419462521
 40
0.8768009978
 40
1.0
 40
1.0
 40
1.0
 40
1.0
 10
13.3689543906
 20
75.283383289
 30
0.0
 10
13.5250031525
 20
75.2973468801
 30
0.0
 10
13.7740993756
 20
75.2667172538
 30
0.0
 10
14.0937649971
 20
75.1534756232
 30
0.0
 10
14.4419687073
 20
74.976987734
 30
0.0
 10
14.8682781492
 20
74.658662512
 30
0.0
 10
15.3289674388
 20
74.166870552
 30
0.0
 10
15.7251888916
 20
73.5850085726
 30
0.0
 10
16.0310109215
 20
72.9509156452
 30
0.0
 10
16.2266796589
 20
72.3061895574
 30
0.0
 10
16.2779384481
 20
71.8719072233
 30
0.0
 10
16.2779384481
 20
71.6648093537
 30
0.0
  0
SPLINE
  5
4C2
100
AcDbEntity
  8
0
100
AcDbSpline
 62
7
  6
CONTINUOUS
 70
0
 71
3
 72
9
 73
5
 74
0
 42
0.0000001
 43
0.0000001
 44
0.0000000001
 40
0.0
 40
0.0
 40
0.0
 40
0.0
 40
0.2772116618
 40
1.0
 40
1.0
 40
1.0
 40
1.0
 10
16.2779384481
 20
71.6648093537
 30
0.0
 10
16.2779384481
 20
71.5776722987
 30
0.0
 10
16.2624205031
 20
71.2644775665
 30
0.0
 10
16.1758077542
 20
70.947991951
 30
0.0
 10
16.0569867115
 20
70.7543427348
 30
0.0
  0
SPLINE
  5
4C3
100
AcDbEntity
  8
0
100
AcDbSpline
 62
7
  6
CONTINUOUS
 70
0
 71
3
 72
12
 73
8
 74
0
 42
0.0000001
 43
0.0000001
 44
0.0000000001
 40
0.0
 40
0.0
 40
0.0
 40
0.0
 40
0.1081632494
 40
0.2183738677
 40
0.4513420426
 40
0.7104805138
 40
1.0
 40
1.0
 40
1.0
 40
1.0
 10
12.7762417207
 20
48.3420010895
 30
0.0
 10
12.7250007019
 20
48.3124293431
 30
0.0
 10
12.6264948589
 20
48.2436601071
 30
0.0
 10
12.4498252403
 20
48.0698283381
 30
0.0
 10
12.2747360642
 20
47.7845266575
 30
0.0
 10
12.1530566099
 20
47.3709553646
 30
0.0
 10
12.1290074913
 20
47.0697942593
 30
0.0
 10
12.1290074913
 20
46.9114361992
 30
0.0
  0
SPLINE
  5
4C4
100
AcDbEntity
  8
0
100
AcDbSpline
 62
7
  6
CONTINUOUS
 70
0
 71
3
 72
9
 73
5
 74
0
 42
0.0000001
 43
0.0000001
 44
0.0000000001
 40
0.0
 40
0.0
 40
0.0
 40
0.0
 40
0.2562930314
 40
1.0
 40
1.0
 40
1.0
 40
1.0
 10
22.3866865669
 20
67.3472800377
 30
0.0
 10
22.3748047615
 20
67.3278393803
 30
0.0
 10
22.3262476621
 20
67.2533643637
 30
0.0
 10
22.2685987929
 20
67.184711093
 30
0.0
 10
22.2211211952
 20
67.1387000117
 30
0.0
  0
SPLINE
  5
4C5
100
AcDbEntity
  8
0
100
AcDbSpline
 62
7
  6
CONTINUOUS
 70
0
 71
3
 72
9
 73
5
 74
0
 42
0.0000001
 43
0.0000001
 44
0.0000000001
 40
0.0
 40
0.0
 40
0.0
 40
0.0
 40
0.2524869206
 40
1.0
 40
1.0
 40
1.0
 40
1.0
 10
22.2211211952
 20
67.1387000117
 30
0.0
 10
22.2072653357
 20
67.1252721402
 30
0.0
 10
22.1508208472
 20
67.0737336293
 30
0.0
 10
22.0880481968
 20
67.0291030063
 30
0.0
 10
22.0385750885
 20
67.0005440259
 30
0.0
  0
ENDSEC
  0
SECTION
  2
OBJECTS
  0
DICTIONARY
  5
C
100
AcDbDictionary
280
0
281
1
  3
ACAD_GROUP
350
D
  3
ACAD_MLINESTYLE
350
17
  3
ACAD_LAYOUT
350
1A
  3
ACAD_PLOTSETTINGS
350
19
  3
ACAD_PLOTSTYLENAME
350
E
  0
DICTIONARY
  5
D
102
{ACAD_REACTORS
330
C
102
}
100
AcDbDictionary
280
0
281
1
  0
ACDBDICTIONARYWDFLT
  5
E
102
{ACAD_REACTORS
330
C
102
}
100
AcDbDictionary
281
1
  3
Normal
350
F
100
AcDbDictionaryWithDefault
340
F
  0
DICTIONARY
  5
17
102
{ACAD_REACTORS
330
C
102
}
100
AcDbDictionary
280
0
281
1
  3
Standard
350
18
  0
DICTIONARY
  5
19
102
{ACAD_REACTORS
330
C
102
}
100
AcDbDictionary
281
1
  0
DICTIONARY
  5
1A
102
{ACAD_REACTORS
330
C
102
}
100
AcDbDictionary
281
1
  3
Model
350
4C6
  3
Layout1
350
4C7
  0
ACDBPLACEHOLDER
  5
F
102
{ACAD_REACTORS
330
E
102
}
  0
MLINESTYLE
  5
18
102
{ACAD_REACTORS
330
17
102
}
100
AcDbMlineStyle
  2
STANDARD
 70
0
  3

 62
256
 51
90.0
 52
90.0
 71
2
 49
0.5
 62
256
  6
BYLAYER
 49
-0.5
 62
256
  6
BYLAYER
  0
LAYOUT
  5
4C6
102
{ACAD_REACTORS
330
1A
102
}
100
AcDbPlotSettings
  1

  2
none_device
  4

  6

 40
0.0
 41
0.0
 42
0.0
 43
0.0
 44
210.0
 45
297.0
 46
0.0
 47
0.0
 48
0.0
 49
0.0
140
0.0
141
0.0
142
1.0
143
1.0
 70
1024
 72
1
 73
0
 74
0
  7

 75
0
147
1.0
148
0.0
149
0.0
100
AcDbLayout
  1
Model
 70
0
 71
0
 10
0.0
 20
0.0
 11
210.0
 21
297.0
 12
0.0
 22
0.0
 32
0.0
 14
0.0
 24
0.0
 34
0.0
 15
0.0
 25
0.0
 35
0.0
146
0.0
 13
0.0
 23
0.0
 33
0.0
 16
1.0
 26
0.0
 36
0.0
 17
0.0
 27
1.0
 37
0.0
 76
0
330
210
345
0
346
0
  0
LAYOUT
  5
4C7
102
{ACAD_REACTORS
330
1A
102
}
100
AcDbPlotSettings
  1

  2
none_device
  4

  6

 40
0.0
 41
0.0
 42
0.0
 43
0.0
 44
210.0
 45
297.0
 46
0.0
 47
0.0
 48
0.0
 49
0.0
140
0.0
141
0.0
142
1.0
143
1.0
 70
0
 72
1
 73
0
 74
0
  7

 75
0
147
1.0
148
0.0
149
0.0
100
AcDbLayout
  1
Layout1
 70
0
 71
1
 10
0.0
 20
0.0
 11
210.0
 21
297.0
 12
0.0
 22
0.0
 32
0.0
 14
0.0
 24
0.0
 34
0.0
 15
0.0
 25
0.0
 35
0.0
146
0.0
 13
0.0
 23
0.0
 33
0.0
 16
1.0
 26
0.0
 36
0.0
 17
0.0
 27
1.0
 37
0.0
 76
0
330
211
345
0
346
0
  0
ENDSEC
  0
EOF
