  0
SECTION
  2
HEADER
  9
$ACADVER
  1
AC1012
  9
$DWGCODEPAGE
  3
ANSI_1252
  9
$INSBASE
 10
0.0
 20
0.0
 30
0.0
  9
$EXTMIN
 10
-0.1944579800992017
 20
3.583328272196613
 30
-0.0015258207003583
  9
$EXTMAX
 10
5.224548359895763
 20
8.104202290419724
 30
0.0000000349246037
  9
$LIMMIN
 10
0.0
 20
0.0
  9
$LIMMAX
 10
12.0
 20
9.0
  9
$ORTHOMODE
 70
     0
  9
$REGENMODE
 70
     1
  9
$FILLMODE
 70
     1
  9
$QTEXTMODE
 70
     0
  9
$MIRRTEXT
 70
     1
  9
$DRAGMODE
 70
     2
  9
$LTSCALE
 40
1.0
  9
$OSMODE
 70
   547
  9
$ATTMODE
 70
     1
  9
$TEXTSIZE
 40
0.2
  9
$TRACEWID
 40
0.05
  9
$TEXTSTYLE
  7
STANDARD
  9
$CLAYER
  8
0
  9
$CELTYPE
  6
BYLAYER
  9
$CECOLOR
 62
   256
  9
$CELTSCALE
 40
1.0
  9
$DELOBJ
 70
     1
  9
$DISPSILH
 70
     0
  9
$DIMSCALE
 40
1.0
  9
$DIMASZ
 40
0.18
  9
$DIMEXO
 40
0.0625
  9
$DIMDLI
 40
0.38
  9
$DIMRND
 40
0.0
  9
$DIMDLE
 40
0.0
  9
$DIMEXE
 40
0.18
  9
$DIMTP
 40
0.0
  9
$DIMTM
 40
0.0
  9
$DIMTXT
 40
0.18
  9
$DIMCEN
 40
0.09
  9
$DIMTSZ
 40
0.0
  9
$DIMTOL
 70
     0
  9
$DIMLIM
 70
     0
  9
$DIMTIH
 70
     1
  9
$DIMTOH
 70
     1
  9
$DIMSE1
 70
     0
  9
$DIMSE2
 70
     0
  9
$DIMTAD
 70
     0
  9
$DIMZIN
 70
     0
  9
$DIMBLK
  1

  9
$DIMASO
 70
     1
  9
$DIMSHO
 70
     1
  9
$DIMPOST
  1

  9
$DIMAPOST
  1

  9
$DIMALT
 70
     0
  9
$DIMALTD
 70
     2
  9
$DIMALTF
 40
25.4
  9
$DIMLFAC
 40
1.0
  9
$DIMTOFL
 70
     0
  9
$DIMTVP
 40
0.0
  9
$DIMTIX
 70
     0
  9
$DIMSOXD
 70
     0
  9
$DIMSAH
 70
     0
  9
$DIMBLK1
  1

  9
$DIMBLK2
  1

  9
$DIMSTYLE
  2
STANDARD
  9
$DIMCLRD
 70
     0
  9
$DIMCLRE
 70
     0
  9
$DIMCLRT
 70
     0
  9
$DIMTFAC
 40
1.0
  9
$DIMGAP
 40
0.09
  9
$DIMJUST
 70
     0
  9
$DIMSD1
 70
     0
  9
$DIMSD2
 70
     0
  9
$DIMTOLJ
 70
     1
  9
$DIMTZIN
 70
     0
  9
$DIMALTZ
 70
     0
  9
$DIMALTTZ
 70
     0
  9
$DIMFIT
 70
     5
  9
$DIMUPT
 70
     0
  9
$DIMUNIT
 70
     2
  9
$DIMDEC
 70
     4
  9
$DIMTDEC
 70
     4
  9
$DIMALTU
 70
     2
  9
$DIMALTTD
 70
     2
  9
$DIMTXSTY
  7
STANDARD
  9
$DIMAUNIT
 70
     0
  9
$LUNITS
 70
     2
  9
$LUPREC
 70
     4
  9
$SKETCHINC
 40
0.1
  9
$FILLETRAD
 40
0.0
  9
$AUNITS
 70
     0
  9
$AUPREC
 70
     0
  9
$MENU
  1
acad
  9
$ELEVATION
 40
0.0
  9
$PELEVATION
 40
0.0
  9
$THICKNESS
 40
0.0
  9
$LIMCHECK
 70
     0
  9
$BLIPMODE
 70
     0
  9
$CHAMFERA
 40
0.0
  9
$CHAMFERB
 40
0.0
  9
$CHAMFERC
 40
0.0
  9
$CHAMFERD
 40
0.0
  9
$SKPOLY
 70
     0
  9
$TDCREATE
 40
2453844.721608796
  9
$TDUPDATE
 40
2453844.723842268
  9
$TDINDWG
 40
0.0019846991
  9
$TDUSRTIMER
 40
0.0019846991
  9
$USRTIMER
 70
     1
  9
$ANGBASE
 50
0.0
  9
$ANGDIR
 70
     0
  9
$PDMODE
 70
     0
  9
$PDSIZE
 40
0.0
  9
$PLINEWID
 40
0.0
  9
$COORDS
 70
     1
  9
$SPLFRAME
 70
     0
  9
$SPLINETYPE
 70
     6
  9
$SPLINESEGS
 70
     8
  9
$ATTDIA
 70
     0
  9
$ATTREQ
 70
     1
  9
$HANDLING
 70
  4097
  9
$HANDSEED
  5
3903
  9
$SURFTAB1
 70
     6
  9
$SURFTAB2
 70
     6
  9
$SURFTYPE
 70
     6
  9
$SURFU
 70
     6
  9
$SURFV
 70
     6
  9
$UCSNAME
  2

  9
$UCSORG
 10
0.0
 20
0.0
 30
0.0
  9
$UCSXDIR
 10
1.0
 20
0.0
 30
0.0
  9
$UCSYDIR
 10
0.0
 20
1.0
 30
0.0
  9
$PUCSNAME
  2

  9
$PUCSORG
 10
0.0
 20
0.0
 30
0.0
  9
$PUCSXDIR
 10
1.0
 20
0.0
 30
0.0
  9
$PUCSYDIR
 10
0.0
 20
1.0
 30
0.0
  9
$USERI1
 70
     0
  9
$USERI2
 70
     0
  9
$USERI3
 70
     0
  9
$USERI4
 70
     0
  9
$USERI5
 70
     0
  9
$USERR1
 40
0.0
  9
$USERR2
 40
0.0
  9
$USERR3
 40
0.0
  9
$USERR4
 40
0.0
  9
$USERR5
 40
0.0
  9
$WORLDVIEW
 70
     1
  9
$SHADEDGE
 70
     3
  9
$SHADEDIF
 70
    70
  9
$TILEMODE
 70
     1
  9
$MAXACTVP
 70
    16
  9
$PINSBASE
 10
0.0
 20
0.0
 30
0.0
  9
$PLIMCHECK
 70
     0
  9
$PEXTMIN
 10
1.000000000000000E+20
 20
1.000000000000000E+20
 30
1.000000000000000E+20
  9
$PEXTMAX
 10
-1.000000000000000E+20
 20
-1.000000000000000E+20
 30
-1.000000000000000E+20
  9
$PLIMMIN
 10
0.0
 20
0.0
  9
$PLIMMAX
 10
12.0
 20
9.0
  9
$UNITMODE
 70
     0
  9
$VISRETAIN
 70
     0
  9
$PLINEGEN
 70
     0
  9
$PSLTSCALE
 70
     1
  9
$TREEDEPTH
 70
  3020
  9
$PICKSTYLE
 70
     1
  9
$CMLSTYLE
  2
STANDARD
  9
$CMLJUST
 70
     0
  9
$CMLSCALE
 40
1.0
  9
$SAVEIMAGES
 70
     1
  0
ENDSEC
  0
SECTION
  2
CLASSES
  0
CLASS
  1
ACDBDICTIONARYWDFLT
  2
AcDbDictionaryWithDefault
  3
AutoCAD 2000
 90
    32768
280
     0
281
     0
  0
CLASS
  1
ACDBPLACEHOLDER
  2
AcDbPlaceHolder
  3
AutoCAD 2000
 90
    32768
280
     0
281
     0
  0
CLASS
  1
LAYOUT
  2
AcDbLayout
  3
AutoCAD 2000
 90
    32768
280
     0
281
     0
  0
CLASS
  1
LONG_TRANSACTION
  2
AcDbLongTransaction
  3
AutoCAD 2000
 90
    32768
280
     0
281
     0
  0
CLASS
  1
LWPOLYLINE
  2
AcDbPolyline
  3
AutoCAD 2000
 90
    32768
280
     0
281
     1
  0
CLASS
  1
HATCH
  2
AcDbHatch
  3
AutoCAD 2000
 90
    32768
280
     0
281
     1
  0
CLASS
  1
XRECORD
  2
AcDbXrecord
  3
AutoCAD 2000
 90
    32768
280
     0
281
     0
  0
ENDSEC
  0
SECTION
  2
TABLES
  0
TABLE
  2
VPORT
  5
8
330
0
100
AcDbSymbolTable
 70
     3
  0
VPORT
  5
33EA
330
8
100
AcDbSymbolTableRecord
100
AcDbViewportTableRecord
  2
*ACTIVE
 70
     0
 10
0.0
 20
0.0
 11
1.0
 21
1.0
 12
2.51504518989828
 22
5.843765281308169
 13
0.0
 23
0.0
 14
1.0
 24
1.0
 15
0.0
 25
0.0
 16
0.0
 26
0.0
 36
1.0
 17
0.0
 27
0.0
 37
0.0
 40
4.571386577085938
 41
1.740671641791044
 42
50.0
 43
0.0
 44
0.0
 50
0.0
 51
0.0
 71
     0
 72
   100
 73
     1
 74
     1
 75
     0
 76
     0
 77
     0
 78
     0
  0
ENDTAB
  0
TABLE
  2
LTYPE
  5
5
330
0
100
AcDbSymbolTable
 70
    25
  0
LTYPE
  5
13
330
5
100
AcDbSymbolTableRecord
100
AcDbLinetypeTableRecord
  2
BYBLOCK
 70
     0
  3

 72
    65
 73
     0
 40
0.0
  0
LTYPE
  5
14
330
5
100
AcDbSymbolTableRecord
100
AcDbLinetypeTableRecord
  2
BYLAYER
 70
     0
  3

 72
    65
 73
     0
 40
0.0
  0
LTYPE
  5
15
330
5
100
AcDbSymbolTableRecord
100
AcDbLinetypeTableRecord
  2
CONTINUOUS
 70
     0
  3
Solid line
 72
    65
 73
     0
 40
0.0
  0
LTYPE
  5
22
330
5
100
AcDbSymbolTableRecord
100
AcDbLinetypeTableRecord
  2
BORDER
 70
     0
  3
__ __ . __ __ . __ __ . __ __ . __ __ . __ __ .
 72
    65
 73
     6
 40
1.75
 49
0.5
 74
     0
 49
-0.25
 74
     0
 49
0.5
 74
     0
 49
-0.25
 74
     0
 49
0.5
 74
     0
 49
-0.25
 74
     0
  0
LTYPE
  5
23
330
5
100
AcDbSymbolTableRecord
100
AcDbLinetypeTableRecord
  2
BORDER2
 70
     0
  3
__.__.__.__.__.__.__.__.
 72
    65
 73
     6
 40
0.875
 49
0.25
 74
     0
 49
-0.125
 74
     0
 49
0.25
 74
     0
 49
-0.125
 74
     0
 49
0.25
 74
     0
 49
-0.125
 74
     0
  0
LTYPE
  5
24
330
5
100
AcDbSymbolTableRecord
100
AcDbLinetypeTableRecord
  2
BORDERX2
 70
     0
  3
____  ____  .  
 72
    65
 73
     6
 40
3.5
 49
1.0
 74
     0
 49
-0.5
 74
     0
 49
1.0
 74
     0
 49
-0.5
 74
     0
 49
1.0
 74
     0
 49
-0.5
 74
     0
  0
LTYPE
  5
25
330
5
100
AcDbSymbolTableRecord
100
AcDbLinetypeTableRecord
  2
CENTER
 70
     0
  3
____ _ ____ _ ____ _ 
 72
    65
 73
     4
 40
2.0
 49
1.25
 74
     0
 49
-0.25
 74
     0
 49
0.25
 74
     0
 49
-0.25
 74
     0
  0
LTYPE
  5
26
330
5
100
AcDbSymbolTableRecord
100
AcDbLinetypeTableRecord
  2
CENTER2
 70
     0
  3
____ _ ____ _ ____ _ 
 72
    65
 73
     4
 40
1.125
 49
0.75
 74
     0
 49
-0.125
 74
     0
 49
0.125
 74
     0
 49
-0.125
 74
     0
  0
LTYPE
  5
27
330
5
100
AcDbSymbolTableRecord
100
AcDbLinetypeTableRecord
  2
CENTERX2
 70
     0
  3
________  __  
 72
    65
 73
     4
 40
4.0
 49
2.5
 74
     0
 49
-0.5
 74
     0
 49
0.5
 74
     0
 49
-0.5
 74
     0
  0
LTYPE
  5
28
330
5
100
AcDbSymbolTableRecord
100
AcDbLinetypeTableRecord
  2
DASHDOT
 70
     0
  3
__ . __ . __ . __ . 
 72
    65
 73
     4
 40
1.0
 49
0.5
 74
     0
 49
-0.25
 74
     0
 49
0.0
 74
     0
 49
-0.25
 74
     0
  0
LTYPE
  5
29
330
5
100
AcDbSymbolTableRecord
100
AcDbLinetypeTableRecord
  2
DASHDOT2
 70
     0
  3
_._._._._._._._._.
 72
    65
 73
     4
 40
0.5
 49
0.25
 74
     0
 49
-0.125
 74
     0
 49
0.0
 74
     0
 49
-0.125
 74
     0
  0
LTYPE
  5
2A
330
5
100
AcDbSymbolTableRecord
100
AcDbLinetypeTableRecord
  2
DASHDOTX2
 70
     0
  3
____  .  ____  .  
 72
    65
 73
     4
 40
2.0
 49
1.0
 74
     0
 49
-0.5
 74
     0
 49
0.0
 74
     0
 49
-0.5
 74
     0
  0
LTYPE
  5
2B
330
5
100
AcDbSymbolTableRecord
100
AcDbLinetypeTableRecord
  2
DASHED
 70
     0
  3
__ __ __ __ __ __ __ 
 72
    65
 73
     2
 40
0.75
 49
0.5
 74
     0
 49
-0.25
 74
     0
  0
LTYPE
  5
2C
330
5
100
AcDbSymbolTableRecord
100
AcDbLinetypeTableRecord
  2
DASHED2
 70
     0
  3
_ _ _ _ _ _ _ _ _ _ 
 72
    65
 73
     2
 40
0.375
 49
0.25
 74
     0
 49
-0.125
 74
     0
  0
LTYPE
  5
2D
330
5
100
AcDbSymbolTableRecord
100
AcDbLinetypeTableRecord
  2
DASHEDX2
 70
     0
  3
____  ____  ____  
 72
    65
 73
     2
 40
1.5
 49
1.0
 74
     0
 49
-0.5
 74
     0
  0
LTYPE
  5
2E
330
5
100
AcDbSymbolTableRecord
100
AcDbLinetypeTableRecord
  2
DIVIDE
 70
     0
  3
____ . . ____ . . 
 72
    65
 73
     6
 40
1.25
 49
0.5
 74
     0
 49
-0.25
 74
     0
 49
0.0
 74
     0
 49
-0.25
 74
     0
 49
0.0
 74
     0
 49
-0.25
 74
     0
  0
LTYPE
  5
2F
330
5
100
AcDbSymbolTableRecord
100
AcDbLinetypeTableRecord
  2
DIVIDE2
 70
     0
  3
__..__..__..__..__..
 72
    65
 73
     6
 40
0.625
 49
0.25
 74
     0
 49
-0.125
 74
     0
 49
0.0
 74
     0
 49
-0.125
 74
     0
 49
0.0
 74
     0
 49
-0.125
 74
     0
  0
LTYPE
  5
30
330
5
100
AcDbSymbolTableRecord
100
AcDbLinetypeTableRecord
  2
DIVIDEX2
 70
     0
  3
________  .  .  
 72
    65
 73
     6
 40
2.5
 49
1.0
 74
     0
 49
-0.5
 74
     0
 49
0.0
 74
     0
 49
-0.5
 74
     0
 49
0.0
 74
     0
 49
-0.5
 74
     0
  0
LTYPE
  5
31
330
5
100
AcDbSymbolTableRecord
100
AcDbLinetypeTableRecord
  2
DOT
 70
     0
  3
. . . . . . . . . 
 72
    65
 73
     2
 40
0.25
 49
0.0
 74
     0
 49
-0.25
 74
     0
  0
LTYPE
  5
32
330
5
100
AcDbSymbolTableRecord
100
AcDbLinetypeTableRecord
  2
DOT2
 70
     0
  3
..................
 72
    65
 73
     2
 40
0.125
 49
0.0
 74
     0
 49
-0.125
 74
     0
  0
LTYPE
  5
33
330
5
100
AcDbSymbolTableRecord
100
AcDbLinetypeTableRecord
  2
DOTX2
 70
     0
  3
.  .  .  .  .  .  
 72
    65
 73
     2
 40
0.5
 49
0.0
 74
     0
 49
-0.5
 74
     0
  0
LTYPE
  5
34
330
5
100
AcDbSymbolTableRecord
100
AcDbLinetypeTableRecord
  2
HIDDEN
 70
     0
  3
__ __ __ __ __ __ 
 72
    65
 73
     2
 40
0.375
 49
0.25
 74
     0
 49
-0.125
 74
     0
  0
LTYPE
  5
35
330
5
100
AcDbSymbolTableRecord
100
AcDbLinetypeTableRecord
  2
HIDDEN2
 70
     0
  3
_ _ _ _ _ _ _ _ _ 
 72
    65
 73
     2
 40
0.1875
 49
0.125
 74
     0
 49
-0.0625
 74
     0
  0
LTYPE
  5
36
330
5
100
AcDbSymbolTableRecord
100
AcDbLinetypeTableRecord
  2
HIDDENX2
 70
     0
  3
____ ____ ____ ____ 
 72
    65
 73
     2
 40
0.75
 49
0.5
 74
     0
 49
-0.25
 74
     0
  0
LTYPE
  5
37
330
5
100
AcDbSymbolTableRecord
100
AcDbLinetypeTableRecord
  2
PHANTOM
 70
     0
  3
______  __  __  
 72
    65
 73
     6
 40
2.5
 49
1.25
 74
     0
 49
-0.25
 74
     0
 49
0.25
 74
     0
 49
-0.25
 74
     0
 49
0.25
 74
     0
 49
-0.25
 74
     0
  0
LTYPE
  5
38
330
5
100
AcDbSymbolTableRecord
100
AcDbLinetypeTableRecord
  2
PHANTOM2
 70
     0
  3
___ _ _ ___ _ _ 
 72
    65
 73
     6
 40
1.25
 49
0.625
 74
     0
 49
-0.125
 74
     0
 49
0.125
 74
     0
 49
-0.125
 74
     0
 49
0.125
 74
     0
 49
-0.125
 74
     0
  0
LTYPE
  5
39
330
5
100
AcDbSymbolTableRecord
100
AcDbLinetypeTableRecord
  2
PHANTOMX2
 70
     0
  3
___ _ _ ___ _ _ 
 72
    65
 73
     6
 40
5.0
 49
2.5
 74
     0
 49
-0.5
 74
     0
 49
0.5
 74
     0
 49
-0.5
 74
     0
 49
0.5
 74
     0
 49
-0.5
 74
     0
  0
ENDTAB
  0
TABLE
  2
LAYER
  5
2
330
0
100
AcDbSymbolTable
 70
   256
  0
LAYER
  5
10
330
2
100
AcDbSymbolTableRecord
100
AcDbLayerTableRecord
  2
0
 70
     0
 62
     7
  6
CONTINUOUS
  0
LAYER
  5
3A
330
2
100
AcDbSymbolTableRecord
100
AcDbLayerTableRecord
  2
1
 70
     0
 62
     1
  6
CONTINUOUS
  0
LAYER
  5
3B
330
2
100
AcDbSymbolTableRecord
100
AcDbLayerTableRecord
  2
2
 70
     0
 62
     2
  6
CONTINUOUS
  0
LAYER
  5
3C
330
2
100
AcDbSymbolTableRecord
100
AcDbLayerTableRecord
  2
3
 70
     0
 62
     3
  6
CONTINUOUS
  0
LAYER
  5
3D
330
2
100
AcDbSymbolTableRecord
100
AcDbLayerTableRecord
  2
4
 70
     0
 62
     4
  6
CONTINUOUS
  0
LAYER
  5
3E
330
2
100
AcDbSymbolTableRecord
100
AcDbLayerTableRecord
  2
5
 70
     0
 62
     5
  6
CONTINUOUS
  0
LAYER
  5
3F
330
2
100
AcDbSymbolTableRecord
100
AcDbLayerTableRecord
  2
6
 70
     0
 62
     6
  6
CONTINUOUS
  0
LAYER
  5
40
330
2
100
AcDbSymbolTableRecord
100
AcDbLayerTableRecord
  2
7
 70
     0
 62
     7
  6
CONTINUOUS
  0
LAYER
  5
41
330
2
100
AcDbSymbolTableRecord
100
AcDbLayerTableRecord
  2
8
 70
     0
 62
     8
  6
CONTINUOUS
  0
LAYER
  5
42
330
2
100
AcDbSymbolTableRecord
100
AcDbLayerTableRecord
  2
9
 70
     0
 62
     9
  6
CONTINUOUS
  0
LAYER
  5
43
330
2
100
AcDbSymbolTableRecord
100
AcDbLayerTableRecord
  2
10
 70
     0
 62
    10
  6
CONTINUOUS
  0
LAYER
  5
44
330
2
100
AcDbSymbolTableRecord
100
AcDbLayerTableRecord
  2
11
 70
     0
 62
    11
  6
CONTINUOUS
  0
LAYER
  5
45
330
2
100
AcDbSymbolTableRecord
100
AcDbLayerTableRecord
  2
12
 70
     0
 62
    12
  6
CONTINUOUS
  0
LAYER
  5
46
330
2
100
AcDbSymbolTableRecord
100
AcDbLayerTableRecord
  2
13
 70
     0
 62
    13
  6
CONTINUOUS
  0
LAYER
  5
47
330
2
100
AcDbSymbolTableRecord
100
AcDbLayerTableRecord
  2
14
 70
     0
 62
    14
  6
CONTINUOUS
  0
LAYER
  5
48
330
2
100
AcDbSymbolTableRecord
100
AcDbLayerTableRecord
  2
15
 70
     0
 62
    15
  6
CONTINUOUS
  0
LAYER
  5
49
330
2
100
AcDbSymbolTableRecord
100
AcDbLayerTableRecord
  2
16
 70
     0
 62
    16
  6
CONTINUOUS
  0
LAYER
  5
4A
330
2
100
AcDbSymbolTableRecord
100
AcDbLayerTableRecord
  2
17
 70
     0
 62
    17
  6
CONTINUOUS
  0
LAYER
  5
4B
330
2
100
AcDbSymbolTableRecord
100
AcDbLayerTableRecord
  2
18
 70
     0
 62
    18
  6
CONTINUOUS
  0
LAYER
  5
4C
330
2
100
AcDbSymbolTableRecord
100
AcDbLayerTableRecord
  2
19
 70
     0
 62
    19
  6
CONTINUOUS
  0
LAYER
  5
4D
330
2
100
AcDbSymbolTableRecord
100
AcDbLayerTableRecord
  2
20
 70
     0
 62
    20
  6
CONTINUOUS
  0
LAYER
  5
4E
330
2
100
AcDbSymbolTableRecord
100
AcDbLayerTableRecord
  2
21
 70
     0
 62
    21
  6
CONTINUOUS
  0
LAYER
  5
4F
330
2
100
AcDbSymbolTableRecord
100
AcDbLayerTableRecord
  2
22
 70
     0
 62
    22
  6
CONTINUOUS
  0
LAYER
  5
50
330
2
100
AcDbSymbolTableRecord
100
AcDbLayerTableRecord
  2
23
 70
     0
 62
    23
  6
CONTINUOUS
  0
LAYER
  5
51
330
2
100
AcDbSymbolTableRecord
100
AcDbLayerTableRecord
  2
24
 70
     0
 62
    24
  6
CONTINUOUS
  0
LAYER
  5
52
330
2
100
AcDbSymbolTableRecord
100
AcDbLayerTableRecord
  2
25
 70
     0
 62
    25
  6
CONTINUOUS
  0
LAYER
  5
53
330
2
100
AcDbSymbolTableRecord
100
AcDbLayerTableRecord
  2
26
 70
     0
 62
    26
  6
CONTINUOUS
  0
LAYER
  5
54
330
2
100
AcDbSymbolTableRecord
100
AcDbLayerTableRecord
  2
27
 70
     0
 62
    27
  6
CONTINUOUS
  0
LAYER
  5
55
330
2
100
AcDbSymbolTableRecord
100
AcDbLayerTableRecord
  2
28
 70
     0
 62
    28
  6
CONTINUOUS
  0
LAYER
  5
56
330
2
100
AcDbSymbolTableRecord
100
AcDbLayerTableRecord
  2
29
 70
     0
 62
    29
  6
CONTINUOUS
  0
LAYER
  5
57
330
2
100
AcDbSymbolTableRecord
100
AcDbLayerTableRecord
  2
30
 70
     0
 62
    30
  6
CONTINUOUS
  0
LAYER
  5
58
330
2
100
AcDbSymbolTableRecord
100
AcDbLayerTableRecord
  2
31
 70
     0
 62
    31
  6
CONTINUOUS
  0
LAYER
  5
59
330
2
100
AcDbSymbolTableRecord
100
AcDbLayerTableRecord
  2
32
 70
     0
 62
    32
  6
CONTINUOUS
  0
LAYER
  5
5A
330
2
100
AcDbSymbolTableRecord
100
AcDbLayerTableRecord
  2
33
 70
     0
 62
    33
  6
CONTINUOUS
  0
LAYER
  5
5B
330
2
100
AcDbSymbolTableRecord
100
AcDbLayerTableRecord
  2
34
 70
     0
 62
    34
  6
CONTINUOUS
  0
LAYER
  5
5C
330
2
100
AcDbSymbolTableRecord
100
AcDbLayerTableRecord
  2
35
 70
     0
 62
    35
  6
CONTINUOUS
  0
LAYER
  5
5D
330
2
100
AcDbSymbolTableRecord
100
AcDbLayerTableRecord
  2
36
 70
     0
 62
    36
  6
CONTINUOUS
  0
LAYER
  5
5E
330
2
100
AcDbSymbolTableRecord
100
AcDbLayerTableRecord
  2
37
 70
     0
 62
    37
  6
CONTINUOUS
  0
LAYER
  5
5F
330
2
100
AcDbSymbolTableRecord
100
AcDbLayerTableRecord
  2
38
 70
     0
 62
    38
  6
CONTINUOUS
  0
LAYER
  5
60
330
2
100
AcDbSymbolTableRecord
100
AcDbLayerTableRecord
  2
39
 70
     0
 62
    39
  6
CONTINUOUS
  0
LAYER
  5
61
330
2
100
AcDbSymbolTableRecord
100
AcDbLayerTableRecord
  2
40
 70
     0
 62
    40
  6
CONTINUOUS
  0
LAYER
  5
62
330
2
100
AcDbSymbolTableRecord
100
AcDbLayerTableRecord
  2
41
 70
     0
 62
    41
  6
CONTINUOUS
  0
LAYER
  5
63
330
2
100
AcDbSymbolTableRecord
100
AcDbLayerTableRecord
  2
42
 70
     0
 62
    42
  6
CONTINUOUS
  0
LAYER
  5
64
330
2
100
AcDbSymbolTableRecord
100
AcDbLayerTableRecord
  2
43
 70
     0
 62
    43
  6
CONTINUOUS
  0
LAYER
  5
65
330
2
100
AcDbSymbolTableRecord
100
AcDbLayerTableRecord
  2
44
 70
     0
 62
    44
  6
CONTINUOUS
  0
LAYER
  5
66
330
2
100
AcDbSymbolTableRecord
100
AcDbLayerTableRecord
  2
45
 70
     0
 62
    45
  6
CONTINUOUS
  0
LAYER
  5
67
330
2
100
AcDbSymbolTableRecord
100
AcDbLayerTableRecord
  2
46
 70
     0
 62
    46
  6
CONTINUOUS
  0
LAYER
  5
68
330
2
100
AcDbSymbolTableRecord
100
AcDbLayerTableRecord
  2
47
 70
     0
 62
    47
  6
CONTINUOUS
  0
LAYER
  5
69
330
2
100
AcDbSymbolTableRecord
100
AcDbLayerTableRecord
  2
48
 70
     0
 62
    48
  6
CONTINUOUS
  0
LAYER
  5
6A
330
2
100
AcDbSymbolTableRecord
100
AcDbLayerTableRecord
  2
49
 70
     0
 62
    49
  6
CONTINUOUS
  0
LAYER
  5
6B
330
2
100
AcDbSymbolTableRecord
100
AcDbLayerTableRecord
  2
50
 70
     0
 62
    50
  6
CONTINUOUS
  0
LAYER
  5
6C
330
2
100
AcDbSymbolTableRecord
100
AcDbLayerTableRecord
  2
51
 70
     0
 62
    51
  6
CONTINUOUS
  0
LAYER
  5
6D
330
2
100
AcDbSymbolTableRecord
100
AcDbLayerTableRecord
  2
52
 70
     0
 62
    52
  6
CONTINUOUS
  0
LAYER
  5
6E
330
2
100
AcDbSymbolTableRecord
100
AcDbLayerTableRecord
  2
53
 70
     0
 62
    53
  6
CONTINUOUS
  0
LAYER
  5
6F
330
2
100
AcDbSymbolTableRecord
100
AcDbLayerTableRecord
  2
54
 70
     0
 62
    54
  6
CONTINUOUS
  0
LAYER
  5
70
330
2
100
AcDbSymbolTableRecord
100
AcDbLayerTableRecord
  2
55
 70
     0
 62
    55
  6
CONTINUOUS
  0
LAYER
  5
71
330
2
100
AcDbSymbolTableRecord
100
AcDbLayerTableRecord
  2
56
 70
     0
 62
    56
  6
CONTINUOUS
  0
LAYER
  5
72
330
2
100
AcDbSymbolTableRecord
100
AcDbLayerTableRecord
  2
57
 70
     0
 62
    57
  6
CONTINUOUS
  0
LAYER
  5
73
330
2
100
AcDbSymbolTableRecord
100
AcDbLayerTableRecord
  2
58
 70
     0
 62
    58
  6
CONTINUOUS
  0
LAYER
  5
74
330
2
100
AcDbSymbolTableRecord
100
AcDbLayerTableRecord
  2
59
 70
     0
 62
    59
  6
CONTINUOUS
  0
LAYER
  5
75
330
2
100
AcDbSymbolTableRecord
100
AcDbLayerTableRecord
  2
60
 70
     0
 62
    60
  6
CONTINUOUS
  0
LAYER
  5
76
330
2
100
AcDbSymbolTableRecord
100
AcDbLayerTableRecord
  2
61
 70
     0
 62
    61
  6
CONTINUOUS
  0
LAYER
  5
77
330
2
100
AcDbSymbolTableRecord
100
AcDbLayerTableRecord
  2
62
 70
     0
 62
    62
  6
CONTINUOUS
  0
LAYER
  5
78
330
2
100
AcDbSymbolTableRecord
100
AcDbLayerTableRecord
  2
63
 70
     0
 62
    63
  6
CONTINUOUS
  0
LAYER
  5
79
330
2
100
AcDbSymbolTableRecord
100
AcDbLayerTableRecord
  2
64
 70
     0
 62
    64
  6
CONTINUOUS
  0
LAYER
  5
7A
330
2
100
AcDbSymbolTableRecord
100
AcDbLayerTableRecord
  2
65
 70
     0
 62
    65
  6
CONTINUOUS
  0
LAYER
  5
7B
330
2
100
AcDbSymbolTableRecord
100
AcDbLayerTableRecord
  2
66
 70
     0
 62
    66
  6
CONTINUOUS
  0
LAYER
  5
7C
330
2
100
AcDbSymbolTableRecord
100
AcDbLayerTableRecord
  2
67
 70
     0
 62
    67
  6
CONTINUOUS
  0
LAYER
  5
7D
330
2
100
AcDbSymbolTableRecord
100
AcDbLayerTableRecord
  2
68
 70
     0
 62
    68
  6
CONTINUOUS
  0
LAYER
  5
7E
330
2
100
AcDbSymbolTableRecord
100
AcDbLayerTableRecord
  2
69
 70
     0
 62
    69
  6
CONTINUOUS
  0
LAYER
  5
7F
330
2
100
AcDbSymbolTableRecord
100
AcDbLayerTableRecord
  2
70
 70
     0
 62
    70
  6
CONTINUOUS
  0
LAYER
  5
80
330
2
100
AcDbSymbolTableRecord
100
AcDbLayerTableRecord
  2
71
 70
     0
 62
    71
  6
CONTINUOUS
  0
LAYER
  5
81
330
2
100
AcDbSymbolTableRecord
100
AcDbLayerTableRecord
  2
72
 70
     0
 62
    72
  6
CONTINUOUS
  0
LAYER
  5
82
330
2
100
AcDbSymbolTableRecord
100
AcDbLayerTableRecord
  2
73
 70
     0
 62
    73
  6
CONTINUOUS
  0
LAYER
  5
83
330
2
100
AcDbSymbolTableRecord
100
AcDbLayerTableRecord
  2
74
 70
     0
 62
    74
  6
CONTINUOUS
  0
LAYER
  5
84
330
2
100
AcDbSymbolTableRecord
100
AcDbLayerTableRecord
  2
75
 70
     0
 62
    75
  6
CONTINUOUS
  0
LAYER
  5
85
330
2
100
AcDbSymbolTableRecord
100
AcDbLayerTableRecord
  2
76
 70
     0
 62
    76
  6
CONTINUOUS
  0
LAYER
  5
86
330
2
100
AcDbSymbolTableRecord
100
AcDbLayerTableRecord
  2
77
 70
     0
 62
    77
  6
CONTINUOUS
  0
LAYER
  5
87
330
2
100
AcDbSymbolTableRecord
100
AcDbLayerTableRecord
  2
78
 70
     0
 62
    78
  6
CONTINUOUS
  0
LAYER
  5
88
330
2
100
AcDbSymbolTableRecord
100
AcDbLayerTableRecord
  2
79
 70
     0
 62
    79
  6
CONTINUOUS
  0
LAYER
  5
89
330
2
100
AcDbSymbolTableRecord
100
AcDbLayerTableRecord
  2
80
 70
     0
 62
    80
  6
CONTINUOUS
  0
LAYER
  5
8A
330
2
100
AcDbSymbolTableRecord
100
AcDbLayerTableRecord
  2
81
 70
     0
 62
    81
  6
CONTINUOUS
  0
LAYER
  5
8B
330
2
100
AcDbSymbolTableRecord
100
AcDbLayerTableRecord
  2
82
 70
     0
 62
    82
  6
CONTINUOUS
  0
LAYER
  5
8C
330
2
100
AcDbSymbolTableRecord
100
AcDbLayerTableRecord
  2
83
 70
     0
 62
    83
  6
CONTINUOUS
  0
LAYER
  5
8D
330
2
100
AcDbSymbolTableRecord
100
AcDbLayerTableRecord
  2
84
 70
     0
 62
    84
  6
CONTINUOUS
  0
LAYER
  5
8E
330
2
100
AcDbSymbolTableRecord
100
AcDbLayerTableRecord
  2
85
 70
     0
 62
    85
  6
CONTINUOUS
  0
LAYER
  5
8F
330
2
100
AcDbSymbolTableRecord
100
AcDbLayerTableRecord
  2
86
 70
     0
 62
    86
  6
CONTINUOUS
  0
LAYER
  5
90
330
2
100
AcDbSymbolTableRecord
100
AcDbLayerTableRecord
  2
87
 70
     0
 62
    87
  6
CONTINUOUS
  0
LAYER
  5
91
330
2
100
AcDbSymbolTableRecord
100
AcDbLayerTableRecord
  2
88
 70
     0
 62
    88
  6
CONTINUOUS
  0
LAYER
  5
92
330
2
100
AcDbSymbolTableRecord
100
AcDbLayerTableRecord
  2
89
 70
     0
 62
    89
  6
CONTINUOUS
  0
LAYER
  5
93
330
2
100
AcDbSymbolTableRecord
100
AcDbLayerTableRecord
  2
90
 70
     0
 62
    90
  6
CONTINUOUS
  0
LAYER
  5
94
330
2
100
AcDbSymbolTableRecord
100
AcDbLayerTableRecord
  2
91
 70
     0
 62
    91
  6
CONTINUOUS
  0
LAYER
  5
95
330
2
100
AcDbSymbolTableRecord
100
AcDbLayerTableRecord
  2
92
 70
     0
 62
    92
  6
CONTINUOUS
  0
LAYER
  5
96
330
2
100
AcDbSymbolTableRecord
100
AcDbLayerTableRecord
  2
93
 70
     0
 62
    93
  6
CONTINUOUS
  0
LAYER
  5
97
330
2
100
AcDbSymbolTableRecord
100
AcDbLayerTableRecord
  2
94
 70
     0
 62
    94
  6
CONTINUOUS
  0
LAYER
  5
98
330
2
100
AcDbSymbolTableRecord
100
AcDbLayerTableRecord
  2
95
 70
     0
 62
    95
  6
CONTINUOUS
  0
LAYER
  5
99
330
2
100
AcDbSymbolTableRecord
100
AcDbLayerTableRecord
  2
96
 70
     0
 62
    96
  6
CONTINUOUS
  0
LAYER
  5
9A
330
2
100
AcDbSymbolTableRecord
100
AcDbLayerTableRecord
  2
97
 70
     0
 62
    97
  6
CONTINUOUS
  0
LAYER
  5
9B
330
2
100
AcDbSymbolTableRecord
100
AcDbLayerTableRecord
  2
98
 70
     0
 62
    98
  6
CONTINUOUS
  0
LAYER
  5
9C
330
2
100
AcDbSymbolTableRecord
100
AcDbLayerTableRecord
  2
99
 70
     0
 62
    99
  6
CONTINUOUS
  0
LAYER
  5
9D
330
2
100
AcDbSymbolTableRecord
100
AcDbLayerTableRecord
  2
100
 70
     0
 62
   100
  6
CONTINUOUS
  0
LAYER
  5
9E
330
2
100
AcDbSymbolTableRecord
100
AcDbLayerTableRecord
  2
101
 70
     0
 62
   101
  6
CONTINUOUS
  0
LAYER
  5
9F
330
2
100
AcDbSymbolTableRecord
100
AcDbLayerTableRecord
  2
102
 70
     0
 62
   102
  6
CONTINUOUS
  0
LAYER
  5
A0
330
2
100
AcDbSymbolTableRecord
100
AcDbLayerTableRecord
  2
103
 70
     0
 62
   103
  6
CONTINUOUS
  0
LAYER
  5
A1
330
2
100
AcDbSymbolTableRecord
100
AcDbLayerTableRecord
  2
104
 70
     0
 62
   104
  6
CONTINUOUS
  0
LAYER
  5
A2
330
2
100
AcDbSymbolTableRecord
100
AcDbLayerTableRecord
  2
105
 70
     0
 62
   105
  6
CONTINUOUS
  0
LAYER
  5
A3
330
2
100
AcDbSymbolTableRecord
100
AcDbLayerTableRecord
  2
106
 70
     0
 62
   106
  6
CONTINUOUS
  0
LAYER
  5
A4
330
2
100
AcDbSymbolTableRecord
100
AcDbLayerTableRecord
  2
107
 70
     0
 62
   107
  6
CONTINUOUS
  0
LAYER
  5
A5
330
2
100
AcDbSymbolTableRecord
100
AcDbLayerTableRecord
  2
108
 70
     0
 62
   108
  6
CONTINUOUS
  0
LAYER
  5
A6
330
2
100
AcDbSymbolTableRecord
100
AcDbLayerTableRecord
  2
109
 70
     0
 62
   109
  6
CONTINUOUS
  0
LAYER
  5
A7
330
2
100
AcDbSymbolTableRecord
100
AcDbLayerTableRecord
  2
110
 70
     0
 62
   110
  6
CONTINUOUS
  0
LAYER
  5
A8
330
2
100
AcDbSymbolTableRecord
100
AcDbLayerTableRecord
  2
111
 70
     0
 62
   111
  6
CONTINUOUS
  0
LAYER
  5
A9
330
2
100
AcDbSymbolTableRecord
100
AcDbLayerTableRecord
  2
112
 70
     0
 62
   112
  6
CONTINUOUS
  0
LAYER
  5
AA
330
2
100
AcDbSymbolTableRecord
100
AcDbLayerTableRecord
  2
113
 70
     0
 62
   113
  6
CONTINUOUS
  0
LAYER
  5
AB
330
2
100
AcDbSymbolTableRecord
100
AcDbLayerTableRecord
  2
114
 70
     0
 62
   114
  6
CONTINUOUS
  0
LAYER
  5
AC
330
2
100
AcDbSymbolTableRecord
100
AcDbLayerTableRecord
  2
115
 70
     0
 62
   115
  6
CONTINUOUS
  0
LAYER
  5
AD
330
2
100
AcDbSymbolTableRecord
100
AcDbLayerTableRecord
  2
116
 70
     0
 62
   116
  6
CONTINUOUS
  0
LAYER
  5
AE
330
2
100
AcDbSymbolTableRecord
100
AcDbLayerTableRecord
  2
117
 70
     0
 62
   117
  6
CONTINUOUS
  0
LAYER
  5
AF
330
2
100
AcDbSymbolTableRecord
100
AcDbLayerTableRecord
  2
118
 70
     0
 62
   118
  6
CONTINUOUS
  0
LAYER
  5
B0
330
2
100
AcDbSymbolTableRecord
100
AcDbLayerTableRecord
  2
119
 70
     0
 62
   119
  6
CONTINUOUS
  0
LAYER
  5
B1
330
2
100
AcDbSymbolTableRecord
100
AcDbLayerTableRecord
  2
120
 70
     0
 62
   120
  6
CONTINUOUS
  0
LAYER
  5
B2
330
2
100
AcDbSymbolTableRecord
100
AcDbLayerTableRecord
  2
121
 70
     0
 62
   121
  6
CONTINUOUS
  0
LAYER
  5
B3
330
2
100
AcDbSymbolTableRecord
100
AcDbLayerTableRecord
  2
122
 70
     0
 62
   122
  6
CONTINUOUS
  0
LAYER
  5
B4
330
2
100
AcDbSymbolTableRecord
100
AcDbLayerTableRecord
  2
123
 70
     0
 62
   123
  6
CONTINUOUS
  0
LAYER
  5
B5
330
2
100
AcDbSymbolTableRecord
100
AcDbLayerTableRecord
  2
124
 70
     0
 62
   124
  6
CONTINUOUS
  0
LAYER
  5
B6
330
2
100
AcDbSymbolTableRecord
100
AcDbLayerTableRecord
  2
125
 70
     0
 62
   125
  6
CONTINUOUS
  0
LAYER
  5
B7
330
2
100
AcDbSymbolTableRecord
100
AcDbLayerTableRecord
  2
126
 70
     0
 62
   126
  6
CONTINUOUS
  0
LAYER
  5
B8
330
2
100
AcDbSymbolTableRecord
100
AcDbLayerTableRecord
  2
127
 70
     0
 62
   127
  6
CONTINUOUS
  0
LAYER
  5
B9
330
2
100
AcDbSymbolTableRecord
100
AcDbLayerTableRecord
  2
128
 70
     0
 62
   128
  6
CONTINUOUS
  0
LAYER
  5
BA
330
2
100
AcDbSymbolTableRecord
100
AcDbLayerTableRecord
  2
129
 70
     0
 62
   129
  6
CONTINUOUS
  0
LAYER
  5
BB
330
2
100
AcDbSymbolTableRecord
100
AcDbLayerTableRecord
  2
130
 70
     0
 62
   130
  6
CONTINUOUS
  0
LAYER
  5
BC
330
2
100
AcDbSymbolTableRecord
100
AcDbLayerTableRecord
  2
131
 70
     0
 62
   131
  6
CONTINUOUS
  0
LAYER
  5
BD
330
2
100
AcDbSymbolTableRecord
100
AcDbLayerTableRecord
  2
132
 70
     0
 62
   132
  6
CONTINUOUS
  0
LAYER
  5
BE
330
2
100
AcDbSymbolTableRecord
100
AcDbLayerTableRecord
  2
133
 70
     0
 62
   133
  6
CONTINUOUS
  0
LAYER
  5
BF
330
2
100
AcDbSymbolTableRecord
100
AcDbLayerTableRecord
  2
134
 70
     0
 62
   134
  6
CONTINUOUS
  0
LAYER
  5
C0
330
2
100
AcDbSymbolTableRecord
100
AcDbLayerTableRecord
  2
135
 70
     0
 62
   135
  6
CONTINUOUS
  0
LAYER
  5
C1
330
2
100
AcDbSymbolTableRecord
100
AcDbLayerTableRecord
  2
136
 70
     0
 62
   136
  6
CONTINUOUS
  0
LAYER
  5
C2
330
2
100
AcDbSymbolTableRecord
100
AcDbLayerTableRecord
  2
137
 70
     0
 62
   137
  6
CONTINUOUS
  0
LAYER
  5
C3
330
2
100
AcDbSymbolTableRecord
100
AcDbLayerTableRecord
  2
138
 70
     0
 62
   138
  6
CONTINUOUS
  0
LAYER
  5
C4
330
2
100
AcDbSymbolTableRecord
100
AcDbLayerTableRecord
  2
139
 70
     0
 62
   139
  6
CONTINUOUS
  0
LAYER
  5
C5
330
2
100
AcDbSymbolTableRecord
100
AcDbLayerTableRecord
  2
140
 70
     0
 62
   140
  6
CONTINUOUS
  0
LAYER
  5
C6
330
2
100
AcDbSymbolTableRecord
100
AcDbLayerTableRecord
  2
141
 70
     0
 62
   141
  6
CONTINUOUS
  0
LAYER
  5
C7
330
2
100
AcDbSymbolTableRecord
100
AcDbLayerTableRecord
  2
142
 70
     0
 62
   142
  6
CONTINUOUS
  0
LAYER
  5
C8
330
2
100
AcDbSymbolTableRecord
100
AcDbLayerTableRecord
  2
143
 70
     0
 62
   143
  6
CONTINUOUS
  0
LAYER
  5
C9
330
2
100
AcDbSymbolTableRecord
100
AcDbLayerTableRecord
  2
144
 70
     0
 62
   144
  6
CONTINUOUS
  0
LAYER
  5
CA
330
2
100
AcDbSymbolTableRecord
100
AcDbLayerTableRecord
  2
145
 70
     0
 62
   145
  6
CONTINUOUS
  0
LAYER
  5
CB
330
2
100
AcDbSymbolTableRecord
100
AcDbLayerTableRecord
  2
146
 70
     0
 62
   146
  6
CONTINUOUS
  0
LAYER
  5
CC
330
2
100
AcDbSymbolTableRecord
100
AcDbLayerTableRecord
  2
147
 70
     0
 62
   147
  6
CONTINUOUS
  0
LAYER
  5
CD
330
2
100
AcDbSymbolTableRecord
100
AcDbLayerTableRecord
  2
148
 70
     0
 62
   148
  6
CONTINUOUS
  0
LAYER
  5
CE
330
2
100
AcDbSymbolTableRecord
100
AcDbLayerTableRecord
  2
149
 70
     0
 62
   149
  6
CONTINUOUS
  0
LAYER
  5
CF
330
2
100
AcDbSymbolTableRecord
100
AcDbLayerTableRecord
  2
150
 70
     0
 62
   150
  6
CONTINUOUS
  0
LAYER
  5
D0
330
2
100
AcDbSymbolTableRecord
100
AcDbLayerTableRecord
  2
151
 70
     0
 62
   151
  6
CONTINUOUS
  0
LAYER
  5
D1
330
2
100
AcDbSymbolTableRecord
100
AcDbLayerTableRecord
  2
152
 70
     0
 62
   152
  6
CONTINUOUS
  0
LAYER
  5
D2
330
2
100
AcDbSymbolTableRecord
100
AcDbLayerTableRecord
  2
153
 70
     0
 62
   153
  6
CONTINUOUS
  0
LAYER
  5
D3
330
2
100
AcDbSymbolTableRecord
100
AcDbLayerTableRecord
  2
154
 70
     0
 62
   154
  6
CONTINUOUS
  0
LAYER
  5
D4
330
2
100
AcDbSymbolTableRecord
100
AcDbLayerTableRecord
  2
155
 70
     0
 62
   155
  6
CONTINUOUS
  0
LAYER
  5
D5
330
2
100
AcDbSymbolTableRecord
100
AcDbLayerTableRecord
  2
156
 70
     0
 62
   156
  6
CONTINUOUS
  0
LAYER
  5
D6
330
2
100
AcDbSymbolTableRecord
100
AcDbLayerTableRecord
  2
157
 70
     0
 62
   157
  6
CONTINUOUS
  0
LAYER
  5
D7
330
2
100
AcDbSymbolTableRecord
100
AcDbLayerTableRecord
  2
158
 70
     0
 62
   158
  6
CONTINUOUS
  0
LAYER
  5
D8
330
2
100
AcDbSymbolTableRecord
100
AcDbLayerTableRecord
  2
159
 70
     0
 62
   159
  6
CONTINUOUS
  0
LAYER
  5
D9
330
2
100
AcDbSymbolTableRecord
100
AcDbLayerTableRecord
  2
160
 70
     0
 62
   160
  6
CONTINUOUS
  0
LAYER
  5
DA
330
2
100
AcDbSymbolTableRecord
100
AcDbLayerTableRecord
  2
161
 70
     0
 62
   161
  6
CONTINUOUS
  0
LAYER
  5
DB
330
2
100
AcDbSymbolTableRecord
100
AcDbLayerTableRecord
  2
162
 70
     0
 62
   162
  6
CONTINUOUS
  0
LAYER
  5
DC
330
2
100
AcDbSymbolTableRecord
100
AcDbLayerTableRecord
  2
163
 70
     0
 62
   163
  6
CONTINUOUS
  0
LAYER
  5
DD
330
2
100
AcDbSymbolTableRecord
100
AcDbLayerTableRecord
  2
164
 70
     0
 62
   164
  6
CONTINUOUS
  0
LAYER
  5
DE
330
2
100
AcDbSymbolTableRecord
100
AcDbLayerTableRecord
  2
165
 70
     0
 62
   165
  6
CONTINUOUS
  0
LAYER
  5
DF
330
2
100
AcDbSymbolTableRecord
100
AcDbLayerTableRecord
  2
166
 70
     0
 62
   166
  6
CONTINUOUS
  0
LAYER
  5
E0
330
2
100
AcDbSymbolTableRecord
100
AcDbLayerTableRecord
  2
167
 70
     0
 62
   167
  6
CONTINUOUS
  0
LAYER
  5
E1
330
2
100
AcDbSymbolTableRecord
100
AcDbLayerTableRecord
  2
168
 70
     0
 62
   168
  6
CONTINUOUS
  0
LAYER
  5
E2
330
2
100
AcDbSymbolTableRecord
100
AcDbLayerTableRecord
  2
169
 70
     0
 62
   169
  6
CONTINUOUS
  0
LAYER
  5
E3
330
2
100
AcDbSymbolTableRecord
100
AcDbLayerTableRecord
  2
170
 70
     0
 62
   170
  6
CONTINUOUS
  0
LAYER
  5
E4
330
2
100
AcDbSymbolTableRecord
100
AcDbLayerTableRecord
  2
171
 70
     0
 62
   171
  6
CONTINUOUS
  0
LAYER
  5
E5
330
2
100
AcDbSymbolTableRecord
100
AcDbLayerTableRecord
  2
172
 70
     0
 62
   172
  6
CONTINUOUS
  0
LAYER
  5
E6
330
2
100
AcDbSymbolTableRecord
100
AcDbLayerTableRecord
  2
173
 70
     0
 62
   173
  6
CONTINUOUS
  0
LAYER
  5
E7
330
2
100
AcDbSymbolTableRecord
100
AcDbLayerTableRecord
  2
174
 70
     0
 62
   174
  6
CONTINUOUS
  0
LAYER
  5
E8
330
2
100
AcDbSymbolTableRecord
100
AcDbLayerTableRecord
  2
175
 70
     0
 62
   175
  6
CONTINUOUS
  0
LAYER
  5
E9
330
2
100
AcDbSymbolTableRecord
100
AcDbLayerTableRecord
  2
176
 70
     0
 62
   176
  6
CONTINUOUS
  0
LAYER
  5
EA
330
2
100
AcDbSymbolTableRecord
100
AcDbLayerTableRecord
  2
177
 70
     0
 62
   177
  6
CONTINUOUS
  0
LAYER
  5
EB
330
2
100
AcDbSymbolTableRecord
100
AcDbLayerTableRecord
  2
178
 70
     0
 62
   178
  6
CONTINUOUS
  0
LAYER
  5
EC
330
2
100
AcDbSymbolTableRecord
100
AcDbLayerTableRecord
  2
179
 70
     0
 62
   179
  6
CONTINUOUS
  0
LAYER
  5
ED
330
2
100
AcDbSymbolTableRecord
100
AcDbLayerTableRecord
  2
180
 70
     0
 62
   180
  6
CONTINUOUS
  0
LAYER
  5
EE
330
2
100
AcDbSymbolTableRecord
100
AcDbLayerTableRecord
  2
181
 70
     0
 62
   181
  6
CONTINUOUS
  0
LAYER
  5
EF
330
2
100
AcDbSymbolTableRecord
100
AcDbLayerTableRecord
  2
182
 70
     0
 62
   182
  6
CONTINUOUS
  0
LAYER
  5
F0
330
2
100
AcDbSymbolTableRecord
100
AcDbLayerTableRecord
  2
183
 70
     0
 62
   183
  6
CONTINUOUS
  0
LAYER
  5
F1
330
2
100
AcDbSymbolTableRecord
100
AcDbLayerTableRecord
  2
184
 70
     0
 62
   184
  6
CONTINUOUS
  0
LAYER
  5
F2
330
2
100
AcDbSymbolTableRecord
100
AcDbLayerTableRecord
  2
185
 70
     0
 62
   185
  6
CONTINUOUS
  0
LAYER
  5
F3
330
2
100
AcDbSymbolTableRecord
100
AcDbLayerTableRecord
  2
186
 70
     0
 62
   186
  6
CONTINUOUS
  0
LAYER
  5
F4
330
2
100
AcDbSymbolTableRecord
100
AcDbLayerTableRecord
  2
187
 70
     0
 62
   187
  6
CONTINUOUS
  0
LAYER
  5
F5
330
2
100
AcDbSymbolTableRecord
100
AcDbLayerTableRecord
  2
188
 70
     0
 62
   188
  6
CONTINUOUS
  0
LAYER
  5
F6
330
2
100
AcDbSymbolTableRecord
100
AcDbLayerTableRecord
  2
189
 70
     0
 62
   189
  6
CONTINUOUS
  0
LAYER
  5
F7
330
2
100
AcDbSymbolTableRecord
100
AcDbLayerTableRecord
  2
190
 70
     0
 62
   190
  6
CONTINUOUS
  0
LAYER
  5
F8
330
2
100
AcDbSymbolTableRecord
100
AcDbLayerTableRecord
  2
191
 70
     0
 62
   191
  6
CONTINUOUS
  0
LAYER
  5
F9
330
2
100
AcDbSymbolTableRecord
100
AcDbLayerTableRecord
  2
192
 70
     0
 62
   192
  6
CONTINUOUS
  0
LAYER
  5
FA
330
2
100
AcDbSymbolTableRecord
100
AcDbLayerTableRecord
  2
193
 70
     0
 62
   193
  6
CONTINUOUS
  0
LAYER
  5
FB
330
2
100
AcDbSymbolTableRecord
100
AcDbLayerTableRecord
  2
194
 70
     0
 62
   194
  6
CONTINUOUS
  0
LAYER
  5
FC
330
2
100
AcDbSymbolTableRecord
100
AcDbLayerTableRecord
  2
195
 70
     0
 62
   195
  6
CONTINUOUS
  0
LAYER
  5
FD
330
2
100
AcDbSymbolTableRecord
100
AcDbLayerTableRecord
  2
196
 70
     0
 62
   196
  6
CONTINUOUS
  0
LAYER
  5
FE
330
2
100
AcDbSymbolTableRecord
100
AcDbLayerTableRecord
  2
197
 70
     0
 62
   197
  6
CONTINUOUS
  0
LAYER
  5
FF
330
2
100
AcDbSymbolTableRecord
100
AcDbLayerTableRecord
  2
198
 70
     0
 62
   198
  6
CONTINUOUS
  0
LAYER
  5
100
330
2
100
AcDbSymbolTableRecord
100
AcDbLayerTableRecord
  2
199
 70
     0
 62
   199
  6
CONTINUOUS
  0
LAYER
  5
101
330
2
100
AcDbSymbolTableRecord
100
AcDbLayerTableRecord
  2
200
 70
     0
 62
   200
  6
CONTINUOUS
  0
LAYER
  5
102
330
2
100
AcDbSymbolTableRecord
100
AcDbLayerTableRecord
  2
201
 70
     0
 62
   201
  6
CONTINUOUS
  0
LAYER
  5
103
330
2
100
AcDbSymbolTableRecord
100
AcDbLayerTableRecord
  2
202
 70
     0
 62
   202
  6
CONTINUOUS
  0
LAYER
  5
104
330
2
100
AcDbSymbolTableRecord
100
AcDbLayerTableRecord
  2
203
 70
     0
 62
   203
  6
CONTINUOUS
  0
LAYER
  5
105
330
2
100
AcDbSymbolTableRecord
100
AcDbLayerTableRecord
  2
204
 70
     0
 62
   204
  6
CONTINUOUS
  0
LAYER
  5
106
330
2
100
AcDbSymbolTableRecord
100
AcDbLayerTableRecord
  2
205
 70
     0
 62
   205
  6
CONTINUOUS
  0
LAYER
  5
107
330
2
100
AcDbSymbolTableRecord
100
AcDbLayerTableRecord
  2
206
 70
     0
 62
   206
  6
CONTINUOUS
  0
LAYER
  5
108
330
2
100
AcDbSymbolTableRecord
100
AcDbLayerTableRecord
  2
207
 70
     0
 62
   207
  6
CONTINUOUS
  0
LAYER
  5
109
330
2
100
AcDbSymbolTableRecord
100
AcDbLayerTableRecord
  2
208
 70
     0
 62
   208
  6
CONTINUOUS
  0
LAYER
  5
10A
330
2
100
AcDbSymbolTableRecord
100
AcDbLayerTableRecord
  2
209
 70
     0
 62
   209
  6
CONTINUOUS
  0
LAYER
  5
10B
330
2
100
AcDbSymbolTableRecord
100
AcDbLayerTableRecord
  2
210
 70
     0
 62
   210
  6
CONTINUOUS
  0
LAYER
  5
10C
330
2
100
AcDbSymbolTableRecord
100
AcDbLayerTableRecord
  2
211
 70
     0
 62
   211
  6
CONTINUOUS
  0
LAYER
  5
10D
330
2
100
AcDbSymbolTableRecord
100
AcDbLayerTableRecord
  2
212
 70
     0
 62
   212
  6
CONTINUOUS
  0
LAYER
  5
10E
330
2
100
AcDbSymbolTableRecord
100
AcDbLayerTableRecord
  2
213
 70
     0
 62
   213
  6
CONTINUOUS
  0
LAYER
  5
10F
330
2
100
AcDbSymbolTableRecord
100
AcDbLayerTableRecord
  2
214
 70
     0
 62
   214
  6
CONTINUOUS
  0
LAYER
  5
110
330
2
100
AcDbSymbolTableRecord
100
AcDbLayerTableRecord
  2
215
 70
     0
 62
   215
  6
CONTINUOUS
  0
LAYER
  5
111
330
2
100
AcDbSymbolTableRecord
100
AcDbLayerTableRecord
  2
216
 70
     0
 62
   216
  6
CONTINUOUS
  0
LAYER
  5
112
330
2
100
AcDbSymbolTableRecord
100
AcDbLayerTableRecord
  2
217
 70
     0
 62
   217
  6
CONTINUOUS
  0
LAYER
  5
113
330
2
100
AcDbSymbolTableRecord
100
AcDbLayerTableRecord
  2
218
 70
     0
 62
   218
  6
CONTINUOUS
  0
LAYER
  5
114
330
2
100
AcDbSymbolTableRecord
100
AcDbLayerTableRecord
  2
219
 70
     0
 62
   219
  6
CONTINUOUS
  0
LAYER
  5
115
330
2
100
AcDbSymbolTableRecord
100
AcDbLayerTableRecord
  2
220
 70
     0
 62
   220
  6
CONTINUOUS
  0
LAYER
  5
116
330
2
100
AcDbSymbolTableRecord
100
AcDbLayerTableRecord
  2
221
 70
     0
 62
   221
  6
CONTINUOUS
  0
LAYER
  5
117
330
2
100
AcDbSymbolTableRecord
100
AcDbLayerTableRecord
  2
222
 70
     0
 62
   222
  6
CONTINUOUS
  0
LAYER
  5
118
330
2
100
AcDbSymbolTableRecord
100
AcDbLayerTableRecord
  2
223
 70
     0
 62
   223
  6
CONTINUOUS
  0
LAYER
  5
119
330
2
100
AcDbSymbolTableRecord
100
AcDbLayerTableRecord
  2
224
 70
     0
 62
   224
  6
CONTINUOUS
  0
LAYER
  5
11A
330
2
100
AcDbSymbolTableRecord
100
AcDbLayerTableRecord
  2
225
 70
     0
 62
   225
  6
CONTINUOUS
  0
LAYER
  5
11B
330
2
100
AcDbSymbolTableRecord
100
AcDbLayerTableRecord
  2
226
 70
     0
 62
   226
  6
CONTINUOUS
  0
LAYER
  5
11C
330
2
100
AcDbSymbolTableRecord
100
AcDbLayerTableRecord
  2
227
 70
     0
 62
   227
  6
CONTINUOUS
  0
LAYER
  5
11D
330
2
100
AcDbSymbolTableRecord
100
AcDbLayerTableRecord
  2
228
 70
     0
 62
   228
  6
CONTINUOUS
  0
LAYER
  5
11E
330
2
100
AcDbSymbolTableRecord
100
AcDbLayerTableRecord
  2
229
 70
     0
 62
   229
  6
CONTINUOUS
  0
LAYER
  5
11F
330
2
100
AcDbSymbolTableRecord
100
AcDbLayerTableRecord
  2
230
 70
     0
 62
   230
  6
CONTINUOUS
  0
LAYER
  5
120
330
2
100
AcDbSymbolTableRecord
100
AcDbLayerTableRecord
  2
231
 70
     0
 62
   231
  6
CONTINUOUS
  0
LAYER
  5
121
330
2
100
AcDbSymbolTableRecord
100
AcDbLayerTableRecord
  2
232
 70
     0
 62
   232
  6
CONTINUOUS
  0
LAYER
  5
122
330
2
100
AcDbSymbolTableRecord
100
AcDbLayerTableRecord
  2
233
 70
     0
 62
   233
  6
CONTINUOUS
  0
LAYER
  5
123
330
2
100
AcDbSymbolTableRecord
100
AcDbLayerTableRecord
  2
234
 70
     0
 62
   234
  6
CONTINUOUS
  0
LAYER
  5
124
330
2
100
AcDbSymbolTableRecord
100
AcDbLayerTableRecord
  2
235
 70
     0
 62
   235
  6
CONTINUOUS
  0
LAYER
  5
125
330
2
100
AcDbSymbolTableRecord
100
AcDbLayerTableRecord
  2
236
 70
     0
 62
   236
  6
CONTINUOUS
  0
LAYER
  5
126
330
2
100
AcDbSymbolTableRecord
100
AcDbLayerTableRecord
  2
237
 70
     0
 62
   237
  6
CONTINUOUS
  0
LAYER
  5
127
330
2
100
AcDbSymbolTableRecord
100
AcDbLayerTableRecord
  2
238
 70
     0
 62
   238
  6
CONTINUOUS
  0
LAYER
  5
128
330
2
100
AcDbSymbolTableRecord
100
AcDbLayerTableRecord
  2
239
 70
     0
 62
   239
  6
CONTINUOUS
  0
LAYER
  5
129
330
2
100
AcDbSymbolTableRecord
100
AcDbLayerTableRecord
  2
240
 70
     0
 62
   240
  6
CONTINUOUS
  0
LAYER
  5
12A
330
2
100
AcDbSymbolTableRecord
100
AcDbLayerTableRecord
  2
241
 70
     0
 62
   241
  6
CONTINUOUS
  0
LAYER
  5
12B
330
2
100
AcDbSymbolTableRecord
100
AcDbLayerTableRecord
  2
242
 70
     0
 62
   242
  6
CONTINUOUS
  0
LAYER
  5
12C
330
2
100
AcDbSymbolTableRecord
100
AcDbLayerTableRecord
  2
243
 70
     0
 62
   243
  6
CONTINUOUS
  0
LAYER
  5
12D
330
2
100
AcDbSymbolTableRecord
100
AcDbLayerTableRecord
  2
244
 70
     0
 62
   244
  6
CONTINUOUS
  0
LAYER
  5
12E
330
2
100
AcDbSymbolTableRecord
100
AcDbLayerTableRecord
  2
245
 70
     0
 62
   245
  6
CONTINUOUS
  0
LAYER
  5
12F
330
2
100
AcDbSymbolTableRecord
100
AcDbLayerTableRecord
  2
246
 70
     0
 62
   246
  6
CONTINUOUS
  0
LAYER
  5
130
330
2
100
AcDbSymbolTableRecord
100
AcDbLayerTableRecord
  2
247
 70
     0
 62
   247
  6
CONTINUOUS
  0
LAYER
  5
131
330
2
100
AcDbSymbolTableRecord
100
AcDbLayerTableRecord
  2
248
 70
     0
 62
   248
  6
CONTINUOUS
  0
LAYER
  5
132
330
2
100
AcDbSymbolTableRecord
100
AcDbLayerTableRecord
  2
249
 70
     0
 62
   249
  6
CONTINUOUS
  0
LAYER
  5
133
330
2
100
AcDbSymbolTableRecord
100
AcDbLayerTableRecord
  2
250
 70
     0
 62
   250
  6
CONTINUOUS
  0
LAYER
  5
134
330
2
100
AcDbSymbolTableRecord
100
AcDbLayerTableRecord
  2
251
 70
     0
 62
   251
  6
CONTINUOUS
  0
LAYER
  5
135
330
2
100
AcDbSymbolTableRecord
100
AcDbLayerTableRecord
  2
252
 70
     0
 62
   252
  6
CONTINUOUS
  0
LAYER
  5
136
330
2
100
AcDbSymbolTableRecord
100
AcDbLayerTableRecord
  2
253
 70
     0
 62
   253
  6
CONTINUOUS
  0
LAYER
  5
137
330
2
100
AcDbSymbolTableRecord
100
AcDbLayerTableRecord
  2
254
 70
     0
 62
   254
  6
CONTINUOUS
  0
LAYER
  5
138
330
2
100
AcDbSymbolTableRecord
100
AcDbLayerTableRecord
  2
255
 70
     0
 62
   255
  6
CONTINUOUS
  0
ENDTAB
  0
TABLE
  2
STYLE
  5
3
330
0
100
AcDbSymbolTable
 70
     1
  0
STYLE
  5
11
330
3
100
AcDbSymbolTableRecord
100
AcDbTextStyleTableRecord
  2
STANDARD
 70
     0
 40
0.0
 41
1.0
 50
0.0
 71
     0
 42
0.2
  3
txt
  4

  0
ENDTAB
  0
TABLE
  2
VIEW
  5
6
330
0
100
AcDbSymbolTable
 70
     0
  0
ENDTAB
  0
TABLE
  2
UCS
  5
7
330
0
100
AcDbSymbolTable
 70
     0
  0
ENDTAB
  0
TABLE
  2
APPID
  5
9
330
0
100
AcDbSymbolTable
 70
     1
  0
APPID
  5
12
330
9
100
AcDbSymbolTableRecord
100
AcDbRegAppTableRecord
  2
ACAD
 70
     0
  0
ENDTAB
  0
TABLE
  2
DIMSTYLE
  5
A
330
0
100
AcDbSymbolTable
 70
     1
  0
DIMSTYLE
105
33E6
330
A
100
AcDbSymbolTableRecord
100
AcDbDimStyleTableRecord
  2
STANDARD
 70
     0
  3

  4

  5

  6

  7

 40
1.0
 41
0.18
 42
0.0625
 43
0.38
 44
0.18
 45
0.0
 46
0.0
 47
0.0
 48
0.0
140
0.18
141
0.09
142
0.0
143
25.4
144
1.0
145
0.0
146
1.0
147
0.09
 71
     0
 72
     0
 73
     1
 74
     1
 75
     0
 76
     0
 77
     0
 78
     0
170
     0
171
     2
172
     0
173
     0
174
     0
175
     0
176
     0
177
     0
178
     0
270
     2
271
     4
272
     4
273
     2
274
     2
340
11
275
     0
280
     0
281
     0
282
     0
283
     1
284
     0
285
     0
286
     0
287
     3
288
     0
  0
ENDTAB
  0
TABLE
  2
BLOCK_RECORD
  5
1
330
0
100
AcDbSymbolTable
 70
     0
  0
BLOCK_RECORD
  5
1E
102
{ACAD_XDICTIONARY
360
33ED
102
}
330
1
100
AcDbSymbolTableRecord
100
AcDbBlockTableRecord
  2
*MODEL_SPACE
  0
BLOCK_RECORD
  5
1A
102
{ACAD_XDICTIONARY
360
33EB
102
}
330
1
100
AcDbSymbolTableRecord
100
AcDbBlockTableRecord
  2
*PAPER_SPACE
  0
ENDTAB
  0
ENDSEC
  0
SECTION
  2
BLOCKS
  0
BLOCK
  5
13B
330
1E
100
AcDbEntity
  8
0
100
AcDbBlockBegin
  2
*MODEL_SPACE
 70
     0
 10
0.0
 20
0.0
 30
0.0
  3
*MODEL_SPACE
  1

  0
ENDBLK
  5
13C
330
1E
100
AcDbEntity
  8
0
100
AcDbBlockEnd
  0
BLOCK
  5
139
330
1A
100
AcDbEntity
 67
     1
  8
0
100
AcDbBlockBegin
  2
*PAPER_SPACE
 70
     0
 10
0.0
 20
0.0
 30
0.0
  3
*PAPER_SPACE
  1

  0
ENDBLK
  5
13A
330
1A
100
AcDbEntity
 67
     1
  8
0
100
AcDbBlockEnd
  0
ENDSEC
  0
SECTION
  2
ENTITIES
  0
LINE
  5
2B9C
330
1E
100
AcDbEntity
  8
0
100
AcDbLine
 10
2.566834715645061
 20
3.616291377403753
 30
0.0
 11
2.570784912495455
 21
3.613657912836823
 31
0.0
  0
LINE
  5
2B9D
330
1E
100
AcDbEntity
  8
0
100
AcDbLine
 10
2.570784912495455
 20
8.074746889214775
 30
0.0
 11
2.570784912495455
 21
3.613657912836823
 31
0.0
  0
LINE
  5
2B9E
330
1E
100
AcDbEntity
  8
0
100
AcDbLine
 10
2.570784912495455
 20
8.074746889214775
 30
0.0
 11
2.566834715645061
 21
8.070796692364382
 31
0.0
  0
POLYLINE
  5
2B9F
330
1E
100
AcDbEntity
  8
0
100
AcDb2dPolyline
 66
     1
 10
0.0
 20
0.0
 30
0.0
  0
VERTEX
  5
33EF
330
2B9F
100
AcDbEntity
  8
0
100
AcDbVertex
100
AcDb2dVertex
 10
2.570784912495455
 20
3.613657912836823
 30
0.0
  0
VERTEX
  5
33F0
330
2B9F
100
AcDbEntity
  8
0
100
AcDbVertex
100
AcDb2dVertex
 10
2.566834715645061
 20
3.597857125435249
 30
0.0
  0
VERTEX
  5
33F1
330
2B9F
100
AcDbEntity
  8
0
100
AcDbVertex
100
AcDb2dVertex
 10
2.55498412509388
 20
3.587323267167532
 30
0.0
  0
VERTEX
  5
33F2
330
2B9F
100
AcDbEntity
  8
0
100
AcDbVertex
100
AcDb2dVertex
 10
2.540500069975769
 20
3.583373070317138
 30
0.0
  0
SEQEND
  5
33F3
330
2B9F
100
AcDbEntity
  8
0
  0
LINE
  5
2BA5
330
1E
100
AcDbEntity
  8
0
100
AcDbLine
 10
-0.1653847725439155
 20
3.583373070317139
 30
0.0
 11
2.54050006997577
 21
3.583373070317139
 31
0.0
  0
POLYLINE
  5
2BA6
330
1E
100
AcDbEntity
  8
0
100
AcDb2dPolyline
 66
     1
 10
0.0
 20
0.0
 30
0.0
  0
VERTEX
  5
33F4
330
2BA6
100
AcDbEntity
  8
0
100
AcDbVertex
100
AcDb2dVertex
 10
-0.165384772543915
 20
3.583373070317138
 30
0.0
  0
VERTEX
  5
33F5
330
2BA6
100
AcDbEntity
  8
0
100
AcDbVertex
100
AcDb2dVertex
 10
-0.1798688276620253
 20
3.587323267167532
 30
0.0
  0
VERTEX
  5
33F6
330
2BA6
100
AcDbEntity
  8
0
100
AcDbVertex
100
AcDb2dVertex
 10
-0.1904026859297418
 20
3.597857125435249
 30
0.0
  0
VERTEX
  5
33F7
330
2BA6
100
AcDbEntity
  8
0
100
AcDbVertex
100
AcDb2dVertex
 10
-0.1943528827801355
 20
3.613657912836823
 30
0.0
  0
SEQEND
  5
33F8
330
2BA6
100
AcDbEntity
  8
0
  0
LINE
  5
2BAC
330
1E
100
AcDbEntity
  8
0
100
AcDbLine
 10
-0.1943528827801355
 20
8.074746889214775
 30
0.0
 11
-0.1943528827801355
 21
3.613657912836823
 31
0.0
  0
POLYLINE
  5
2BAD
330
1E
100
AcDbEntity
  8
0
100
AcDb2dPolyline
 66
     1
 10
0.0
 20
0.0
 30
0.0
  0
VERTEX
  5
33F9
330
2BAD
100
AcDbEntity
  8
0
100
AcDbVertex
100
AcDb2dVertex
 10
-0.1943528827801355
 20
8.074746889214775
 30
0.0
  0
VERTEX
  5
33FA
330
2BAD
100
AcDbEntity
  8
0
100
AcDbVertex
100
AcDb2dVertex
 10
-0.1904026859297418
 20
8.089230944332886
 30
0.0
  0
VERTEX
  5
33FB
330
2BAD
100
AcDbEntity
  8
0
100
AcDbVertex
100
AcDb2dVertex
 10
-0.1798688276620253
 20
8.099764802600603
 30
0.0
  0
VERTEX
  5
33FC
330
2BAD
100
AcDbEntity
  8
0
100
AcDbVertex
100
AcDb2dVertex
 10
-0.165384772543915
 20
8.103714999450996
 30
0.0
  0
SEQEND
  5
33FD
330
2BAD
100
AcDbEntity
  8
0
  0
LINE
  5
2BB3
330
1E
100
AcDbEntity
  8
0
100
AcDbLine
 10
-0.1653847725439155
 20
8.103714999450996
 30
0.0
 11
2.54050006997577
 21
8.103714999450996
 31
0.0
  0
POLYLINE
  5
2BB4
330
1E
100
AcDbEntity
  8
0
100
AcDb2dPolyline
 66
     1
 10
0.0
 20
0.0
 30
0.0
  0
VERTEX
  5
33FE
330
2BB4
100
AcDbEntity
  8
0
100
AcDbVertex
100
AcDb2dVertex
 10
2.540500069975769
 20
8.103714999450996
 30
0.0
  0
VERTEX
  5
33FF
330
2BB4
100
AcDbEntity
  8
0
100
AcDbVertex
100
AcDb2dVertex
 10
2.55498412509388
 20
8.099764802600603
 30
0.0
  0
VERTEX
  5
3400
330
2BB4
100
AcDbEntity
  8
0
100
AcDbVertex
100
AcDb2dVertex
 10
2.566834715645061
 20
8.089230944332886
 30
0.0
  0
VERTEX
  5
3401
330
2BB4
100
AcDbEntity
  8
0
100
AcDbVertex
100
AcDb2dVertex
 10
2.570784912495455
 20
8.074746889214775
 30
0.0
  0
SEQEND
  5
3402
330
2BB4
100
AcDbEntity
  8
0
  0
LINE
  5
2BBA
330
1E
100
AcDbEntity
  8
0
100
AcDbLine
 10
-0.1917194182132062
 20
8.070796692364382
 30
0.0
 11
-0.1943528827801355
 21
8.074746889214775
 31
0.0
  0
LINE
  5
2BBB
330
1E
100
AcDbEntity
  8
0
100
AcDbLine
 10
-0.1943528827801355
 20
3.613657912836823
 30
0.0
 11
-0.1917194182132062
 21
3.616291377403753
 31
0.0
  0
LINE
  5
2BBC
330
1E
100
AcDbEntity
  8
0
100
AcDbLine
 10
0.4205610935978168
 20
4.469533897088791
 30
0.0
 11
0.4284614872986046
 21
4.461633503388005
 31
0.0
  0
LINE
  5
2BBD
330
1E
100
AcDbEntity
  8
0
100
AcDbLine
 10
0.4284614872986046
 20
4.461633503388005
 30
0.0
 11
0.4798140463537229
 21
4.461633503388005
 31
0.0
  0
LINE
  5
2BBE
330
1E
100
AcDbEntity
  8
0
100
AcDbLine
 10
0.6207044006844314
 20
4.461633503388005
 30
0.0
 11
0.6733736920230147
 21
4.461633503388005
 31
0.0
  0
LINE
  5
2BBF
330
1E
100
AcDbEntity
  8
0
100
AcDbLine
 10
0.6733736920230147
 20
4.461633503388005
 30
0.0
 11
0.6812740857238016
 21
4.469533897088791
 31
0.0
  0
LINE
  5
2BC0
330
1E
100
AcDbEntity
  8
0
100
AcDbLine
 10
1.264586487298604
 20
4.441882519136036
 30
0.0
 11
1.258002825881281
 21
4.441882519136036
 31
0.0
  0
LINE
  5
2BC1
330
1E
100
AcDbEntity
  8
0
100
AcDbLine
 10
1.117112471550573
 20
4.441882519136036
 30
0.0
 11
1.11052881013325
 21
4.441882519136036
 31
0.0
  0
LINE
  5
2BC2
330
1E
100
AcDbEntity
  8
0
100
AcDbLine
 10
1.11052881013325
 20
4.441882519136036
 30
0.0
 11
1.11052881013325
 21
4.431348660868319
 31
0.0
  0
LINE
  5
2BC3
330
1E
100
AcDbEntity
  8
0
100
AcDbLine
 10
1.264586487298604
 20
4.431348660868319
 30
0.0
 11
1.264586487298604
 21
4.441882519136036
 31
0.0
  0
LINE
  5
2BC4
330
1E
100
AcDbEntity
  8
0
100
AcDbLine
 10
1.693841211708053
 20
4.469533897088791
 30
0.0
 11
1.70174160540884
 21
4.461633503388005
 31
0.0
  0
LINE
  5
2BC5
330
1E
100
AcDbEntity
  8
0
100
AcDbLine
 10
1.70174160540884
 20
4.461633503388005
 30
0.0
 11
1.754410896747423
 21
4.461633503388005
 31
0.0
  0
LINE
  5
2BC6
330
1E
100
AcDbEntity
  8
0
100
AcDbLine
 10
1.895301251078132
 20
4.461633503388005
 30
0.0
 11
1.94665381013325
 21
4.461633503388005
 31
0.0
  0
LINE
  5
2BC7
330
1E
100
AcDbEntity
  8
0
100
AcDbLine
 10
1.94665381013325
 20
4.461633503388005
 30
0.0
 11
1.955870936117502
 21
4.469533897088791
 31
0.0
  0
LINE
  5
2BC8
330
1E
100
AcDbEntity
  8
0
100
AcDbLine
 10
1.875550266826163
 20
7.217554172679343
 30
0.0
 11
1.866333140841911
 21
7.225454566380131
 31
0.0
  0
LINE
  5
2BC9
330
1E
100
AcDbEntity
  8
0
100
AcDbLine
 10
1.866333140841911
 20
7.225454566380131
 30
0.0
 11
1.814980581786793
 21
7.225454566380131
 31
0.0
  0
LINE
  5
2BCA
330
1E
100
AcDbEntity
  8
0
100
AcDbLine
 10
1.674090227456084
 20
7.225454566380131
 30
0.0
 11
1.622737668400967
 21
7.225454566380131
 31
0.0
  0
LINE
  5
2BCB
330
1E
100
AcDbEntity
  8
0
100
AcDbLine
 10
1.622737668400967
 20
7.225454566380131
 30
0.0
 11
1.613520542416714
 21
7.217554172679343
 31
0.0
  0
LINE
  5
2BCC
330
1E
100
AcDbEntity
  8
0
100
AcDbLine
 10
1.11052881013325
 20
7.25705614118328
 30
0.0
 11
1.11052881013325
 21
7.246522282915564
 31
0.0
  0
LINE
  5
2BCD
330
1E
100
AcDbEntity
  8
0
100
AcDbLine
 10
1.11052881013325
 20
7.246522282915564
 30
0.0
 11
1.117112471550573
 21
7.246522282915564
 31
0.0
  0
LINE
  5
2BCE
330
1E
100
AcDbEntity
  8
0
100
AcDbLine
 10
1.258002825881281
 20
7.246522282915564
 30
0.0
 11
1.264586487298604
 21
7.246522282915564
 31
0.0
  0
LINE
  5
2BCF
330
1E
100
AcDbEntity
  8
0
100
AcDbLine
 10
1.264586487298604
 20
7.246522282915564
 30
0.0
 11
1.264586487298604
 21
7.25705614118328
 31
0.0
  0
LINE
  5
2BD0
330
1E
100
AcDbEntity
  8
0
100
AcDbLine
 10
0.7615947550151399
 20
7.217554172679343
 30
0.0
 11
0.753694361314353
 21
7.225454566380131
 31
0.0
  0
LINE
  5
2BD1
330
1E
100
AcDbEntity
  8
0
100
AcDbLine
 10
0.753694361314353
 20
7.225454566380131
 30
0.0
 11
0.7010250699757697
 21
7.225454566380131
 31
0.0
  0
LINE
  5
2BD2
330
1E
100
AcDbEntity
  8
0
100
AcDbLine
 10
0.5601347156450612
 20
7.225454566380131
 30
0.0
 11
0.5087821565899429
 21
7.225454566380131
 31
0.0
  0
LINE
  5
2BD3
330
1E
100
AcDbEntity
  8
0
100
AcDbLine
 10
0.5087821565899429
 20
7.225454566380131
 30
0.0
 11
0.500881762889156
 21
7.217554172679343
 31
0.0
  0
POLYLINE
  5
2BD4
330
1E
100
AcDbEntity
  8
0
100
AcDb2dPolyline
 66
     1
 10
0.0
 20
0.0
 30
0.0
  0
VERTEX
  5
3403
330
2BD4
100
AcDbEntity
  8
0
100
AcDbVertex
100
AcDb2dVertex
 10
0.1637982983222268
 20
4.414231141183281
 30
0.0
  0
VERTEX
  5
3404
330
2BD4
100
AcDbEntity
  8
0
100
AcDbVertex
100
AcDb2dVertex
 10
0.1677484951726202
 20
4.430031928584855
 30
0.0
  0
VERTEX
  5
3405
330
2BD4
100
AcDbEntity
  8
0
100
AcDbVertex
100
AcDb2dVertex
 10
0.1782823534403368
 20
4.440565786852571
 30
0.0
  0
VERTEX
  5
3406
330
2BD4
100
AcDbEntity
  8
0
100
AcDbVertex
100
AcDb2dVertex
 10
0.1940831408419119
 20
4.444515983702966
 30
0.0
  0
SEQEND
  5
3407
330
2BD4
100
AcDbEntity
  8
0
  0
LINE
  5
2BDA
330
1E
100
AcDbEntity
  8
0
100
AcDbLine
 10
0.1940831408419115
 20
4.444515983702966
 30
0.0
 11
1.106578613282856
 21
4.444515983702966
 31
0.0
  0
LINE
  5
2BDB
330
1E
100
AcDbEntity
  8
0
100
AcDbLine
 10
1.106578613282856
 20
4.444515983702966
 30
0.0
 11
1.106578613282856
 21
4.466900432521863
 31
0.0
  0
LINE
  5
2BDC
330
1E
100
AcDbEntity
  8
0
100
AcDbLine
 10
1.268536684148998
 20
4.466900432521863
 30
0.0
 11
1.268536684148998
 21
4.444515983702966
 31
0.0
  0
LINE
  5
2BDD
330
1E
100
AcDbEntity
  8
0
100
AcDbLine
 10
1.268536684148998
 20
4.444515983702966
 30
0.0
 11
2.181032156589943
 21
4.444515983702966
 31
0.0
  0
POLYLINE
  5
2BDE
330
1E
100
AcDbEntity
  8
0
100
AcDb2dPolyline
 66
     1
 10
0.0
 20
0.0
 30
0.0
  0
VERTEX
  5
3408
330
2BDE
100
AcDbEntity
  8
0
100
AcDbVertex
100
AcDb2dVertex
 10
2.181032156589942
 20
4.444515983702966
 30
0.0
  0
VERTEX
  5
3409
330
2BDE
100
AcDbEntity
  8
0
100
AcDbVertex
100
AcDb2dVertex
 10
2.196832943991517
 20
4.440565786852571
 30
0.0
  0
VERTEX
  5
340A
330
2BDE
100
AcDbEntity
  8
0
100
AcDbVertex
100
AcDb2dVertex
 10
2.207366802259234
 20
4.430031928584855
 30
0.0
  0
VERTEX
  5
340B
330
2BDE
100
AcDbEntity
  8
0
100
AcDbVertex
100
AcDb2dVertex
 10
2.211316999109627
 20
4.414231141183281
 30
0.0
  0
SEQEND
  5
340C
330
2BDE
100
AcDbEntity
  8
0
  0
LINE
  5
2BE4
330
1E
100
AcDbEntity
  8
0
100
AcDbLine
 10
2.211316999109628
 20
4.414231141183281
 30
0.0
 11
2.211316999109628
 21
3.981026219923437
 31
0.0
  0
POLYLINE
  5
2BE5
330
1E
100
AcDbEntity
  8
0
100
AcDb2dPolyline
 66
     1
 10
0.0
 20
0.0
 30
0.0
  0
VERTEX
  5
340D
330
2BE5
100
AcDbEntity
  8
0
100
AcDbVertex
100
AcDb2dVertex
 10
2.211316999109627
 20
3.981026219923437
 30
0.0
  0
VERTEX
  5
340E
330
2BE5
100
AcDbEntity
  8
0
100
AcDbVertex
100
AcDb2dVertex
 10
2.207366802259234
 20
3.966542164805327
 30
0.0
  0
VERTEX
  5
340F
330
2BE5
100
AcDbEntity
  8
0
100
AcDbVertex
100
AcDb2dVertex
 10
2.196832943991517
 20
3.954691574254146
 30
0.0
  0
VERTEX
  5
3410
330
2BE5
100
AcDbEntity
  8
0
100
AcDbVertex
100
AcDb2dVertex
 10
2.181032156589942
 20
3.950741377403752
 30
0.0
  0
SEQEND
  5
3411
330
2BE5
100
AcDbEntity
  8
0
  0
LINE
  5
2BEB
330
1E
100
AcDbEntity
  8
0
100
AcDbLine
 10
0.1940831408419115
 20
3.950741377403753
 30
0.0
 11
2.181032156589943
 21
3.950741377403753
 31
0.0
  0
POLYLINE
  5
2BEC
330
1E
100
AcDbEntity
  8
0
100
AcDb2dPolyline
 66
     1
 10
0.0
 20
0.0
 30
0.0
  0
VERTEX
  5
3412
330
2BEC
100
AcDbEntity
  8
0
100
AcDbVertex
100
AcDb2dVertex
 10
0.1940831408419119
 20
3.950741377403752
 30
0.0
  0
VERTEX
  5
3413
330
2BEC
100
AcDbEntity
  8
0
100
AcDbVertex
100
AcDb2dVertex
 10
0.1782823534403368
 20
3.954691574254146
 30
0.0
  0
VERTEX
  5
3414
330
2BEC
100
AcDbEntity
  8
0
100
AcDbVertex
100
AcDb2dVertex
 10
0.1677484951726202
 20
3.966542164805327
 30
0.0
  0
VERTEX
  5
3415
330
2BEC
100
AcDbEntity
  8
0
100
AcDbVertex
100
AcDb2dVertex
 10
0.1637982983222268
 20
3.981026219923437
 30
0.0
  0
SEQEND
  5
3416
330
2BEC
100
AcDbEntity
  8
0
  0
LINE
  5
2BF2
330
1E
100
AcDbEntity
  8
0
100
AcDbLine
 10
0.1637982983222264
 20
3.981026219923437
 30
0.0
 11
0.1637982983222264
 21
4.414231141183281
 31
0.0
  0
LINE
  5
2BF3
330
1E
100
AcDbEntity
  8
0
100
AcDbLine
 10
0.6733736920230147
 20
4.511669330159658
 30
0.0
 11
0.6746904243064789
 21
4.511669330159658
 31
0.0
  0
POLYLINE
  5
2BF4
330
1E
100
AcDbEntity
  8
0
100
AcDb2dPolyline
 66
     1
 10
0.0
 20
0.0
 30
0.0
  0
VERTEX
  5
3417
330
2BF4
100
AcDbEntity
  8
0
100
AcDbVertex
100
AcDb2dVertex
 10
0.6746904243064789
 20
4.511669330159658
 30
0.0
  0
VERTEX
  5
3418
330
2BF4
100
AcDbEntity
  8
0
100
AcDbVertex
100
AcDb2dVertex
 10
0.6852242825741955
 20
4.506402401025799
 30
0.0
  0
VERTEX
  5
3419
330
2BF4
100
AcDbEntity
  8
0
100
AcDbVertex
100
AcDb2dVertex
 10
0.6904912117080535
 20
4.495868542758083
 30
0.0
  0
SEQEND
  5
341A
330
2BF4
100
AcDbEntity
  8
0
  0
LINE
  5
2BF9
330
1E
100
AcDbEntity
  8
0
100
AcDbLine
 10
0.6904912117080535
 20
4.495868542758083
 30
0.0
 11
0.6904912117080535
 21
4.465583700238399
 31
0.0
  0
POLYLINE
  5
2BFA
330
1E
100
AcDbEntity
  8
0
100
AcDb2dPolyline
 66
     1
 10
0.0
 20
0.0
 30
0.0
  0
VERTEX
  5
341B
330
2BFA
100
AcDbEntity
  8
0
100
AcDbVertex
100
AcDb2dVertex
 10
0.6904912117080535
 20
4.465583700238399
 30
0.0
  0
VERTEX
  5
341C
330
2BFA
100
AcDbEntity
  8
0
100
AcDbVertex
100
AcDb2dVertex
 10
0.6852242825741955
 20
4.453733109687217
 30
0.0
  0
VERTEX
  5
341D
330
2BFA
100
AcDbEntity
  8
0
100
AcDbVertex
100
AcDb2dVertex
 10
0.6746904243064789
 20
4.448466180553358
 30
0.0
  0
SEQEND
  5
341E
330
2BFA
100
AcDbEntity
  8
0
  0
LINE
  5
2BFF
330
1E
100
AcDbEntity
  8
0
100
AcDbLine
 10
0.6746904243064789
 20
4.448466180553358
 30
0.0
 11
0.4271447550151404
 21
4.448466180553358
 31
0.0
  0
POLYLINE
  5
2C00
330
1E
100
AcDbEntity
  8
0
100
AcDb2dPolyline
 66
     1
 10
0.0
 20
0.0
 30
0.0
  0
VERTEX
  5
341F
330
2C00
100
AcDbEntity
  8
0
100
AcDbVertex
100
AcDb2dVertex
 10
0.42714475501514
 20
4.448466180553358
 30
0.0
  0
VERTEX
  5
3420
330
2C00
100
AcDbEntity
  8
0
100
AcDbVertex
100
AcDb2dVertex
 10
0.4152941644639588
 20
4.453733109687217
 30
0.0
  0
VERTEX
  5
3421
330
2C00
100
AcDbEntity
  8
0
100
AcDbVertex
100
AcDb2dVertex
 10
0.4100272353301007
 20
4.465583700238399
 30
0.0
  0
SEQEND
  5
3422
330
2C00
100
AcDbEntity
  8
0
  0
LINE
  5
2C05
330
1E
100
AcDbEntity
  8
0
100
AcDbLine
 10
0.4100272353301007
 20
4.465583700238399
 30
0.0
 11
0.4100272353301007
 21
4.495868542758083
 31
0.0
  0
POLYLINE
  5
2C06
330
1E
100
AcDbEntity
  8
0
100
AcDb2dPolyline
 66
     1
 10
0.0
 20
0.0
 30
0.0
  0
VERTEX
  5
3423
330
2C06
100
AcDbEntity
  8
0
100
AcDbVertex
100
AcDb2dVertex
 10
0.4100272353301007
 20
4.495868542758083
 30
0.0
  0
VERTEX
  5
3424
330
2C06
100
AcDbEntity
  8
0
100
AcDbVertex
100
AcDb2dVertex
 10
0.4152941644639588
 20
4.506402401025799
 30
0.0
  0
VERTEX
  5
3425
330
2C06
100
AcDbEntity
  8
0
100
AcDbVertex
100
AcDb2dVertex
 10
0.42714475501514
 20
4.511669330159658
 30
0.0
  0
SEQEND
  5
3426
330
2C06
100
AcDbEntity
  8
0
  0
LINE
  5
2C0B
330
1E
100
AcDbEntity
  8
0
100
AcDbLine
 10
0.4271447550151404
 20
4.511669330159658
 30
0.0
 11
0.4271447550151404
 21
4.511669330159658
 31
0.0
  0
LINE
  5
2C0C
330
1E
100
AcDbEntity
  8
0
100
AcDbLine
 10
1.700424873125376
 20
4.511669330159658
 30
0.0
 11
1.70174160540884
 21
4.511669330159658
 31
0.0
  0
LINE
  5
2C0D
330
1E
100
AcDbEntity
  8
0
100
AcDbLine
 10
1.947970542416714
 20
4.511669330159658
 30
0.0
 11
1.949287274700179
 21
4.511669330159658
 31
0.0
  0
POLYLINE
  5
2C0E
330
1E
100
AcDbEntity
  8
0
100
AcDb2dPolyline
 66
     1
 10
0.0
 20
0.0
 30
0.0
  0
VERTEX
  5
3427
330
2C0E
100
AcDbEntity
  8
0
100
AcDbVertex
100
AcDb2dVertex
 10
1.949287274700179
 20
4.511669330159658
 30
0.0
  0
VERTEX
  5
3428
330
2C0E
100
AcDbEntity
  8
0
100
AcDbVertex
100
AcDb2dVertex
 10
1.959821132967896
 20
4.506402401025799
 30
0.0
  0
VERTEX
  5
3429
330
2C0E
100
AcDbEntity
  8
0
100
AcDbVertex
100
AcDb2dVertex
 10
1.965088062101754
 20
4.495868542758083
 30
0.0
  0
SEQEND
  5
342A
330
2C0E
100
AcDbEntity
  8
0
  0
LINE
  5
2C13
330
1E
100
AcDbEntity
  8
0
100
AcDbLine
 10
1.965088062101754
 20
4.495868542758083
 30
0.0
 11
1.965088062101754
 21
4.465583700238399
 31
0.0
  0
POLYLINE
  5
2C14
330
1E
100
AcDbEntity
  8
0
100
AcDb2dPolyline
 66
     1
 10
0.0
 20
0.0
 30
0.0
  0
VERTEX
  5
342B
330
2C14
100
AcDbEntity
  8
0
100
AcDbVertex
100
AcDb2dVertex
 10
1.965088062101754
 20
4.465583700238399
 30
0.0
  0
VERTEX
  5
342C
330
2C14
100
AcDbEntity
  8
0
100
AcDbVertex
100
AcDb2dVertex
 10
1.959821132967896
 20
4.453733109687217
 30
0.0
  0
VERTEX
  5
342D
330
2C14
100
AcDbEntity
  8
0
100
AcDbVertex
100
AcDb2dVertex
 10
1.949287274700179
 20
4.448466180553358
 30
0.0
  0
SEQEND
  5
342E
330
2C14
100
AcDbEntity
  8
0
  0
LINE
  5
2C19
330
1E
100
AcDbEntity
  8
0
100
AcDbLine
 10
1.949287274700179
 20
4.448466180553358
 30
0.0
 11
1.700424873125376
 21
4.448466180553358
 31
0.0
  0
POLYLINE
  5
2C1A
330
1E
100
AcDbEntity
  8
0
100
AcDb2dPolyline
 66
     1
 10
0.0
 20
0.0
 30
0.0
  0
VERTEX
  5
342F
330
2C1A
100
AcDbEntity
  8
0
100
AcDbVertex
100
AcDb2dVertex
 10
1.700424873125375
 20
4.448466180553358
 30
0.0
  0
VERTEX
  5
3430
330
2C1A
100
AcDbEntity
  8
0
100
AcDbVertex
100
AcDb2dVertex
 10
1.689891014857659
 20
4.453733109687217
 30
0.0
  0
VERTEX
  5
3431
330
2C1A
100
AcDbEntity
  8
0
100
AcDbVertex
100
AcDb2dVertex
 10
1.684624085723801
 20
4.465583700238399
 30
0.0
  0
SEQEND
  5
3432
330
2C1A
100
AcDbEntity
  8
0
  0
LINE
  5
2C1F
330
1E
100
AcDbEntity
  8
0
100
AcDbLine
 10
1.684624085723801
 20
4.465583700238399
 30
0.0
 11
1.684624085723801
 21
4.495868542758083
 31
0.0
  0
POLYLINE
  5
2C20
330
1E
100
AcDbEntity
  8
0
100
AcDb2dPolyline
 66
     1
 10
0.0
 20
0.0
 30
0.0
  0
VERTEX
  5
3433
330
2C20
100
AcDbEntity
  8
0
100
AcDbVertex
100
AcDb2dVertex
 10
1.684624085723801
 20
4.495868542758083
 30
0.0
  0
VERTEX
  5
3434
330
2C20
100
AcDbEntity
  8
0
100
AcDbVertex
100
AcDb2dVertex
 10
1.689891014857659
 20
4.506402401025799
 30
0.0
  0
VERTEX
  5
3435
330
2C20
100
AcDbEntity
  8
0
100
AcDbVertex
100
AcDb2dVertex
 10
1.700424873125375
 20
4.511669330159658
 30
0.0
  0
SEQEND
  5
3436
330
2C20
100
AcDbEntity
  8
0
  0
LINE
  5
2C25
330
1E
100
AcDbEntity
  8
0
100
AcDbLine
 10
0.8498158180072659
 20
4.968575432521863
 30
0.0
 11
0.8498158180072659
 21
5.630891771104541
 31
0.0
  0
LINE
  5
2C26
330
1E
100
AcDbEntity
  8
0
100
AcDbLine
 10
0.2507026290308882
 20
5.630891771104541
 30
0.0
 11
0.2507026290308882
 21
4.968575432521863
 31
0.0
  0
LINE
  5
2C27
330
1E
100
AcDbEntity
  8
0
100
AcDbLine
 10
2.124412668400966
 20
4.968575432521863
 30
0.0
 11
2.124412668400966
 21
5.630891771104541
 31
0.0
  0
LINE
  5
2C28
330
1E
100
AcDbEntity
  8
0
100
AcDbLine
 10
1.525299479424588
 20
5.630891771104541
 30
0.0
 11
1.525299479424588
 21
4.968575432521863
 31
0.0
  0
LINE
  5
2C29
330
1E
100
AcDbEntity
  8
0
100
AcDbLine
 10
0.8498158180072659
 20
6.122032912836824
 30
0.0
 11
0.8498158180072659
 21
6.7843492514195
 31
0.0
  0
LINE
  5
2C2A
330
1E
100
AcDbEntity
  8
0
100
AcDbLine
 10
0.2507026290308882
 20
6.7843492514195
 30
0.0
 11
0.2507026290308882
 21
6.122032912836824
 31
0.0
  0
LINE
  5
2C2B
330
1E
100
AcDbEntity
  8
0
100
AcDbLine
 10
2.124412668400966
 20
6.122032912836824
 30
0.0
 11
2.124412668400966
 21
6.7843492514195
 31
0.0
  0
LINE
  5
2C2C
330
1E
100
AcDbEntity
  8
0
100
AcDbLine
 10
1.525299479424588
 20
6.7843492514195
 30
0.0
 11
1.525299479424588
 21
6.122032912836824
 31
0.0
  0
LINE
  5
2C2D
330
1E
100
AcDbEntity
  8
0
100
AcDbLine
 10
1.268536684148998
 20
7.24257208606517
 30
0.0
 11
2.181032156589943
 21
7.24257208606517
 31
0.0
  0
LINE
  5
2C2E
330
1E
100
AcDbEntity
  8
0
100
AcDbLine
 10
1.268536684148998
 20
7.24257208606517
 30
0.0
 11
1.268536684148998
 21
7.220187637246272
 31
0.0
  0
LINE
  5
2C2F
330
1E
100
AcDbEntity
  8
0
100
AcDbLine
 10
1.106578613282856
 20
7.220187637246272
 30
0.0
 11
1.106578613282856
 21
7.24257208606517
 31
0.0
  0
LINE
  5
2C30
330
1E
100
AcDbEntity
  8
0
100
AcDbLine
 10
0.1940831408419115
 20
7.24257208606517
 30
0.0
 11
1.106578613282856
 21
7.24257208606517
 31
0.0
  0
POLYLINE
  5
2C31
330
1E
100
AcDbEntity
  8
0
100
AcDb2dPolyline
 66
     1
 10
0.0
 20
0.0
 30
0.0
  0
VERTEX
  5
3437
330
2C31
100
AcDbEntity
  8
0
100
AcDbVertex
100
AcDb2dVertex
 10
0.1940831408419119
 20
7.24257208606517
 30
0.0
  0
VERTEX
  5
3438
330
2C31
100
AcDbEntity
  8
0
100
AcDbVertex
100
AcDb2dVertex
 10
0.1782823534403368
 20
7.246522282915563
 30
0.0
  0
VERTEX
  5
3439
330
2C31
100
AcDbEntity
  8
0
100
AcDbVertex
100
AcDb2dVertex
 10
0.1677484951726202
 20
7.258372873466745
 30
0.0
  0
VERTEX
  5
343A
330
2C31
100
AcDbEntity
  8
0
100
AcDbVertex
100
AcDb2dVertex
 10
0.1637982983222268
 20
7.272856928584856
 30
0.0
  0
SEQEND
  5
343B
330
2C31
100
AcDbEntity
  8
0
  0
LINE
  5
2C37
330
1E
100
AcDbEntity
  8
0
100
AcDbLine
 10
0.1637982983222264
 20
7.272856928584856
 30
0.0
 11
0.1637982983222264
 21
7.706061849844698
 31
0.0
  0
POLYLINE
  5
2C38
330
1E
100
AcDbEntity
  8
0
100
AcDb2dPolyline
 66
     1
 10
0.0
 20
0.0
 30
0.0
  0
VERTEX
  5
343C
330
2C38
100
AcDbEntity
  8
0
100
AcDbVertex
100
AcDb2dVertex
 10
0.1637982983222268
 20
7.706061849844697
 30
0.0
  0
VERTEX
  5
343D
330
2C38
100
AcDbEntity
  8
0
100
AcDbVertex
100
AcDb2dVertex
 10
0.1677484951726202
 20
7.721862637246273
 30
0.0
  0
VERTEX
  5
343E
330
2C38
100
AcDbEntity
  8
0
100
AcDbVertex
100
AcDb2dVertex
 10
0.1782823534403368
 20
7.73239649551399
 30
0.0
  0
VERTEX
  5
343F
330
2C38
100
AcDbEntity
  8
0
100
AcDbVertex
100
AcDb2dVertex
 10
0.1940831408419119
 20
7.736346692364381
 30
0.0
  0
SEQEND
  5
3440
330
2C38
100
AcDbEntity
  8
0
  0
LINE
  5
2C3E
330
1E
100
AcDbEntity
  8
0
100
AcDbLine
 10
0.1940831408419115
 20
7.736346692364381
 30
0.0
 11
2.181032156589943
 21
7.736346692364381
 31
0.0
  0
POLYLINE
  5
2C3F
330
1E
100
AcDbEntity
  8
0
100
AcDb2dPolyline
 66
     1
 10
0.0
 20
0.0
 30
0.0
  0
VERTEX
  5
3441
330
2C3F
100
AcDbEntity
  8
0
100
AcDbVertex
100
AcDb2dVertex
 10
2.181032156589942
 20
7.736346692364381
 30
0.0
  0
VERTEX
  5
3442
330
2C3F
100
AcDbEntity
  8
0
100
AcDbVertex
100
AcDb2dVertex
 10
2.196832943991517
 20
7.73239649551399
 30
0.0
  0
VERTEX
  5
3443
330
2C3F
100
AcDbEntity
  8
0
100
AcDbVertex
100
AcDb2dVertex
 10
2.207366802259234
 20
7.721862637246273
 30
0.0
  0
VERTEX
  5
3444
330
2C3F
100
AcDbEntity
  8
0
100
AcDbVertex
100
AcDb2dVertex
 10
2.211316999109627
 20
7.706061849844697
 30
0.0
  0
SEQEND
  5
3445
330
2C3F
100
AcDbEntity
  8
0
  0
LINE
  5
2C45
330
1E
100
AcDbEntity
  8
0
100
AcDbLine
 10
2.211316999109628
 20
7.706061849844698
 30
0.0
 11
2.211316999109628
 21
7.272856928584856
 31
0.0
  0
POLYLINE
  5
2C46
330
1E
100
AcDbEntity
  8
0
100
AcDb2dPolyline
 66
     1
 10
0.0
 20
0.0
 30
0.0
  0
VERTEX
  5
3446
330
2C46
100
AcDbEntity
  8
0
100
AcDbVertex
100
AcDb2dVertex
 10
2.211316999109627
 20
7.272856928584856
 30
0.0
  0
VERTEX
  5
3447
330
2C46
100
AcDbEntity
  8
0
100
AcDbVertex
100
AcDb2dVertex
 10
2.207366802259234
 20
7.258372873466745
 30
0.0
  0
VERTEX
  5
3448
330
2C46
100
AcDbEntity
  8
0
100
AcDbVertex
100
AcDb2dVertex
 10
2.196832943991517
 20
7.246522282915563
 30
0.0
  0
VERTEX
  5
3449
330
2C46
100
AcDbEntity
  8
0
100
AcDbVertex
100
AcDb2dVertex
 10
2.181032156589942
 20
7.24257208606517
 30
0.0
  0
SEQEND
  5
344A
330
2C46
100
AcDbEntity
  8
0
  0
LINE
  5
2C4C
330
1E
100
AcDbEntity
  8
0
100
AcDbLine
 10
1.621420936117502
 20
7.176735471891941
 30
0.0
 11
1.620104203834038
 21
7.176735471891941
 31
0.0
  0
POLYLINE
  5
2C4D
330
1E
100
AcDbEntity
  8
0
100
AcDb2dPolyline
 66
     1
 10
0.0
 20
0.0
 30
0.0
  0
VERTEX
  5
344B
330
2C4D
100
AcDbEntity
  8
0
100
AcDbVertex
100
AcDb2dVertex
 10
1.620104203834038
 20
7.176735471891941
 30
0.0
  0
VERTEX
  5
344C
330
2C4D
100
AcDbEntity
  8
0
100
AcDbVertex
100
AcDb2dVertex
 10
1.609570345566321
 20
7.180685668742334
 30
0.0
  0
VERTEX
  5
344D
330
2C4D
100
AcDbEntity
  8
0
100
AcDbVertex
100
AcDb2dVertex
 10
1.604303416432462
 20
7.192536259293516
 30
0.0
  0
SEQEND
  5
344E
330
2C4D
100
AcDbEntity
  8
0
  0
LINE
  5
2C52
330
1E
100
AcDbEntity
  8
0
100
AcDbLine
 10
1.604303416432463
 20
7.192536259293516
 30
0.0
 11
1.604303416432463
 21
7.222821101813202
 31
0.0
  0
POLYLINE
  5
2C53
330
1E
100
AcDbEntity
  8
0
100
AcDb2dPolyline
 66
     1
 10
0.0
 20
0.0
 30
0.0
  0
VERTEX
  5
344F
330
2C53
100
AcDbEntity
  8
0
100
AcDbVertex
100
AcDb2dVertex
 10
1.604303416432462
 20
7.222821101813201
 30
0.0
  0
VERTEX
  5
3450
330
2C53
100
AcDbEntity
  8
0
100
AcDbVertex
100
AcDb2dVertex
 10
1.609570345566321
 20
7.233354960080918
 30
0.0
  0
VERTEX
  5
3451
330
2C53
100
AcDbEntity
  8
0
100
AcDbVertex
100
AcDb2dVertex
 10
1.620104203834038
 20
7.238621889214776
 30
0.0
  0
SEQEND
  5
3452
330
2C53
100
AcDbEntity
  8
0
  0
LINE
  5
2C58
330
1E
100
AcDbEntity
  8
0
100
AcDbLine
 10
1.620104203834038
 20
7.238621889214776
 30
0.0
 11
1.86896660540884
 21
7.238621889214776
 31
0.0
  0
POLYLINE
  5
2C59
330
1E
100
AcDbEntity
  8
0
100
AcDb2dPolyline
 66
     1
 10
0.0
 20
0.0
 30
0.0
  0
VERTEX
  5
3453
330
2C59
100
AcDbEntity
  8
0
100
AcDbVertex
100
AcDb2dVertex
 10
1.868966605408841
 20
7.238621889214776
 30
0.0
  0
VERTEX
  5
3454
330
2C59
100
AcDbEntity
  8
0
100
AcDbVertex
100
AcDb2dVertex
 10
1.879500463676557
 20
7.233354960080918
 30
0.0
  0
VERTEX
  5
3455
330
2C59
100
AcDbEntity
  8
0
100
AcDbVertex
100
AcDb2dVertex
 10
1.884767392810415
 20
7.222821101813201
 30
0.0
  0
SEQEND
  5
3456
330
2C59
100
AcDbEntity
  8
0
  0
LINE
  5
2C5E
330
1E
100
AcDbEntity
  8
0
100
AcDbLine
 10
1.884767392810415
 20
7.222821101813202
 30
0.0
 11
1.884767392810415
 21
7.192536259293516
 31
0.0
  0
POLYLINE
  5
2C5F
330
1E
100
AcDbEntity
  8
0
100
AcDb2dPolyline
 66
     1
 10
0.0
 20
0.0
 30
0.0
  0
VERTEX
  5
3457
330
2C5F
100
AcDbEntity
  8
0
100
AcDbVertex
100
AcDb2dVertex
 10
1.884767392810415
 20
7.192536259293516
 30
0.0
  0
VERTEX
  5
3458
330
2C5F
100
AcDbEntity
  8
0
100
AcDbVertex
100
AcDb2dVertex
 10
1.879500463676557
 20
7.180685668742334
 30
0.0
  0
VERTEX
  5
3459
330
2C5F
100
AcDbEntity
  8
0
100
AcDbVertex
100
AcDb2dVertex
 10
1.868966605408841
 20
7.176735471891941
 30
0.0
  0
SEQEND
  5
345A
330
2C5F
100
AcDbEntity
  8
0
  0
LINE
  5
2C64
330
1E
100
AcDbEntity
  8
0
100
AcDbLine
 10
1.86896660540884
 20
7.176735471891941
 30
0.0
 11
1.867649873125376
 21
7.176735471891941
 31
0.0
  0
LINE
  5
2C65
330
1E
100
AcDbEntity
  8
0
100
AcDbLine
 10
0.7550110935978172
 20
7.176735471891941
 30
0.0
 11
0.753694361314353
 21
7.176735471891941
 31
0.0
  0
LINE
  5
2C66
330
1E
100
AcDbEntity
  8
0
100
AcDbLine
 10
0.5074654243064787
 20
7.176735471891941
 30
0.0
 11
0.5074654243064787
 21
7.176735471891941
 31
0.0
  0
POLYLINE
  5
2C67
330
1E
100
AcDbEntity
  8
0
100
AcDb2dPolyline
 66
     1
 10
0.0
 20
0.0
 30
0.0
  0
VERTEX
  5
345B
330
2C67
100
AcDbEntity
  8
0
100
AcDbVertex
100
AcDb2dVertex
 10
0.5074654243064787
 20
7.176735471891941
 30
0.0
  0
VERTEX
  5
345C
330
2C67
100
AcDbEntity
  8
0
100
AcDbVertex
100
AcDb2dVertex
 10
0.4956148337552975
 20
7.180685668742334
 30
0.0
  0
VERTEX
  5
345D
330
2C67
100
AcDbEntity
  8
0
100
AcDbVertex
100
AcDb2dVertex
 10
0.4903479046214394
 20
7.192536259293516
 30
0.0
  0
SEQEND
  5
345E
330
2C67
100
AcDbEntity
  8
0
  0
LINE
  5
2C6C
330
1E
100
AcDbEntity
  8
0
100
AcDbLine
 10
0.4903479046214399
 20
7.192536259293516
 30
0.0
 11
0.4903479046214399
 21
7.222821101813202
 31
0.0
  0
POLYLINE
  5
2C6D
330
1E
100
AcDbEntity
  8
0
100
AcDb2dPolyline
 66
     1
 10
0.0
 20
0.0
 30
0.0
  0
VERTEX
  5
345F
330
2C6D
100
AcDbEntity
  8
0
100
AcDbVertex
100
AcDb2dVertex
 10
0.4903479046214394
 20
7.222821101813201
 30
0.0
  0
VERTEX
  5
3460
330
2C6D
100
AcDbEntity
  8
0
100
AcDbVertex
100
AcDb2dVertex
 10
0.4956148337552975
 20
7.233354960080918
 30
0.0
  0
VERTEX
  5
3461
330
2C6D
100
AcDbEntity
  8
0
100
AcDbVertex
100
AcDb2dVertex
 10
0.5074654243064787
 20
7.238621889214776
 30
0.0
  0
SEQEND
  5
3462
330
2C6D
100
AcDbEntity
  8
0
  0
LINE
  5
2C72
330
1E
100
AcDbEntity
  8
0
100
AcDbLine
 10
0.5074654243064787
 20
7.238621889214776
 30
0.0
 11
0.7550110935978172
 21
7.238621889214776
 31
0.0
  0
POLYLINE
  5
2C73
330
1E
100
AcDbEntity
  8
0
100
AcDb2dPolyline
 66
     1
 10
0.0
 20
0.0
 30
0.0
  0
VERTEX
  5
3463
330
2C73
100
AcDbEntity
  8
0
100
AcDbVertex
100
AcDb2dVertex
 10
0.7550110935978176
 20
7.238621889214776
 30
0.0
  0
VERTEX
  5
3464
330
2C73
100
AcDbEntity
  8
0
100
AcDbVertex
100
AcDb2dVertex
 10
0.7655449518655342
 20
7.233354960080918
 30
0.0
  0
VERTEX
  5
3465
330
2C73
100
AcDbEntity
  8
0
100
AcDbVertex
100
AcDb2dVertex
 10
0.7708118809993923
 20
7.222821101813201
 30
0.0
  0
SEQEND
  5
3466
330
2C73
100
AcDbEntity
  8
0
  0
LINE
  5
2C78
330
1E
100
AcDbEntity
  8
0
100
AcDbLine
 10
0.7708118809993927
 20
7.222821101813202
 30
0.0
 11
0.7708118809993927
 21
7.192536259293516
 31
0.0
  0
POLYLINE
  5
2C79
330
1E
100
AcDbEntity
  8
0
100
AcDb2dPolyline
 66
     1
 10
0.0
 20
0.0
 30
0.0
  0
VERTEX
  5
3467
330
2C79
100
AcDbEntity
  8
0
100
AcDbVertex
100
AcDb2dVertex
 10
0.7708118809993923
 20
7.192536259293516
 30
0.0
  0
VERTEX
  5
3468
330
2C79
100
AcDbEntity
  8
0
100
AcDbVertex
100
AcDb2dVertex
 10
0.7655449518655342
 20
7.180685668742334
 30
0.0
  0
VERTEX
  5
3469
330
2C79
100
AcDbEntity
  8
0
100
AcDbVertex
100
AcDb2dVertex
 10
0.7550110935978176
 20
7.176735471891941
 30
0.0
  0
SEQEND
  5
346A
330
2C79
100
AcDbEntity
  8
0
  0
LINE
  5
2C7E
330
1E
100
AcDbEntity
  8
0
100
AcDbLine
 10
-0.1614345756935211
 20
3.586006534884067
 30
0.0
 11
-0.1653847725439155
 21
3.583373070317139
 31
0.0
  0
LINE
  5
2C7F
330
1E
100
AcDbEntity
  8
0
100
AcDbLine
 10
0.1637982983222264
 20
3.982342952206902
 30
0.0
 11
0.1637982983222264
 21
4.414231141183281
 31
0.0
  0
LINE
  5
2C80
330
1E
100
AcDbEntity
  8
0
100
AcDbLine
 10
0.1637982983222264
 20
4.414231141183281
 30
0.0
 11
0.1637982983222264
 21
4.414231141183281
 31
0.0
  0
LINE
  5
2C81
330
1E
100
AcDbEntity
  8
0
100
AcDbLine
 10
0.1637982983222264
 20
3.981026219923437
 30
0.0
 11
0.1637982983222264
 21
3.982342952206902
 31
0.0
  0
POLYLINE
  5
2C82
330
1E
100
AcDbEntity
  8
0
100
AcDb2dPolyline
 66
     1
 10
0.0
 20
0.0
 30
0.0
  0
VERTEX
  5
346B
330
2C82
100
AcDbEntity
  8
0
100
AcDbVertex
100
AcDb2dVertex
 10
0.1940831408419119
 20
4.444515983702966
 30
0.0
  0
VERTEX
  5
346C
330
2C82
100
AcDbEntity
  8
0
100
AcDbVertex
100
AcDb2dVertex
 10
0.1795990857238014
 20
4.439249054569107
 30
0.0
  0
VERTEX
  5
346D
330
2C82
100
AcDbEntity
  8
0
100
AcDbVertex
100
AcDb2dVertex
 10
0.1690652274560849
 20
4.428715196301391
 30
0.0
  0
VERTEX
  5
346E
330
2C82
100
AcDbEntity
  8
0
100
AcDbVertex
100
AcDb2dVertex
 10
0.1637982983222268
 20
4.414231141183281
 30
0.0
  0
SEQEND
  5
346F
330
2C82
100
AcDbEntity
  8
0
  0
LINE
  5
2C88
330
1E
100
AcDbEntity
  8
0
100
AcDbLine
 10
0.1940831408419115
 20
4.444515983702966
 30
0.0
 11
0.1940831408419115
 21
4.444515983702966
 31
0.0
  0
LINE
  5
2C89
330
1E
100
AcDbEntity
  8
0
100
AcDbLine
 10
0.1940831408419115
 20
3.952058109687217
 30
0.0
 11
0.1940831408419115
 21
3.950741377403753
 31
0.0
  0
POLYLINE
  5
2C8A
330
1E
100
AcDbEntity
  8
0
100
AcDb2dPolyline
 66
     1
 10
0.0
 20
0.0
 30
0.0
  0
VERTEX
  5
3470
330
2C8A
100
AcDbEntity
  8
0
100
AcDbVertex
100
AcDb2dVertex
 10
0.1637982983222268
 20
3.982342952206902
 30
0.0
  0
VERTEX
  5
3471
330
2C8A
100
AcDbEntity
  8
0
100
AcDbVertex
100
AcDb2dVertex
 10
0.1690652274560849
 20
3.966542164805327
 30
0.0
  0
VERTEX
  5
3472
330
2C8A
100
AcDbEntity
  8
0
100
AcDbVertex
100
AcDb2dVertex
 10
0.1795990857238014
 20
3.956008306537611
 30
0.0
  0
VERTEX
  5
3473
330
2C8A
100
AcDbEntity
  8
0
100
AcDbVertex
100
AcDb2dVertex
 10
0.1940831408419119
 20
3.952058109687216
 30
0.0
  0
SEQEND
  5
3474
330
2C8A
100
AcDbEntity
  8
0
  0
LINE
  5
2C90
330
1E
100
AcDbEntity
  8
0
100
AcDbLine
 10
2.181032156589943
 20
3.952058109687217
 30
0.0
 11
0.1940831408419115
 21
3.952058109687217
 31
0.0
  0
POLYLINE
  5
2C91
330
1E
100
AcDbEntity
  8
0
100
AcDb2dPolyline
 66
     1
 10
0.0
 20
0.0
 30
0.0
  0
VERTEX
  5
3475
330
2C91
100
AcDbEntity
  8
0
100
AcDbVertex
100
AcDb2dVertex
 10
2.181032156589942
 20
3.952058109687216
 30
0.0
  0
VERTEX
  5
3476
330
2C91
100
AcDbEntity
  8
0
100
AcDbVertex
100
AcDb2dVertex
 10
2.195516211708053
 20
3.956008306537611
 30
0.0
  0
VERTEX
  5
3477
330
2C91
100
AcDbEntity
  8
0
100
AcDbVertex
100
AcDb2dVertex
 10
2.207366802259234
 20
3.966542164805327
 30
0.0
  0
VERTEX
  5
3478
330
2C91
100
AcDbEntity
  8
0
100
AcDbVertex
100
AcDb2dVertex
 10
2.211316999109627
 20
3.982342952206902
 30
0.0
  0
SEQEND
  5
3479
330
2C91
100
AcDbEntity
  8
0
  0
LINE
  5
2C97
330
1E
100
AcDbEntity
  8
0
100
AcDbLine
 10
2.211316999109628
 20
4.414231141183281
 30
0.0
 11
2.211316999109628
 21
3.982342952206902
 31
0.0
  0
POLYLINE
  5
2C98
330
1E
100
AcDbEntity
  8
0
100
AcDb2dPolyline
 66
     1
 10
0.0
 20
0.0
 30
0.0
  0
VERTEX
  5
347A
330
2C98
100
AcDbEntity
  8
0
100
AcDbVertex
100
AcDb2dVertex
 10
2.211316999109627
 20
4.414231141183281
 30
0.0
  0
VERTEX
  5
347B
330
2C98
100
AcDbEntity
  8
0
100
AcDbVertex
100
AcDb2dVertex
 10
2.207366802259234
 20
4.428715196301391
 30
0.0
  0
VERTEX
  5
347C
330
2C98
100
AcDbEntity
  8
0
100
AcDbVertex
100
AcDb2dVertex
 10
2.195516211708053
 20
4.439249054569107
 30
0.0
  0
VERTEX
  5
347D
330
2C98
100
AcDbEntity
  8
0
100
AcDbVertex
100
AcDb2dVertex
 10
2.181032156589942
 20
4.444515983702966
 30
0.0
  0
SEQEND
  5
347E
330
2C98
100
AcDbEntity
  8
0
  0
LINE
  5
2C9E
330
1E
100
AcDbEntity
  8
0
100
AcDbLine
 10
1.269853416432463
 20
4.444515983702966
 30
0.0
 11
2.181032156589943
 21
4.444515983702966
 31
0.0
  0
LINE
  5
2C9F
330
1E
100
AcDbEntity
  8
0
100
AcDbLine
 10
1.269853416432463
 20
4.405014015199028
 30
0.0
 11
1.269853416432463
 21
4.444515983702966
 31
0.0
  0
LINE
  5
2CA0
330
1E
100
AcDbEntity
  8
0
100
AcDbLine
 10
1.269853416432463
 20
4.405014015199028
 30
0.0
 11
2.117829006983643
 21
4.405014015199028
 31
0.0
  0
POLYLINE
  5
2CA1
330
1E
100
AcDbEntity
  8
0
100
AcDb2dPolyline
 66
     1
 10
0.0
 20
0.0
 30
0.0
  0
VERTEX
  5
347F
330
2CA1
100
AcDbEntity
  8
0
100
AcDbVertex
100
AcDb2dVertex
 10
2.117829006983644
 20
4.405014015199028
 30
0.0
  0
VERTEX
  5
3480
330
2CA1
100
AcDbEntity
  8
0
100
AcDbVertex
100
AcDb2dVertex
 10
2.125729400684431
 20
4.401063818348634
 30
0.0
  0
VERTEX
  5
3481
330
2CA1
100
AcDbEntity
  8
0
100
AcDbVertex
100
AcDb2dVertex
 10
2.12836286525136
 20
4.394480156931312
 30
0.0
  0
SEQEND
  5
3482
330
2CA1
100
AcDbEntity
  8
0
  0
LINE
  5
2CA6
330
1E
100
AcDbEntity
  8
0
100
AcDbLine
 10
2.12836286525136
 20
4.394480156931312
 30
0.0
 11
2.12836286525136
 21
4.000777204175406
 31
0.0
  0
POLYLINE
  5
2CA7
330
1E
100
AcDbEntity
  8
0
100
AcDb2dPolyline
 66
     1
 10
0.0
 20
0.0
 30
0.0
  0
VERTEX
  5
3483
330
2CA7
100
AcDbEntity
  8
0
100
AcDbVertex
100
AcDb2dVertex
 10
2.12836286525136
 20
4.000777204175406
 30
0.0
  0
VERTEX
  5
3484
330
2CA7
100
AcDbEntity
  8
0
100
AcDbVertex
100
AcDb2dVertex
 10
2.125729400684431
 20
3.994193542758083
 30
0.0
  0
VERTEX
  5
3485
330
2CA7
100
AcDbEntity
  8
0
100
AcDbVertex
100
AcDb2dVertex
 10
2.117829006983644
 20
3.991560078191154
 30
0.0
  0
SEQEND
  5
3486
330
2CA7
100
AcDbEntity
  8
0
  0
LINE
  5
2CAC
330
1E
100
AcDbEntity
  8
0
100
AcDbLine
 10
0.2572862904482109
 20
3.991560078191154
 30
0.0
 11
2.117829006983643
 21
3.991560078191154
 31
0.0
  0
POLYLINE
  5
2CAD
330
1E
100
AcDbEntity
  8
0
100
AcDb2dPolyline
 66
     1
 10
0.0
 20
0.0
 30
0.0
  0
VERTEX
  5
3487
330
2CAD
100
AcDbEntity
  8
0
100
AcDbVertex
100
AcDb2dVertex
 10
0.2572862904482109
 20
3.991560078191154
 30
0.0
  0
VERTEX
  5
3488
330
2CAD
100
AcDbEntity
  8
0
100
AcDbVertex
100
AcDb2dVertex
 10
0.2493858967474236
 20
3.994193542758083
 30
0.0
  0
VERTEX
  5
3489
330
2CAD
100
AcDbEntity
  8
0
100
AcDbVertex
100
AcDb2dVertex
 10
0.2467524321804944
 20
4.000777204175406
 30
0.0
  0
SEQEND
  5
348A
330
2CAD
100
AcDbEntity
  8
0
  0
LINE
  5
2CB2
330
1E
100
AcDbEntity
  8
0
100
AcDbLine
 10
0.2467524321804939
 20
4.394480156931312
 30
0.0
 11
0.2467524321804939
 21
4.000777204175406
 31
0.0
  0
POLYLINE
  5
2CB3
330
1E
100
AcDbEntity
  8
0
100
AcDb2dPolyline
 66
     1
 10
0.0
 20
0.0
 30
0.0
  0
VERTEX
  5
348B
330
2CB3
100
AcDbEntity
  8
0
100
AcDbVertex
100
AcDb2dVertex
 10
0.2467524321804944
 20
4.394480156931312
 30
0.0
  0
VERTEX
  5
348C
330
2CB3
100
AcDbEntity
  8
0
100
AcDbVertex
100
AcDb2dVertex
 10
0.2493858967474236
 20
4.401063818348634
 30
0.0
  0
VERTEX
  5
348D
330
2CB3
100
AcDbEntity
  8
0
100
AcDbVertex
100
AcDb2dVertex
 10
0.2572862904482109
 20
4.405014015199028
 30
0.0
  0
SEQEND
  5
348E
330
2CB3
100
AcDbEntity
  8
0
  0
LINE
  5
2CB8
330
1E
100
AcDbEntity
  8
0
100
AcDbLine
 10
0.2572862904482109
 20
4.405014015199028
 30
0.0
 11
1.105261880999392
 21
4.405014015199028
 31
0.0
  0
LINE
  5
2CB9
330
1E
100
AcDbEntity
  8
0
100
AcDbLine
 10
1.105261880999392
 20
4.405014015199028
 30
0.0
 11
1.105261880999392
 21
4.444515983702966
 31
0.0
  0
LINE
  5
2CBA
330
1E
100
AcDbEntity
  8
0
100
AcDbLine
 10
0.1940831408419115
 20
4.444515983702966
 30
0.0
 11
1.105261880999392
 21
4.444515983702966
 31
0.0
  0
LINE
  5
2CBB
330
1E
100
AcDbEntity
  8
0
100
AcDbLine
 10
2.54050006997577
 20
3.583373070317139
 30
0.0
 11
2.536549873125376
 21
3.586006534884067
 31
0.0
  0
LINE
  5
2CBC
330
1E
100
AcDbEntity
  8
0
100
AcDbLine
 10
1.081560699897029
 20
4.137717361655721
 30
0.0
 11
1.293554597534825
 21
4.137717361655721
 31
0.0
  0
LINE
  5
2CBD
330
1E
100
AcDbEntity
  8
0
100
AcDbLine
 10
1.081560699897029
 20
4.257539999450997
 30
0.0
 11
1.293554597534825
 21
4.257539999450997
 31
0.0
  0
POLYLINE
  5
2CBE
330
1E
100
AcDbEntity
  8
0
100
AcDb2dPolyline
 66
     1
 10
0.0
 20
0.0
 30
0.0
  0
VERTEX
  5
348F
330
2CBE
100
AcDbEntity
  8
0
100
AcDbVertex
100
AcDb2dVertex
 10
1.08156069989703
 20
4.257539999450997
 30
0.0
  0
VERTEX
  5
3490
330
2CBE
100
AcDbEntity
  8
0
100
AcDbVertex
100
AcDb2dVertex
 10
1.059176251078132
 20
4.231205353781706
 30
0.0
  0
VERTEX
  5
3491
330
2CBE
100
AcDbEntity
  8
0
100
AcDbVertex
100
AcDb2dVertex
 10
1.051275857377344
 20
4.198287046695091
 30
0.0
  0
VERTEX
  5
3492
330
2CBE
100
AcDbEntity
  8
0
100
AcDbVertex
100
AcDb2dVertex
 10
1.059176251078132
 20
4.164052007325012
 30
0.0
  0
VERTEX
  5
3493
330
2CBE
100
AcDbEntity
  8
0
100
AcDbVertex
100
AcDb2dVertex
 10
1.08156069989703
 20
4.137717361655721
 30
0.0
  0
SEQEND
  5
3494
330
2CBE
100
AcDbEntity
  8
0
  0
LINE
  5
2CC5
330
1E
100
AcDbEntity
  8
0
100
AcDbLine
 10
0.2467524321804939
 20
4.394480156931312
 30
0.0
 11
0.248069164463959
 21
4.394480156931312
 31
0.0
  0
POLYLINE
  5
2CC6
330
1E
100
AcDbEntity
  8
0
100
AcDb2dPolyline
 66
     1
 10
0.0
 20
0.0
 30
0.0
  0
VERTEX
  5
3495
330
2CC6
100
AcDbEntity
  8
0
100
AcDbVertex
100
AcDb2dVertex
 10
0.248069164463959
 20
4.394480156931312
 30
0.0
  0
VERTEX
  5
3496
330
2CC6
100
AcDbEntity
  8
0
100
AcDbVertex
100
AcDb2dVertex
 10
0.2507026290308878
 20
4.401063818348634
 30
0.0
  0
VERTEX
  5
3497
330
2CC6
100
AcDbEntity
  8
0
100
AcDbVertex
100
AcDb2dVertex
 10
0.2572862904482109
 20
4.403697282915564
 30
0.0
  0
SEQEND
  5
3498
330
2CC6
100
AcDbEntity
  8
0
  0
LINE
  5
2CCB
330
1E
100
AcDbEntity
  8
0
100
AcDbLine
 10
0.2572862904482109
 20
4.405014015199028
 30
0.0
 11
0.2572862904482109
 21
4.403697282915564
 31
0.0
  0
LINE
  5
2CCC
330
1E
100
AcDbEntity
  8
0
100
AcDbLine
 10
0.2467524321804939
 20
4.000777204175406
 30
0.0
 11
0.248069164463959
 21
4.000777204175406
 31
0.0
  0
LINE
  5
2CCD
330
1E
100
AcDbEntity
  8
0
100
AcDbLine
 10
0.248069164463959
 20
4.000777204175406
 30
0.0
 11
0.248069164463959
 21
4.394480156931312
 31
0.0
  0
LINE
  5
2CCE
330
1E
100
AcDbEntity
  8
0
100
AcDbLine
 10
0.2572862904482109
 20
3.991560078191154
 30
0.0
 11
0.2572862904482109
 21
3.991560078191154
 31
0.0
  0
POLYLINE
  5
2CCF
330
1E
100
AcDbEntity
  8
0
100
AcDb2dPolyline
 66
     1
 10
0.0
 20
0.0
 30
0.0
  0
VERTEX
  5
3499
330
2CCF
100
AcDbEntity
  8
0
100
AcDbVertex
100
AcDb2dVertex
 10
0.2572862904482109
 20
3.991560078191154
 30
0.0
  0
VERTEX
  5
349A
330
2CCF
100
AcDbEntity
  8
0
100
AcDbVertex
100
AcDb2dVertex
 10
0.2507026290308878
 20
3.994193542758083
 30
0.0
  0
VERTEX
  5
349B
330
2CCF
100
AcDbEntity
  8
0
100
AcDbVertex
100
AcDb2dVertex
 10
0.248069164463959
 20
4.000777204175406
 30
0.0
  0
SEQEND
  5
349C
330
2CCF
100
AcDbEntity
  8
0
  0
LINE
  5
2CD4
330
1E
100
AcDbEntity
  8
0
100
AcDbLine
 10
2.12836286525136
 20
4.000777204175406
 30
0.0
 11
2.12836286525136
 21
4.000777204175406
 31
0.0
  0
POLYLINE
  5
2CD5
330
1E
100
AcDbEntity
  8
0
100
AcDb2dPolyline
 66
     1
 10
0.0
 20
0.0
 30
0.0
  0
VERTEX
  5
349D
330
2CD5
100
AcDbEntity
  8
0
100
AcDbVertex
100
AcDb2dVertex
 10
2.12836286525136
 20
4.000777204175406
 30
0.0
  0
VERTEX
  5
349E
330
2CD5
100
AcDbEntity
  8
0
100
AcDbVertex
100
AcDb2dVertex
 10
2.124412668400966
 20
3.994193542758083
 30
0.0
  0
VERTEX
  5
349F
330
2CD5
100
AcDbEntity
  8
0
100
AcDbVertex
100
AcDb2dVertex
 10
2.117829006983644
 20
3.991560078191154
 30
0.0
  0
SEQEND
  5
34A0
330
2CD5
100
AcDbEntity
  8
0
  0
LINE
  5
2CDA
330
1E
100
AcDbEntity
  8
0
100
AcDbLine
 10
2.117829006983643
 20
3.991560078191154
 30
0.0
 11
2.117829006983643
 21
3.991560078191154
 31
0.0
  0
LINE
  5
2CDB
330
1E
100
AcDbEntity
  8
0
100
AcDbLine
 10
2.12836286525136
 20
4.394480156931312
 30
0.0
 11
2.12836286525136
 21
4.394480156931312
 31
0.0
  0
LINE
  5
2CDC
330
1E
100
AcDbEntity
  8
0
100
AcDbLine
 10
2.12836286525136
 20
4.394480156931312
 30
0.0
 11
2.12836286525136
 21
4.000777204175406
 31
0.0
  0
LINE
  5
2CDD
330
1E
100
AcDbEntity
  8
0
100
AcDbLine
 10
2.117829006983643
 20
4.405014015199028
 30
0.0
 11
2.117829006983643
 21
4.403697282915564
 31
0.0
  0
POLYLINE
  5
2CDE
330
1E
100
AcDbEntity
  8
0
100
AcDb2dPolyline
 66
     1
 10
0.0
 20
0.0
 30
0.0
  0
VERTEX
  5
34A1
330
2CDE
100
AcDbEntity
  8
0
100
AcDbVertex
100
AcDb2dVertex
 10
2.117829006983644
 20
4.403697282915564
 30
0.0
  0
VERTEX
  5
34A2
330
2CDE
100
AcDbEntity
  8
0
100
AcDbVertex
100
AcDb2dVertex
 10
2.124412668400966
 20
4.401063818348634
 30
0.0
  0
VERTEX
  5
34A3
330
2CDE
100
AcDbEntity
  8
0
100
AcDbVertex
100
AcDb2dVertex
 10
2.12836286525136
 20
4.394480156931312
 30
0.0
  0
SEQEND
  5
34A4
330
2CDE
100
AcDbEntity
  8
0
  0
LINE
  5
2CE3
330
1E
100
AcDbEntity
  8
0
100
AcDbLine
 10
1.247468967613564
 20
4.046862834096665
 30
0.0
 11
1.247468967613564
 21
4.045546101813201
 31
0.0
  0
LINE
  5
2CE4
330
1E
100
AcDbEntity
  8
0
100
AcDbLine
 10
1.127646329818289
 20
4.046862834096665
 30
0.0
 11
1.247468967613564
 21
4.046862834096665
 31
0.0
  0
LINE
  5
2CE5
330
1E
100
AcDbEntity
  8
0
100
AcDbLine
 10
1.127646329818289
 20
4.045546101813201
 30
0.0
 11
1.127646329818289
 21
4.046862834096665
 31
0.0
  0
LINE
  5
2CE6
330
1E
100
AcDbEntity
  8
0
100
AcDbLine
 10
1.127646329818289
 20
4.045546101813201
 30
0.0
 11
1.247468967613564
 21
4.045546101813201
 31
0.0
  0
LINE
  5
2CE7
330
1E
100
AcDbEntity
  8
0
100
AcDbLine
 10
1.247468967613564
 20
4.120599841970682
 30
0.0
 11
1.247468967613564
 21
4.119283109687216
 31
0.0
  0
LINE
  5
2CE8
330
1E
100
AcDbEntity
  8
0
100
AcDbLine
 10
1.247468967613564
 20
4.120599841970682
 30
0.0
 11
1.127646329818289
 21
4.120599841970682
 31
0.0
  0
LINE
  5
2CE9
330
1E
100
AcDbEntity
  8
0
100
AcDbLine
 10
1.127646329818289
 20
4.120599841970682
 30
0.0
 11
1.127646329818289
 21
4.119283109687216
 31
0.0
  0
LINE
  5
2CEA
330
1E
100
AcDbEntity
  8
0
100
AcDbLine
 10
1.247468967613564
 20
4.119283109687216
 30
0.0
 11
1.127646329818289
 21
4.119283109687216
 31
0.0
  0
POLYLINE
  5
2CEB
330
1E
100
AcDbEntity
  8
0
100
AcDb2dPolyline
 66
     1
 10
0.0
 20
0.0
 30
0.0
  0
VERTEX
  5
34A5
330
2CEB
100
AcDbEntity
  8
0
100
AcDbVertex
100
AcDb2dVertex
 10
1.127646329818289
 20
4.120599841970682
 30
0.0
  0
VERTEX
  5
34A6
330
2CEB
100
AcDbEntity
  8
0
100
AcDbVertex
100
AcDb2dVertex
 10
1.109212077849785
 20
4.123233306537611
 30
0.0
  0
VERTEX
  5
34A7
330
2CEB
100
AcDbEntity
  8
0
100
AcDbVertex
100
AcDb2dVertex
 10
1.090777825881281
 20
4.129816967954933
 30
0.0
  0
SEQEND
  5
34A8
330
2CEB
100
AcDbEntity
  8
0
  0
POLYLINE
  5
2CF0
330
1E
100
AcDbEntity
  8
0
100
AcDb2dPolyline
 66
     1
 10
0.0
 20
0.0
 30
0.0
  0
VERTEX
  5
34A9
330
2CF0
100
AcDbEntity
  8
0
100
AcDbVertex
100
AcDb2dVertex
 10
1.284337471550573
 20
4.129816967954933
 30
0.0
  0
VERTEX
  5
34AA
330
2CF0
100
AcDbEntity
  8
0
100
AcDbVertex
100
AcDb2dVertex
 10
1.267219951865533
 20
4.123233306537611
 30
0.0
  0
VERTEX
  5
34AB
330
2CF0
100
AcDbEntity
  8
0
100
AcDbVertex
100
AcDb2dVertex
 10
1.247468967613565
 20
4.120599841970682
 30
0.0
  0
SEQEND
  5
34AC
330
2CF0
100
AcDbEntity
  8
0
  0
LINE
  5
2CF5
330
1E
100
AcDbEntity
  8
0
100
AcDbLine
 10
1.284337471550573
 20
4.129816967954933
 30
0.0
 11
1.090777825881281
 21
4.129816967954933
 31
0.0
  0
LINE
  5
2CF6
330
1E
100
AcDbEntity
  8
0
100
AcDbLine
 10
1.293554597534825
 20
4.137717361655721
 30
0.0
 11
1.284337471550573
 21
4.129816967954933
 31
0.0
  0
LINE
  5
2CF7
330
1E
100
AcDbEntity
  8
0
100
AcDbLine
 10
1.090777825881281
 20
4.129816967954933
 30
0.0
 11
1.081560699897029
 21
4.137717361655721
 31
0.0
  0
POLYLINE
  5
2CF8
330
1E
100
AcDbEntity
  8
0
100
AcDb2dPolyline
 66
     1
 10
0.0
 20
0.0
 30
0.0
  0
VERTEX
  5
34AD
330
2CF8
100
AcDbEntity
  8
0
100
AcDbVertex
100
AcDb2dVertex
 10
1.293554597534825
 20
4.137717361655721
 30
0.0
  0
VERTEX
  5
34AE
330
2CF8
100
AcDbEntity
  8
0
100
AcDbVertex
100
AcDb2dVertex
 10
1.315939046353722
 20
4.164052007325012
 30
0.0
  0
VERTEX
  5
34AF
330
2CF8
100
AcDbEntity
  8
0
100
AcDbVertex
100
AcDb2dVertex
 10
1.32383944005451
 20
4.198287046695091
 30
0.0
  0
VERTEX
  5
34B0
330
2CF8
100
AcDbEntity
  8
0
100
AcDbVertex
100
AcDb2dVertex
 10
1.315939046353722
 20
4.231205353781706
 30
0.0
  0
VERTEX
  5
34B1
330
2CF8
100
AcDbEntity
  8
0
100
AcDbVertex
100
AcDb2dVertex
 10
1.293554597534825
 20
4.257539999450997
 30
0.0
  0
SEQEND
  5
34B2
330
2CF8
100
AcDbEntity
  8
0
  0
LINE
  5
2CFF
330
1E
100
AcDbEntity
  8
0
100
AcDbLine
 10
1.284337471550573
 20
4.265440393151783
 30
0.0
 11
1.293554597534825
 21
4.257539999450997
 31
0.0
  0
LINE
  5
2D00
330
1E
100
AcDbEntity
  8
0
100
AcDbLine
 10
1.284337471550573
 20
4.265440393151783
 30
0.0
 11
1.090777825881281
 21
4.265440393151783
 31
0.0
  0
LINE
  5
2D01
330
1E
100
AcDbEntity
  8
0
100
AcDbLine
 10
1.081560699897029
 20
4.257539999450997
 30
0.0
 11
1.090777825881281
 21
4.265440393151783
 31
0.0
  0
POLYLINE
  5
2D02
330
1E
100
AcDbEntity
  8
0
100
AcDb2dPolyline
 66
     1
 10
0.0
 20
0.0
 30
0.0
  0
VERTEX
  5
34B3
330
2D02
100
AcDbEntity
  8
0
100
AcDbVertex
100
AcDb2dVertex
 10
1.247468967613565
 20
4.274657519136035
 30
0.0
  0
VERTEX
  5
34B4
330
2D02
100
AcDbEntity
  8
0
100
AcDbVertex
100
AcDb2dVertex
 10
1.267219951865533
 20
4.272024054569107
 30
0.0
  0
VERTEX
  5
34B5
330
2D02
100
AcDbEntity
  8
0
100
AcDbVertex
100
AcDb2dVertex
 10
1.284337471550573
 20
4.265440393151783
 30
0.0
  0
SEQEND
  5
34B6
330
2D02
100
AcDbEntity
  8
0
  0
LINE
  5
2D07
330
1E
100
AcDbEntity
  8
0
100
AcDbLine
 10
1.247468967613564
 20
4.274657519136036
 30
0.0
 11
1.127646329818289
 21
4.274657519136036
 31
0.0
  0
POLYLINE
  5
2D08
330
1E
100
AcDbEntity
  8
0
100
AcDb2dPolyline
 66
     1
 10
0.0
 20
0.0
 30
0.0
  0
VERTEX
  5
34B7
330
2D08
100
AcDbEntity
  8
0
100
AcDbVertex
100
AcDb2dVertex
 10
1.090777825881281
 20
4.265440393151783
 30
0.0
  0
VERTEX
  5
34B8
330
2D08
100
AcDbEntity
  8
0
100
AcDbVertex
100
AcDb2dVertex
 10
1.109212077849785
 20
4.272024054569107
 30
0.0
  0
VERTEX
  5
34B9
330
2D08
100
AcDbEntity
  8
0
100
AcDbVertex
100
AcDb2dVertex
 10
1.127646329818289
 20
4.274657519136035
 30
0.0
  0
SEQEND
  5
34BA
330
2D08
100
AcDbEntity
  8
0
  0
LINE
  5
2D0D
330
1E
100
AcDbEntity
  8
0
100
AcDbLine
 10
1.247468967613564
 20
4.274657519136036
 30
0.0
 11
1.247468967613564
 21
4.274657519136036
 31
0.0
  0
LINE
  5
2D0E
330
1E
100
AcDbEntity
  8
0
100
AcDbLine
 10
1.247468967613564
 20
4.274657519136036
 30
0.0
 11
1.127646329818289
 21
4.274657519136036
 31
0.0
  0
LINE
  5
2D0F
330
1E
100
AcDbEntity
  8
0
100
AcDbLine
 10
1.127646329818289
 20
4.274657519136036
 30
0.0
 11
1.127646329818289
 21
4.274657519136036
 31
0.0
  0
LINE
  5
2D10
330
1E
100
AcDbEntity
  8
0
100
AcDbLine
 10
0.6812740857238016
 20
4.493235078191155
 30
0.0
 11
0.6733736920230147
 21
4.501135471891941
 31
0.0
  0
LINE
  5
2D11
330
1E
100
AcDbEntity
  8
0
100
AcDbLine
 10
0.4877144400545097
 20
4.461633503388005
 30
0.0
 11
0.4890311723379757
 21
4.462950235671469
 31
0.0
  0
LINE
  5
2D12
330
1E
100
AcDbEntity
  8
0
100
AcDbLine
 10
0.6128040069836436
 20
4.461633503388005
 30
0.0
 11
0.6114872747001794
 21
4.462950235671469
 31
0.0
  0
LINE
  5
2D13
330
1E
100
AcDbEntity
  8
0
100
AcDbLine
 10
0.4284614872986046
 20
4.501135471891941
 30
0.0
 11
0.4205610935978168
 21
4.493235078191155
 31
0.0
  0
LINE
  5
2D14
330
1E
100
AcDbEntity
  8
0
100
AcDbLine
 10
0.296788258952148
 20
3.991560078191154
 30
0.0
 11
0.2572862904482109
 21
3.991560078191154
 31
0.0
  0
LINE
  5
2D15
330
1E
100
AcDbEntity
  8
0
100
AcDbLine
 10
0.2572862904482109
 20
4.403697282915564
 30
0.0
 11
0.296788258952148
 21
4.403697282915564
 31
0.0
  0
LINE
  5
2D16
330
1E
100
AcDbEntity
  8
0
100
AcDbLine
 10
2.078327038479707
 20
3.991560078191154
 30
0.0
 11
2.077010306196242
 21
3.991560078191154
 31
0.0
  0
LINE
  5
2D17
330
1E
100
AcDbEntity
  8
0
100
AcDbLine
 10
0.2981049912356131
 20
3.991560078191154
 30
0.0
 11
2.077010306196242
 21
3.991560078191154
 31
0.0
  0
LINE
  5
2D18
330
1E
100
AcDbEntity
  8
0
100
AcDbLine
 10
0.2981049912356131
 20
3.991560078191154
 30
0.0
 11
0.296788258952148
 21
3.991560078191154
 31
0.0
  0
LINE
  5
2D19
330
1E
100
AcDbEntity
  8
0
100
AcDbLine
 10
2.117829006983643
 20
3.991560078191154
 30
0.0
 11
2.078327038479707
 21
3.991560078191154
 31
0.0
  0
LINE
  5
2D1A
330
1E
100
AcDbEntity
  8
0
100
AcDbLine
 10
2.078327038479707
 20
4.403697282915564
 30
0.0
 11
2.117829006983643
 21
4.403697282915564
 31
0.0
  0
LINE
  5
2D1B
330
1E
100
AcDbEntity
  8
0
100
AcDbLine
 10
1.955870936117502
 20
4.493235078191155
 30
0.0
 11
1.94665381013325
 21
4.501135471891941
 31
0.0
  0
LINE
  5
2D1C
330
1E
100
AcDbEntity
  8
0
100
AcDbLine
 10
1.76231129044821
 20
4.461633503388005
 30
0.0
 11
1.763628022731675
 21
4.462950235671469
 31
0.0
  0
LINE
  5
2D1D
330
1E
100
AcDbEntity
  8
0
100
AcDbLine
 10
1.887400857377345
 20
4.461633503388005
 30
0.0
 11
1.88608412509388
 21
4.462950235671469
 31
0.0
  0
LINE
  5
2D1E
330
1E
100
AcDbEntity
  8
0
100
AcDbLine
 10
1.70174160540884
 20
4.501135471891941
 30
0.0
 11
1.693841211708053
 21
4.493235078191155
 31
0.0
  0
LINE
  5
2D1F
330
1E
100
AcDbEntity
  8
0
100
AcDbLine
 10
1.700424873125376
 20
4.503768936458871
 30
0.0
 11
1.70174160540884
 21
4.502452204175407
 31
0.0
  0
LINE
  5
2D20
330
1E
100
AcDbEntity
  8
0
100
AcDbLine
 10
1.700424873125376
 20
4.503768936458871
 30
0.0
 11
1.692524479424588
 21
4.495868542758083
 31
0.0
  0
LINE
  5
2D21
330
1E
100
AcDbEntity
  8
0
100
AcDbLine
 10
1.693841211708053
 20
4.493235078191155
 30
0.0
 11
1.692524479424588
 21
4.495868542758083
 31
0.0
  0
LINE
  5
2D22
330
1E
100
AcDbEntity
  8
0
100
AcDbLine
 10
1.692524479424588
 20
4.495868542758083
 30
0.0
 11
1.692524479424588
 21
4.465583700238399
 31
0.0
  0
LINE
  5
2D23
330
1E
100
AcDbEntity
  8
0
100
AcDbLine
 10
1.692524479424588
 20
4.465583700238399
 30
0.0
 11
1.693841211708053
 21
4.469533897088791
 31
0.0
  0
LINE
  5
2D24
330
1E
100
AcDbEntity
  8
0
100
AcDbLine
 10
1.693841211708053
 20
4.493235078191155
 30
0.0
 11
1.693841211708053
 21
4.469533897088791
 31
0.0
  0
LINE
  5
2D25
330
1E
100
AcDbEntity
  8
0
100
AcDbLine
 10
1.955870936117502
 20
4.469533897088791
 30
0.0
 11
1.957187668400967
 21
4.465583700238399
 31
0.0
  0
LINE
  5
2D26
330
1E
100
AcDbEntity
  8
0
100
AcDbLine
 10
1.957187668400967
 20
4.465583700238399
 30
0.0
 11
1.957187668400967
 21
4.495868542758083
 31
0.0
  0
LINE
  5
2D27
330
1E
100
AcDbEntity
  8
0
100
AcDbLine
 10
1.957187668400967
 20
4.495868542758083
 30
0.0
 11
1.955870936117502
 21
4.493235078191155
 31
0.0
  0
LINE
  5
2D28
330
1E
100
AcDbEntity
  8
0
100
AcDbLine
 10
1.955870936117502
 20
4.469533897088791
 30
0.0
 11
1.955870936117502
 21
4.493235078191155
 31
0.0
  0
LINE
  5
2D29
330
1E
100
AcDbEntity
  8
0
100
AcDbLine
 10
1.957187668400967
 20
4.495868542758083
 30
0.0
 11
1.949287274700179
 21
4.503768936458871
 31
0.0
  0
LINE
  5
2D2A
330
1E
100
AcDbEntity
  8
0
100
AcDbLine
 10
1.947970542416714
 20
4.502452204175407
 30
0.0
 11
1.949287274700179
 21
4.503768936458871
 31
0.0
  0
LINE
  5
2D2B
330
1E
100
AcDbEntity
  8
0
100
AcDbLine
 10
1.949287274700179
 20
4.503768936458871
 30
0.0
 11
1.947970542416714
 21
4.503768936458871
 31
0.0
  0
LINE
  5
2D2C
330
1E
100
AcDbEntity
  8
0
100
AcDbLine
 10
1.70174160540884
 20
4.503768936458871
 30
0.0
 11
1.700424873125376
 21
4.503768936458871
 31
0.0
  0
LINE
  5
2D2D
330
1E
100
AcDbEntity
  8
0
100
AcDbLine
 10
0.4271447550151404
 20
4.503768936458871
 30
0.0
 11
0.4271447550151404
 21
4.503768936458871
 31
0.0
  0
LINE
  5
2D2E
330
1E
100
AcDbEntity
  8
0
100
AcDbLine
 10
0.4271447550151404
 20
4.503768936458871
 30
0.0
 11
0.4271447550151404
 21
4.502452204175407
 31
0.0
  0
LINE
  5
2D2F
330
1E
100
AcDbEntity
  8
0
100
AcDbLine
 10
0.4271447550151404
 20
4.503768936458871
 30
0.0
 11
0.4192443613143526
 21
4.495868542758083
 31
0.0
  0
LINE
  5
2D30
330
1E
100
AcDbEntity
  8
0
100
AcDbLine
 10
0.4205610935978168
 20
4.493235078191155
 30
0.0
 11
0.4192443613143526
 21
4.495868542758083
 31
0.0
  0
LINE
  5
2D31
330
1E
100
AcDbEntity
  8
0
100
AcDbLine
 10
0.4192443613143526
 20
4.495868542758083
 30
0.0
 11
0.4192443613143526
 21
4.465583700238399
 31
0.0
  0
LINE
  5
2D32
330
1E
100
AcDbEntity
  8
0
100
AcDbLine
 10
0.4192443613143526
 20
4.465583700238399
 30
0.0
 11
0.4205610935978168
 21
4.469533897088791
 31
0.0
  0
LINE
  5
2D33
330
1E
100
AcDbEntity
  8
0
100
AcDbLine
 10
0.4205610935978168
 20
4.493235078191155
 30
0.0
 11
0.4205610935978168
 21
4.469533897088791
 31
0.0
  0
LINE
  5
2D34
330
1E
100
AcDbEntity
  8
0
100
AcDbLine
 10
0.6812740857238016
 20
4.469533897088791
 30
0.0
 11
0.6825908180072658
 21
4.465583700238399
 31
0.0
  0
LINE
  5
2D35
330
1E
100
AcDbEntity
  8
0
100
AcDbLine
 10
0.6825908180072658
 20
4.465583700238399
 30
0.0
 11
0.6825908180072658
 21
4.495868542758083
 31
0.0
  0
LINE
  5
2D36
330
1E
100
AcDbEntity
  8
0
100
AcDbLine
 10
0.6825908180072658
 20
4.495868542758083
 30
0.0
 11
0.6812740857238016
 21
4.493235078191155
 31
0.0
  0
LINE
  5
2D37
330
1E
100
AcDbEntity
  8
0
100
AcDbLine
 10
0.6812740857238016
 20
4.469533897088791
 30
0.0
 11
0.6812740857238016
 21
4.493235078191155
 31
0.0
  0
LINE
  5
2D38
330
1E
100
AcDbEntity
  8
0
100
AcDbLine
 10
0.6825908180072658
 20
4.495868542758083
 30
0.0
 11
0.6746904243064789
 21
4.503768936458871
 31
0.0
  0
LINE
  5
2D39
330
1E
100
AcDbEntity
  8
0
100
AcDbLine
 10
0.6733736920230147
 20
4.502452204175407
 30
0.0
 11
0.6746904243064789
 21
4.503768936458871
 31
0.0
  0
LINE
  5
2D3A
330
1E
100
AcDbEntity
  8
0
100
AcDbLine
 10
0.6746904243064789
 20
4.503768936458871
 30
0.0
 11
0.6733736920230147
 21
4.503768936458871
 31
0.0
  0
LINE
  5
2D3B
330
1E
100
AcDbEntity
  8
0
100
AcDbLine
 10
1.111845542416714
 20
4.419498070317139
 30
0.0
 11
1.11052881013325
 21
4.420814802600603
 31
0.0
  0
POLYLINE
  5
2D3C
330
1E
100
AcDbEntity
  8
0
100
AcDb2dPolyline
 66
     1
 10
0.0
 20
0.0
 30
0.0
  0
VERTEX
  5
34BB
330
2D3C
100
AcDbEntity
  8
0
100
AcDbVertex
100
AcDb2dVertex
 10
1.117112471550572
 20
4.420814802600602
 30
0.0
  0
VERTEX
  5
34BC
330
2D3C
100
AcDbEntity
  8
0
100
AcDbVertex
100
AcDb2dVertex
 10
1.114479006983644
 20
4.420814802600602
 30
0.0
  0
VERTEX
  5
34BD
330
2D3C
100
AcDbEntity
  8
0
100
AcDbVertex
100
AcDb2dVertex
 10
1.111845542416714
 20
4.419498070317138
 30
0.0
  0
SEQEND
  5
34BE
330
2D3C
100
AcDbEntity
  8
0
  0
POLYLINE
  5
2D41
330
1E
100
AcDbEntity
  8
0
100
AcDb2dPolyline
 66
     1
 10
0.0
 20
0.0
 30
0.0
  0
VERTEX
  5
34BF
330
2D41
100
AcDbEntity
  8
0
100
AcDbVertex
100
AcDb2dVertex
 10
1.127646329818289
 20
4.274657519136035
 30
0.0
  0
VERTEX
  5
34C0
330
2D41
100
AcDbEntity
  8
0
100
AcDbVertex
100
AcDb2dVertex
 10
1.119745936117502
 20
4.274657519136035
 30
0.0
  0
VERTEX
  5
34C1
330
2D41
100
AcDbEntity
  8
0
100
AcDbVertex
100
AcDb2dVertex
 10
1.111845542416714
 20
4.273340786852571
 30
0.0
  0
SEQEND
  5
34C2
330
2D41
100
AcDbEntity
  8
0
  0
LINE
  5
2D46
330
1E
100
AcDbEntity
  8
0
100
AcDbLine
 10
1.111845542416714
 20
4.273340786852571
 30
0.0
 11
1.11052881013325
 21
4.274657519136036
 31
0.0
  0
POLYLINE
  5
2D47
330
1E
100
AcDbEntity
  8
0
100
AcDb2dPolyline
 66
     1
 10
0.0
 20
0.0
 30
0.0
  0
VERTEX
  5
34C3
330
2D47
100
AcDbEntity
  8
0
100
AcDbVertex
100
AcDb2dVertex
 10
1.127646329818289
 20
4.119283109687216
 30
0.0
  0
VERTEX
  5
34C4
330
2D47
100
AcDbEntity
  8
0
100
AcDbVertex
100
AcDb2dVertex
 10
1.09604475501514
 20
4.127183503388004
 30
0.0
  0
VERTEX
  5
34C5
330
2D47
100
AcDbEntity
  8
0
100
AcDbVertex
100
AcDb2dVertex
 10
1.069710109345848
 20
4.145617755356508
 30
0.0
  0
VERTEX
  5
34C6
330
2D47
100
AcDbEntity
  8
0
100
AcDbVertex
100
AcDb2dVertex
 10
1.053909321944273
 20
4.173269133309265
 30
0.0
  0
VERTEX
  5
34C7
330
2D47
100
AcDbEntity
  8
0
100
AcDbVertex
100
AcDb2dVertex
 10
1.04995912509388
 20
4.206187440395878
 30
0.0
  0
VERTEX
  5
34C8
330
2D47
100
AcDbEntity
  8
0
100
AcDbVertex
100
AcDb2dVertex
 10
1.060492983361597
 20
4.236472282915563
 30
0.0
  0
VERTEX
  5
34C9
330
2D47
100
AcDbEntity
  8
0
100
AcDbVertex
100
AcDb2dVertex
 10
1.08156069989703
 20
4.260173464017925
 30
0.0
  0
VERTEX
  5
34CA
330
2D47
100
AcDbEntity
  8
0
100
AcDbVertex
100
AcDb2dVertex
 10
1.11052881013325
 20
4.274657519136035
 30
0.0
  0
SEQEND
  5
34CB
330
2D47
100
AcDbEntity
  8
0
  0
POLYLINE
  5
2D51
330
1E
100
AcDbEntity
  8
0
100
AcDb2dPolyline
 66
     1
 10
0.0
 20
0.0
 30
0.0
  0
VERTEX
  5
34CC
330
2D51
100
AcDbEntity
  8
0
100
AcDbVertex
100
AcDb2dVertex
 10
1.127646329818289
 20
4.046862834096665
 30
0.0
  0
VERTEX
  5
34CD
330
2D51
100
AcDbEntity
  8
0
100
AcDbVertex
100
AcDb2dVertex
 10
1.086827629030888
 20
4.053446495513989
 30
0.0
  0
VERTEX
  5
34CE
330
2D51
100
AcDbEntity
  8
0
100
AcDbVertex
100
AcDb2dVertex
 10
1.048642392810415
 20
4.069247282915564
 30
0.0
  0
VERTEX
  5
34CF
330
2D51
100
AcDbEntity
  8
0
100
AcDbVertex
100
AcDb2dVertex
 10
1.017040818007266
 20
4.095581928584855
 30
0.0
  0
VERTEX
  5
34D0
330
2D51
100
AcDbEntity
  8
0
100
AcDbVertex
100
AcDb2dVertex
 10
0.9933396369049042
 20
4.129816967954933
 30
0.0
  0
VERTEX
  5
34D1
330
2D51
100
AcDbEntity
  8
0
100
AcDbVertex
100
AcDb2dVertex
 10
0.9801723140702582
 20
4.16931893645887
 30
0.0
  0
VERTEX
  5
34D2
330
2D51
100
AcDbEntity
  8
0
100
AcDbVertex
100
AcDb2dVertex
 10
0.977538849503329
 20
4.210137637246273
 30
0.0
  0
VERTEX
  5
34D3
330
2D51
100
AcDbEntity
  8
0
100
AcDbVertex
100
AcDb2dVertex
 10
0.9867559754875809
 20
4.250956338033674
 30
0.0
  0
VERTEX
  5
34D4
330
2D51
100
AcDbEntity
  8
0
100
AcDbVertex
100
AcDb2dVertex
 10
1.006506959739549
 20
4.286508109687217
 30
0.0
  0
VERTEX
  5
34D5
330
2D51
100
AcDbEntity
  8
0
100
AcDbVertex
100
AcDb2dVertex
 10
1.035475069975769
 20
4.316792952206902
 30
0.0
  0
VERTEX
  5
34D6
330
2D51
100
AcDbEntity
  8
0
100
AcDbVertex
100
AcDb2dVertex
 10
1.071026841629313
 20
4.337860668742335
 30
0.0
  0
VERTEX
  5
34D7
330
2D51
100
AcDbEntity
  8
0
100
AcDbVertex
100
AcDb2dVertex
 10
1.11052881013325
 20
4.347077794726587
 30
0.0
  0
SEQEND
  5
34D8
330
2D51
100
AcDbEntity
  8
0
  0
LINE
  5
2D5F
330
1E
100
AcDbEntity
  8
0
100
AcDbLine
 10
1.11052881013325
 20
4.347077794726587
 30
0.0
 11
1.107895345566321
 21
4.348394527010052
 31
0.0
  0
POLYLINE
  5
2D60
330
1E
100
AcDbEntity
  8
0
100
AcDb2dPolyline
 66
     1
 10
0.0
 20
0.0
 30
0.0
  0
VERTEX
  5
34D9
330
2D60
100
AcDbEntity
  8
0
100
AcDbVertex
100
AcDb2dVertex
 10
1.107895345566321
 20
4.348394527010051
 30
0.0
  0
VERTEX
  5
34DA
330
2D60
100
AcDbEntity
  8
0
100
AcDbVertex
100
AcDb2dVertex
 10
1.067076644778919
 20
4.337860668742335
 30
0.0
  0
VERTEX
  5
34DB
330
2D60
100
AcDbEntity
  8
0
100
AcDbVertex
100
AcDb2dVertex
 10
1.031524873125376
 20
4.316792952206902
 30
0.0
  0
VERTEX
  5
34DC
330
2D60
100
AcDbEntity
  8
0
100
AcDbVertex
100
AcDb2dVertex
 10
1.00387349517262
 20
4.286508109687217
 30
0.0
  0
VERTEX
  5
34DD
330
2D60
100
AcDbEntity
  8
0
100
AcDbVertex
100
AcDb2dVertex
 10
0.9841225109206517
 20
4.249639605750209
 30
0.0
  0
VERTEX
  5
34DE
330
2D60
100
AcDbEntity
  8
0
100
AcDbVertex
100
AcDb2dVertex
 10
0.9762221172198643
 20
4.208820904962807
 30
0.0
  0
VERTEX
  5
34DF
330
2D60
100
AcDbEntity
  8
0
100
AcDbVertex
100
AcDb2dVertex
 10
0.9788555817867937
 20
4.166685471891941
 30
0.0
  0
VERTEX
  5
34E0
330
2D60
100
AcDbEntity
  8
0
100
AcDbVertex
100
AcDb2dVertex
 10
0.9920229046214391
 20
4.128500235671469
 30
0.0
  0
VERTEX
  5
34E1
330
2D60
100
AcDbEntity
  8
0
100
AcDbVertex
100
AcDb2dVertex
 10
1.015724085723801
 20
4.094265196301391
 30
0.0
  0
VERTEX
  5
34E2
330
2D60
100
AcDbEntity
  8
0
100
AcDbVertex
100
AcDb2dVertex
 10
1.048642392810415
 20
4.067930550632098
 30
0.0
  0
VERTEX
  5
34E3
330
2D60
100
AcDbEntity
  8
0
100
AcDbVertex
100
AcDb2dVertex
 10
1.086827629030888
 20
4.050813030947059
 30
0.0
  0
VERTEX
  5
34E4
330
2D60
100
AcDbEntity
  8
0
100
AcDbVertex
100
AcDb2dVertex
 10
1.127646329818289
 20
4.045546101813201
 30
0.0
  0
SEQEND
  5
34E5
330
2D60
100
AcDbEntity
  8
0
  0
LINE
  5
2D6E
330
1E
100
AcDbEntity
  8
0
100
AcDbLine
 10
0.2981049912356131
 20
4.403697282915564
 30
0.0
 11
1.107895345566321
 21
4.403697282915564
 31
0.0
  0
LINE
  5
2D6F
330
1E
100
AcDbEntity
  8
0
100
AcDbLine
 10
1.107895345566321
 20
4.403697282915564
 30
0.0
 11
1.105261880999392
 21
4.405014015199028
 31
0.0
  0
LINE
  5
2D70
330
1E
100
AcDbEntity
  8
0
100
AcDbLine
 10
0.296788258952148
 20
4.403697282915564
 30
0.0
 11
0.2981049912356131
 21
4.403697282915564
 31
0.0
  0
LINE
  5
2D71
330
1E
100
AcDbEntity
  8
0
100
AcDbLine
 10
1.269853416432463
 20
4.405014015199028
 30
0.0
 11
1.267219951865533
 21
4.403697282915564
 31
0.0
  0
LINE
  5
2D72
330
1E
100
AcDbEntity
  8
0
100
AcDbLine
 10
1.267219951865533
 20
4.403697282915564
 30
0.0
 11
2.077010306196242
 21
4.403697282915564
 31
0.0
  0
LINE
  5
2D73
330
1E
100
AcDbEntity
  8
0
100
AcDbLine
 10
2.077010306196242
 20
4.403697282915564
 30
0.0
 11
2.078327038479707
 21
4.403697282915564
 31
0.0
  0
LINE
  5
2D74
330
1E
100
AcDbEntity
  8
0
100
AcDbLine
 10
1.107895345566321
 20
4.348394527010052
 30
0.0
 11
1.107895345566321
 21
4.403697282915564
 31
0.0
  0
LINE
  5
2D75
330
1E
100
AcDbEntity
  8
0
100
AcDbLine
 10
0.2981049912356131
 20
4.403697282915564
 30
0.0
 11
0.2981049912356131
 21
4.402380550632098
 31
0.0
  0
LINE
  5
2D76
330
1E
100
AcDbEntity
  8
0
100
AcDbLine
 10
0.2981049912356131
 20
4.402380550632098
 30
0.0
 11
0.2981049912356131
 21
3.992876810474618
 31
0.0
  0
LINE
  5
2D77
330
1E
100
AcDbEntity
  8
0
100
AcDbLine
 10
0.2981049912356131
 20
3.992876810474618
 30
0.0
 11
0.2981049912356131
 21
3.991560078191154
 31
0.0
  0
LINE
  5
2D78
330
1E
100
AcDbEntity
  8
0
100
AcDbLine
 10
2.077010306196242
 20
3.991560078191154
 30
0.0
 11
2.077010306196242
 21
3.992876810474618
 31
0.0
  0
LINE
  5
2D79
330
1E
100
AcDbEntity
  8
0
100
AcDbLine
 10
2.077010306196242
 20
3.992876810474618
 30
0.0
 11
2.077010306196242
 21
4.402380550632098
 31
0.0
  0
LINE
  5
2D7A
330
1E
100
AcDbEntity
  8
0
100
AcDbLine
 10
2.077010306196242
 20
4.402380550632098
 30
0.0
 11
2.077010306196242
 21
4.403697282915564
 31
0.0
  0
LINE
  5
2D7B
330
1E
100
AcDbEntity
  8
0
100
AcDbLine
 10
1.267219951865533
 20
4.403697282915564
 30
0.0
 11
1.267219951865533
 21
4.348394527010052
 31
0.0
  0
POLYLINE
  5
2D7C
330
1E
100
AcDbEntity
  8
0
100
AcDb2dPolyline
 66
     1
 10
0.0
 20
0.0
 30
0.0
  0
VERTEX
  5
34E6
330
2D7C
100
AcDbEntity
  8
0
100
AcDbVertex
100
AcDb2dVertex
 10
1.247468967613565
 20
4.045546101813201
 30
0.0
  0
VERTEX
  5
34E7
330
2D7C
100
AcDbEntity
  8
0
100
AcDbVertex
100
AcDb2dVertex
 10
1.289604400684431
 20
4.050813030947059
 30
0.0
  0
VERTEX
  5
34E8
330
2D7C
100
AcDbEntity
  8
0
100
AcDbVertex
100
AcDb2dVertex
 10
1.326472904621438
 20
4.067930550632098
 30
0.0
  0
VERTEX
  5
34E9
330
2D7C
100
AcDbEntity
  8
0
100
AcDbVertex
100
AcDb2dVertex
 10
1.359391211708053
 20
4.094265196301391
 30
0.0
  0
VERTEX
  5
34EA
330
2D7C
100
AcDbEntity
  8
0
100
AcDbVertex
100
AcDb2dVertex
 10
1.383092392810415
 20
4.128500235671469
 30
0.0
  0
VERTEX
  5
34EB
330
2D7C
100
AcDbEntity
  8
0
100
AcDbVertex
100
AcDb2dVertex
 10
1.397576447928526
 20
4.166685471891941
 30
0.0
  0
VERTEX
  5
34EC
330
2D7C
100
AcDbEntity
  8
0
100
AcDbVertex
100
AcDb2dVertex
 10
1.400209912495455
 20
4.208820904962807
 30
0.0
  0
VERTEX
  5
34ED
330
2D7C
100
AcDbEntity
  8
0
100
AcDbVertex
100
AcDb2dVertex
 10
1.390992786511203
 20
4.249639605750209
 30
0.0
  0
VERTEX
  5
34EE
330
2D7C
100
AcDbEntity
  8
0
100
AcDbVertex
100
AcDb2dVertex
 10
1.371241802259234
 20
4.286508109687217
 30
0.0
  0
VERTEX
  5
34EF
330
2D7C
100
AcDbEntity
  8
0
100
AcDbVertex
100
AcDb2dVertex
 10
1.343590424306478
 20
4.316792952206902
 30
0.0
  0
VERTEX
  5
34F0
330
2D7C
100
AcDbEntity
  8
0
100
AcDbVertex
100
AcDb2dVertex
 10
1.308038652652935
 20
4.337860668742335
 30
0.0
  0
VERTEX
  5
34F1
330
2D7C
100
AcDbEntity
  8
0
100
AcDbVertex
100
AcDb2dVertex
 10
1.267219951865533
 20
4.348394527010051
 30
0.0
  0
SEQEND
  5
34F2
330
2D7C
100
AcDbEntity
  8
0
  0
LINE
  5
2D8A
330
1E
100
AcDbEntity
  8
0
100
AcDbLine
 10
1.267219951865533
 20
4.348394527010052
 30
0.0
 11
1.264586487298604
 21
4.347077794726587
 31
0.0
  0
POLYLINE
  5
2D8B
330
1E
100
AcDbEntity
  8
0
100
AcDb2dPolyline
 66
     1
 10
0.0
 20
0.0
 30
0.0
  0
VERTEX
  5
34F3
330
2D8B
100
AcDbEntity
  8
0
100
AcDbVertex
100
AcDb2dVertex
 10
1.264586487298605
 20
4.347077794726587
 30
0.0
  0
VERTEX
  5
34F4
330
2D8B
100
AcDbEntity
  8
0
100
AcDbVertex
100
AcDb2dVertex
 10
1.304088455802541
 20
4.337860668742335
 30
0.0
  0
VERTEX
  5
34F5
330
2D8B
100
AcDbEntity
  8
0
100
AcDbVertex
100
AcDb2dVertex
 10
1.339640227456084
 20
4.316792952206902
 30
0.0
  0
VERTEX
  5
34F6
330
2D8B
100
AcDbEntity
  8
0
100
AcDbVertex
100
AcDb2dVertex
 10
1.368608337692305
 20
4.286508109687217
 30
0.0
  0
VERTEX
  5
34F7
330
2D8B
100
AcDbEntity
  8
0
100
AcDbVertex
100
AcDb2dVertex
 10
1.388359321944273
 20
4.250956338033674
 30
0.0
  0
VERTEX
  5
34F8
330
2D8B
100
AcDbEntity
  8
0
100
AcDbVertex
100
AcDb2dVertex
 10
1.397576447928526
 20
4.210137637246273
 30
0.0
  0
VERTEX
  5
34F9
330
2D8B
100
AcDbEntity
  8
0
100
AcDbVertex
100
AcDb2dVertex
 10
1.394942983361596
 20
4.16931893645887
 30
0.0
  0
VERTEX
  5
34FA
330
2D8B
100
AcDbEntity
  8
0
100
AcDbVertex
100
AcDb2dVertex
 10
1.38177566052695
 20
4.129816967954933
 30
0.0
  0
VERTEX
  5
34FB
330
2D8B
100
AcDbEntity
  8
0
100
AcDbVertex
100
AcDb2dVertex
 10
1.358074479424588
 20
4.095581928584855
 30
0.0
  0
VERTEX
  5
34FC
330
2D8B
100
AcDbEntity
  8
0
100
AcDbVertex
100
AcDb2dVertex
 10
1.326472904621438
 20
4.069247282915564
 30
0.0
  0
VERTEX
  5
34FD
330
2D8B
100
AcDbEntity
  8
0
100
AcDbVertex
100
AcDb2dVertex
 10
1.288287668400966
 20
4.053446495513989
 30
0.0
  0
VERTEX
  5
34FE
330
2D8B
100
AcDbEntity
  8
0
100
AcDbVertex
100
AcDb2dVertex
 10
1.247468967613565
 20
4.046862834096665
 30
0.0
  0
SEQEND
  5
34FF
330
2D8B
100
AcDbEntity
  8
0
  0
LINE
  5
2D99
330
1E
100
AcDbEntity
  8
0
100
AcDbLine
 10
1.11052881013325
 20
4.274657519136036
 30
0.0
 11
1.11052881013325
 21
4.347077794726587
 31
0.0
  0
LINE
  5
2D9A
330
1E
100
AcDbEntity
  8
0
100
AcDbLine
 10
1.264586487298604
 20
4.347077794726587
 30
0.0
 11
1.264586487298604
 21
4.274657519136036
 31
0.0
  0
POLYLINE
  5
2D9B
330
1E
100
AcDbEntity
  8
0
100
AcDb2dPolyline
 66
     1
 10
0.0
 20
0.0
 30
0.0
  0
VERTEX
  5
3500
330
2D9B
100
AcDbEntity
  8
0
100
AcDbVertex
100
AcDb2dVertex
 10
1.264586487298605
 20
4.274657519136035
 30
0.0
  0
VERTEX
  5
3501
330
2D9B
100
AcDbEntity
  8
0
100
AcDbVertex
100
AcDb2dVertex
 10
1.293554597534825
 20
4.260173464017925
 30
0.0
  0
VERTEX
  5
3502
330
2D9B
100
AcDbEntity
  8
0
100
AcDbVertex
100
AcDb2dVertex
 10
1.315939046353722
 20
4.236472282915563
 30
0.0
  0
VERTEX
  5
3503
330
2D9B
100
AcDbEntity
  8
0
100
AcDbVertex
100
AcDb2dVertex
 10
1.325156172337974
 20
4.206187440395878
 30
0.0
  0
VERTEX
  5
3504
330
2D9B
100
AcDbEntity
  8
0
100
AcDbVertex
100
AcDb2dVertex
 10
1.322522707771045
 20
4.173269133309265
 30
0.0
  0
VERTEX
  5
3505
330
2D9B
100
AcDbEntity
  8
0
100
AcDbVertex
100
AcDb2dVertex
 10
1.305405188086006
 20
4.145617755356508
 30
0.0
  0
VERTEX
  5
3506
330
2D9B
100
AcDbEntity
  8
0
100
AcDbVertex
100
AcDb2dVertex
 10
1.279070542416714
 20
4.127183503388004
 30
0.0
  0
VERTEX
  5
3507
330
2D9B
100
AcDbEntity
  8
0
100
AcDbVertex
100
AcDb2dVertex
 10
1.247468967613565
 20
4.119283109687216
 30
0.0
  0
SEQEND
  5
3508
330
2D9B
100
AcDbEntity
  8
0
  0
LINE
  5
2DA5
330
1E
100
AcDbEntity
  8
0
100
AcDbLine
 10
1.264586487298604
 20
4.274657519136036
 30
0.0
 11
1.26326975501514
 21
4.273340786852571
 31
0.0
  0
POLYLINE
  5
2DA6
330
1E
100
AcDbEntity
  8
0
100
AcDb2dPolyline
 66
     1
 10
0.0
 20
0.0
 30
0.0
  0
VERTEX
  5
3509
330
2DA6
100
AcDbEntity
  8
0
100
AcDbVertex
100
AcDb2dVertex
 10
1.263269755015139
 20
4.273340786852571
 30
0.0
  0
VERTEX
  5
350A
330
2DA6
100
AcDbEntity
  8
0
100
AcDbVertex
100
AcDb2dVertex
 10
1.255369361314352
 20
4.274657519136035
 30
0.0
  0
VERTEX
  5
350B
330
2DA6
100
AcDbEntity
  8
0
100
AcDbVertex
100
AcDb2dVertex
 10
1.247468967613565
 20
4.274657519136035
 30
0.0
  0
SEQEND
  5
350C
330
2DA6
100
AcDbEntity
  8
0
  0
LINE
  5
2DAB
330
1E
100
AcDbEntity
  8
0
100
AcDbLine
 10
1.111845542416714
 20
4.273340786852571
 30
0.0
 11
1.111845542416714
 21
4.419498070317139
 31
0.0
  0
LINE
  5
2DAC
330
1E
100
AcDbEntity
  8
0
100
AcDbLine
 10
1.26326975501514
 20
4.273340786852571
 30
0.0
 11
1.26326975501514
 21
4.419498070317139
 31
0.0
  0
POLYLINE
  5
2DAD
330
1E
100
AcDbEntity
  8
0
100
AcDb2dPolyline
 66
     1
 10
0.0
 20
0.0
 30
0.0
  0
VERTEX
  5
350D
330
2DAD
100
AcDbEntity
  8
0
100
AcDbVertex
100
AcDb2dVertex
 10
1.263269755015139
 20
4.419498070317138
 30
0.0
  0
VERTEX
  5
350E
330
2DAD
100
AcDbEntity
  8
0
100
AcDbVertex
100
AcDb2dVertex
 10
1.26063629044821
 20
4.420814802600602
 30
0.0
  0
VERTEX
  5
350F
330
2DAD
100
AcDbEntity
  8
0
100
AcDbVertex
100
AcDb2dVertex
 10
1.258002825881281
 20
4.420814802600602
 30
0.0
  0
SEQEND
  5
3510
330
2DAD
100
AcDbEntity
  8
0
  0
LINE
  5
2DB2
330
1E
100
AcDbEntity
  8
0
100
AcDbLine
 10
1.264586487298604
 20
4.420814802600603
 30
0.0
 11
1.26326975501514
 21
4.419498070317139
 31
0.0
  0
LINE
  5
2DB3
330
1E
100
AcDbEntity
  8
0
100
AcDbLine
 10
0.6746904243064789
 20
4.457683306537611
 30
0.0
 11
0.6733736920230147
 21
4.461633503388005
 31
0.0
  0
LINE
  5
2DB4
330
1E
100
AcDbEntity
  8
0
100
AcDbLine
 10
0.6746904243064789
 20
4.457683306537611
 30
0.0
 11
0.6825908180072658
 21
4.465583700238399
 31
0.0
  0
LINE
  5
2DB5
330
1E
100
AcDbEntity
  8
0
100
AcDbLine
 10
0.6207044006844314
 20
4.461633503388005
 30
0.0
 11
0.6128040069836436
 21
4.461633503388005
 31
0.0
  0
LINE
  5
2DB6
330
1E
100
AcDbEntity
  8
0
100
AcDbLine
 10
0.4877144400545097
 20
4.461633503388005
 30
0.0
 11
0.4798140463537229
 21
4.461633503388005
 31
0.0
  0
LINE
  5
2DB7
330
1E
100
AcDbEntity
  8
0
100
AcDbLine
 10
0.4284614872986046
 20
4.461633503388005
 30
0.0
 11
0.4271447550151404
 21
4.457683306537611
 31
0.0
  0
LINE
  5
2DB8
330
1E
100
AcDbEntity
  8
0
100
AcDbLine
 10
0.4271447550151404
 20
4.457683306537611
 30
0.0
 11
0.6746904243064789
 21
4.457683306537611
 31
0.0
  0
LINE
  5
2DB9
330
1E
100
AcDbEntity
  8
0
100
AcDbLine
 10
0.4192443613143526
 20
4.465583700238399
 30
0.0
 11
0.4271447550151404
 21
4.457683306537611
 31
0.0
  0
POLYLINE
  5
2DBA
330
1E
100
AcDbEntity
  8
0
100
AcDb2dPolyline
 66
     1
 10
0.0
 20
0.0
 30
0.0
  0
VERTEX
  5
3511
330
2DBA
100
AcDbEntity
  8
0
100
AcDbVertex
100
AcDb2dVertex
 10
1.264586487298605
 20
4.420814802600602
 30
0.0
  0
VERTEX
  5
3512
330
2DBA
100
AcDbEntity
  8
0
100
AcDbVertex
100
AcDb2dVertex
 10
1.264586487298605
 20
4.423448267167533
 30
0.0
  0
VERTEX
  5
3513
330
2DBA
100
AcDbEntity
  8
0
100
AcDbVertex
100
AcDb2dVertex
 10
1.264586487298605
 20
4.426081731734461
 30
0.0
  0
VERTEX
  5
3514
330
2DBA
100
AcDbEntity
  8
0
100
AcDbVertex
100
AcDb2dVertex
 10
1.264586487298605
 20
4.428715196301391
 30
0.0
  0
VERTEX
  5
3515
330
2DBA
100
AcDbEntity
  8
0
100
AcDbVertex
100
AcDb2dVertex
 10
1.264586487298605
 20
4.431348660868319
 30
0.0
  0
SEQEND
  5
3516
330
2DBA
100
AcDbEntity
  8
0
  0
POLYLINE
  5
2DC1
330
1E
100
AcDbEntity
  8
0
100
AcDb2dPolyline
 66
     1
 10
0.0
 20
0.0
 30
0.0
  0
VERTEX
  5
3517
330
2DC1
100
AcDbEntity
  8
0
100
AcDbVertex
100
AcDb2dVertex
 10
1.11052881013325
 20
4.431348660868319
 30
0.0
  0
VERTEX
  5
3518
330
2DC1
100
AcDbEntity
  8
0
100
AcDbVertex
100
AcDb2dVertex
 10
1.11052881013325
 20
4.427398464017925
 30
0.0
  0
VERTEX
  5
3519
330
2DC1
100
AcDbEntity
  8
0
100
AcDbVertex
100
AcDb2dVertex
 10
1.11052881013325
 20
4.424764999450997
 30
0.0
  0
VERTEX
  5
351A
330
2DC1
100
AcDbEntity
  8
0
100
AcDbVertex
100
AcDb2dVertex
 10
1.11052881013325
 20
4.422131534884067
 30
0.0
  0
VERTEX
  5
351B
330
2DC1
100
AcDbEntity
  8
0
100
AcDbVertex
100
AcDb2dVertex
 10
1.11052881013325
 20
4.420814802600602
 30
0.0
  0
SEQEND
  5
351C
330
2DC1
100
AcDbEntity
  8
0
  0
LINE
  5
2DC8
330
1E
100
AcDbEntity
  8
0
100
AcDbLine
 10
1.267219951865533
 20
4.443199251419501
 30
0.0
 11
1.264586487298604
 21
4.441882519136036
 31
0.0
  0
LINE
  5
2DC9
330
1E
100
AcDbEntity
  8
0
100
AcDbLine
 10
1.267219951865533
 20
4.443199251419501
 30
0.0
 11
1.258002825881281
 21
4.443199251419501
 31
0.0
  0
LINE
  5
2DCA
330
1E
100
AcDbEntity
  8
0
100
AcDbLine
 10
1.117112471550573
 20
4.443199251419501
 30
0.0
 11
1.107895345566321
 21
4.443199251419501
 31
0.0
  0
LINE
  5
2DCB
330
1E
100
AcDbEntity
  8
0
100
AcDbLine
 10
1.107895345566321
 20
4.443199251419501
 30
0.0
 11
1.11052881013325
 21
4.441882519136036
 31
0.0
  0
LINE
  5
2DCC
330
1E
100
AcDbEntity
  8
0
100
AcDbLine
 10
1.949287274700179
 20
4.457683306537611
 30
0.0
 11
1.94665381013325
 21
4.461633503388005
 31
0.0
  0
LINE
  5
2DCD
330
1E
100
AcDbEntity
  8
0
100
AcDbLine
 10
1.949287274700179
 20
4.457683306537611
 30
0.0
 11
1.957187668400967
 21
4.465583700238399
 31
0.0
  0
LINE
  5
2DCE
330
1E
100
AcDbEntity
  8
0
100
AcDbLine
 10
1.895301251078132
 20
4.461633503388005
 30
0.0
 11
1.887400857377345
 21
4.461633503388005
 31
0.0
  0
LINE
  5
2DCF
330
1E
100
AcDbEntity
  8
0
100
AcDbLine
 10
1.76231129044821
 20
4.461633503388005
 30
0.0
 11
1.754410896747423
 21
4.461633503388005
 31
0.0
  0
LINE
  5
2DD0
330
1E
100
AcDbEntity
  8
0
100
AcDbLine
 10
1.70174160540884
 20
4.461633503388005
 30
0.0
 11
1.700424873125376
 21
4.457683306537611
 31
0.0
  0
LINE
  5
2DD1
330
1E
100
AcDbEntity
  8
0
100
AcDbLine
 10
1.700424873125376
 20
4.457683306537611
 30
0.0
 11
1.949287274700179
 21
4.457683306537611
 31
0.0
  0
LINE
  5
2DD2
330
1E
100
AcDbEntity
  8
0
100
AcDbLine
 10
1.692524479424588
 20
4.465583700238399
 30
0.0
 11
1.700424873125376
 21
4.457683306537611
 31
0.0
  0
POLYLINE
  5
2DD3
330
1E
100
AcDbEntity
  8
0
100
AcDb2dPolyline
 66
     1
 10
0.0
 20
0.0
 30
0.0
  0
VERTEX
  5
351D
330
2DD3
100
AcDbEntity
  8
0
100
AcDbVertex
100
AcDb2dVertex
 10
1.684624085723801
 20
4.495868542758083
 30
0.0
  0
VERTEX
  5
351E
330
2DD3
100
AcDbEntity
  8
0
100
AcDbVertex
100
AcDb2dVertex
 10
1.689891014857659
 20
4.495868542758083
 30
0.0
  0
VERTEX
  5
351F
330
2DD3
100
AcDbEntity
  8
0
100
AcDbVertex
100
AcDb2dVertex
 10
1.692524479424588
 20
4.495868542758083
 30
0.0
  0
SEQEND
  5
3520
330
2DD3
100
AcDbEntity
  8
0
  0
POLYLINE
  5
2DD8
330
1E
100
AcDbEntity
  8
0
100
AcDb2dPolyline
 66
     1
 10
0.0
 20
0.0
 30
0.0
  0
VERTEX
  5
3521
330
2DD8
100
AcDbEntity
  8
0
100
AcDbVertex
100
AcDb2dVertex
 10
1.700424873125375
 20
4.511669330159658
 30
0.0
  0
VERTEX
  5
3522
330
2DD8
100
AcDbEntity
  8
0
100
AcDbVertex
100
AcDb2dVertex
 10
1.700424873125375
 20
4.505085668742335
 30
0.0
  0
VERTEX
  5
3523
330
2DD8
100
AcDbEntity
  8
0
100
AcDbVertex
100
AcDb2dVertex
 10
1.700424873125375
 20
4.503768936458871
 30
0.0
  0
SEQEND
  5
3524
330
2DD8
100
AcDbEntity
  8
0
  0
POLYLINE
  5
2DDD
330
1E
100
AcDbEntity
  8
0
100
AcDb2dPolyline
 66
     1
 10
0.0
 20
0.0
 30
0.0
  0
VERTEX
  5
3525
330
2DDD
100
AcDbEntity
  8
0
100
AcDbVertex
100
AcDb2dVertex
 10
1.684624085723801
 20
4.465583700238399
 30
0.0
  0
VERTEX
  5
3526
330
2DDD
100
AcDbEntity
  8
0
100
AcDbVertex
100
AcDb2dVertex
 10
1.689891014857659
 20
4.465583700238399
 30
0.0
  0
VERTEX
  5
3527
330
2DDD
100
AcDbEntity
  8
0
100
AcDbVertex
100
AcDb2dVertex
 10
1.692524479424588
 20
4.465583700238399
 30
0.0
  0
SEQEND
  5
3528
330
2DDD
100
AcDbEntity
  8
0
  0
POLYLINE
  5
2DE2
330
1E
100
AcDbEntity
  8
0
100
AcDb2dPolyline
 66
     1
 10
0.0
 20
0.0
 30
0.0
  0
VERTEX
  5
3529
330
2DE2
100
AcDbEntity
  8
0
100
AcDbVertex
100
AcDb2dVertex
 10
1.700424873125375
 20
4.448466180553358
 30
0.0
  0
VERTEX
  5
352A
330
2DE2
100
AcDbEntity
  8
0
100
AcDbVertex
100
AcDb2dVertex
 10
1.700424873125375
 20
4.455049841970682
 30
0.0
  0
VERTEX
  5
352B
330
2DE2
100
AcDbEntity
  8
0
100
AcDbVertex
100
AcDb2dVertex
 10
1.700424873125375
 20
4.45768330653761
 30
0.0
  0
SEQEND
  5
352C
330
2DE2
100
AcDbEntity
  8
0
  0
POLYLINE
  5
2DE7
330
1E
100
AcDbEntity
  8
0
100
AcDb2dPolyline
 66
     1
 10
0.0
 20
0.0
 30
0.0
  0
VERTEX
  5
352D
330
2DE7
100
AcDbEntity
  8
0
100
AcDbVertex
100
AcDb2dVertex
 10
1.949287274700179
 20
4.448466180553358
 30
0.0
  0
VERTEX
  5
352E
330
2DE7
100
AcDbEntity
  8
0
100
AcDbVertex
100
AcDb2dVertex
 10
1.949287274700179
 20
4.455049841970682
 30
0.0
  0
VERTEX
  5
352F
330
2DE7
100
AcDbEntity
  8
0
100
AcDbVertex
100
AcDb2dVertex
 10
1.949287274700179
 20
4.45768330653761
 30
0.0
  0
SEQEND
  5
3530
330
2DE7
100
AcDbEntity
  8
0
  0
POLYLINE
  5
2DEC
330
1E
100
AcDbEntity
  8
0
100
AcDb2dPolyline
 66
     1
 10
0.0
 20
0.0
 30
0.0
  0
VERTEX
  5
3531
330
2DEC
100
AcDbEntity
  8
0
100
AcDbVertex
100
AcDb2dVertex
 10
1.965088062101754
 20
4.465583700238399
 30
0.0
  0
VERTEX
  5
3532
330
2DEC
100
AcDbEntity
  8
0
100
AcDbVertex
100
AcDb2dVertex
 10
1.958504400684431
 20
4.465583700238399
 30
0.0
  0
VERTEX
  5
3533
330
2DEC
100
AcDbEntity
  8
0
100
AcDbVertex
100
AcDb2dVertex
 10
1.957187668400967
 20
4.465583700238399
 30
0.0
  0
SEQEND
  5
3534
330
2DEC
100
AcDbEntity
  8
0
  0
POLYLINE
  5
2DF1
330
1E
100
AcDbEntity
  8
0
100
AcDb2dPolyline
 66
     1
 10
0.0
 20
0.0
 30
0.0
  0
VERTEX
  5
3535
330
2DF1
100
AcDbEntity
  8
0
100
AcDbVertex
100
AcDb2dVertex
 10
1.957187668400967
 20
4.495868542758083
 30
0.0
  0
VERTEX
  5
3536
330
2DF1
100
AcDbEntity
  8
0
100
AcDbVertex
100
AcDb2dVertex
 10
1.958504400684431
 20
4.495868542758083
 30
0.0
  0
VERTEX
  5
3537
330
2DF1
100
AcDbEntity
  8
0
100
AcDbVertex
100
AcDb2dVertex
 10
1.965088062101754
 20
4.495868542758083
 30
0.0
  0
SEQEND
  5
3538
330
2DF1
100
AcDbEntity
  8
0
  0
POLYLINE
  5
2DF6
330
1E
100
AcDbEntity
  8
0
100
AcDb2dPolyline
 66
     1
 10
0.0
 20
0.0
 30
0.0
  0
VERTEX
  5
3539
330
2DF6
100
AcDbEntity
  8
0
100
AcDbVertex
100
AcDb2dVertex
 10
1.949287274700179
 20
4.503768936458871
 30
0.0
  0
VERTEX
  5
353A
330
2DF6
100
AcDbEntity
  8
0
100
AcDbVertex
100
AcDb2dVertex
 10
1.949287274700179
 20
4.505085668742335
 30
0.0
  0
VERTEX
  5
353B
330
2DF6
100
AcDbEntity
  8
0
100
AcDbVertex
100
AcDb2dVertex
 10
1.949287274700179
 20
4.511669330159658
 30
0.0
  0
SEQEND
  5
353C
330
2DF6
100
AcDbEntity
  8
0
  0
POLYLINE
  5
2DFB
330
1E
100
AcDbEntity
  8
0
100
AcDb2dPolyline
 66
     1
 10
0.0
 20
0.0
 30
0.0
  0
VERTEX
  5
353D
330
2DFB
100
AcDbEntity
  8
0
100
AcDbVertex
100
AcDb2dVertex
 10
0.42714475501514
 20
4.511669330159658
 30
0.0
  0
VERTEX
  5
353E
330
2DFB
100
AcDbEntity
  8
0
100
AcDbVertex
100
AcDb2dVertex
 10
0.42714475501514
 20
4.505085668742335
 30
0.0
  0
VERTEX
  5
353F
330
2DFB
100
AcDbEntity
  8
0
100
AcDbVertex
100
AcDb2dVertex
 10
0.42714475501514
 20
4.503768936458871
 30
0.0
  0
SEQEND
  5
3540
330
2DFB
100
AcDbEntity
  8
0
  0
POLYLINE
  5
2E00
330
1E
100
AcDbEntity
  8
0
100
AcDb2dPolyline
 66
     1
 10
0.0
 20
0.0
 30
0.0
  0
VERTEX
  5
3541
330
2E00
100
AcDbEntity
  8
0
100
AcDbVertex
100
AcDb2dVertex
 10
0.4100272353301007
 20
4.495868542758083
 30
0.0
  0
VERTEX
  5
3542
330
2E00
100
AcDbEntity
  8
0
100
AcDbVertex
100
AcDb2dVertex
 10
0.4166108967474234
 20
4.495868542758083
 30
0.0
  0
VERTEX
  5
3543
330
2E00
100
AcDbEntity
  8
0
100
AcDbVertex
100
AcDb2dVertex
 10
0.4192443613143526
 20
4.495868542758083
 30
0.0
  0
SEQEND
  5
3544
330
2E00
100
AcDbEntity
  8
0
  0
POLYLINE
  5
2E05
330
1E
100
AcDbEntity
  8
0
100
AcDb2dPolyline
 66
     1
 10
0.0
 20
0.0
 30
0.0
  0
VERTEX
  5
3545
330
2E05
100
AcDbEntity
  8
0
100
AcDbVertex
100
AcDb2dVertex
 10
0.4192443613143526
 20
4.465583700238399
 30
0.0
  0
VERTEX
  5
3546
330
2E05
100
AcDbEntity
  8
0
100
AcDbVertex
100
AcDb2dVertex
 10
0.4166108967474234
 20
4.465583700238399
 30
0.0
  0
VERTEX
  5
3547
330
2E05
100
AcDbEntity
  8
0
100
AcDbVertex
100
AcDb2dVertex
 10
0.4100272353301007
 20
4.465583700238399
 30
0.0
  0
SEQEND
  5
3548
330
2E05
100
AcDbEntity
  8
0
  0
POLYLINE
  5
2E0A
330
1E
100
AcDbEntity
  8
0
100
AcDb2dPolyline
 66
     1
 10
0.0
 20
0.0
 30
0.0
  0
VERTEX
  5
3549
330
2E0A
100
AcDbEntity
  8
0
100
AcDbVertex
100
AcDb2dVertex
 10
0.42714475501514
 20
4.45768330653761
 30
0.0
  0
VERTEX
  5
354A
330
2E0A
100
AcDbEntity
  8
0
100
AcDbVertex
100
AcDb2dVertex
 10
0.42714475501514
 20
4.455049841970682
 30
0.0
  0
VERTEX
  5
354B
330
2E0A
100
AcDbEntity
  8
0
100
AcDbVertex
100
AcDb2dVertex
 10
0.42714475501514
 20
4.448466180553358
 30
0.0
  0
SEQEND
  5
354C
330
2E0A
100
AcDbEntity
  8
0
  0
POLYLINE
  5
2E0F
330
1E
100
AcDbEntity
  8
0
100
AcDb2dPolyline
 66
     1
 10
0.0
 20
0.0
 30
0.0
  0
VERTEX
  5
354D
330
2E0F
100
AcDbEntity
  8
0
100
AcDbVertex
100
AcDb2dVertex
 10
0.6746904243064789
 20
4.45768330653761
 30
0.0
  0
VERTEX
  5
354E
330
2E0F
100
AcDbEntity
  8
0
100
AcDbVertex
100
AcDb2dVertex
 10
0.6746904243064789
 20
4.455049841970682
 30
0.0
  0
VERTEX
  5
354F
330
2E0F
100
AcDbEntity
  8
0
100
AcDbVertex
100
AcDb2dVertex
 10
0.6746904243064789
 20
4.448466180553358
 30
0.0
  0
SEQEND
  5
3550
330
2E0F
100
AcDbEntity
  8
0
  0
POLYLINE
  5
2E14
330
1E
100
AcDbEntity
  8
0
100
AcDb2dPolyline
 66
     1
 10
0.0
 20
0.0
 30
0.0
  0
VERTEX
  5
3551
330
2E14
100
AcDbEntity
  8
0
100
AcDbVertex
100
AcDb2dVertex
 10
0.6825908180072662
 20
4.465583700238399
 30
0.0
  0
VERTEX
  5
3552
330
2E14
100
AcDbEntity
  8
0
100
AcDbVertex
100
AcDb2dVertex
 10
0.6852242825741955
 20
4.465583700238399
 30
0.0
  0
VERTEX
  5
3553
330
2E14
100
AcDbEntity
  8
0
100
AcDbVertex
100
AcDb2dVertex
 10
0.6904912117080535
 20
4.465583700238399
 30
0.0
  0
SEQEND
  5
3554
330
2E14
100
AcDbEntity
  8
0
  0
POLYLINE
  5
2E19
330
1E
100
AcDbEntity
  8
0
100
AcDb2dPolyline
 66
     1
 10
0.0
 20
0.0
 30
0.0
  0
VERTEX
  5
3555
330
2E19
100
AcDbEntity
  8
0
100
AcDbVertex
100
AcDb2dVertex
 10
0.6825908180072662
 20
4.495868542758083
 30
0.0
  0
VERTEX
  5
3556
330
2E19
100
AcDbEntity
  8
0
100
AcDbVertex
100
AcDb2dVertex
 10
0.6852242825741955
 20
4.495868542758083
 30
0.0
  0
VERTEX
  5
3557
330
2E19
100
AcDbEntity
  8
0
100
AcDbVertex
100
AcDb2dVertex
 10
0.6904912117080535
 20
4.495868542758083
 30
0.0
  0
SEQEND
  5
3558
330
2E19
100
AcDbEntity
  8
0
  0
POLYLINE
  5
2E1E
330
1E
100
AcDbEntity
  8
0
100
AcDb2dPolyline
 66
     1
 10
0.0
 20
0.0
 30
0.0
  0
VERTEX
  5
3559
330
2E1E
100
AcDbEntity
  8
0
100
AcDbVertex
100
AcDb2dVertex
 10
0.6746904243064789
 20
4.503768936458871
 30
0.0
  0
VERTEX
  5
355A
330
2E1E
100
AcDbEntity
  8
0
100
AcDbVertex
100
AcDb2dVertex
 10
0.6746904243064789
 20
4.505085668742335
 30
0.0
  0
VERTEX
  5
355B
330
2E1E
100
AcDbEntity
  8
0
100
AcDbVertex
100
AcDb2dVertex
 10
0.6746904243064789
 20
4.511669330159658
 30
0.0
  0
SEQEND
  5
355C
330
2E1E
100
AcDbEntity
  8
0
  0
LINE
  5
2E23
330
1E
100
AcDbEntity
  8
0
100
AcDbLine
 10
1.106578613282856
 20
4.444515983702966
 30
0.0
 11
1.105261880999392
 21
4.444515983702966
 31
0.0
  0
POLYLINE
  5
2E24
330
1E
100
AcDbEntity
  8
0
100
AcDb2dPolyline
 66
     1
 10
0.0
 20
0.0
 30
0.0
  0
VERTEX
  5
355D
330
2E24
100
AcDbEntity
  8
0
100
AcDbVertex
100
AcDb2dVertex
 10
1.107895345566321
 20
4.4431992514195
 30
0.0
  0
VERTEX
  5
355E
330
2E24
100
AcDbEntity
  8
0
100
AcDbVertex
100
AcDb2dVertex
 10
1.107895345566321
 20
4.451099645120288
 30
0.0
  0
VERTEX
  5
355F
330
2E24
100
AcDbEntity
  8
0
100
AcDbVertex
100
AcDb2dVertex
 10
1.106578613282856
 20
4.466900432521863
 30
0.0
  0
SEQEND
  5
3560
330
2E24
100
AcDbEntity
  8
0
  0
LINE
  5
2E29
330
1E
100
AcDbEntity
  8
0
100
AcDbLine
 10
2.181032156589943
 20
3.950741377403753
 30
0.0
 11
2.181032156589943
 21
3.952058109687217
 31
0.0
  0
LINE
  5
2E2A
330
1E
100
AcDbEntity
  8
0
100
AcDbLine
 10
2.211316999109628
 20
4.414231141183281
 30
0.0
 11
2.211316999109628
 21
4.414231141183281
 31
0.0
  0
LINE
  5
2E2B
330
1E
100
AcDbEntity
  8
0
100
AcDbLine
 10
2.211316999109628
 20
3.982342952206902
 30
0.0
 11
2.211316999109628
 21
3.981026219923437
 31
0.0
  0
LINE
  5
2E2C
330
1E
100
AcDbEntity
  8
0
100
AcDbLine
 10
2.181032156589943
 20
4.444515983702966
 30
0.0
 11
2.181032156589943
 21
4.444515983702966
 31
0.0
  0
LINE
  5
2E2D
330
1E
100
AcDbEntity
  8
0
100
AcDbLine
 10
1.269853416432463
 20
4.444515983702966
 30
0.0
 11
1.268536684148998
 21
4.444515983702966
 31
0.0
  0
POLYLINE
  5
2E2E
330
1E
100
AcDbEntity
  8
0
100
AcDb2dPolyline
 66
     1
 10
0.0
 20
0.0
 30
0.0
  0
VERTEX
  5
3561
330
2E2E
100
AcDbEntity
  8
0
100
AcDbVertex
100
AcDb2dVertex
 10
1.268536684148998
 20
4.466900432521863
 30
0.0
  0
VERTEX
  5
3562
330
2E2E
100
AcDbEntity
  8
0
100
AcDbVertex
100
AcDb2dVertex
 10
1.268536684148998
 20
4.451099645120288
 30
0.0
  0
VERTEX
  5
3563
330
2E2E
100
AcDbEntity
  8
0
100
AcDbVertex
100
AcDb2dVertex
 10
1.267219951865533
 20
4.4431992514195
 30
0.0
  0
SEQEND
  5
3564
330
2E2E
100
AcDbEntity
  8
0
  0
LINE
  5
2E33
330
1E
100
AcDbEntity
  8
0
100
AcDbLine
 10
1.574018573912778
 20
4.965941967954933
 30
0.0
 11
2.075693573912777
 21
4.965941967954933
 31
0.0
  0
LINE
  5
2E34
330
1E
100
AcDbEntity
  8
0
100
AcDbLine
 10
1.530566408558446
 20
4.968575432521863
 30
0.0
 11
1.530566408558446
 21
5.630891771104541
 31
0.0
  0
LINE
  5
2E35
330
1E
100
AcDbEntity
  8
0
100
AcDbLine
 10
0.3007384558025423
 20
4.965941967954933
 30
0.0
 11
0.8010967235190769
 21
4.965941967954933
 31
0.0
  0
LINE
  5
2E36
330
1E
100
AcDbEntity
  8
0
100
AcDbLine
 10
0.8445488888734082
 20
4.968575432521863
 30
0.0
 11
0.8445488888734082
 21
5.630891771104541
 31
0.0
  0
LINE
  5
2E37
330
1E
100
AcDbEntity
  8
0
100
AcDbLine
 10
0.2559695581647468
 20
4.968575432521863
 30
0.0
 11
0.2559695581647468
 21
5.630891771104541
 31
0.0
  0
LINE
  5
2E38
330
1E
100
AcDbEntity
  8
0
100
AcDbLine
 10
2.119145739267108
 20
4.968575432521863
 30
0.0
 11
2.119145739267108
 21
5.630891771104541
 31
0.0
  0
LINE
  5
2E39
330
1E
100
AcDbEntity
  8
0
100
AcDbLine
 10
1.574018573912778
 20
6.119399448269894
 30
0.0
 11
2.075693573912777
 21
6.119399448269894
 31
0.0
  0
LINE
  5
2E3A
330
1E
100
AcDbEntity
  8
0
100
AcDbLine
 10
1.530566408558446
 20
6.122032912836824
 30
0.0
 11
1.530566408558446
 21
6.7843492514195
 31
0.0
  0
LINE
  5
2E3B
330
1E
100
AcDbEntity
  8
0
100
AcDbLine
 10
0.3007384558025423
 20
6.119399448269894
 30
0.0
 11
0.8010967235190769
 21
6.119399448269894
 31
0.0
  0
LINE
  5
2E3C
330
1E
100
AcDbEntity
  8
0
100
AcDbLine
 10
0.8445488888734082
 20
6.122032912836824
 30
0.0
 11
0.8445488888734082
 21
6.7843492514195
 31
0.0
  0
LINE
  5
2E3D
330
1E
100
AcDbEntity
  8
0
100
AcDbLine
 10
0.2559695581647468
 20
6.122032912836824
 30
0.0
 11
0.2559695581647468
 21
6.7843492514195
 31
0.0
  0
LINE
  5
2E3E
330
1E
100
AcDbEntity
  8
0
100
AcDbLine
 10
2.119145739267108
 20
6.122032912836824
 30
0.0
 11
2.119145739267108
 21
6.7843492514195
 31
0.0
  0
LINE
  5
2E3F
330
1E
100
AcDbEntity
  8
0
100
AcDbLine
 10
1.081560699897029
 20
7.549370708112414
 30
0.0
 11
1.293554597534825
 21
7.549370708112414
 31
0.0
  0
LINE
  5
2E40
330
1E
100
AcDbEntity
  8
0
100
AcDbLine
 10
1.081560699897029
 20
7.429548070317139
 30
0.0
 11
1.293554597534825
 21
7.429548070317139
 31
0.0
  0
POLYLINE
  5
2E41
330
1E
100
AcDbEntity
  8
0
100
AcDb2dPolyline
 66
     1
 10
0.0
 20
0.0
 30
0.0
  0
VERTEX
  5
3565
330
2E41
100
AcDbEntity
  8
0
100
AcDbVertex
100
AcDb2dVertex
 10
1.293554597534825
 20
7.429548070317139
 30
0.0
  0
VERTEX
  5
3566
330
2E41
100
AcDbEntity
  8
0
100
AcDbVertex
100
AcDb2dVertex
 10
1.315939046353722
 20
7.45588271598643
 30
0.0
  0
VERTEX
  5
3567
330
2E41
100
AcDbEntity
  8
0
100
AcDbVertex
100
AcDb2dVertex
 10
1.32383944005451
 20
7.490117755356509
 30
0.0
  0
VERTEX
  5
3568
330
2E41
100
AcDbEntity
  8
0
100
AcDbVertex
100
AcDb2dVertex
 10
1.315939046353722
 20
7.523036062443123
 30
0.0
  0
VERTEX
  5
3569
330
2E41
100
AcDbEntity
  8
0
100
AcDbVertex
100
AcDb2dVertex
 10
1.293554597534825
 20
7.549370708112414
 30
0.0
  0
SEQEND
  5
356A
330
2E41
100
AcDbEntity
  8
0
  0
LINE
  5
2E48
330
1E
100
AcDbEntity
  8
0
100
AcDbLine
 10
0.2467524321804939
 20
7.292607912836825
 30
0.0
 11
0.248069164463959
 21
7.292607912836825
 31
0.0
  0
LINE
  5
2E49
330
1E
100
AcDbEntity
  8
0
100
AcDbLine
 10
0.248069164463959
 20
7.292607912836825
 30
0.0
 11
0.248069164463959
 21
7.686310865592729
 31
0.0
  0
LINE
  5
2E4A
330
1E
100
AcDbEntity
  8
0
100
AcDbLine
 10
0.2467524321804939
 20
7.686310865592729
 30
0.0
 11
0.248069164463959
 21
7.686310865592729
 31
0.0
  0
LINE
  5
2E4B
330
1E
100
AcDbEntity
  8
0
100
AcDbLine
 10
0.2467524321804939
 20
7.686310865592729
 30
0.0
 11
0.2467524321804939
 21
7.292607912836825
 31
0.0
  0
LINE
  5
2E4C
330
1E
100
AcDbEntity
  8
0
100
AcDbLine
 10
0.2572862904482109
 20
7.283390786852572
 30
0.0
 11
0.2572862904482109
 21
7.283390786852572
 31
0.0
  0
POLYLINE
  5
2E4D
330
1E
100
AcDbEntity
  8
0
100
AcDb2dPolyline
 66
     1
 10
0.0
 20
0.0
 30
0.0
  0
VERTEX
  5
356B
330
2E4D
100
AcDbEntity
  8
0
100
AcDbVertex
100
AcDb2dVertex
 10
0.2572862904482109
 20
7.283390786852571
 30
0.0
  0
VERTEX
  5
356C
330
2E4D
100
AcDbEntity
  8
0
100
AcDbVertex
100
AcDb2dVertex
 10
0.2507026290308878
 20
7.286024251419501
 30
0.0
  0
VERTEX
  5
356D
330
2E4D
100
AcDbEntity
  8
0
100
AcDbVertex
100
AcDb2dVertex
 10
0.248069164463959
 20
7.292607912836825
 30
0.0
  0
SEQEND
  5
356E
330
2E4D
100
AcDbEntity
  8
0
  0
POLYLINE
  5
2E52
330
1E
100
AcDbEntity
  8
0
100
AcDb2dPolyline
 66
     1
 10
0.0
 20
0.0
 30
0.0
  0
VERTEX
  5
356F
330
2E52
100
AcDbEntity
  8
0
100
AcDbVertex
100
AcDb2dVertex
 10
0.2572862904482109
 20
7.283390786852571
 30
0.0
  0
VERTEX
  5
3570
330
2E52
100
AcDbEntity
  8
0
100
AcDbVertex
100
AcDb2dVertex
 10
0.2493858967474236
 20
7.286024251419501
 30
0.0
  0
VERTEX
  5
3571
330
2E52
100
AcDbEntity
  8
0
100
AcDbVertex
100
AcDb2dVertex
 10
0.2467524321804944
 20
7.292607912836825
 30
0.0
  0
SEQEND
  5
3572
330
2E52
100
AcDbEntity
  8
0
  0
LINE
  5
2E57
330
1E
100
AcDbEntity
  8
0
100
AcDbLine
 10
1.127646329818289
 20
7.567804960080918
 30
0.0
 11
1.127646329818289
 21
7.566488227797453
 31
0.0
  0
LINE
  5
2E58
330
1E
100
AcDbEntity
  8
0
100
AcDbLine
 10
1.247468967613564
 20
7.566488227797453
 30
0.0
 11
1.127646329818289
 21
7.566488227797453
 31
0.0
  0
LINE
  5
2E59
330
1E
100
AcDbEntity
  8
0
100
AcDbLine
 10
1.247468967613564
 20
7.567804960080918
 30
0.0
 11
1.247468967613564
 21
7.566488227797453
 31
0.0
  0
LINE
  5
2E5A
330
1E
100
AcDbEntity
  8
0
100
AcDbLine
 10
1.247468967613564
 20
7.567804960080918
 30
0.0
 11
1.127646329818289
 21
7.567804960080918
 31
0.0
  0
LINE
  5
2E5B
330
1E
100
AcDbEntity
  8
0
100
AcDbLine
 10
1.284337471550573
 20
7.557271101813201
 30
0.0
 11
1.090777825881281
 21
7.557271101813201
 31
0.0
  0
POLYLINE
  5
2E5C
330
1E
100
AcDbEntity
  8
0
100
AcDb2dPolyline
 66
     1
 10
0.0
 20
0.0
 30
0.0
  0
VERTEX
  5
3573
330
2E5C
100
AcDbEntity
  8
0
100
AcDbVertex
100
AcDb2dVertex
 10
1.247468967613565
 20
7.566488227797453
 30
0.0
  0
VERTEX
  5
3574
330
2E5C
100
AcDbEntity
  8
0
100
AcDbVertex
100
AcDb2dVertex
 10
1.267219951865533
 20
7.563854763230525
 30
0.0
  0
VERTEX
  5
3575
330
2E5C
100
AcDbEntity
  8
0
100
AcDbVertex
100
AcDb2dVertex
 10
1.284337471550573
 20
7.557271101813201
 30
0.0
  0
SEQEND
  5
3576
330
2E5C
100
AcDbEntity
  8
0
  0
POLYLINE
  5
2E61
330
1E
100
AcDbEntity
  8
0
100
AcDb2dPolyline
 66
     1
 10
0.0
 20
0.0
 30
0.0
  0
VERTEX
  5
3577
330
2E61
100
AcDbEntity
  8
0
100
AcDbVertex
100
AcDb2dVertex
 10
1.090777825881281
 20
7.557271101813201
 30
0.0
  0
VERTEX
  5
3578
330
2E61
100
AcDbEntity
  8
0
100
AcDbVertex
100
AcDb2dVertex
 10
1.109212077849785
 20
7.563854763230525
 30
0.0
  0
VERTEX
  5
3579
330
2E61
100
AcDbEntity
  8
0
100
AcDbVertex
100
AcDb2dVertex
 10
1.127646329818289
 20
7.566488227797453
 30
0.0
  0
SEQEND
  5
357A
330
2E61
100
AcDbEntity
  8
0
  0
LINE
  5
2E66
330
1E
100
AcDbEntity
  8
0
100
AcDbLine
 10
1.284337471550573
 20
7.557271101813201
 30
0.0
 11
1.293554597534825
 21
7.549370708112414
 31
0.0
  0
LINE
  5
2E67
330
1E
100
AcDbEntity
  8
0
100
AcDbLine
 10
1.081560699897029
 20
7.549370708112414
 30
0.0
 11
1.090777825881281
 21
7.557271101813201
 31
0.0
  0
POLYLINE
  5
2E68
330
1E
100
AcDbEntity
  8
0
100
AcDb2dPolyline
 66
     1
 10
0.0
 20
0.0
 30
0.0
  0
VERTEX
  5
357B
330
2E68
100
AcDbEntity
  8
0
100
AcDbVertex
100
AcDb2dVertex
 10
1.08156069989703
 20
7.549370708112414
 30
0.0
  0
VERTEX
  5
357C
330
2E68
100
AcDbEntity
  8
0
100
AcDbVertex
100
AcDb2dVertex
 10
1.059176251078132
 20
7.523036062443123
 30
0.0
  0
VERTEX
  5
357D
330
2E68
100
AcDbEntity
  8
0
100
AcDbVertex
100
AcDb2dVertex
 10
1.051275857377344
 20
7.490117755356509
 30
0.0
  0
VERTEX
  5
357E
330
2E68
100
AcDbEntity
  8
0
100
AcDbVertex
100
AcDb2dVertex
 10
1.059176251078132
 20
7.45588271598643
 30
0.0
  0
VERTEX
  5
357F
330
2E68
100
AcDbEntity
  8
0
100
AcDbVertex
100
AcDb2dVertex
 10
1.08156069989703
 20
7.429548070317139
 30
0.0
  0
SEQEND
  5
3580
330
2E68
100
AcDbEntity
  8
0
  0
LINE
  5
2E6F
330
1E
100
AcDbEntity
  8
0
100
AcDbLine
 10
1.284337471550573
 20
7.421647676616351
 30
0.0
 11
1.090777825881281
 21
7.421647676616351
 31
0.0
  0
LINE
  5
2E70
330
1E
100
AcDbEntity
  8
0
100
AcDbLine
 10
1.293554597534825
 20
7.429548070317139
 30
0.0
 11
1.284337471550573
 21
7.421647676616351
 31
0.0
  0
LINE
  5
2E71
330
1E
100
AcDbEntity
  8
0
100
AcDbLine
 10
1.090777825881281
 20
7.421647676616351
 30
0.0
 11
1.081560699897029
 21
7.429548070317139
 31
0.0
  0
POLYLINE
  5
2E72
330
1E
100
AcDbEntity
  8
0
100
AcDb2dPolyline
 66
     1
 10
0.0
 20
0.0
 30
0.0
  0
VERTEX
  5
3581
330
2E72
100
AcDbEntity
  8
0
100
AcDbVertex
100
AcDb2dVertex
 10
1.127646329818289
 20
7.413747282915563
 30
0.0
  0
VERTEX
  5
3582
330
2E72
100
AcDbEntity
  8
0
100
AcDbVertex
100
AcDb2dVertex
 10
1.109212077849785
 20
7.415064015199028
 30
0.0
  0
VERTEX
  5
3583
330
2E72
100
AcDbEntity
  8
0
100
AcDbVertex
100
AcDb2dVertex
 10
1.090777825881281
 20
7.42164767661635
 30
0.0
  0
SEQEND
  5
3584
330
2E72
100
AcDbEntity
  8
0
  0
LINE
  5
2E77
330
1E
100
AcDbEntity
  8
0
100
AcDbLine
 10
1.247468967613564
 20
7.413747282915564
 30
0.0
 11
1.127646329818289
 21
7.413747282915564
 31
0.0
  0
POLYLINE
  5
2E78
330
1E
100
AcDbEntity
  8
0
100
AcDb2dPolyline
 66
     1
 10
0.0
 20
0.0
 30
0.0
  0
VERTEX
  5
3585
330
2E78
100
AcDbEntity
  8
0
100
AcDbVertex
100
AcDb2dVertex
 10
1.284337471550573
 20
7.42164767661635
 30
0.0
  0
VERTEX
  5
3586
330
2E78
100
AcDbEntity
  8
0
100
AcDbVertex
100
AcDb2dVertex
 10
1.267219951865533
 20
7.415064015199028
 30
0.0
  0
VERTEX
  5
3587
330
2E78
100
AcDbEntity
  8
0
100
AcDbVertex
100
AcDb2dVertex
 10
1.247468967613565
 20
7.413747282915563
 30
0.0
  0
SEQEND
  5
3588
330
2E78
100
AcDbEntity
  8
0
  0
LINE
  5
2E7D
330
1E
100
AcDbEntity
  8
0
100
AcDbLine
 10
1.127646329818289
 20
7.413747282915564
 30
0.0
 11
1.127646329818289
 21
7.412430550632098
 31
0.0
  0
LINE
  5
2E7E
330
1E
100
AcDbEntity
  8
0
100
AcDbLine
 10
1.127646329818289
 20
7.412430550632098
 30
0.0
 11
1.247468967613564
 21
7.412430550632098
 31
0.0
  0
LINE
  5
2E7F
330
1E
100
AcDbEntity
  8
0
100
AcDbLine
 10
1.247468967613564
 20
7.413747282915564
 30
0.0
 11
1.247468967613564
 21
7.412430550632098
 31
0.0
  0
LINE
  5
2E80
330
1E
100
AcDbEntity
  8
0
100
AcDbLine
 10
1.127646329818289
 20
7.640225235671469
 30
0.0
 11
1.127646329818289
 21
7.641541967954934
 31
0.0
  0
LINE
  5
2E81
330
1E
100
AcDbEntity
  8
0
100
AcDbLine
 10
1.247468967613564
 20
7.640225235671469
 30
0.0
 11
1.127646329818289
 21
7.640225235671469
 31
0.0
  0
LINE
  5
2E82
330
1E
100
AcDbEntity
  8
0
100
AcDbLine
 10
1.247468967613564
 20
7.641541967954934
 30
0.0
 11
1.247468967613564
 21
7.640225235671469
 31
0.0
  0
LINE
  5
2E83
330
1E
100
AcDbEntity
  8
0
100
AcDbLine
 10
1.247468967613564
 20
7.641541967954934
 30
0.0
 11
1.127646329818289
 21
7.641541967954934
 31
0.0
  0
POLYLINE
  5
2E84
330
1E
100
AcDbEntity
  8
0
100
AcDb2dPolyline
 66
     1
 10
0.0
 20
0.0
 30
0.0
  0
VERTEX
  5
3589
330
2E84
100
AcDbEntity
  8
0
100
AcDbVertex
100
AcDb2dVertex
 10
0.248069164463959
 20
7.686310865592728
 30
0.0
  0
VERTEX
  5
358A
330
2E84
100
AcDbEntity
  8
0
100
AcDbVertex
100
AcDb2dVertex
 10
0.2507026290308878
 20
7.692894527010052
 30
0.0
  0
VERTEX
  5
358B
330
2E84
100
AcDbEntity
  8
0
100
AcDbVertex
100
AcDb2dVertex
 10
0.2572862904482109
 20
7.695527991576982
 30
0.0
  0
SEQEND
  5
358C
330
2E84
100
AcDbEntity
  8
0
  0
LINE
  5
2E89
330
1E
100
AcDbEntity
  8
0
100
AcDbLine
 10
0.2572862904482109
 20
7.696844723860445
 30
0.0
 11
0.2572862904482109
 21
7.695527991576982
 31
0.0
  0
POLYLINE
  5
2E8A
330
1E
100
AcDbEntity
  8
0
100
AcDb2dPolyline
 66
     1
 10
0.0
 20
0.0
 30
0.0
  0
VERTEX
  5
358D
330
2E8A
100
AcDbEntity
  8
0
100
AcDbVertex
100
AcDb2dVertex
 10
0.2467524321804944
 20
7.686310865592728
 30
0.0
  0
VERTEX
  5
358E
330
2E8A
100
AcDbEntity
  8
0
100
AcDbVertex
100
AcDb2dVertex
 10
0.2493858967474236
 20
7.692894527010052
 30
0.0
  0
VERTEX
  5
358F
330
2E8A
100
AcDbEntity
  8
0
100
AcDbVertex
100
AcDb2dVertex
 10
0.2572862904482109
 20
7.696844723860445
 30
0.0
  0
SEQEND
  5
3590
330
2E8A
100
AcDbEntity
  8
0
  0
LINE
  5
2E8F
330
1E
100
AcDbEntity
  8
0
100
AcDbLine
 10
2.117829006983643
 20
7.696844723860445
 30
0.0
 11
2.117829006983643
 21
7.695527991576982
 31
0.0
  0
POLYLINE
  5
2E90
330
1E
100
AcDbEntity
  8
0
100
AcDb2dPolyline
 66
     1
 10
0.0
 20
0.0
 30
0.0
  0
VERTEX
  5
3591
330
2E90
100
AcDbEntity
  8
0
100
AcDbVertex
100
AcDb2dVertex
 10
2.117829006983644
 20
7.695527991576982
 30
0.0
  0
VERTEX
  5
3592
330
2E90
100
AcDbEntity
  8
0
100
AcDbVertex
100
AcDb2dVertex
 10
2.124412668400966
 20
7.692894527010052
 30
0.0
  0
VERTEX
  5
3593
330
2E90
100
AcDbEntity
  8
0
100
AcDbVertex
100
AcDb2dVertex
 10
2.12836286525136
 20
7.686310865592728
 30
0.0
  0
SEQEND
  5
3594
330
2E90
100
AcDbEntity
  8
0
  0
LINE
  5
2E95
330
1E
100
AcDbEntity
  8
0
100
AcDbLine
 10
2.12836286525136
 20
7.686310865592729
 30
0.0
 11
2.12836286525136
 21
7.686310865592729
 31
0.0
  0
POLYLINE
  5
2E96
330
1E
100
AcDbEntity
  8
0
100
AcDb2dPolyline
 66
     1
 10
0.0
 20
0.0
 30
0.0
  0
VERTEX
  5
3595
330
2E96
100
AcDbEntity
  8
0
100
AcDbVertex
100
AcDb2dVertex
 10
2.117829006983644
 20
7.696844723860445
 30
0.0
  0
VERTEX
  5
3596
330
2E96
100
AcDbEntity
  8
0
100
AcDbVertex
100
AcDb2dVertex
 10
2.125729400684431
 20
7.692894527010052
 30
0.0
  0
VERTEX
  5
3597
330
2E96
100
AcDbEntity
  8
0
100
AcDbVertex
100
AcDb2dVertex
 10
2.12836286525136
 20
7.686310865592728
 30
0.0
  0
SEQEND
  5
3598
330
2E96
100
AcDbEntity
  8
0
  0
LINE
  5
2E9B
330
1E
100
AcDbEntity
  8
0
100
AcDbLine
 10
2.12836286525136
 20
7.686310865592729
 30
0.0
 11
2.12836286525136
 21
7.292607912836825
 31
0.0
  0
LINE
  5
2E9C
330
1E
100
AcDbEntity
  8
0
100
AcDbLine
 10
2.12836286525136
 20
7.292607912836825
 30
0.0
 11
2.12836286525136
 21
7.292607912836825
 31
0.0
  0
LINE
  5
2E9D
330
1E
100
AcDbEntity
  8
0
100
AcDbLine
 10
2.12836286525136
 20
7.686310865592729
 30
0.0
 11
2.12836286525136
 21
7.292607912836825
 31
0.0
  0
POLYLINE
  5
2E9E
330
1E
100
AcDbEntity
  8
0
100
AcDb2dPolyline
 66
     1
 10
0.0
 20
0.0
 30
0.0
  0
VERTEX
  5
3599
330
2E9E
100
AcDbEntity
  8
0
100
AcDbVertex
100
AcDb2dVertex
 10
2.12836286525136
 20
7.292607912836825
 30
0.0
  0
VERTEX
  5
359A
330
2E9E
100
AcDbEntity
  8
0
100
AcDbVertex
100
AcDb2dVertex
 10
2.124412668400966
 20
7.286024251419501
 30
0.0
  0
VERTEX
  5
359B
330
2E9E
100
AcDbEntity
  8
0
100
AcDbVertex
100
AcDb2dVertex
 10
2.117829006983644
 20
7.283390786852571
 30
0.0
  0
SEQEND
  5
359C
330
2E9E
100
AcDbEntity
  8
0
  0
LINE
  5
2EA3
330
1E
100
AcDbEntity
  8
0
100
AcDbLine
 10
2.117829006983643
 20
7.283390786852572
 30
0.0
 11
2.117829006983643
 21
7.283390786852572
 31
0.0
  0
POLYLINE
  5
2EA4
330
1E
100
AcDbEntity
  8
0
100
AcDb2dPolyline
 66
     1
 10
0.0
 20
0.0
 30
0.0
  0
VERTEX
  5
359D
330
2EA4
100
AcDbEntity
  8
0
100
AcDbVertex
100
AcDb2dVertex
 10
2.12836286525136
 20
7.292607912836825
 30
0.0
  0
VERTEX
  5
359E
330
2EA4
100
AcDbEntity
  8
0
100
AcDbVertex
100
AcDb2dVertex
 10
2.125729400684431
 20
7.286024251419501
 30
0.0
  0
VERTEX
  5
359F
330
2EA4
100
AcDbEntity
  8
0
100
AcDbVertex
100
AcDb2dVertex
 10
2.117829006983644
 20
7.283390786852571
 30
0.0
  0
SEQEND
  5
35A0
330
2EA4
100
AcDbEntity
  8
0
  0
LINE
  5
2EA9
330
1E
100
AcDbEntity
  8
0
100
AcDbLine
 10
0.7550110935978172
 20
7.18463586559273
 30
0.0
 11
0.753694361314353
 21
7.18463586559273
 31
0.0
  0
LINE
  5
2EAA
330
1E
100
AcDbEntity
  8
0
100
AcDbLine
 10
0.7550110935978172
 20
7.18463586559273
 30
0.0
 11
0.762911487298605
 21
7.192536259293516
 31
0.0
  0
LINE
  5
2EAB
330
1E
100
AcDbEntity
  8
0
100
AcDbLine
 10
0.7615947550151399
 20
7.193852991576981
 30
0.0
 11
0.762911487298605
 21
7.192536259293516
 31
0.0
  0
LINE
  5
2EAC
330
1E
100
AcDbEntity
  8
0
100
AcDbLine
 10
0.753694361314353
 20
7.185952597876193
 30
0.0
 11
0.7615947550151399
 21
7.193852991576981
 31
0.0
  0
LINE
  5
2EAD
330
1E
100
AcDbEntity
  8
0
100
AcDbLine
 10
0.4982482983222268
 20
7.192536259293516
 30
0.0
 11
0.500881762889156
 21
7.193852991576981
 31
0.0
  0
LINE
  5
2EAE
330
1E
100
AcDbEntity
  8
0
100
AcDbLine
 10
0.4982482983222268
 20
7.192536259293516
 30
0.0
 11
0.5074654243064787
 21
7.18463586559273
 31
0.0
  0
LINE
  5
2EAF
330
1E
100
AcDbEntity
  8
0
100
AcDbLine
 10
0.5074654243064787
 20
7.18463586559273
 30
0.0
 11
0.5074654243064787
 21
7.18463586559273
 31
0.0
  0
LINE
  5
2EB0
330
1E
100
AcDbEntity
  8
0
100
AcDbLine
 10
0.500881762889156
 20
7.193852991576981
 30
0.0
 11
0.5087821565899429
 21
7.185952597876193
 31
0.0
  0
LINE
  5
2EB1
330
1E
100
AcDbEntity
  8
0
100
AcDbLine
 10
0.5074654243064787
 20
7.18463586559273
 30
0.0
 11
0.5074654243064787
 21
7.18463586559273
 31
0.0
  0
LINE
  5
2EB2
330
1E
100
AcDbEntity
  8
0
100
AcDbLine
 10
0.753694361314353
 20
7.18463586559273
 30
0.0
 11
0.7550110935978172
 21
7.18463586559273
 31
0.0
  0
LINE
  5
2EB3
330
1E
100
AcDbEntity
  8
0
100
AcDbLine
 10
1.867649873125376
 20
7.18463586559273
 30
0.0
 11
1.86896660540884
 21
7.18463586559273
 31
0.0
  0
LINE
  5
2EB4
330
1E
100
AcDbEntity
  8
0
100
AcDbLine
 10
1.86896660540884
 20
7.18463586559273
 30
0.0
 11
1.867649873125376
 21
7.18463586559273
 31
0.0
  0
LINE
  5
2EB5
330
1E
100
AcDbEntity
  8
0
100
AcDbLine
 10
1.86896660540884
 20
7.18463586559273
 30
0.0
 11
1.876866999109628
 21
7.192536259293516
 31
0.0
  0
LINE
  5
2EB6
330
1E
100
AcDbEntity
  8
0
100
AcDbLine
 10
1.875550266826163
 20
7.193852991576981
 30
0.0
 11
1.876866999109628
 21
7.192536259293516
 31
0.0
  0
LINE
  5
2EB7
330
1E
100
AcDbEntity
  8
0
100
AcDbLine
 10
1.866333140841911
 20
7.185952597876193
 30
0.0
 11
1.875550266826163
 21
7.193852991576981
 31
0.0
  0
LINE
  5
2EB8
330
1E
100
AcDbEntity
  8
0
100
AcDbLine
 10
1.61220381013325
 20
7.192536259293516
 30
0.0
 11
1.613520542416714
 21
7.193852991576981
 31
0.0
  0
LINE
  5
2EB9
330
1E
100
AcDbEntity
  8
0
100
AcDbLine
 10
1.61220381013325
 20
7.192536259293516
 30
0.0
 11
1.620104203834038
 21
7.18463586559273
 31
0.0
  0
LINE
  5
2EBA
330
1E
100
AcDbEntity
  8
0
100
AcDbLine
 10
1.621420936117502
 20
7.18463586559273
 30
0.0
 11
1.620104203834038
 21
7.18463586559273
 31
0.0
  0
LINE
  5
2EBB
330
1E
100
AcDbEntity
  8
0
100
AcDbLine
 10
1.613520542416714
 20
7.193852991576981
 30
0.0
 11
1.622737668400967
 21
7.185952597876193
 31
0.0
  0
LINE
  5
2EBC
330
1E
100
AcDbEntity
  8
0
100
AcDbLine
 10
1.620104203834038
 20
7.18463586559273
 30
0.0
 11
1.621420936117502
 21
7.18463586559273
 31
0.0
  0
LINE
  5
2EBD
330
1E
100
AcDbEntity
  8
0
100
AcDbLine
 10
0.296788258952148
 20
7.283390786852572
 30
0.0
 11
0.2572862904482109
 21
7.283390786852572
 31
0.0
  0
LINE
  5
2EBE
330
1E
100
AcDbEntity
  8
0
100
AcDbLine
 10
0.2572862904482109
 20
7.695527991576982
 30
0.0
 11
0.296788258952148
 21
7.695527991576982
 31
0.0
  0
LINE
  5
2EBF
330
1E
100
AcDbEntity
  8
0
100
AcDbLine
 10
0.500881762889156
 20
7.217554172679343
 30
0.0
 11
0.4982482983222268
 21
7.222821101813202
 31
0.0
  0
LINE
  5
2EC0
330
1E
100
AcDbEntity
  8
0
100
AcDbLine
 10
0.4982482983222268
 20
7.222821101813202
 30
0.0
 11
0.4982482983222268
 21
7.192536259293516
 31
0.0
  0
LINE
  5
2EC1
330
1E
100
AcDbEntity
  8
0
100
AcDbLine
 10
0.500881762889156
 20
7.217554172679343
 30
0.0
 11
0.500881762889156
 21
7.193852991576981
 31
0.0
  0
LINE
  5
2EC2
330
1E
100
AcDbEntity
  8
0
100
AcDbLine
 10
0.6931246762749828
 20
7.225454566380131
 30
0.0
 11
0.6918079439915177
 21
7.224137834096666
 31
0.0
  0
LINE
  5
2EC3
330
1E
100
AcDbEntity
  8
0
100
AcDbLine
 10
0.5680351093458489
 20
7.225454566380131
 30
0.0
 11
0.569351841629314
 21
7.224137834096666
 31
0.0
  0
LINE
  5
2EC4
330
1E
100
AcDbEntity
  8
0
100
AcDbLine
 10
0.762911487298605
 20
7.192536259293516
 30
0.0
 11
0.762911487298605
 21
7.222821101813202
 31
0.0
  0
LINE
  5
2EC5
330
1E
100
AcDbEntity
  8
0
100
AcDbLine
 10
0.762911487298605
 20
7.222821101813202
 30
0.0
 11
0.7615947550151399
 21
7.217554172679343
 31
0.0
  0
LINE
  5
2EC6
330
1E
100
AcDbEntity
  8
0
100
AcDbLine
 10
0.7615947550151399
 20
7.193852991576981
 30
0.0
 11
0.7615947550151399
 21
7.217554172679343
 31
0.0
  0
LINE
  5
2EC7
330
1E
100
AcDbEntity
  8
0
100
AcDbLine
 10
1.26326975501514
 20
7.267589999450997
 30
0.0
 11
1.264586487298604
 21
7.266273267167532
 31
0.0
  0
POLYLINE
  5
2EC8
330
1E
100
AcDbEntity
  8
0
100
AcDb2dPolyline
 66
     1
 10
0.0
 20
0.0
 30
0.0
  0
VERTEX
  5
35A1
330
2EC8
100
AcDbEntity
  8
0
100
AcDbVertex
100
AcDb2dVertex
 10
1.258002825881281
 20
7.267589999450997
 30
0.0
  0
VERTEX
  5
35A2
330
2EC8
100
AcDbEntity
  8
0
100
AcDbVertex
100
AcDb2dVertex
 10
1.26063629044821
 20
7.267589999450997
 30
0.0
  0
VERTEX
  5
35A3
330
2EC8
100
AcDbEntity
  8
0
100
AcDbVertex
100
AcDb2dVertex
 10
1.263269755015139
 20
7.267589999450997
 30
0.0
  0
SEQEND
  5
35A4
330
2EC8
100
AcDbEntity
  8
0
  0
POLYLINE
  5
2ECD
330
1E
100
AcDbEntity
  8
0
100
AcDb2dPolyline
 66
     1
 10
0.0
 20
0.0
 30
0.0
  0
VERTEX
  5
35A5
330
2ECD
100
AcDbEntity
  8
0
100
AcDbVertex
100
AcDb2dVertex
 10
1.247468967613565
 20
7.412430550632098
 30
0.0
  0
VERTEX
  5
35A6
330
2ECD
100
AcDbEntity
  8
0
100
AcDbVertex
100
AcDb2dVertex
 10
1.255369361314352
 20
7.413747282915563
 30
0.0
  0
VERTEX
  5
35A7
330
2ECD
100
AcDbEntity
  8
0
100
AcDbVertex
100
AcDb2dVertex
 10
1.263269755015139
 20
7.415064015199028
 30
0.0
  0
SEQEND
  5
35A8
330
2ECD
100
AcDbEntity
  8
0
  0
LINE
  5
2ED2
330
1E
100
AcDbEntity
  8
0
100
AcDbLine
 10
1.26326975501514
 20
7.415064015199028
 30
0.0
 11
1.264586487298604
 21
7.413747282915564
 31
0.0
  0
POLYLINE
  5
2ED3
330
1E
100
AcDbEntity
  8
0
100
AcDb2dPolyline
 66
     1
 10
0.0
 20
0.0
 30
0.0
  0
VERTEX
  5
35A9
330
2ED3
100
AcDbEntity
  8
0
100
AcDbVertex
100
AcDb2dVertex
 10
1.247468967613565
 20
7.567804960080918
 30
0.0
  0
VERTEX
  5
35AA
330
2ED3
100
AcDbEntity
  8
0
100
AcDbVertex
100
AcDb2dVertex
 10
1.279070542416714
 20
7.561221298663594
 30
0.0
  0
VERTEX
  5
35AB
330
2ED3
100
AcDbEntity
  8
0
100
AcDbVertex
100
AcDb2dVertex
 10
1.305405188086006
 20
7.541470314411627
 30
0.0
  0
VERTEX
  5
35AC
330
2ED3
100
AcDbEntity
  8
0
100
AcDbVertex
100
AcDb2dVertex
 10
1.322522707771045
 20
7.513818936458871
 30
0.0
  0
VERTEX
  5
35AD
330
2ED3
100
AcDbEntity
  8
0
100
AcDbVertex
100
AcDb2dVertex
 10
1.325156172337974
 20
7.482217361655722
 30
0.0
  0
VERTEX
  5
35AE
330
2ED3
100
AcDbEntity
  8
0
100
AcDbVertex
100
AcDb2dVertex
 10
1.315939046353722
 20
7.450615786852571
 30
0.0
  0
VERTEX
  5
35AF
330
2ED3
100
AcDbEntity
  8
0
100
AcDbVertex
100
AcDb2dVertex
 10
1.293554597534825
 20
7.426914605750209
 30
0.0
  0
VERTEX
  5
35B0
330
2ED3
100
AcDbEntity
  8
0
100
AcDbVertex
100
AcDb2dVertex
 10
1.264586487298605
 20
7.413747282915563
 30
0.0
  0
SEQEND
  5
35B1
330
2ED3
100
AcDbEntity
  8
0
  0
POLYLINE
  5
2EDD
330
1E
100
AcDbEntity
  8
0
100
AcDb2dPolyline
 66
     1
 10
0.0
 20
0.0
 30
0.0
  0
VERTEX
  5
35B2
330
2EDD
100
AcDbEntity
  8
0
100
AcDbVertex
100
AcDb2dVertex
 10
1.247468967613565
 20
7.640225235671469
 30
0.0
  0
VERTEX
  5
35B3
330
2EDD
100
AcDbEntity
  8
0
100
AcDbVertex
100
AcDb2dVertex
 10
1.288287668400966
 20
7.63495830653761
 30
0.0
  0
VERTEX
  5
35B4
330
2EDD
100
AcDbEntity
  8
0
100
AcDbVertex
100
AcDb2dVertex
 10
1.326472904621438
 20
7.617840786852571
 30
0.0
  0
VERTEX
  5
35B5
330
2EDD
100
AcDbEntity
  8
0
100
AcDbVertex
100
AcDb2dVertex
 10
1.358074479424588
 20
7.59150614118328
 30
0.0
  0
VERTEX
  5
35B6
330
2EDD
100
AcDbEntity
  8
0
100
AcDbVertex
100
AcDb2dVertex
 10
1.38177566052695
 20
7.557271101813201
 30
0.0
  0
VERTEX
  5
35B7
330
2EDD
100
AcDbEntity
  8
0
100
AcDbVertex
100
AcDb2dVertex
 10
1.394942983361596
 20
7.51908586559273
 30
0.0
  0
VERTEX
  5
35B8
330
2EDD
100
AcDbEntity
  8
0
100
AcDbVertex
100
AcDb2dVertex
 10
1.397576447928526
 20
7.476950432521864
 30
0.0
  0
VERTEX
  5
35B9
330
2EDD
100
AcDbEntity
  8
0
100
AcDbVertex
100
AcDb2dVertex
 10
1.388359321944273
 20
7.437448464017926
 30
0.0
  0
VERTEX
  5
35BA
330
2EDD
100
AcDbEntity
  8
0
100
AcDbVertex
100
AcDb2dVertex
 10
1.368608337692305
 20
7.400579960080918
 30
0.0
  0
VERTEX
  5
35BB
330
2EDD
100
AcDbEntity
  8
0
100
AcDbVertex
100
AcDb2dVertex
 10
1.339640227456084
 20
7.370295117561232
 30
0.0
  0
VERTEX
  5
35BC
330
2EDD
100
AcDbEntity
  8
0
100
AcDbVertex
100
AcDb2dVertex
 10
1.304088455802541
 20
7.350544133309265
 30
0.0
  0
VERTEX
  5
35BD
330
2EDD
100
AcDbEntity
  8
0
100
AcDbVertex
100
AcDb2dVertex
 10
1.264586487298605
 20
7.340010275041548
 30
0.0
  0
SEQEND
  5
35BE
330
2EDD
100
AcDbEntity
  8
0
  0
LINE
  5
2EEB
330
1E
100
AcDbEntity
  8
0
100
AcDbLine
 10
1.264586487298604
 20
7.340010275041549
 30
0.0
 11
1.267219951865533
 21
7.338693542758083
 31
0.0
  0
POLYLINE
  5
2EEC
330
1E
100
AcDbEntity
  8
0
100
AcDb2dPolyline
 66
     1
 10
0.0
 20
0.0
 30
0.0
  0
VERTEX
  5
35BF
330
2EEC
100
AcDbEntity
  8
0
100
AcDbVertex
100
AcDb2dVertex
 10
1.267219951865533
 20
7.338693542758083
 30
0.0
  0
VERTEX
  5
35C0
330
2EEC
100
AcDbEntity
  8
0
100
AcDbVertex
100
AcDb2dVertex
 10
1.308038652652935
 20
7.3492274010258
 30
0.0
  0
VERTEX
  5
35C1
330
2EEC
100
AcDbEntity
  8
0
100
AcDbVertex
100
AcDb2dVertex
 10
1.343590424306478
 20
7.371611849844699
 30
0.0
  0
VERTEX
  5
35C2
330
2EEC
100
AcDbEntity
  8
0
100
AcDbVertex
100
AcDb2dVertex
 10
1.371241802259234
 20
7.401896692364381
 30
0.0
  0
VERTEX
  5
35C3
330
2EEC
100
AcDbEntity
  8
0
100
AcDbVertex
100
AcDb2dVertex
 10
1.390992786511203
 20
7.438765196301389
 30
0.0
  0
VERTEX
  5
35C4
330
2EEC
100
AcDbEntity
  8
0
100
AcDbVertex
100
AcDb2dVertex
 10
1.400209912495455
 20
7.478267164805327
 30
0.0
  0
VERTEX
  5
35C5
330
2EEC
100
AcDbEntity
  8
0
100
AcDbVertex
100
AcDb2dVertex
 10
1.397576447928526
 20
7.520402597876193
 30
0.0
  0
VERTEX
  5
35C6
330
2EEC
100
AcDbEntity
  8
0
100
AcDbVertex
100
AcDb2dVertex
 10
1.383092392810415
 20
7.559904566380131
 30
0.0
  0
VERTEX
  5
35C7
330
2EEC
100
AcDbEntity
  8
0
100
AcDbVertex
100
AcDb2dVertex
 10
1.359391211708053
 20
7.594139605750209
 30
0.0
  0
VERTEX
  5
35C8
330
2EEC
100
AcDbEntity
  8
0
100
AcDbVertex
100
AcDb2dVertex
 10
1.326472904621438
 20
7.619157519136036
 30
0.0
  0
VERTEX
  5
35C9
330
2EEC
100
AcDbEntity
  8
0
100
AcDbVertex
100
AcDb2dVertex
 10
1.289604400684431
 20
7.636275038821075
 30
0.0
  0
VERTEX
  5
35CA
330
2EEC
100
AcDbEntity
  8
0
100
AcDbVertex
100
AcDb2dVertex
 10
1.247468967613565
 20
7.641541967954934
 30
0.0
  0
SEQEND
  5
35CB
330
2EEC
100
AcDbEntity
  8
0
  0
LINE
  5
2EFA
330
1E
100
AcDbEntity
  8
0
100
AcDbLine
 10
2.211316999109628
 20
7.706061849844698
 30
0.0
 11
2.211316999109628
 21
7.27417366086832
 31
0.0
  0
POLYLINE
  5
2EFB
330
1E
100
AcDbEntity
  8
0
100
AcDb2dPolyline
 66
     1
 10
0.0
 20
0.0
 30
0.0
  0
VERTEX
  5
35CC
330
2EFB
100
AcDbEntity
  8
0
100
AcDbVertex
100
AcDb2dVertex
 10
2.211316999109627
 20
7.706061849844697
 30
0.0
  0
VERTEX
  5
35CD
330
2EFB
100
AcDbEntity
  8
0
100
AcDbVertex
100
AcDb2dVertex
 10
2.207366802259234
 20
7.720545904962808
 30
0.0
  0
VERTEX
  5
35CE
330
2EFB
100
AcDbEntity
  8
0
100
AcDbVertex
100
AcDb2dVertex
 10
2.195516211708053
 20
7.73239649551399
 30
0.0
  0
VERTEX
  5
35CF
330
2EFB
100
AcDbEntity
  8
0
100
AcDbVertex
100
AcDb2dVertex
 10
2.181032156589942
 20
7.736346692364381
 30
0.0
  0
SEQEND
  5
35D0
330
2EFB
100
AcDbEntity
  8
0
  0
LINE
  5
2F01
330
1E
100
AcDbEntity
  8
0
100
AcDbLine
 10
0.1940831408419115
 20
7.736346692364381
 30
0.0
 11
2.181032156589943
 21
7.736346692364381
 31
0.0
  0
POLYLINE
  5
2F02
330
1E
100
AcDbEntity
  8
0
100
AcDb2dPolyline
 66
     1
 10
0.0
 20
0.0
 30
0.0
  0
VERTEX
  5
35D1
330
2F02
100
AcDbEntity
  8
0
100
AcDbVertex
100
AcDb2dVertex
 10
0.1940831408419119
 20
7.736346692364381
 30
0.0
  0
VERTEX
  5
35D2
330
2F02
100
AcDbEntity
  8
0
100
AcDbVertex
100
AcDb2dVertex
 10
0.1795990857238014
 20
7.73239649551399
 30
0.0
  0
VERTEX
  5
35D3
330
2F02
100
AcDbEntity
  8
0
100
AcDbVertex
100
AcDb2dVertex
 10
0.1690652274560849
 20
7.720545904962808
 30
0.0
  0
VERTEX
  5
35D4
330
2F02
100
AcDbEntity
  8
0
100
AcDbVertex
100
AcDb2dVertex
 10
0.1637982983222268
 20
7.706061849844697
 30
0.0
  0
SEQEND
  5
35D5
330
2F02
100
AcDbEntity
  8
0
  0
LINE
  5
2F08
330
1E
100
AcDbEntity
  8
0
100
AcDbLine
 10
0.1637982983222264
 20
7.27417366086832
 30
0.0
 11
0.1637982983222264
 21
7.706061849844698
 31
0.0
  0
POLYLINE
  5
2F09
330
1E
100
AcDbEntity
  8
0
100
AcDb2dPolyline
 66
     1
 10
0.0
 20
0.0
 30
0.0
  0
VERTEX
  5
35D6
330
2F09
100
AcDbEntity
  8
0
100
AcDbVertex
100
AcDb2dVertex
 10
0.1637982983222268
 20
7.274173660868319
 30
0.0
  0
VERTEX
  5
35D7
330
2F09
100
AcDbEntity
  8
0
100
AcDbVertex
100
AcDb2dVertex
 10
0.1690652274560849
 20
7.258372873466745
 30
0.0
  0
VERTEX
  5
35D8
330
2F09
100
AcDbEntity
  8
0
100
AcDbVertex
100
AcDb2dVertex
 10
0.1795990857238014
 20
7.247839015199028
 30
0.0
  0
VERTEX
  5
35D9
330
2F09
100
AcDbEntity
  8
0
100
AcDbVertex
100
AcDb2dVertex
 10
0.1940831408419119
 20
7.243888818348635
 30
0.0
  0
SEQEND
  5
35DA
330
2F09
100
AcDbEntity
  8
0
  0
LINE
  5
2F0F
330
1E
100
AcDbEntity
  8
0
100
AcDbLine
 10
1.105261880999392
 20
7.243888818348635
 30
0.0
 11
0.1940831408419115
 21
7.243888818348635
 31
0.0
  0
LINE
  5
2F10
330
1E
100
AcDbEntity
  8
0
100
AcDbLine
 10
1.105261880999392
 20
7.283390786852572
 30
0.0
 11
1.105261880999392
 21
7.243888818348635
 31
0.0
  0
LINE
  5
2F11
330
1E
100
AcDbEntity
  8
0
100
AcDbLine
 10
0.2572862904482109
 20
7.283390786852572
 30
0.0
 11
1.105261880999392
 21
7.283390786852572
 31
0.0
  0
LINE
  5
2F12
330
1E
100
AcDbEntity
  8
0
100
AcDbLine
 10
0.2572862904482109
 20
7.696844723860445
 30
0.0
 11
2.117829006983643
 21
7.696844723860445
 31
0.0
  0
LINE
  5
2F13
330
1E
100
AcDbEntity
  8
0
100
AcDbLine
 10
1.269853416432463
 20
7.283390786852572
 30
0.0
 11
2.117829006983643
 21
7.283390786852572
 31
0.0
  0
LINE
  5
2F14
330
1E
100
AcDbEntity
  8
0
100
AcDbLine
 10
1.269853416432463
 20
7.283390786852572
 30
0.0
 11
1.269853416432463
 21
7.243888818348635
 31
0.0
  0
LINE
  5
2F15
330
1E
100
AcDbEntity
  8
0
100
AcDbLine
 10
2.181032156589943
 20
7.243888818348635
 30
0.0
 11
1.269853416432463
 21
7.243888818348635
 31
0.0
  0
POLYLINE
  5
2F16
330
1E
100
AcDbEntity
  8
0
100
AcDb2dPolyline
 66
     1
 10
0.0
 20
0.0
 30
0.0
  0
VERTEX
  5
35DB
330
2F16
100
AcDbEntity
  8
0
100
AcDbVertex
100
AcDb2dVertex
 10
2.181032156589942
 20
7.243888818348635
 30
0.0
  0
VERTEX
  5
35DC
330
2F16
100
AcDbEntity
  8
0
100
AcDbVertex
100
AcDb2dVertex
 10
2.195516211708053
 20
7.247839015199028
 30
0.0
  0
VERTEX
  5
35DD
330
2F16
100
AcDbEntity
  8
0
100
AcDbVertex
100
AcDb2dVertex
 10
2.207366802259234
 20
7.258372873466745
 30
0.0
  0
VERTEX
  5
35DE
330
2F16
100
AcDbEntity
  8
0
100
AcDbVertex
100
AcDb2dVertex
 10
2.211316999109627
 20
7.274173660868319
 30
0.0
  0
SEQEND
  5
35DF
330
2F16
100
AcDbEntity
  8
0
  0
LINE
  5
2F1C
330
1E
100
AcDbEntity
  8
0
100
AcDbLine
 10
0.2981049912356131
 20
7.284707519136036
 30
0.0
 11
1.107895345566321
 21
7.284707519136036
 31
0.0
  0
LINE
  5
2F1D
330
1E
100
AcDbEntity
  8
0
100
AcDbLine
 10
0.2981049912356131
 20
7.284707519136036
 30
0.0
 11
0.296788258952148
 21
7.283390786852572
 31
0.0
  0
LINE
  5
2F1E
330
1E
100
AcDbEntity
  8
0
100
AcDbLine
 10
1.105261880999392
 20
7.283390786852572
 30
0.0
 11
1.107895345566321
 21
7.284707519136036
 31
0.0
  0
POLYLINE
  5
2F1F
330
1E
100
AcDbEntity
  8
0
100
AcDb2dPolyline
 66
     1
 10
0.0
 20
0.0
 30
0.0
  0
VERTEX
  5
35E0
330
2F1F
100
AcDbEntity
  8
0
100
AcDbVertex
100
AcDb2dVertex
 10
1.127646329818289
 20
7.641541967954934
 30
0.0
  0
VERTEX
  5
35E1
330
2F1F
100
AcDbEntity
  8
0
100
AcDbVertex
100
AcDb2dVertex
 10
1.086827629030888
 20
7.636275038821075
 30
0.0
  0
VERTEX
  5
35E2
330
2F1F
100
AcDbEntity
  8
0
100
AcDbVertex
100
AcDb2dVertex
 10
1.048642392810415
 20
7.619157519136036
 30
0.0
  0
VERTEX
  5
35E3
330
2F1F
100
AcDbEntity
  8
0
100
AcDbVertex
100
AcDb2dVertex
 10
1.015724085723801
 20
7.594139605750209
 30
0.0
  0
VERTEX
  5
35E4
330
2F1F
100
AcDbEntity
  8
0
100
AcDbVertex
100
AcDb2dVertex
 10
0.9920229046214391
 20
7.559904566380131
 30
0.0
  0
VERTEX
  5
35E5
330
2F1F
100
AcDbEntity
  8
0
100
AcDbVertex
100
AcDb2dVertex
 10
0.9788555817867937
 20
7.520402597876193
 30
0.0
  0
VERTEX
  5
35E6
330
2F1F
100
AcDbEntity
  8
0
100
AcDbVertex
100
AcDb2dVertex
 10
0.9762221172198643
 20
7.478267164805327
 30
0.0
  0
VERTEX
  5
35E7
330
2F1F
100
AcDbEntity
  8
0
100
AcDbVertex
100
AcDb2dVertex
 10
0.9841225109206517
 20
7.438765196301389
 30
0.0
  0
VERTEX
  5
35E8
330
2F1F
100
AcDbEntity
  8
0
100
AcDbVertex
100
AcDb2dVertex
 10
1.00387349517262
 20
7.401896692364381
 30
0.0
  0
VERTEX
  5
35E9
330
2F1F
100
AcDbEntity
  8
0
100
AcDbVertex
100
AcDb2dVertex
 10
1.031524873125376
 20
7.371611849844699
 30
0.0
  0
VERTEX
  5
35EA
330
2F1F
100
AcDbEntity
  8
0
100
AcDbVertex
100
AcDb2dVertex
 10
1.067076644778919
 20
7.3492274010258
 30
0.0
  0
VERTEX
  5
35EB
330
2F1F
100
AcDbEntity
  8
0
100
AcDbVertex
100
AcDb2dVertex
 10
1.107895345566321
 20
7.338693542758083
 30
0.0
  0
SEQEND
  5
35EC
330
2F1F
100
AcDbEntity
  8
0
  0
LINE
  5
2F2D
330
1E
100
AcDbEntity
  8
0
100
AcDbLine
 10
1.107895345566321
 20
7.338693542758083
 30
0.0
 11
1.11052881013325
 21
7.340010275041549
 31
0.0
  0
POLYLINE
  5
2F2E
330
1E
100
AcDbEntity
  8
0
100
AcDb2dPolyline
 66
     1
 10
0.0
 20
0.0
 30
0.0
  0
VERTEX
  5
35ED
330
2F2E
100
AcDbEntity
  8
0
100
AcDbVertex
100
AcDb2dVertex
 10
1.11052881013325
 20
7.340010275041548
 30
0.0
  0
VERTEX
  5
35EE
330
2F2E
100
AcDbEntity
  8
0
100
AcDbVertex
100
AcDb2dVertex
 10
1.071026841629313
 20
7.350544133309265
 30
0.0
  0
VERTEX
  5
35EF
330
2F2E
100
AcDbEntity
  8
0
100
AcDbVertex
100
AcDb2dVertex
 10
1.035475069975769
 20
7.370295117561232
 30
0.0
  0
VERTEX
  5
35F0
330
2F2E
100
AcDbEntity
  8
0
100
AcDbVertex
100
AcDb2dVertex
 10
1.006506959739549
 20
7.400579960080918
 30
0.0
  0
VERTEX
  5
35F1
330
2F2E
100
AcDbEntity
  8
0
100
AcDbVertex
100
AcDb2dVertex
 10
0.9867559754875809
 20
7.437448464017926
 30
0.0
  0
VERTEX
  5
35F2
330
2F2E
100
AcDbEntity
  8
0
100
AcDbVertex
100
AcDb2dVertex
 10
0.977538849503329
 20
7.476950432521864
 30
0.0
  0
VERTEX
  5
35F3
330
2F2E
100
AcDbEntity
  8
0
100
AcDbVertex
100
AcDb2dVertex
 10
0.9801723140702582
 20
7.51908586559273
 30
0.0
  0
VERTEX
  5
35F4
330
2F2E
100
AcDbEntity
  8
0
100
AcDbVertex
100
AcDb2dVertex
 10
0.9933396369049042
 20
7.557271101813201
 30
0.0
  0
VERTEX
  5
35F5
330
2F2E
100
AcDbEntity
  8
0
100
AcDbVertex
100
AcDb2dVertex
 10
1.017040818007266
 20
7.59150614118328
 30
0.0
  0
VERTEX
  5
35F6
330
2F2E
100
AcDbEntity
  8
0
100
AcDbVertex
100
AcDb2dVertex
 10
1.048642392810415
 20
7.617840786852571
 30
0.0
  0
VERTEX
  5
35F7
330
2F2E
100
AcDbEntity
  8
0
100
AcDbVertex
100
AcDb2dVertex
 10
1.086827629030888
 20
7.63495830653761
 30
0.0
  0
VERTEX
  5
35F8
330
2F2E
100
AcDbEntity
  8
0
100
AcDbVertex
100
AcDb2dVertex
 10
1.127646329818289
 20
7.640225235671469
 30
0.0
  0
SEQEND
  5
35F9
330
2F2E
100
AcDbEntity
  8
0
  0
LINE
  5
2F3C
330
1E
100
AcDbEntity
  8
0
100
AcDbLine
 10
1.11052881013325
 20
7.340010275041549
 30
0.0
 11
1.11052881013325
 21
7.413747282915564
 31
0.0
  0
POLYLINE
  5
2F3D
330
1E
100
AcDbEntity
  8
0
100
AcDb2dPolyline
 66
     1
 10
0.0
 20
0.0
 30
0.0
  0
VERTEX
  5
35FA
330
2F3D
100
AcDbEntity
  8
0
100
AcDbVertex
100
AcDb2dVertex
 10
1.11052881013325
 20
7.413747282915563
 30
0.0
  0
VERTEX
  5
35FB
330
2F3D
100
AcDbEntity
  8
0
100
AcDbVertex
100
AcDb2dVertex
 10
1.08156069989703
 20
7.426914605750209
 30
0.0
  0
VERTEX
  5
35FC
330
2F3D
100
AcDbEntity
  8
0
100
AcDbVertex
100
AcDb2dVertex
 10
1.060492983361597
 20
7.450615786852571
 30
0.0
  0
VERTEX
  5
35FD
330
2F3D
100
AcDbEntity
  8
0
100
AcDbVertex
100
AcDb2dVertex
 10
1.04995912509388
 20
7.482217361655722
 30
0.0
  0
VERTEX
  5
35FE
330
2F3D
100
AcDbEntity
  8
0
100
AcDbVertex
100
AcDb2dVertex
 10
1.053909321944273
 20
7.513818936458871
 30
0.0
  0
VERTEX
  5
35FF
330
2F3D
100
AcDbEntity
  8
0
100
AcDbVertex
100
AcDb2dVertex
 10
1.069710109345848
 20
7.541470314411627
 30
0.0
  0
VERTEX
  5
3600
330
2F3D
100
AcDbEntity
  8
0
100
AcDbVertex
100
AcDb2dVertex
 10
1.09604475501514
 20
7.561221298663594
 30
0.0
  0
VERTEX
  5
3601
330
2F3D
100
AcDbEntity
  8
0
100
AcDbVertex
100
AcDb2dVertex
 10
1.127646329818289
 20
7.567804960080918
 30
0.0
  0
SEQEND
  5
3602
330
2F3D
100
AcDbEntity
  8
0
  0
LINE
  5
2F47
330
1E
100
AcDbEntity
  8
0
100
AcDbLine
 10
1.264586487298604
 20
7.413747282915564
 30
0.0
 11
1.264586487298604
 21
7.340010275041549
 31
0.0
  0
LINE
  5
2F48
330
1E
100
AcDbEntity
  8
0
100
AcDbLine
 10
1.11052881013325
 20
7.413747282915564
 30
0.0
 11
1.111845542416714
 21
7.415064015199028
 31
0.0
  0
POLYLINE
  5
2F49
330
1E
100
AcDbEntity
  8
0
100
AcDb2dPolyline
 66
     1
 10
0.0
 20
0.0
 30
0.0
  0
VERTEX
  5
3603
330
2F49
100
AcDbEntity
  8
0
100
AcDbVertex
100
AcDb2dVertex
 10
1.111845542416714
 20
7.415064015199028
 30
0.0
  0
VERTEX
  5
3604
330
2F49
100
AcDbEntity
  8
0
100
AcDbVertex
100
AcDb2dVertex
 10
1.119745936117502
 20
7.413747282915563
 30
0.0
  0
VERTEX
  5
3605
330
2F49
100
AcDbEntity
  8
0
100
AcDbVertex
100
AcDb2dVertex
 10
1.127646329818289
 20
7.412430550632098
 30
0.0
  0
SEQEND
  5
3606
330
2F49
100
AcDbEntity
  8
0
  0
POLYLINE
  5
2F4E
330
1E
100
AcDbEntity
  8
0
100
AcDb2dPolyline
 66
     1
 10
0.0
 20
0.0
 30
0.0
  0
VERTEX
  5
3607
330
2F4E
100
AcDbEntity
  8
0
100
AcDbVertex
100
AcDb2dVertex
 10
1.111845542416714
 20
7.267589999450997
 30
0.0
  0
VERTEX
  5
3608
330
2F4E
100
AcDbEntity
  8
0
100
AcDbVertex
100
AcDb2dVertex
 10
1.114479006983644
 20
7.267589999450997
 30
0.0
  0
VERTEX
  5
3609
330
2F4E
100
AcDbEntity
  8
0
100
AcDbVertex
100
AcDb2dVertex
 10
1.117112471550572
 20
7.267589999450997
 30
0.0
  0
SEQEND
  5
360A
330
2F4E
100
AcDbEntity
  8
0
  0
LINE
  5
2F53
330
1E
100
AcDbEntity
  8
0
100
AcDbLine
 10
1.26326975501514
 20
7.415064015199028
 30
0.0
 11
1.26326975501514
 21
7.267589999450997
 31
0.0
  0
LINE
  5
2F54
330
1E
100
AcDbEntity
  8
0
100
AcDbLine
 10
1.111845542416714
 20
7.415064015199028
 30
0.0
 11
1.111845542416714
 21
7.267589999450997
 31
0.0
  0
LINE
  5
2F55
330
1E
100
AcDbEntity
  8
0
100
AcDbLine
 10
1.11052881013325
 20
7.266273267167532
 30
0.0
 11
1.111845542416714
 21
7.267589999450997
 31
0.0
  0
LINE
  5
2F56
330
1E
100
AcDbEntity
  8
0
100
AcDbLine
 10
1.613520542416714
 20
7.217554172679343
 30
0.0
 11
1.61220381013325
 21
7.222821101813202
 31
0.0
  0
LINE
  5
2F57
330
1E
100
AcDbEntity
  8
0
100
AcDbLine
 10
1.61220381013325
 20
7.222821101813202
 30
0.0
 11
1.61220381013325
 21
7.192536259293516
 31
0.0
  0
LINE
  5
2F58
330
1E
100
AcDbEntity
  8
0
100
AcDbLine
 10
1.613520542416714
 20
7.217554172679343
 30
0.0
 11
1.613520542416714
 21
7.193852991576981
 31
0.0
  0
LINE
  5
2F59
330
1E
100
AcDbEntity
  8
0
100
AcDbLine
 10
1.807080188086006
 20
7.225454566380131
 30
0.0
 11
1.805763455802542
 21
7.224137834096666
 31
0.0
  0
LINE
  5
2F5A
330
1E
100
AcDbEntity
  8
0
100
AcDbLine
 10
1.681990621156872
 20
7.225454566380131
 30
0.0
 11
1.683307353440336
 21
7.224137834096666
 31
0.0
  0
LINE
  5
2F5B
330
1E
100
AcDbEntity
  8
0
100
AcDbLine
 10
1.876866999109628
 20
7.192536259293516
 30
0.0
 11
1.876866999109628
 21
7.222821101813202
 31
0.0
  0
LINE
  5
2F5C
330
1E
100
AcDbEntity
  8
0
100
AcDbLine
 10
1.876866999109628
 20
7.222821101813202
 30
0.0
 11
1.875550266826163
 21
7.217554172679343
 31
0.0
  0
LINE
  5
2F5D
330
1E
100
AcDbEntity
  8
0
100
AcDbLine
 10
1.875550266826163
 20
7.193852991576981
 30
0.0
 11
1.875550266826163
 21
7.217554172679343
 31
0.0
  0
LINE
  5
2F5E
330
1E
100
AcDbEntity
  8
0
100
AcDbLine
 10
1.267219951865533
 20
7.284707519136036
 30
0.0
 11
2.077010306196242
 21
7.284707519136036
 31
0.0
  0
LINE
  5
2F5F
330
1E
100
AcDbEntity
  8
0
100
AcDbLine
 10
1.267219951865533
 20
7.284707519136036
 30
0.0
 11
1.269853416432463
 21
7.283390786852572
 31
0.0
  0
LINE
  5
2F60
330
1E
100
AcDbEntity
  8
0
100
AcDbLine
 10
2.117829006983643
 20
7.283390786852572
 30
0.0
 11
2.078327038479707
 21
7.283390786852572
 31
0.0
  0
LINE
  5
2F61
330
1E
100
AcDbEntity
  8
0
100
AcDbLine
 10
2.078327038479707
 20
7.283390786852572
 30
0.0
 11
2.077010306196242
 21
7.284707519136036
 31
0.0
  0
LINE
  5
2F62
330
1E
100
AcDbEntity
  8
0
100
AcDbLine
 10
0.2981049912356131
 20
7.695527991576982
 30
0.0
 11
2.077010306196242
 21
7.695527991576982
 31
0.0
  0
LINE
  5
2F63
330
1E
100
AcDbEntity
  8
0
100
AcDbLine
 10
0.2981049912356131
 20
7.695527991576982
 30
0.0
 11
0.2981049912356131
 21
7.284707519136036
 31
0.0
  0
LINE
  5
2F64
330
1E
100
AcDbEntity
  8
0
100
AcDbLine
 10
1.107895345566321
 20
7.284707519136036
 30
0.0
 11
1.107895345566321
 21
7.338693542758083
 31
0.0
  0
LINE
  5
2F65
330
1E
100
AcDbEntity
  8
0
100
AcDbLine
 10
1.267219951865533
 20
7.338693542758083
 30
0.0
 11
1.267219951865533
 21
7.284707519136036
 31
0.0
  0
LINE
  5
2F66
330
1E
100
AcDbEntity
  8
0
100
AcDbLine
 10
2.077010306196242
 20
7.284707519136036
 30
0.0
 11
2.077010306196242
 21
7.695527991576982
 31
0.0
  0
LINE
  5
2F67
330
1E
100
AcDbEntity
  8
0
100
AcDbLine
 10
0.296788258952148
 20
7.695527991576982
 30
0.0
 11
0.2981049912356131
 21
7.695527991576982
 31
0.0
  0
LINE
  5
2F68
330
1E
100
AcDbEntity
  8
0
100
AcDbLine
 10
2.077010306196242
 20
7.695527991576982
 30
0.0
 11
2.078327038479707
 21
7.695527991576982
 31
0.0
  0
LINE
  5
2F69
330
1E
100
AcDbEntity
  8
0
100
AcDbLine
 10
2.078327038479707
 20
7.695527991576982
 30
0.0
 11
2.117829006983643
 21
7.695527991576982
 31
0.0
  0
LINE
  5
2F6A
330
1E
100
AcDbEntity
  8
0
100
AcDbLine
 10
2.536549873125376
 20
8.101081534884068
 30
0.0
 11
2.54050006997577
 21
8.103714999450996
 31
0.0
  0
LINE
  5
2F6B
330
1E
100
AcDbEntity
  8
0
100
AcDbLine
 10
-0.1653847725439155
 20
8.103714999450996
 30
0.0
 11
-0.1614345756935211
 21
8.101081534884068
 31
0.0
  0
POLYLINE
  5
2F6C
330
1E
100
AcDbEntity
  8
0
100
AcDb2dPolyline
 66
     1
 10
0.0
 20
0.0
 30
0.0
  0
VERTEX
  5
360B
330
2F6C
100
AcDbEntity
  8
0
100
AcDbVertex
100
AcDb2dVertex
 10
0.7708118809993923
 20
7.192536259293516
 30
0.0
  0
VERTEX
  5
360C
330
2F6C
100
AcDbEntity
  8
0
100
AcDbVertex
100
AcDb2dVertex
 10
0.7655449518655342
 20
7.192536259293516
 30
0.0
  0
VERTEX
  5
360D
330
2F6C
100
AcDbEntity
  8
0
100
AcDbVertex
100
AcDb2dVertex
 10
0.762911487298605
 20
7.192536259293516
 30
0.0
  0
SEQEND
  5
360E
330
2F6C
100
AcDbEntity
  8
0
  0
POLYLINE
  5
2F71
330
1E
100
AcDbEntity
  8
0
100
AcDb2dPolyline
 66
     1
 10
0.0
 20
0.0
 30
0.0
  0
VERTEX
  5
360F
330
2F71
100
AcDbEntity
  8
0
100
AcDbVertex
100
AcDb2dVertex
 10
0.7550110935978176
 20
7.176735471891941
 30
0.0
  0
VERTEX
  5
3610
330
2F71
100
AcDbEntity
  8
0
100
AcDbVertex
100
AcDb2dVertex
 10
0.7550110935978176
 20
7.182002401025799
 30
0.0
  0
VERTEX
  5
3611
330
2F71
100
AcDbEntity
  8
0
100
AcDbVertex
100
AcDb2dVertex
 10
0.7550110935978176
 20
7.18463586559273
 30
0.0
  0
SEQEND
  5
3612
330
2F71
100
AcDbEntity
  8
0
  0
POLYLINE
  5
2F76
330
1E
100
AcDbEntity
  8
0
100
AcDb2dPolyline
 66
     1
 10
0.0
 20
0.0
 30
0.0
  0
VERTEX
  5
3613
330
2F76
100
AcDbEntity
  8
0
100
AcDbVertex
100
AcDb2dVertex
 10
0.7708118809993923
 20
7.222821101813201
 30
0.0
  0
VERTEX
  5
3614
330
2F76
100
AcDbEntity
  8
0
100
AcDbVertex
100
AcDb2dVertex
 10
0.7655449518655342
 20
7.222821101813201
 30
0.0
  0
VERTEX
  5
3615
330
2F76
100
AcDbEntity
  8
0
100
AcDbVertex
100
AcDb2dVertex
 10
0.762911487298605
 20
7.222821101813201
 30
0.0
  0
SEQEND
  5
3616
330
2F76
100
AcDbEntity
  8
0
  0
POLYLINE
  5
2F7B
330
1E
100
AcDbEntity
  8
0
100
AcDb2dPolyline
 66
     1
 10
0.0
 20
0.0
 30
0.0
  0
VERTEX
  5
3617
330
2F7B
100
AcDbEntity
  8
0
100
AcDbVertex
100
AcDb2dVertex
 10
0.7550110935978176
 20
7.238621889214776
 30
0.0
  0
VERTEX
  5
3618
330
2F7B
100
AcDbEntity
  8
0
100
AcDbVertex
100
AcDb2dVertex
 10
0.7550110935978176
 20
7.233354960080918
 30
0.0
  0
VERTEX
  5
3619
330
2F7B
100
AcDbEntity
  8
0
100
AcDbVertex
100
AcDb2dVertex
 10
0.7550110935978176
 20
7.230721495513989
 30
0.0
  0
SEQEND
  5
361A
330
2F7B
100
AcDbEntity
  8
0
  0
LINE
  5
2F80
330
1E
100
AcDbEntity
  8
0
100
AcDbLine
 10
0.762911487298605
 20
7.222821101813202
 30
0.0
 11
0.7550110935978172
 21
7.230721495513989
 31
0.0
  0
POLYLINE
  5
2F81
330
1E
100
AcDbEntity
  8
0
100
AcDb2dPolyline
 66
     1
 10
0.0
 20
0.0
 30
0.0
  0
VERTEX
  5
361B
330
2F81
100
AcDbEntity
  8
0
100
AcDbVertex
100
AcDb2dVertex
 10
0.5074654243064787
 20
7.238621889214776
 30
0.0
  0
VERTEX
  5
361C
330
2F81
100
AcDbEntity
  8
0
100
AcDbVertex
100
AcDb2dVertex
 10
0.5074654243064787
 20
7.233354960080918
 30
0.0
  0
VERTEX
  5
361D
330
2F81
100
AcDbEntity
  8
0
100
AcDbVertex
100
AcDb2dVertex
 10
0.5074654243064787
 20
7.230721495513989
 30
0.0
  0
SEQEND
  5
361E
330
2F81
100
AcDbEntity
  8
0
  0
LINE
  5
2F86
330
1E
100
AcDbEntity
  8
0
100
AcDbLine
 10
0.7550110935978172
 20
7.230721495513989
 30
0.0
 11
0.5074654243064787
 21
7.230721495513989
 31
0.0
  0
POLYLINE
  5
2F87
330
1E
100
AcDbEntity
  8
0
100
AcDb2dPolyline
 66
     1
 10
0.0
 20
0.0
 30
0.0
  0
VERTEX
  5
361F
330
2F87
100
AcDbEntity
  8
0
100
AcDbVertex
100
AcDb2dVertex
 10
0.4903479046214394
 20
7.222821101813201
 30
0.0
  0
VERTEX
  5
3620
330
2F87
100
AcDbEntity
  8
0
100
AcDbVertex
100
AcDb2dVertex
 10
0.4969315660387621
 20
7.222821101813201
 30
0.0
  0
VERTEX
  5
3621
330
2F87
100
AcDbEntity
  8
0
100
AcDbVertex
100
AcDb2dVertex
 10
0.4982482983222268
 20
7.222821101813201
 30
0.0
  0
SEQEND
  5
3622
330
2F87
100
AcDbEntity
  8
0
  0
LINE
  5
2F8C
330
1E
100
AcDbEntity
  8
0
100
AcDbLine
 10
0.5074654243064787
 20
7.230721495513989
 30
0.0
 11
0.4982482983222268
 21
7.222821101813202
 31
0.0
  0
POLYLINE
  5
2F8D
330
1E
100
AcDbEntity
  8
0
100
AcDb2dPolyline
 66
     1
 10
0.0
 20
0.0
 30
0.0
  0
VERTEX
  5
3623
330
2F8D
100
AcDbEntity
  8
0
100
AcDbVertex
100
AcDb2dVertex
 10
0.4982482983222268
 20
7.192536259293516
 30
0.0
  0
VERTEX
  5
3624
330
2F8D
100
AcDbEntity
  8
0
100
AcDbVertex
100
AcDb2dVertex
 10
0.4969315660387621
 20
7.192536259293516
 30
0.0
  0
VERTEX
  5
3625
330
2F8D
100
AcDbEntity
  8
0
100
AcDbVertex
100
AcDb2dVertex
 10
0.4903479046214394
 20
7.192536259293516
 30
0.0
  0
SEQEND
  5
3626
330
2F8D
100
AcDbEntity
  8
0
  0
POLYLINE
  5
2F92
330
1E
100
AcDbEntity
  8
0
100
AcDb2dPolyline
 66
     1
 10
0.0
 20
0.0
 30
0.0
  0
VERTEX
  5
3627
330
2F92
100
AcDbEntity
  8
0
100
AcDbVertex
100
AcDb2dVertex
 10
0.5074654243064787
 20
7.18463586559273
 30
0.0
  0
VERTEX
  5
3628
330
2F92
100
AcDbEntity
  8
0
100
AcDbVertex
100
AcDb2dVertex
 10
0.5074654243064787
 20
7.182002401025799
 30
0.0
  0
VERTEX
  5
3629
330
2F92
100
AcDbEntity
  8
0
100
AcDbVertex
100
AcDb2dVertex
 10
0.5074654243064787
 20
7.176735471891941
 30
0.0
  0
SEQEND
  5
362A
330
2F92
100
AcDbEntity
  8
0
  0
POLYLINE
  5
2F97
330
1E
100
AcDbEntity
  8
0
100
AcDb2dPolyline
 66
     1
 10
0.0
 20
0.0
 30
0.0
  0
VERTEX
  5
362B
330
2F97
100
AcDbEntity
  8
0
100
AcDbVertex
100
AcDb2dVertex
 10
1.868966605408841
 20
7.176735471891941
 30
0.0
  0
VERTEX
  5
362C
330
2F97
100
AcDbEntity
  8
0
100
AcDbVertex
100
AcDb2dVertex
 10
1.868966605408841
 20
7.182002401025799
 30
0.0
  0
VERTEX
  5
362D
330
2F97
100
AcDbEntity
  8
0
100
AcDbVertex
100
AcDb2dVertex
 10
1.868966605408841
 20
7.18463586559273
 30
0.0
  0
SEQEND
  5
362E
330
2F97
100
AcDbEntity
  8
0
  0
POLYLINE
  5
2F9C
330
1E
100
AcDbEntity
  8
0
100
AcDb2dPolyline
 66
     1
 10
0.0
 20
0.0
 30
0.0
  0
VERTEX
  5
362F
330
2F9C
100
AcDbEntity
  8
0
100
AcDbVertex
100
AcDb2dVertex
 10
1.884767392810415
 20
7.192536259293516
 30
0.0
  0
VERTEX
  5
3630
330
2F9C
100
AcDbEntity
  8
0
100
AcDbVertex
100
AcDb2dVertex
 10
1.879500463676557
 20
7.192536259293516
 30
0.0
  0
VERTEX
  5
3631
330
2F9C
100
AcDbEntity
  8
0
100
AcDbVertex
100
AcDb2dVertex
 10
1.876866999109628
 20
7.192536259293516
 30
0.0
  0
SEQEND
  5
3632
330
2F9C
100
AcDbEntity
  8
0
  0
POLYLINE
  5
2FA1
330
1E
100
AcDbEntity
  8
0
100
AcDb2dPolyline
 66
     1
 10
0.0
 20
0.0
 30
0.0
  0
VERTEX
  5
3633
330
2FA1
100
AcDbEntity
  8
0
100
AcDbVertex
100
AcDb2dVertex
 10
1.876866999109628
 20
7.222821101813201
 30
0.0
  0
VERTEX
  5
3634
330
2FA1
100
AcDbEntity
  8
0
100
AcDbVertex
100
AcDb2dVertex
 10
1.879500463676557
 20
7.222821101813201
 30
0.0
  0
VERTEX
  5
3635
330
2FA1
100
AcDbEntity
  8
0
100
AcDbVertex
100
AcDb2dVertex
 10
1.884767392810415
 20
7.222821101813201
 30
0.0
  0
SEQEND
  5
3636
330
2FA1
100
AcDbEntity
  8
0
  0
POLYLINE
  5
2FA6
330
1E
100
AcDbEntity
  8
0
100
AcDb2dPolyline
 66
     1
 10
0.0
 20
0.0
 30
0.0
  0
VERTEX
  5
3637
330
2FA6
100
AcDbEntity
  8
0
100
AcDbVertex
100
AcDb2dVertex
 10
1.868966605408841
 20
7.230721495513989
 30
0.0
  0
VERTEX
  5
3638
330
2FA6
100
AcDbEntity
  8
0
100
AcDbVertex
100
AcDb2dVertex
 10
1.868966605408841
 20
7.233354960080918
 30
0.0
  0
VERTEX
  5
3639
330
2FA6
100
AcDbEntity
  8
0
100
AcDbVertex
100
AcDb2dVertex
 10
1.868966605408841
 20
7.238621889214776
 30
0.0
  0
SEQEND
  5
363A
330
2FA6
100
AcDbEntity
  8
0
  0
LINE
  5
2FAB
330
1E
100
AcDbEntity
  8
0
100
AcDbLine
 10
1.876866999109628
 20
7.222821101813202
 30
0.0
 11
1.86896660540884
 21
7.230721495513989
 31
0.0
  0
POLYLINE
  5
2FAC
330
1E
100
AcDbEntity
  8
0
100
AcDb2dPolyline
 66
     1
 10
0.0
 20
0.0
 30
0.0
  0
VERTEX
  5
363B
330
2FAC
100
AcDbEntity
  8
0
100
AcDbVertex
100
AcDb2dVertex
 10
1.620104203834038
 20
7.230721495513989
 30
0.0
  0
VERTEX
  5
363C
330
2FAC
100
AcDbEntity
  8
0
100
AcDbVertex
100
AcDb2dVertex
 10
1.620104203834038
 20
7.233354960080918
 30
0.0
  0
VERTEX
  5
363D
330
2FAC
100
AcDbEntity
  8
0
100
AcDbVertex
100
AcDb2dVertex
 10
1.620104203834038
 20
7.238621889214776
 30
0.0
  0
SEQEND
  5
363E
330
2FAC
100
AcDbEntity
  8
0
  0
LINE
  5
2FB1
330
1E
100
AcDbEntity
  8
0
100
AcDbLine
 10
1.86896660540884
 20
7.230721495513989
 30
0.0
 11
1.620104203834038
 21
7.230721495513989
 31
0.0
  0
POLYLINE
  5
2FB2
330
1E
100
AcDbEntity
  8
0
100
AcDb2dPolyline
 66
     1
 10
0.0
 20
0.0
 30
0.0
  0
VERTEX
  5
363F
330
2FB2
100
AcDbEntity
  8
0
100
AcDbVertex
100
AcDb2dVertex
 10
1.61220381013325
 20
7.222821101813201
 30
0.0
  0
VERTEX
  5
3640
330
2FB2
100
AcDbEntity
  8
0
100
AcDbVertex
100
AcDb2dVertex
 10
1.609570345566321
 20
7.222821101813201
 30
0.0
  0
VERTEX
  5
3641
330
2FB2
100
AcDbEntity
  8
0
100
AcDbVertex
100
AcDb2dVertex
 10
1.604303416432462
 20
7.222821101813201
 30
0.0
  0
SEQEND
  5
3642
330
2FB2
100
AcDbEntity
  8
0
  0
LINE
  5
2FB7
330
1E
100
AcDbEntity
  8
0
100
AcDbLine
 10
1.620104203834038
 20
7.230721495513989
 30
0.0
 11
1.61220381013325
 21
7.222821101813202
 31
0.0
  0
POLYLINE
  5
2FB8
330
1E
100
AcDbEntity
  8
0
100
AcDb2dPolyline
 66
     1
 10
0.0
 20
0.0
 30
0.0
  0
VERTEX
  5
3643
330
2FB8
100
AcDbEntity
  8
0
100
AcDbVertex
100
AcDb2dVertex
 10
1.61220381013325
 20
7.192536259293516
 30
0.0
  0
VERTEX
  5
3644
330
2FB8
100
AcDbEntity
  8
0
100
AcDbVertex
100
AcDb2dVertex
 10
1.609570345566321
 20
7.192536259293516
 30
0.0
  0
VERTEX
  5
3645
330
2FB8
100
AcDbEntity
  8
0
100
AcDbVertex
100
AcDb2dVertex
 10
1.604303416432462
 20
7.192536259293516
 30
0.0
  0
SEQEND
  5
3646
330
2FB8
100
AcDbEntity
  8
0
  0
POLYLINE
  5
2FBD
330
1E
100
AcDbEntity
  8
0
100
AcDb2dPolyline
 66
     1
 10
0.0
 20
0.0
 30
0.0
  0
VERTEX
  5
3647
330
2FBD
100
AcDbEntity
  8
0
100
AcDbVertex
100
AcDb2dVertex
 10
1.620104203834038
 20
7.18463586559273
 30
0.0
  0
VERTEX
  5
3648
330
2FBD
100
AcDbEntity
  8
0
100
AcDbVertex
100
AcDb2dVertex
 10
1.620104203834038
 20
7.182002401025799
 30
0.0
  0
VERTEX
  5
3649
330
2FBD
100
AcDbEntity
  8
0
100
AcDbVertex
100
AcDb2dVertex
 10
1.620104203834038
 20
7.176735471891941
 30
0.0
  0
SEQEND
  5
364A
330
2FBD
100
AcDbEntity
  8
0
  0
LINE
  5
2FC2
330
1E
100
AcDbEntity
  8
0
100
AcDbLine
 10
2.211316999109628
 20
7.27417366086832
 30
0.0
 11
2.211316999109628
 21
7.272856928584856
 31
0.0
  0
LINE
  5
2FC3
330
1E
100
AcDbEntity
  8
0
100
AcDbLine
 10
2.181032156589943
 20
7.24257208606517
 30
0.0
 11
2.181032156589943
 21
7.243888818348635
 31
0.0
  0
LINE
  5
2FC4
330
1E
100
AcDbEntity
  8
0
100
AcDbLine
 10
2.211316999109628
 20
7.706061849844698
 30
0.0
 11
2.211316999109628
 21
7.706061849844698
 31
0.0
  0
LINE
  5
2FC5
330
1E
100
AcDbEntity
  8
0
100
AcDbLine
 10
2.181032156589943
 20
7.736346692364381
 30
0.0
 11
2.181032156589943
 21
7.736346692364381
 31
0.0
  0
LINE
  5
2FC6
330
1E
100
AcDbEntity
  8
0
100
AcDbLine
 10
0.1940831408419115
 20
7.736346692364381
 30
0.0
 11
0.1940831408419115
 21
7.736346692364381
 31
0.0
  0
LINE
  5
2FC7
330
1E
100
AcDbEntity
  8
0
100
AcDbLine
 10
0.1637982983222264
 20
7.706061849844698
 30
0.0
 11
0.1637982983222264
 21
7.706061849844698
 31
0.0
  0
LINE
  5
2FC8
330
1E
100
AcDbEntity
  8
0
100
AcDbLine
 10
0.1637982983222264
 20
7.272856928584856
 30
0.0
 11
0.1637982983222264
 21
7.27417366086832
 31
0.0
  0
LINE
  5
2FC9
330
1E
100
AcDbEntity
  8
0
100
AcDbLine
 10
0.1940831408419115
 20
7.243888818348635
 30
0.0
 11
0.1940831408419115
 21
7.24257208606517
 31
0.0
  0
LINE
  5
2FCA
330
1E
100
AcDbEntity
  8
0
100
AcDbLine
 10
1.105261880999392
 20
7.243888818348635
 30
0.0
 11
1.106578613282856
 21
7.24257208606517
 31
0.0
  0
POLYLINE
  5
2FCB
330
1E
100
AcDbEntity
  8
0
100
AcDb2dPolyline
 66
     1
 10
0.0
 20
0.0
 30
0.0
  0
VERTEX
  5
364B
330
2FCB
100
AcDbEntity
  8
0
100
AcDbVertex
100
AcDb2dVertex
 10
1.106578613282856
 20
7.220187637246272
 30
0.0
  0
VERTEX
  5
364C
330
2FCB
100
AcDbEntity
  8
0
100
AcDbVertex
100
AcDb2dVertex
 10
1.107895345566321
 20
7.237305156931311
 30
0.0
  0
VERTEX
  5
364D
330
2FCB
100
AcDbEntity
  8
0
100
AcDbVertex
100
AcDb2dVertex
 10
1.107895345566321
 20
7.243888818348635
 30
0.0
  0
SEQEND
  5
364E
330
2FCB
100
AcDbEntity
  8
0
  0
POLYLINE
  5
2FD0
330
1E
100
AcDbEntity
  8
0
100
AcDb2dPolyline
 66
     1
 10
0.0
 20
0.0
 30
0.0
  0
VERTEX
  5
364F
330
2FD0
100
AcDbEntity
  8
0
100
AcDbVertex
100
AcDb2dVertex
 10
1.267219951865533
 20
7.243888818348635
 30
0.0
  0
VERTEX
  5
3650
330
2FD0
100
AcDbEntity
  8
0
100
AcDbVertex
100
AcDb2dVertex
 10
1.268536684148998
 20
7.237305156931311
 30
0.0
  0
VERTEX
  5
3651
330
2FD0
100
AcDbEntity
  8
0
100
AcDbVertex
100
AcDb2dVertex
 10
1.268536684148998
 20
7.220187637246272
 30
0.0
  0
SEQEND
  5
3652
330
2FD0
100
AcDbEntity
  8
0
  0
LINE
  5
2FD5
330
1E
100
AcDbEntity
  8
0
100
AcDbLine
 10
1.107895345566321
 20
7.243888818348635
 30
0.0
 11
1.117112471550573
 21
7.243888818348635
 31
0.0
  0
LINE
  5
2FD6
330
1E
100
AcDbEntity
  8
0
100
AcDbLine
 10
1.258002825881281
 20
7.243888818348635
 30
0.0
 11
1.267219951865533
 21
7.243888818348635
 31
0.0
  0
LINE
  5
2FD7
330
1E
100
AcDbEntity
  8
0
100
AcDbLine
 10
1.268536684148998
 20
7.24257208606517
 30
0.0
 11
1.269853416432463
 21
7.243888818348635
 31
0.0
  0
LINE
  5
2FD8
330
1E
100
AcDbEntity
  8
0
100
AcDbLine
 10
0.5074654243064787
 20
7.230721495513989
 30
0.0
 11
0.5087821565899429
 21
7.225454566380131
 31
0.0
  0
LINE
  5
2FD9
330
1E
100
AcDbEntity
  8
0
100
AcDbLine
 10
0.5601347156450612
 20
7.225454566380131
 30
0.0
 11
0.5680351093458489
 21
7.225454566380131
 31
0.0
  0
LINE
  5
2FDA
330
1E
100
AcDbEntity
  8
0
100
AcDbLine
 10
0.6931246762749828
 20
7.225454566380131
 30
0.0
 11
0.7010250699757697
 21
7.225454566380131
 31
0.0
  0
LINE
  5
2FDB
330
1E
100
AcDbEntity
  8
0
100
AcDbLine
 10
0.753694361314353
 20
7.225454566380131
 30
0.0
 11
0.7550110935978172
 21
7.230721495513989
 31
0.0
  0
POLYLINE
  5
2FDC
330
1E
100
AcDbEntity
  8
0
100
AcDb2dPolyline
 66
     1
 10
0.0
 20
0.0
 30
0.0
  0
VERTEX
  5
3653
330
2FDC
100
AcDbEntity
  8
0
100
AcDbVertex
100
AcDb2dVertex
 10
1.264586487298605
 20
7.25705614118328
 30
0.0
  0
VERTEX
  5
3654
330
2FDC
100
AcDbEntity
  8
0
100
AcDbVertex
100
AcDb2dVertex
 10
1.264586487298605
 20
7.259689605750208
 30
0.0
  0
VERTEX
  5
3655
330
2FDC
100
AcDbEntity
  8
0
100
AcDbVertex
100
AcDb2dVertex
 10
1.264586487298605
 20
7.262323070317139
 30
0.0
  0
VERTEX
  5
3656
330
2FDC
100
AcDbEntity
  8
0
100
AcDbVertex
100
AcDb2dVertex
 10
1.264586487298605
 20
7.264956534884067
 30
0.0
  0
VERTEX
  5
3657
330
2FDC
100
AcDbEntity
  8
0
100
AcDbVertex
100
AcDb2dVertex
 10
1.264586487298605
 20
7.266273267167532
 30
0.0
  0
SEQEND
  5
3658
330
2FDC
100
AcDbEntity
  8
0
  0
LINE
  5
2FE3
330
1E
100
AcDbEntity
  8
0
100
AcDbLine
 10
1.267219951865533
 20
7.243888818348635
 30
0.0
 11
1.264586487298604
 21
7.246522282915564
 31
0.0
  0
LINE
  5
2FE4
330
1E
100
AcDbEntity
  8
0
100
AcDbLine
 10
1.107895345566321
 20
7.243888818348635
 30
0.0
 11
1.11052881013325
 21
7.246522282915564
 31
0.0
  0
POLYLINE
  5
2FE5
330
1E
100
AcDbEntity
  8
0
100
AcDb2dPolyline
 66
     1
 10
0.0
 20
0.0
 30
0.0
  0
VERTEX
  5
3659
330
2FE5
100
AcDbEntity
  8
0
100
AcDbVertex
100
AcDb2dVertex
 10
1.11052881013325
 20
7.266273267167532
 30
0.0
  0
VERTEX
  5
365A
330
2FE5
100
AcDbEntity
  8
0
100
AcDbVertex
100
AcDb2dVertex
 10
1.11052881013325
 20
7.264956534884067
 30
0.0
  0
VERTEX
  5
365B
330
2FE5
100
AcDbEntity
  8
0
100
AcDbVertex
100
AcDb2dVertex
 10
1.11052881013325
 20
7.262323070317139
 30
0.0
  0
VERTEX
  5
365C
330
2FE5
100
AcDbEntity
  8
0
100
AcDbVertex
100
AcDb2dVertex
 10
1.11052881013325
 20
7.258372873466745
 30
0.0
  0
VERTEX
  5
365D
330
2FE5
100
AcDbEntity
  8
0
100
AcDbVertex
100
AcDb2dVertex
 10
1.11052881013325
 20
7.25705614118328
 30
0.0
  0
SEQEND
  5
365E
330
2FE5
100
AcDbEntity
  8
0
  0
LINE
  5
2FEC
330
1E
100
AcDbEntity
  8
0
100
AcDbLine
 10
1.620104203834038
 20
7.230721495513989
 30
0.0
 11
1.622737668400967
 21
7.225454566380131
 31
0.0
  0
LINE
  5
2FED
330
1E
100
AcDbEntity
  8
0
100
AcDbLine
 10
1.674090227456084
 20
7.225454566380131
 30
0.0
 11
1.681990621156872
 21
7.225454566380131
 31
0.0
  0
LINE
  5
2FEE
330
1E
100
AcDbEntity
  8
0
100
AcDbLine
 10
1.807080188086006
 20
7.225454566380131
 30
0.0
 11
1.814980581786793
 21
7.225454566380131
 31
0.0
  0
LINE
  5
2FEF
330
1E
100
AcDbEntity
  8
0
100
AcDbLine
 10
1.866333140841911
 20
7.225454566380131
 30
0.0
 11
1.86896660540884
 21
7.230721495513989
 31
0.0
  0
LINE
  5
2FF0
330
1E
100
AcDbEntity
  8
0
100
AcDbLine
 10
0.6733736920230147
 20
4.462950235671469
 30
0.0
 11
0.4271447550151404
 21
4.462950235671469
 31
0.0
  0
LINE
  5
2FF1
330
1E
100
AcDbEntity
  8
0
100
AcDbLine
 10
1.70174160540884
 20
4.462950235671469
 30
0.0
 11
1.947970542416714
 21
4.462950235671469
 31
0.0
  0
LINE
  5
2FF2
330
1E
100
AcDbEntity
  8
0
100
AcDbLine
 10
0.753694361314353
 20
7.224137834096666
 30
0.0
 11
0.5074654243064787
 21
7.224137834096666
 31
0.0
  0
LINE
  5
2FF3
330
1E
100
AcDbEntity
  8
0
100
AcDbLine
 10
1.621420936117502
 20
7.224137834096666
 30
0.0
 11
1.867649873125376
 21
7.224137834096666
 31
0.0
  0
LINE
  5
2FF4
330
1E
100
AcDbEntity
  8
0
100
AcDbLine
 10
0.7642282195820691
 20
4.455049841970682
 30
0.0
 11
1.040741999109628
 21
4.455049841970682
 31
0.0
  0
LINE
  5
2FF5
330
1E
100
AcDbEntity
  8
0
100
AcDbLine
 10
2.037508337692305
 20
4.455049841970682
 30
0.0
 11
2.191566014857659
 21
4.455049841970682
 31
0.0
  0
LINE
  5
2FF6
330
1E
100
AcDbEntity
  8
0
100
AcDbLine
 10
0.1835492825741953
 20
4.455049841970682
 30
0.0
 11
0.3376069597395492
 21
4.455049841970682
 31
0.0
  0
LINE
  5
2FF7
330
1E
100
AcDbEntity
  8
0
100
AcDbLine
 10
2.566834715645061
 20
8.036561652994304
 30
0.0
 11
2.566834715645061
 21
3.650526416773831
 31
0.0
  0
LINE
  5
2FF8
330
1E
100
AcDbEntity
  8
0
100
AcDbLine
 10
2.566834715645061
 20
8.036561652994304
 30
0.0
 11
2.445695345566321
 21
7.915422282915564
 31
0.0
  0
LINE
  5
2FF9
330
1E
100
AcDbEntity
  8
0
100
AcDbLine
 10
2.445695345566321
 20
7.915422282915564
 30
0.0
 11
2.445695345566321
 21
3.771665786852572
 31
0.0
  0
LINE
  5
2FFA
330
1E
100
AcDbEntity
  8
0
100
AcDbLine
 10
2.566834715645061
 20
3.650526416773831
 30
0.0
 11
2.445695345566321
 21
3.771665786852572
 31
0.0
  0
POLYLINE
  5
2FFB
330
1E
100
AcDbEntity
  8
0
100
AcDb2dPolyline
 66
     1
 10
0.0
 20
0.0
 30
0.0
  0
VERTEX
  5
365F
330
2FFB
100
AcDbEntity
  8
0
100
AcDbVertex
100
AcDb2dVertex
 10
2.381175463676557
 20
3.771665786852572
 30
0.0
  0
VERTEX
  5
3660
330
2FFB
100
AcDbEntity
  8
0
100
AcDbVertex
100
AcDb2dVertex
 10
2.415410503046635
 20
3.771665786852572
 30
0.0
  0
VERTEX
  5
3661
330
2FFB
100
AcDbEntity
  8
0
100
AcDbVertex
100
AcDb2dVertex
 10
2.445695345566321
 20
3.771665786852572
 30
0.0
  0
SEQEND
  5
3662
330
2FFB
100
AcDbEntity
  8
0
  0
POLYLINE
  5
3000
330
1E
100
AcDbEntity
  8
0
100
AcDb2dPolyline
 66
     1
 10
0.0
 20
0.0
 30
0.0
  0
VERTEX
  5
3663
330
3000
100
AcDbEntity
  8
0
100
AcDbVertex
100
AcDb2dVertex
 10
2.381175463676557
 20
3.771665786852572
 30
0.0
  0
VERTEX
  5
3664
330
3000
100
AcDbEntity
  8
0
100
AcDbVertex
100
AcDb2dVertex
 10
2.381175463676557
 20
3.737430747482492
 30
0.0
  0
VERTEX
  5
3665
330
3000
100
AcDbEntity
  8
0
100
AcDbVertex
100
AcDb2dVertex
 10
2.381175463676557
 20
3.707145904962807
 30
0.0
  0
SEQEND
  5
3666
330
3000
100
AcDbEntity
  8
0
  0
POLYLINE
  5
3005
330
1E
100
AcDbEntity
  8
0
100
AcDb2dPolyline
 66
     1
 10
0.0
 20
0.0
 30
0.0
  0
VERTEX
  5
3667
330
3005
100
AcDbEntity
  8
0
100
AcDbVertex
100
AcDb2dVertex
 10
2.445695345566321
 20
3.771665786852572
 30
0.0
  0
VERTEX
  5
3668
330
3005
100
AcDbEntity
  8
0
100
AcDbVertex
100
AcDb2dVertex
 10
2.418043967613565
 20
3.736114015199028
 30
0.0
  0
VERTEX
  5
3669
330
3005
100
AcDbEntity
  8
0
100
AcDbVertex
100
AcDb2dVertex
 10
2.381175463676557
 20
3.707145904962807
 30
0.0
  0
SEQEND
  5
366A
330
3005
100
AcDbEntity
  8
0
  0
LINE
  5
300A
330
1E
100
AcDbEntity
  8
0
100
AcDbLine
 10
2.502314833755297
 20
3.586006534884067
 30
0.0
 11
2.536549873125376
 21
3.586006534884067
 31
0.0
  0
POLYLINE
  5
300B
330
1E
100
AcDbEntity
  8
0
100
AcDb2dPolyline
 66
     1
 10
0.0
 20
0.0
 30
0.0
  0
VERTEX
  5
366B
330
300B
100
AcDbEntity
  8
0
100
AcDbVertex
100
AcDb2dVertex
 10
2.536549873125376
 20
3.586006534884067
 30
0.0
  0
VERTEX
  5
366C
330
300B
100
AcDbEntity
  8
0
100
AcDbVertex
100
AcDb2dVertex
 10
2.547083731393092
 20
3.587323267167532
 30
0.0
  0
VERTEX
  5
366D
330
300B
100
AcDbEntity
  8
0
100
AcDbVertex
100
AcDb2dVertex
 10
2.55498412509388
 20
3.59259019630139
 30
0.0
  0
VERTEX
  5
366E
330
300B
100
AcDbEntity
  8
0
100
AcDbVertex
100
AcDb2dVertex
 10
2.561567786511202
 20
3.599173857718713
 30
0.0
  0
VERTEX
  5
366F
330
300B
100
AcDbEntity
  8
0
100
AcDbVertex
100
AcDb2dVertex
 10
2.566834715645061
 20
3.608390983702965
 30
0.0
  0
VERTEX
  5
3670
330
300B
100
AcDbEntity
  8
0
100
AcDbVertex
100
AcDb2dVertex
 10
2.566834715645061
 20
3.616291377403753
 30
0.0
  0
SEQEND
  5
3671
330
300B
100
AcDbEntity
  8
0
  0
LINE
  5
3013
330
1E
100
AcDbEntity
  8
0
100
AcDbLine
 10
2.566834715645061
 20
3.616291377403753
 30
0.0
 11
2.566834715645061
 21
3.650526416773831
 31
0.0
  0
LINE
  5
3014
330
1E
100
AcDbEntity
  8
0
100
AcDbLine
 10
2.381175463676557
 20
3.707145904962807
 30
0.0
 11
2.502314833755297
 21
3.586006534884067
 31
0.0
  0
LINE
  5
3015
330
1E
100
AcDbEntity
  8
0
100
AcDbLine
 10
2.566834715645061
 20
8.070796692364382
 30
0.0
 11
2.566834715645061
 21
8.036561652994304
 31
0.0
  0
POLYLINE
  5
3016
330
1E
100
AcDbEntity
  8
0
100
AcDb2dPolyline
 66
     1
 10
0.0
 20
0.0
 30
0.0
  0
VERTEX
  5
3672
330
3016
100
AcDbEntity
  8
0
100
AcDbVertex
100
AcDb2dVertex
 10
2.381175463676557
 20
7.915422282915564
 30
0.0
  0
VERTEX
  5
3673
330
3016
100
AcDbEntity
  8
0
100
AcDbVertex
100
AcDb2dVertex
 10
2.415410503046635
 20
7.915422282915564
 30
0.0
  0
VERTEX
  5
3674
330
3016
100
AcDbEntity
  8
0
100
AcDbVertex
100
AcDb2dVertex
 10
2.445695345566321
 20
7.915422282915564
 30
0.0
  0
SEQEND
  5
3675
330
3016
100
AcDbEntity
  8
0
  0
LINE
  5
301B
330
1E
100
AcDbEntity
  8
0
100
AcDbLine
 10
2.381175463676557
 20
3.771665786852572
 30
0.0
 11
2.381175463676557
 21
7.915422282915564
 31
0.0
  0
LINE
  5
301C
330
1E
100
AcDbEntity
  8
0
100
AcDbLine
 10
-0.1271995363234417
 20
3.586006534884067
 30
0.0
 11
2.502314833755297
 21
3.586006534884067
 31
0.0
  0
LINE
  5
301D
330
1E
100
AcDbEntity
  8
0
100
AcDbLine
 10
-0.1614345756935211
 20
3.586006534884067
 30
0.0
 11
-0.1271995363234417
 21
3.586006534884067
 31
0.0
  0
POLYLINE
  5
301E
330
1E
100
AcDbEntity
  8
0
100
AcDb2dPolyline
 66
     1
 10
0.0
 20
0.0
 30
0.0
  0
VERTEX
  5
3676
330
301E
100
AcDbEntity
  8
0
100
AcDbVertex
100
AcDb2dVertex
 10
1.040741999109628
 20
4.455049841970682
 30
0.0
  0
VERTEX
  5
3677
330
301E
100
AcDbEntity
  8
0
100
AcDbVertex
100
AcDb2dVertex
 10
1.052592589660809
 20
4.45768330653761
 30
0.0
  0
VERTEX
  5
3678
330
301E
100
AcDbEntity
  8
0
100
AcDbVertex
100
AcDb2dVertex
 10
1.063126447928526
 20
4.464266967954933
 30
0.0
  0
SEQEND
  5
3679
330
301E
100
AcDbEntity
  8
0
  0
POLYLINE
  5
3023
330
1E
100
AcDbEntity
  8
0
100
AcDb2dPolyline
 66
     1
 10
0.0
 20
0.0
 30
0.0
  0
VERTEX
  5
367A
330
3023
100
AcDbEntity
  8
0
100
AcDbVertex
100
AcDb2dVertex
 10
1.063126447928526
 20
4.464266967954933
 30
0.0
  0
VERTEX
  5
367B
330
3023
100
AcDbEntity
  8
0
100
AcDbVertex
100
AcDb2dVertex
 10
1.073660306196242
 20
4.472167361655721
 30
0.0
  0
VERTEX
  5
367C
330
3023
100
AcDbEntity
  8
0
100
AcDbVertex
100
AcDb2dVertex
 10
1.085510896747423
 20
4.47480082622265
 30
0.0
  0
SEQEND
  5
367D
330
3023
100
AcDbEntity
  8
0
  0
LINE
  5
3028
330
1E
100
AcDbEntity
  8
0
100
AcDbLine
 10
1.086827629030888
 20
4.47480082622265
 30
0.0
 11
1.085510896747423
 21
4.47480082622265
 31
0.0
  0
POLYLINE
  5
3029
330
1E
100
AcDbEntity
  8
0
100
AcDb2dPolyline
 66
     1
 10
0.0
 20
0.0
 30
0.0
  0
VERTEX
  5
367E
330
3029
100
AcDbEntity
  8
0
100
AcDbVertex
100
AcDb2dVertex
 10
1.086827629030888
 20
4.47480082622265
 30
0.0
  0
VERTEX
  5
367F
330
3029
100
AcDbEntity
  8
0
100
AcDbVertex
100
AcDb2dVertex
 10
1.102628416432463
 20
4.470850629372256
 30
0.0
  0
VERTEX
  5
3680
330
3029
100
AcDbEntity
  8
0
100
AcDbVertex
100
AcDb2dVertex
 10
1.113162274700179
 20
4.459000038821075
 30
0.0
  0
SEQEND
  5
3681
330
3029
100
AcDbEntity
  8
0
  0
LINE
  5
302E
330
1E
100
AcDbEntity
  8
0
100
AcDbLine
 10
1.113162274700179
 20
4.459000038821075
 30
0.0
 11
1.261953022731676
 21
4.459000038821075
 31
0.0
  0
POLYLINE
  5
302F
330
1E
100
AcDbEntity
  8
0
100
AcDb2dPolyline
 66
     1
 10
0.0
 20
0.0
 30
0.0
  0
VERTEX
  5
3682
330
302F
100
AcDbEntity
  8
0
100
AcDbVertex
100
AcDb2dVertex
 10
1.261953022731675
 20
4.459000038821075
 30
0.0
  0
VERTEX
  5
3683
330
302F
100
AcDbEntity
  8
0
100
AcDbVertex
100
AcDb2dVertex
 10
1.272486880999392
 20
4.470850629372256
 30
0.0
  0
VERTEX
  5
3684
330
302F
100
AcDbEntity
  8
0
100
AcDbVertex
100
AcDb2dVertex
 10
1.288287668400966
 20
4.47480082622265
 30
0.0
  0
SEQEND
  5
3685
330
302F
100
AcDbEntity
  8
0
  0
LINE
  5
3034
330
1E
100
AcDbEntity
  8
0
100
AcDbLine
 10
1.288287668400966
 20
4.47480082622265
 30
0.0
 11
1.289604400684431
 21
4.47480082622265
 31
0.0
  0
POLYLINE
  5
3035
330
1E
100
AcDbEntity
  8
0
100
AcDb2dPolyline
 66
     1
 10
0.0
 20
0.0
 30
0.0
  0
VERTEX
  5
3686
330
3035
100
AcDbEntity
  8
0
100
AcDbVertex
100
AcDb2dVertex
 10
1.289604400684431
 20
4.47480082622265
 30
0.0
  0
VERTEX
  5
3687
330
3035
100
AcDbEntity
  8
0
100
AcDbVertex
100
AcDb2dVertex
 10
1.301454991235612
 20
4.472167361655721
 30
0.0
  0
VERTEX
  5
3688
330
3035
100
AcDbEntity
  8
0
100
AcDbVertex
100
AcDb2dVertex
 10
1.311988849503329
 20
4.464266967954933
 30
0.0
  0
SEQEND
  5
3689
330
3035
100
AcDbEntity
  8
0
  0
POLYLINE
  5
303A
330
1E
100
AcDbEntity
  8
0
100
AcDb2dPolyline
 66
     1
 10
0.0
 20
0.0
 30
0.0
  0
VERTEX
  5
368A
330
303A
100
AcDbEntity
  8
0
100
AcDbVertex
100
AcDb2dVertex
 10
1.311988849503329
 20
4.464266967954933
 30
0.0
  0
VERTEX
  5
368B
330
303A
100
AcDbEntity
  8
0
100
AcDbVertex
100
AcDb2dVertex
 10
1.322522707771045
 20
4.45768330653761
 30
0.0
  0
VERTEX
  5
368C
330
303A
100
AcDbEntity
  8
0
100
AcDbVertex
100
AcDb2dVertex
 10
1.334373298322226
 20
4.455049841970682
 30
0.0
  0
SEQEND
  5
368D
330
303A
100
AcDbEntity
  8
0
  0
LINE
  5
303F
330
1E
100
AcDbEntity
  8
0
100
AcDbLine
 10
1.334373298322226
 20
4.455049841970682
 30
0.0
 11
1.61220381013325
 21
4.455049841970682
 31
0.0
  0
POLYLINE
  5
3040
330
1E
100
AcDbEntity
  8
0
100
AcDb2dPolyline
 66
     1
 10
0.0
 20
0.0
 30
0.0
  0
VERTEX
  5
368E
330
3040
100
AcDbEntity
  8
0
100
AcDbVertex
100
AcDb2dVertex
 10
1.61220381013325
 20
4.455049841970682
 30
0.0
  0
VERTEX
  5
368F
330
3040
100
AcDbEntity
  8
0
100
AcDbVertex
100
AcDb2dVertex
 10
1.633271526668683
 20
4.462950235671469
 30
0.0
  0
VERTEX
  5
3690
330
3040
100
AcDbEntity
  8
0
100
AcDbVertex
100
AcDb2dVertex
 10
1.64117192036947
 20
4.485334684490366
 30
0.0
  0
SEQEND
  5
3691
330
3040
100
AcDbEntity
  8
0
  0
LINE
  5
3045
330
1E
100
AcDbEntity
  8
0
100
AcDbLine
 10
1.641171920369471
 20
4.485334684490366
 30
0.0
 11
1.641171920369471
 21
4.518252991576981
 31
0.0
  0
POLYLINE
  5
3046
330
1E
100
AcDbEntity
  8
0
100
AcDb2dPolyline
 66
     1
 10
0.0
 20
0.0
 30
0.0
  0
VERTEX
  5
3692
330
3046
100
AcDbEntity
  8
0
100
AcDbVertex
100
AcDb2dVertex
 10
1.64117192036947
 20
4.518252991576981
 30
0.0
  0
VERTEX
  5
3693
330
3046
100
AcDbEntity
  8
0
100
AcDbVertex
100
AcDb2dVertex
 10
1.647755581786793
 20
4.53537051126202
 30
0.0
  0
VERTEX
  5
3694
330
3046
100
AcDbEntity
  8
0
100
AcDbVertex
100
AcDb2dVertex
 10
1.662239636904903
 20
4.545904369529736
 30
0.0
  0
VERTEX
  5
3695
330
3046
100
AcDbEntity
  8
0
100
AcDbVertex
100
AcDb2dVertex
 10
1.680673888873407
 20
4.545904369529736
 30
0.0
  0
VERTEX
  5
3696
330
3046
100
AcDbEntity
  8
0
100
AcDbVertex
100
AcDb2dVertex
 10
1.696474676274982
 20
4.53537051126202
 30
0.0
  0
VERTEX
  5
3697
330
3046
100
AcDbEntity
  8
0
100
AcDbVertex
100
AcDb2dVertex
 10
1.701741605408841
 20
4.518252991576981
 30
0.0
  0
SEQEND
  5
3698
330
3046
100
AcDbEntity
  8
0
  0
LINE
  5
304E
330
1E
100
AcDbEntity
  8
0
100
AcDbLine
 10
1.947970542416714
 20
4.518252991576981
 30
0.0
 11
1.70174160540884
 21
4.518252991576981
 31
0.0
  0
POLYLINE
  5
304F
330
1E
100
AcDbEntity
  8
0
100
AcDb2dPolyline
 66
     1
 10
0.0
 20
0.0
 30
0.0
  0
VERTEX
  5
3699
330
304F
100
AcDbEntity
  8
0
100
AcDbVertex
100
AcDb2dVertex
 10
1.947970542416714
 20
4.518252991576981
 30
0.0
  0
VERTEX
  5
369A
330
304F
100
AcDbEntity
  8
0
100
AcDbVertex
100
AcDb2dVertex
 10
1.953237471550572
 20
4.53537051126202
 30
0.0
  0
VERTEX
  5
369B
330
304F
100
AcDbEntity
  8
0
100
AcDbVertex
100
AcDb2dVertex
 10
1.969038258952148
 20
4.545904369529736
 30
0.0
  0
VERTEX
  5
369C
330
304F
100
AcDbEntity
  8
0
100
AcDbVertex
100
AcDb2dVertex
 10
1.987472510920651
 20
4.545904369529736
 30
0.0
  0
VERTEX
  5
369D
330
304F
100
AcDbEntity
  8
0
100
AcDbVertex
100
AcDb2dVertex
 10
2.001956566038762
 20
4.53537051126202
 30
0.0
  0
VERTEX
  5
369E
330
304F
100
AcDbEntity
  8
0
100
AcDbVertex
100
AcDb2dVertex
 10
2.008540227456084
 20
4.518252991576981
 30
0.0
  0
SEQEND
  5
369F
330
304F
100
AcDbEntity
  8
0
  0
LINE
  5
3057
330
1E
100
AcDbEntity
  8
0
100
AcDbLine
 10
2.008540227456085
 20
4.485334684490366
 30
0.0
 11
2.008540227456085
 21
4.518252991576981
 31
0.0
  0
POLYLINE
  5
3058
330
1E
100
AcDbEntity
  8
0
100
AcDb2dPolyline
 66
     1
 10
0.0
 20
0.0
 30
0.0
  0
VERTEX
  5
36A0
330
3058
100
AcDbEntity
  8
0
100
AcDbVertex
100
AcDb2dVertex
 10
2.008540227456084
 20
4.485334684490366
 30
0.0
  0
VERTEX
  5
36A1
330
3058
100
AcDbEntity
  8
0
100
AcDbVertex
100
AcDb2dVertex
 10
2.016440621156871
 20
4.462950235671469
 30
0.0
  0
VERTEX
  5
36A2
330
3058
100
AcDbEntity
  8
0
100
AcDbVertex
100
AcDb2dVertex
 10
2.037508337692305
 20
4.455049841970682
 30
0.0
  0
SEQEND
  5
36A3
330
3058
100
AcDbEntity
  8
0
  0
POLYLINE
  5
305D
330
1E
100
AcDbEntity
  8
0
100
AcDb2dPolyline
 66
     1
 10
0.0
 20
0.0
 30
0.0
  0
VERTEX
  5
36A4
330
305D
100
AcDbEntity
  8
0
100
AcDbVertex
100
AcDb2dVertex
 10
2.191566014857659
 20
4.455049841970682
 30
0.0
  0
VERTEX
  5
36A5
330
305D
100
AcDbEntity
  8
0
100
AcDbVertex
100
AcDb2dVertex
 10
2.212633731393093
 20
4.44583271598643
 30
0.0
  0
VERTEX
  5
36A6
330
305D
100
AcDbEntity
  8
0
100
AcDbVertex
100
AcDb2dVertex
 10
2.221850857377345
 20
4.424764999450997
 30
0.0
  0
SEQEND
  5
36A7
330
305D
100
AcDbEntity
  8
0
  0
LINE
  5
3062
330
1E
100
AcDbEntity
  8
0
100
AcDbLine
 10
2.221850857377345
 20
3.970492361655721
 30
0.0
 11
2.221850857377345
 21
4.424764999450997
 31
0.0
  0
POLYLINE
  5
3063
330
1E
100
AcDbEntity
  8
0
100
AcDb2dPolyline
 66
     1
 10
0.0
 20
0.0
 30
0.0
  0
VERTEX
  5
36A8
330
3063
100
AcDbEntity
  8
0
100
AcDbVertex
100
AcDb2dVertex
 10
2.221850857377345
 20
3.970492361655721
 30
0.0
  0
VERTEX
  5
36A9
330
3063
100
AcDbEntity
  8
0
100
AcDbVertex
100
AcDb2dVertex
 10
2.212633731393093
 20
3.949424645120288
 30
0.0
  0
VERTEX
  5
36AA
330
3063
100
AcDbEntity
  8
0
100
AcDbVertex
100
AcDb2dVertex
 10
2.191566014857659
 20
3.9415242514195
 30
0.0
  0
SEQEND
  5
36AB
330
3063
100
AcDbEntity
  8
0
  0
LINE
  5
3068
330
1E
100
AcDbEntity
  8
0
100
AcDbLine
 10
0.1835492825741953
 20
3.9415242514195
 30
0.0
 11
2.191566014857659
 21
3.9415242514195
 31
0.0
  0
POLYLINE
  5
3069
330
1E
100
AcDbEntity
  8
0
100
AcDb2dPolyline
 66
     1
 10
0.0
 20
0.0
 30
0.0
  0
VERTEX
  5
36AC
330
3069
100
AcDbEntity
  8
0
100
AcDbVertex
100
AcDb2dVertex
 10
0.1835492825741953
 20
3.9415242514195
 30
0.0
  0
VERTEX
  5
36AD
330
3069
100
AcDbEntity
  8
0
100
AcDbVertex
100
AcDb2dVertex
 10
0.1624815660387622
 20
3.949424645120288
 30
0.0
  0
VERTEX
  5
36AE
330
3069
100
AcDbEntity
  8
0
100
AcDbVertex
100
AcDb2dVertex
 10
0.1532644400545102
 20
3.970492361655721
 30
0.0
  0
SEQEND
  5
36AF
330
3069
100
AcDbEntity
  8
0
  0
LINE
  5
306E
330
1E
100
AcDbEntity
  8
0
100
AcDbLine
 10
0.1532644400545102
 20
3.970492361655721
 30
0.0
 11
0.1532644400545102
 21
4.424764999450997
 31
0.0
  0
POLYLINE
  5
306F
330
1E
100
AcDbEntity
  8
0
100
AcDb2dPolyline
 66
     1
 10
0.0
 20
0.0
 30
0.0
  0
VERTEX
  5
36B0
330
306F
100
AcDbEntity
  8
0
100
AcDbVertex
100
AcDb2dVertex
 10
0.1532644400545102
 20
4.424764999450997
 30
0.0
  0
VERTEX
  5
36B1
330
306F
100
AcDbEntity
  8
0
100
AcDbVertex
100
AcDb2dVertex
 10
0.1624815660387622
 20
4.44583271598643
 30
0.0
  0
VERTEX
  5
36B2
330
306F
100
AcDbEntity
  8
0
100
AcDbVertex
100
AcDb2dVertex
 10
0.1835492825741953
 20
4.455049841970682
 30
0.0
  0
SEQEND
  5
36B3
330
306F
100
AcDbEntity
  8
0
  0
POLYLINE
  5
3074
330
1E
100
AcDbEntity
  8
0
100
AcDb2dPolyline
 66
     1
 10
0.0
 20
0.0
 30
0.0
  0
VERTEX
  5
36B4
330
3074
100
AcDbEntity
  8
0
100
AcDbVertex
100
AcDb2dVertex
 10
0.3376069597395497
 20
4.455049841970682
 30
0.0
  0
VERTEX
  5
36B5
330
3074
100
AcDbEntity
  8
0
100
AcDbVertex
100
AcDb2dVertex
 10
0.3586746762749824
 20
4.462950235671469
 30
0.0
  0
VERTEX
  5
36B6
330
3074
100
AcDbEntity
  8
0
100
AcDbVertex
100
AcDb2dVertex
 10
0.3678918022592343
 20
4.485334684490366
 30
0.0
  0
SEQEND
  5
36B7
330
3074
100
AcDbEntity
  8
0
  0
LINE
  5
3079
330
1E
100
AcDbEntity
  8
0
100
AcDbLine
 10
0.3678918022592343
 20
4.485334684490366
 30
0.0
 11
0.3678918022592343
 21
4.518252991576981
 31
0.0
  0
POLYLINE
  5
307A
330
1E
100
AcDbEntity
  8
0
100
AcDb2dPolyline
 66
     1
 10
0.0
 20
0.0
 30
0.0
  0
VERTEX
  5
36B8
330
307A
100
AcDbEntity
  8
0
100
AcDbVertex
100
AcDb2dVertex
 10
0.3678918022592343
 20
4.518252991576981
 30
0.0
  0
VERTEX
  5
36B9
330
307A
100
AcDbEntity
  8
0
100
AcDbVertex
100
AcDb2dVertex
 10
0.3731587313930929
 20
4.53537051126202
 30
0.0
  0
VERTEX
  5
36BA
330
307A
100
AcDbEntity
  8
0
100
AcDbVertex
100
AcDb2dVertex
 10
0.3876427865112029
 20
4.545904369529736
 30
0.0
  0
VERTEX
  5
36BB
330
307A
100
AcDbEntity
  8
0
100
AcDbVertex
100
AcDb2dVertex
 10
0.4073937707631714
 20
4.545904369529736
 30
0.0
  0
VERTEX
  5
36BC
330
307A
100
AcDbEntity
  8
0
100
AcDbVertex
100
AcDb2dVertex
 10
0.4218778258812819
 20
4.53537051126202
 30
0.0
  0
VERTEX
  5
36BD
330
307A
100
AcDbEntity
  8
0
100
AcDbVertex
100
AcDb2dVertex
 10
0.42714475501514
 20
4.518252991576981
 30
0.0
  0
SEQEND
  5
36BE
330
307A
100
AcDbEntity
  8
0
  0
LINE
  5
3082
330
1E
100
AcDbEntity
  8
0
100
AcDbLine
 10
0.4271447550151404
 20
4.518252991576981
 30
0.0
 11
0.6733736920230147
 21
4.518252991576981
 31
0.0
  0
POLYLINE
  5
3083
330
1E
100
AcDbEntity
  8
0
100
AcDb2dPolyline
 66
     1
 10
0.0
 20
0.0
 30
0.0
  0
VERTEX
  5
36BF
330
3083
100
AcDbEntity
  8
0
100
AcDbVertex
100
AcDb2dVertex
 10
0.6733736920230143
 20
4.518252991576981
 30
0.0
  0
VERTEX
  5
36C0
330
3083
100
AcDbEntity
  8
0
100
AcDbVertex
100
AcDb2dVertex
 10
0.6786406211568723
 20
4.53537051126202
 30
0.0
  0
VERTEX
  5
36C1
330
3083
100
AcDbEntity
  8
0
100
AcDbVertex
100
AcDb2dVertex
 10
0.694441408558447
 20
4.545904369529736
 30
0.0
  0
VERTEX
  5
36C2
330
3083
100
AcDbEntity
  8
0
100
AcDbVertex
100
AcDb2dVertex
 10
0.7128756605269513
 20
4.545904369529736
 30
0.0
  0
VERTEX
  5
36C3
330
3083
100
AcDbEntity
  8
0
100
AcDbVertex
100
AcDb2dVertex
 10
0.7273597156450613
 20
4.53537051126202
 30
0.0
  0
VERTEX
  5
36C4
330
3083
100
AcDbEntity
  8
0
100
AcDbVertex
100
AcDb2dVertex
 10
0.7339433770623845
 20
4.518252991576981
 30
0.0
  0
SEQEND
  5
36C5
330
3083
100
AcDbEntity
  8
0
  0
LINE
  5
308B
330
1E
100
AcDbEntity
  8
0
100
AcDbLine
 10
0.7339433770623849
 20
4.485334684490366
 30
0.0
 11
0.7339433770623849
 21
4.518252991576981
 31
0.0
  0
POLYLINE
  5
308C
330
1E
100
AcDbEntity
  8
0
100
AcDb2dPolyline
 66
     1
 10
0.0
 20
0.0
 30
0.0
  0
VERTEX
  5
36C6
330
308C
100
AcDbEntity
  8
0
100
AcDbVertex
100
AcDb2dVertex
 10
0.7339433770623845
 20
4.485334684490366
 30
0.0
  0
VERTEX
  5
36C7
330
308C
100
AcDbEntity
  8
0
100
AcDbVertex
100
AcDb2dVertex
 10
0.7418437707631718
 20
4.462950235671469
 30
0.0
  0
VERTEX
  5
36C8
330
308C
100
AcDbEntity
  8
0
100
AcDbVertex
100
AcDb2dVertex
 10
0.7642282195820691
 20
4.455049841970682
 30
0.0
  0
SEQEND
  5
36C9
330
308C
100
AcDbEntity
  8
0
  0
POLYLINE
  5
3091
330
1E
100
AcDbEntity
  8
0
100
AcDb2dPolyline
 66
     1
 10
0.0
 20
0.0
 30
0.0
  0
VERTEX
  5
36CA
330
3091
100
AcDbEntity
  8
0
100
AcDbVertex
100
AcDb2dVertex
 10
1.085510896747423
 20
7.212287243545485
 30
0.0
  0
VERTEX
  5
36CB
330
3091
100
AcDbEntity
  8
0
100
AcDbVertex
100
AcDb2dVertex
 10
1.073660306196242
 20
7.214920708112414
 30
0.0
  0
VERTEX
  5
36CC
330
3091
100
AcDbEntity
  8
0
100
AcDbVertex
100
AcDb2dVertex
 10
1.063126447928526
 20
7.222821101813201
 30
0.0
  0
SEQEND
  5
36CD
330
3091
100
AcDbEntity
  8
0
  0
POLYLINE
  5
3096
330
1E
100
AcDbEntity
  8
0
100
AcDb2dPolyline
 66
     1
 10
0.0
 20
0.0
 30
0.0
  0
VERTEX
  5
36CE
330
3096
100
AcDbEntity
  8
0
100
AcDbVertex
100
AcDb2dVertex
 10
1.063126447928526
 20
7.222821101813201
 30
0.0
  0
VERTEX
  5
36CF
330
3096
100
AcDbEntity
  8
0
100
AcDbVertex
100
AcDb2dVertex
 10
1.052592589660809
 20
7.230721495513989
 30
0.0
  0
VERTEX
  5
36D0
330
3096
100
AcDbEntity
  8
0
100
AcDbVertex
100
AcDb2dVertex
 10
1.040741999109628
 20
7.233354960080918
 30
0.0
  0
SEQEND
  5
36D1
330
3096
100
AcDbEntity
  8
0
  0
LINE
  5
309B
330
1E
100
AcDbEntity
  8
0
100
AcDbLine
 10
0.8445488888734082
 20
7.233354960080918
 30
0.0
 11
1.040741999109628
 21
7.233354960080918
 31
0.0
  0
POLYLINE
  5
309C
330
1E
100
AcDbEntity
  8
0
100
AcDb2dPolyline
 66
     1
 10
0.0
 20
0.0
 30
0.0
  0
VERTEX
  5
36D2
330
309C
100
AcDbEntity
  8
0
100
AcDbVertex
100
AcDb2dVertex
 10
0.8445488888734079
 20
7.233354960080918
 30
0.0
  0
VERTEX
  5
36D3
330
309C
100
AcDbEntity
  8
0
100
AcDbVertex
100
AcDb2dVertex
 10
0.82216444005451
 20
7.224137834096666
 30
0.0
  0
VERTEX
  5
36D4
330
309C
100
AcDbEntity
  8
0
100
AcDbVertex
100
AcDb2dVertex
 10
0.8142640463537226
 20
7.203070117561232
 30
0.0
  0
SEQEND
  5
36D5
330
309C
100
AcDbEntity
  8
0
  0
LINE
  5
30A1
330
1E
100
AcDbEntity
  8
0
100
AcDbLine
 10
0.8142640463537222
 20
7.203070117561233
 30
0.0
 11
0.8142640463537222
 21
7.170151810474619
 31
0.0
  0
POLYLINE
  5
30A2
330
1E
100
AcDbEntity
  8
0
100
AcDb2dPolyline
 66
     1
 10
0.0
 20
0.0
 30
0.0
  0
VERTEX
  5
36D6
330
30A2
100
AcDbEntity
  8
0
100
AcDbVertex
100
AcDb2dVertex
 10
0.8142640463537226
 20
7.170151810474619
 30
0.0
  0
VERTEX
  5
36D7
330
30A2
100
AcDbEntity
  8
0
100
AcDbVertex
100
AcDb2dVertex
 10
0.8076803849364001
 20
7.151717558506115
 30
0.0
  0
VERTEX
  5
36D8
330
30A2
100
AcDbEntity
  8
0
100
AcDbVertex
100
AcDb2dVertex
 10
0.7931963298182896
 20
7.141183700238398
 30
0.0
  0
VERTEX
  5
36D9
330
30A2
100
AcDbEntity
  8
0
100
AcDbVertex
100
AcDb2dVertex
 10
0.7747620778497857
 20
7.141183700238398
 30
0.0
  0
VERTEX
  5
36DA
330
30A2
100
AcDbEntity
  8
0
100
AcDbVertex
100
AcDb2dVertex
 10
0.7589612904482111
 20
7.151717558506115
 30
0.0
  0
VERTEX
  5
36DB
330
30A2
100
AcDbEntity
  8
0
100
AcDbVertex
100
AcDb2dVertex
 10
0.7536943613143526
 20
7.170151810474619
 30
0.0
  0
SEQEND
  5
36DC
330
30A2
100
AcDbEntity
  8
0
  0
LINE
  5
30AA
330
1E
100
AcDbEntity
  8
0
100
AcDbLine
 10
0.5074654243064787
 20
7.170151810474619
 30
0.0
 11
0.753694361314353
 21
7.170151810474619
 31
0.0
  0
POLYLINE
  5
30AB
330
1E
100
AcDbEntity
  8
0
100
AcDb2dPolyline
 66
     1
 10
0.0
 20
0.0
 30
0.0
  0
VERTEX
  5
36DD
330
30AB
100
AcDbEntity
  8
0
100
AcDbVertex
100
AcDb2dVertex
 10
0.5074654243064787
 20
7.170151810474619
 30
0.0
  0
VERTEX
  5
36DE
330
30AB
100
AcDbEntity
  8
0
100
AcDbVertex
100
AcDb2dVertex
 10
0.5021984951726206
 20
7.151717558506115
 30
0.0
  0
VERTEX
  5
36DF
330
30AB
100
AcDbEntity
  8
0
100
AcDbVertex
100
AcDb2dVertex
 10
0.4877144400545102
 20
7.141183700238398
 30
0.0
  0
VERTEX
  5
36E0
330
30AB
100
AcDbEntity
  8
0
100
AcDbVertex
100
AcDb2dVertex
 10
0.4679634558025417
 20
7.141183700238398
 30
0.0
  0
VERTEX
  5
36E1
330
30AB
100
AcDbEntity
  8
0
100
AcDbVertex
100
AcDb2dVertex
 10
0.4534794006844312
 20
7.151717558506115
 30
0.0
  0
VERTEX
  5
36E2
330
30AB
100
AcDbEntity
  8
0
100
AcDbVertex
100
AcDb2dVertex
 10
0.4482124715505731
 20
7.170151810474619
 30
0.0
  0
SEQEND
  5
36E3
330
30AB
100
AcDbEntity
  8
0
  0
LINE
  5
30B3
330
1E
100
AcDbEntity
  8
0
100
AcDbLine
 10
0.4482124715505736
 20
7.203070117561233
 30
0.0
 11
0.4482124715505736
 21
7.170151810474619
 31
0.0
  0
POLYLINE
  5
30B4
330
1E
100
AcDbEntity
  8
0
100
AcDb2dPolyline
 66
     1
 10
0.0
 20
0.0
 30
0.0
  0
VERTEX
  5
36E4
330
30B4
100
AcDbEntity
  8
0
100
AcDbVertex
100
AcDb2dVertex
 10
0.4482124715505731
 20
7.203070117561232
 30
0.0
  0
VERTEX
  5
36E5
330
30B4
100
AcDbEntity
  8
0
100
AcDbVertex
100
AcDb2dVertex
 10
0.4389953455663212
 20
7.224137834096666
 30
0.0
  0
VERTEX
  5
36E6
330
30B4
100
AcDbEntity
  8
0
100
AcDbVertex
100
AcDb2dVertex
 10
0.417927629030888
 20
7.233354960080918
 30
0.0
  0
SEQEND
  5
36E7
330
30B4
100
AcDbEntity
  8
0
  0
LINE
  5
30B9
330
1E
100
AcDbEntity
  8
0
100
AcDbLine
 10
0.1835492825741953
 20
7.233354960080918
 30
0.0
 11
0.4179276290308885
 21
7.233354960080918
 31
0.0
  0
POLYLINE
  5
30BA
330
1E
100
AcDbEntity
  8
0
100
AcDb2dPolyline
 66
     1
 10
0.0
 20
0.0
 30
0.0
  0
VERTEX
  5
36E8
330
30BA
100
AcDbEntity
  8
0
100
AcDbVertex
100
AcDb2dVertex
 10
0.1835492825741953
 20
7.233354960080918
 30
0.0
  0
VERTEX
  5
36E9
330
30BA
100
AcDbEntity
  8
0
100
AcDbVertex
100
AcDb2dVertex
 10
0.1624815660387622
 20
7.241255353781706
 30
0.0
  0
VERTEX
  5
36EA
330
30BA
100
AcDbEntity
  8
0
100
AcDbVertex
100
AcDb2dVertex
 10
0.1532644400545102
 20
7.263639802600604
 30
0.0
  0
SEQEND
  5
36EB
330
30BA
100
AcDbEntity
  8
0
  0
LINE
  5
30BF
330
1E
100
AcDbEntity
  8
0
100
AcDbLine
 10
0.1532644400545102
 20
7.716595708112414
 30
0.0
 11
0.1532644400545102
 21
7.263639802600604
 31
0.0
  0
POLYLINE
  5
30C0
330
1E
100
AcDbEntity
  8
0
100
AcDb2dPolyline
 66
     1
 10
0.0
 20
0.0
 30
0.0
  0
VERTEX
  5
36EC
330
30C0
100
AcDbEntity
  8
0
100
AcDbVertex
100
AcDb2dVertex
 10
0.1532644400545102
 20
7.716595708112414
 30
0.0
  0
VERTEX
  5
36ED
330
30C0
100
AcDbEntity
  8
0
100
AcDbVertex
100
AcDb2dVertex
 10
0.1624815660387622
 20
7.737663424647847
 30
0.0
  0
VERTEX
  5
36EE
330
30C0
100
AcDbEntity
  8
0
100
AcDbVertex
100
AcDb2dVertex
 10
0.1835492825741953
 20
7.746880550632099
 30
0.0
  0
SEQEND
  5
36EF
330
30C0
100
AcDbEntity
  8
0
  0
LINE
  5
30C5
330
1E
100
AcDbEntity
  8
0
100
AcDbLine
 10
0.1835492825741953
 20
7.746880550632099
 30
0.0
 11
2.191566014857659
 21
7.746880550632099
 31
0.0
  0
POLYLINE
  5
30C6
330
1E
100
AcDbEntity
  8
0
100
AcDb2dPolyline
 66
     1
 10
0.0
 20
0.0
 30
0.0
  0
VERTEX
  5
36F0
330
30C6
100
AcDbEntity
  8
0
100
AcDbVertex
100
AcDb2dVertex
 10
2.191566014857659
 20
7.746880550632099
 30
0.0
  0
VERTEX
  5
36F1
330
30C6
100
AcDbEntity
  8
0
100
AcDbVertex
100
AcDb2dVertex
 10
2.212633731393093
 20
7.737663424647847
 30
0.0
  0
VERTEX
  5
36F2
330
30C6
100
AcDbEntity
  8
0
100
AcDbVertex
100
AcDb2dVertex
 10
2.221850857377345
 20
7.716595708112414
 30
0.0
  0
SEQEND
  5
36F3
330
30C6
100
AcDbEntity
  8
0
  0
LINE
  5
30CB
330
1E
100
AcDbEntity
  8
0
100
AcDbLine
 10
2.221850857377345
 20
7.716595708112414
 30
0.0
 11
2.221850857377345
 21
7.263639802600604
 31
0.0
  0
POLYLINE
  5
30CC
330
1E
100
AcDbEntity
  8
0
100
AcDb2dPolyline
 66
     1
 10
0.0
 20
0.0
 30
0.0
  0
VERTEX
  5
36F4
330
30CC
100
AcDbEntity
  8
0
100
AcDbVertex
100
AcDb2dVertex
 10
2.221850857377345
 20
7.263639802600604
 30
0.0
  0
VERTEX
  5
36F5
330
30CC
100
AcDbEntity
  8
0
100
AcDbVertex
100
AcDb2dVertex
 10
2.212633731393093
 20
7.241255353781706
 30
0.0
  0
VERTEX
  5
36F6
330
30CC
100
AcDbEntity
  8
0
100
AcDbVertex
100
AcDb2dVertex
 10
2.191566014857659
 20
7.233354960080918
 30
0.0
  0
SEQEND
  5
36F7
330
30CC
100
AcDbEntity
  8
0
  0
LINE
  5
30D1
330
1E
100
AcDbEntity
  8
0
100
AcDbLine
 10
1.957187668400967
 20
7.233354960080918
 30
0.0
 11
2.191566014857659
 21
7.233354960080918
 31
0.0
  0
POLYLINE
  5
30D2
330
1E
100
AcDbEntity
  8
0
100
AcDb2dPolyline
 66
     1
 10
0.0
 20
0.0
 30
0.0
  0
VERTEX
  5
36F8
330
30D2
100
AcDbEntity
  8
0
100
AcDbVertex
100
AcDb2dVertex
 10
1.957187668400967
 20
7.233354960080918
 30
0.0
  0
VERTEX
  5
36F9
330
30D2
100
AcDbEntity
  8
0
100
AcDbVertex
100
AcDb2dVertex
 10
1.936119951865534
 20
7.224137834096666
 30
0.0
  0
VERTEX
  5
36FA
330
30D2
100
AcDbEntity
  8
0
100
AcDbVertex
100
AcDb2dVertex
 10
1.928219558164746
 20
7.203070117561232
 30
0.0
  0
SEQEND
  5
36FB
330
30D2
100
AcDbEntity
  8
0
  0
LINE
  5
30D7
330
1E
100
AcDbEntity
  8
0
100
AcDbLine
 10
1.928219558164746
 20
7.203070117561233
 30
0.0
 11
1.928219558164746
 21
7.170151810474619
 31
0.0
  0
POLYLINE
  5
30D8
330
1E
100
AcDbEntity
  8
0
100
AcDb2dPolyline
 66
     1
 10
0.0
 20
0.0
 30
0.0
  0
VERTEX
  5
36FC
330
30D8
100
AcDbEntity
  8
0
100
AcDbVertex
100
AcDb2dVertex
 10
1.928219558164746
 20
7.170151810474619
 30
0.0
  0
VERTEX
  5
36FD
330
30D8
100
AcDbEntity
  8
0
100
AcDbVertex
100
AcDb2dVertex
 10
1.921635896747423
 20
7.151717558506115
 30
0.0
  0
VERTEX
  5
36FE
330
30D8
100
AcDbEntity
  8
0
100
AcDbVertex
100
AcDb2dVertex
 10
1.907151841629313
 20
7.141183700238398
 30
0.0
  0
VERTEX
  5
36FF
330
30D8
100
AcDbEntity
  8
0
100
AcDbVertex
100
AcDb2dVertex
 10
1.888717589660809
 20
7.141183700238398
 30
0.0
  0
VERTEX
  5
3700
330
30D8
100
AcDbEntity
  8
0
100
AcDbVertex
100
AcDb2dVertex
 10
1.872916802259234
 20
7.151717558506115
 30
0.0
  0
VERTEX
  5
3701
330
30D8
100
AcDbEntity
  8
0
100
AcDbVertex
100
AcDb2dVertex
 10
1.867649873125376
 20
7.170151810474619
 30
0.0
  0
SEQEND
  5
3702
330
30D8
100
AcDbEntity
  8
0
  0
LINE
  5
30E0
330
1E
100
AcDbEntity
  8
0
100
AcDbLine
 10
1.867649873125376
 20
7.170151810474619
 30
0.0
 11
1.621420936117502
 21
7.170151810474619
 31
0.0
  0
POLYLINE
  5
30E1
330
1E
100
AcDbEntity
  8
0
100
AcDb2dPolyline
 66
     1
 10
0.0
 20
0.0
 30
0.0
  0
VERTEX
  5
3703
330
30E1
100
AcDbEntity
  8
0
100
AcDbVertex
100
AcDb2dVertex
 10
1.621420936117502
 20
7.170151810474619
 30
0.0
  0
VERTEX
  5
3704
330
30E1
100
AcDbEntity
  8
0
100
AcDbVertex
100
AcDb2dVertex
 10
1.616154006983643
 20
7.151717558506115
 30
0.0
  0
VERTEX
  5
3705
330
30E1
100
AcDbEntity
  8
0
100
AcDbVertex
100
AcDb2dVertex
 10
1.600353219582069
 20
7.141183700238398
 30
0.0
  0
VERTEX
  5
3706
330
30E1
100
AcDbEntity
  8
0
100
AcDbVertex
100
AcDb2dVertex
 10
1.581918967613565
 20
7.141183700238398
 30
0.0
  0
VERTEX
  5
3707
330
30E1
100
AcDbEntity
  8
0
100
AcDbVertex
100
AcDb2dVertex
 10
1.567434912495455
 20
7.151717558506115
 30
0.0
  0
VERTEX
  5
3708
330
30E1
100
AcDbEntity
  8
0
100
AcDbVertex
100
AcDb2dVertex
 10
1.560851251078132
 20
7.170151810474619
 30
0.0
  0
SEQEND
  5
3709
330
30E1
100
AcDbEntity
  8
0
  0
LINE
  5
30E9
330
1E
100
AcDbEntity
  8
0
100
AcDbLine
 10
1.560851251078132
 20
7.203070117561233
 30
0.0
 11
1.560851251078132
 21
7.170151810474619
 31
0.0
  0
POLYLINE
  5
30EA
330
1E
100
AcDbEntity
  8
0
100
AcDb2dPolyline
 66
     1
 10
0.0
 20
0.0
 30
0.0
  0
VERTEX
  5
370A
330
30EA
100
AcDbEntity
  8
0
100
AcDbVertex
100
AcDb2dVertex
 10
1.560851251078132
 20
7.203070117561232
 30
0.0
  0
VERTEX
  5
370B
330
30EA
100
AcDbEntity
  8
0
100
AcDbVertex
100
AcDb2dVertex
 10
1.552950857377344
 20
7.224137834096666
 30
0.0
  0
VERTEX
  5
370C
330
30EA
100
AcDbEntity
  8
0
100
AcDbVertex
100
AcDb2dVertex
 10
1.531883140841912
 20
7.233354960080918
 30
0.0
  0
SEQEND
  5
370D
330
30EA
100
AcDbEntity
  8
0
  0
LINE
  5
30EF
330
1E
100
AcDbEntity
  8
0
100
AcDbLine
 10
1.334373298322226
 20
7.233354960080918
 30
0.0
 11
1.531883140841912
 21
7.233354960080918
 31
0.0
  0
POLYLINE
  5
30F0
330
1E
100
AcDbEntity
  8
0
100
AcDb2dPolyline
 66
     1
 10
0.0
 20
0.0
 30
0.0
  0
VERTEX
  5
370E
330
30F0
100
AcDbEntity
  8
0
100
AcDbVertex
100
AcDb2dVertex
 10
1.334373298322226
 20
7.233354960080918
 30
0.0
  0
VERTEX
  5
370F
330
30F0
100
AcDbEntity
  8
0
100
AcDbVertex
100
AcDb2dVertex
 10
1.322522707771045
 20
7.230721495513989
 30
0.0
  0
VERTEX
  5
3710
330
30F0
100
AcDbEntity
  8
0
100
AcDbVertex
100
AcDb2dVertex
 10
1.311988849503329
 20
7.222821101813201
 30
0.0
  0
SEQEND
  5
3711
330
30F0
100
AcDbEntity
  8
0
  0
POLYLINE
  5
30F5
330
1E
100
AcDbEntity
  8
0
100
AcDb2dPolyline
 66
     1
 10
0.0
 20
0.0
 30
0.0
  0
VERTEX
  5
3712
330
30F5
100
AcDbEntity
  8
0
100
AcDbVertex
100
AcDb2dVertex
 10
1.311988849503329
 20
7.222821101813201
 30
0.0
  0
VERTEX
  5
3713
330
30F5
100
AcDbEntity
  8
0
100
AcDbVertex
100
AcDb2dVertex
 10
1.301454991235612
 20
7.214920708112414
 30
0.0
  0
VERTEX
  5
3714
330
30F5
100
AcDbEntity
  8
0
100
AcDbVertex
100
AcDb2dVertex
 10
1.289604400684431
 20
7.212287243545485
 30
0.0
  0
SEQEND
  5
3715
330
30F5
100
AcDbEntity
  8
0
  0
LINE
  5
30FA
330
1E
100
AcDbEntity
  8
0
100
AcDbLine
 10
1.288287668400966
 20
7.212287243545485
 30
0.0
 11
1.289604400684431
 21
7.212287243545485
 31
0.0
  0
POLYLINE
  5
30FB
330
1E
100
AcDbEntity
  8
0
100
AcDb2dPolyline
 66
     1
 10
0.0
 20
0.0
 30
0.0
  0
VERTEX
  5
3716
330
30FB
100
AcDbEntity
  8
0
100
AcDbVertex
100
AcDb2dVertex
 10
1.288287668400966
 20
7.212287243545485
 30
0.0
  0
VERTEX
  5
3717
330
30FB
100
AcDbEntity
  8
0
100
AcDbVertex
100
AcDb2dVertex
 10
1.272486880999392
 20
7.216237440395879
 30
0.0
  0
VERTEX
  5
3718
330
30FB
100
AcDbEntity
  8
0
100
AcDbVertex
100
AcDb2dVertex
 10
1.261953022731675
 20
7.228088030947059
 30
0.0
  0
SEQEND
  5
3719
330
30FB
100
AcDbEntity
  8
0
  0
LINE
  5
3100
330
1E
100
AcDbEntity
  8
0
100
AcDbLine
 10
1.113162274700179
 20
7.228088030947059
 30
0.0
 11
1.261953022731676
 21
7.228088030947059
 31
0.0
  0
POLYLINE
  5
3101
330
1E
100
AcDbEntity
  8
0
100
AcDb2dPolyline
 66
     1
 10
0.0
 20
0.0
 30
0.0
  0
VERTEX
  5
371A
330
3101
100
AcDbEntity
  8
0
100
AcDbVertex
100
AcDb2dVertex
 10
1.113162274700179
 20
7.228088030947059
 30
0.0
  0
VERTEX
  5
371B
330
3101
100
AcDbEntity
  8
0
100
AcDbVertex
100
AcDb2dVertex
 10
1.102628416432463
 20
7.216237440395879
 30
0.0
  0
VERTEX
  5
371C
330
3101
100
AcDbEntity
  8
0
100
AcDbVertex
100
AcDb2dVertex
 10
1.086827629030888
 20
7.212287243545485
 30
0.0
  0
SEQEND
  5
371D
330
3101
100
AcDbEntity
  8
0
  0
LINE
  5
3106
330
1E
100
AcDbEntity
  8
0
100
AcDbLine
 10
1.086827629030888
 20
7.212287243545485
 30
0.0
 11
1.085510896747423
 21
7.212287243545485
 31
0.0
  0
LINE
  5
3107
330
1E
100
AcDbEntity
  8
0
100
AcDbLine
 10
2.381175463676557
 20
7.915422282915564
 30
0.0
 11
-0.0060601662447022
 21
7.915422282915564
 31
0.0
  0
LINE
  5
3108
330
1E
100
AcDbEntity
  8
0
100
AcDbLine
 10
-0.0060601662447022
 20
3.771665786852572
 30
0.0
 11
-0.0060601662447022
 21
7.915422282915564
 31
0.0
  0
LINE
  5
3109
330
1E
100
AcDbEntity
  8
0
100
AcDbLine
 10
2.381175463676557
 20
3.771665786852572
 30
0.0
 11
-0.0060601662447022
 21
3.771665786852572
 31
0.0
  0
LINE
  5
310A
330
1E
100
AcDbEntity
  8
0
100
AcDbLine
 10
0.3046886526529349
 20
6.110182322285642
 30
0.0
 11
0.3046886526529349
 21
6.06936362149824
 31
0.0
  0
POLYLINE
  5
310B
330
1E
100
AcDbEntity
  8
0
100
AcDb2dPolyline
 66
     1
 10
0.0
 20
0.0
 30
0.0
  0
VERTEX
  5
371E
330
310B
100
AcDbEntity
  8
0
100
AcDbVertex
100
AcDb2dVertex
 10
0.3046886526529353
 20
6.110182322285642
 30
0.0
  0
VERTEX
  5
371F
330
310B
100
AcDbEntity
  8
0
100
AcDbVertex
100
AcDb2dVertex
 10
0.3007384558025419
 20
6.119399448269894
 30
0.0
  0
VERTEX
  5
3720
330
310B
100
AcDbEntity
  8
0
100
AcDbVertex
100
AcDb2dVertex
 10
0.2928380621017545
 20
6.122032912836824
 30
0.0
  0
SEQEND
  5
3721
330
310B
100
AcDbEntity
  8
0
  0
LINE
  5
3110
330
1E
100
AcDbEntity
  8
0
100
AcDbLine
 10
0.2493858967474241
 20
6.122032912836824
 30
0.0
 11
0.2928380621017545
 21
6.122032912836824
 31
0.0
  0
POLYLINE
  5
3111
330
1E
100
AcDbEntity
  8
0
100
AcDb2dPolyline
 66
     1
 10
0.0
 20
0.0
 30
0.0
  0
VERTEX
  5
3722
330
3111
100
AcDbEntity
  8
0
100
AcDbVertex
100
AcDb2dVertex
 10
0.2493858967474236
 20
6.122032912836824
 30
0.0
  0
VERTEX
  5
3723
330
3111
100
AcDbEntity
  8
0
100
AcDbVertex
100
AcDb2dVertex
 10
0.2401687707631717
 20
6.125983109687217
 30
0.0
  0
VERTEX
  5
3724
330
3111
100
AcDbEntity
  8
0
100
AcDbVertex
100
AcDb2dVertex
 10
0.2375353061962424
 20
6.133883503388005
 30
0.0
  0
SEQEND
  5
3725
330
3111
100
AcDbEntity
  8
0
  0
LINE
  5
3116
330
1E
100
AcDbEntity
  8
0
100
AcDbLine
 10
0.237535306196242
 20
6.77249866086832
 30
0.0
 11
0.237535306196242
 21
6.133883503388005
 31
0.0
  0
POLYLINE
  5
3117
330
1E
100
AcDbEntity
  8
0
100
AcDb2dPolyline
 66
     1
 10
0.0
 20
0.0
 30
0.0
  0
VERTEX
  5
3726
330
3117
100
AcDbEntity
  8
0
100
AcDbVertex
100
AcDb2dVertex
 10
0.2375353061962424
 20
6.77249866086832
 30
0.0
  0
VERTEX
  5
3727
330
3117
100
AcDbEntity
  8
0
100
AcDbVertex
100
AcDb2dVertex
 10
0.2401687707631717
 20
6.780399054569107
 30
0.0
  0
VERTEX
  5
3728
330
3117
100
AcDbEntity
  8
0
100
AcDbVertex
100
AcDb2dVertex
 10
0.2493858967474236
 20
6.7843492514195
 30
0.0
  0
SEQEND
  5
3729
330
3117
100
AcDbEntity
  8
0
  0
LINE
  5
311C
330
1E
100
AcDbEntity
  8
0
100
AcDbLine
 10
0.8524492825741951
 20
6.7843492514195
 30
0.0
 11
0.2493858967474241
 21
6.7843492514195
 31
0.0
  0
POLYLINE
  5
311D
330
1E
100
AcDbEntity
  8
0
100
AcDb2dPolyline
 66
     1
 10
0.0
 20
0.0
 30
0.0
  0
VERTEX
  5
372A
330
311D
100
AcDbEntity
  8
0
100
AcDbVertex
100
AcDb2dVertex
 10
0.8524492825741951
 20
6.7843492514195
 30
0.0
  0
VERTEX
  5
372B
330
311D
100
AcDbEntity
  8
0
100
AcDbVertex
100
AcDb2dVertex
 10
0.8603496762749824
 20
6.780399054569107
 30
0.0
  0
VERTEX
  5
372C
330
311D
100
AcDbEntity
  8
0
100
AcDbVertex
100
AcDb2dVertex
 10
0.8642998731253758
 20
6.77249866086832
 30
0.0
  0
SEQEND
  5
372D
330
311D
100
AcDbEntity
  8
0
  0
LINE
  5
3122
330
1E
100
AcDbEntity
  8
0
100
AcDbLine
 10
0.8642998731253763
 20
6.133883503388005
 30
0.0
 11
0.8642998731253763
 21
6.77249866086832
 31
0.0
  0
POLYLINE
  5
3123
330
1E
100
AcDbEntity
  8
0
100
AcDb2dPolyline
 66
     1
 10
0.0
 20
0.0
 30
0.0
  0
VERTEX
  5
372E
330
3123
100
AcDbEntity
  8
0
100
AcDbVertex
100
AcDb2dVertex
 10
0.8642998731253758
 20
6.133883503388005
 30
0.0
  0
VERTEX
  5
372F
330
3123
100
AcDbEntity
  8
0
100
AcDbVertex
100
AcDb2dVertex
 10
0.8603496762749824
 20
6.125983109687217
 30
0.0
  0
VERTEX
  5
3730
330
3123
100
AcDbEntity
  8
0
100
AcDbVertex
100
AcDb2dVertex
 10
0.8524492825741951
 20
6.122032912836824
 30
0.0
  0
SEQEND
  5
3731
330
3123
100
AcDbEntity
  8
0
  0
LINE
  5
3128
330
1E
100
AcDbEntity
  8
0
100
AcDbLine
 10
0.8089971172198646
 20
6.122032912836824
 30
0.0
 11
0.8524492825741951
 21
6.122032912836824
 31
0.0
  0
POLYLINE
  5
3129
330
1E
100
AcDbEntity
  8
0
100
AcDb2dPolyline
 66
     1
 10
0.0
 20
0.0
 30
0.0
  0
VERTEX
  5
3732
330
3129
100
AcDbEntity
  8
0
100
AcDbVertex
100
AcDb2dVertex
 10
0.8089971172198641
 20
6.122032912836824
 30
0.0
  0
VERTEX
  5
3733
330
3129
100
AcDbEntity
  8
0
100
AcDbVertex
100
AcDb2dVertex
 10
0.7997799912356128
 20
6.119399448269894
 30
0.0
  0
VERTEX
  5
3734
330
3129
100
AcDbEntity
  8
0
100
AcDbVertex
100
AcDb2dVertex
 10
0.7958297943852189
 20
6.110182322285642
 30
0.0
  0
SEQEND
  5
3735
330
3129
100
AcDbEntity
  8
0
  0
LINE
  5
312E
330
1E
100
AcDbEntity
  8
0
100
AcDbLine
 10
0.7958297943852184
 20
6.06936362149824
 30
0.0
 11
0.7958297943852184
 21
6.110182322285642
 31
0.0
  0
POLYLINE
  5
312F
330
1E
100
AcDbEntity
  8
0
100
AcDb2dPolyline
 66
     1
 10
0.0
 20
0.0
 30
0.0
  0
VERTEX
  5
3736
330
312F
100
AcDbEntity
  8
0
100
AcDbVertex
100
AcDb2dVertex
 10
0.7958297943852189
 20
6.06936362149824
 30
0.0
  0
VERTEX
  5
3737
330
312F
100
AcDbEntity
  8
0
100
AcDbVertex
100
AcDb2dVertex
 10
0.7931963298182896
 20
6.060146495513989
 30
0.0
  0
VERTEX
  5
3738
330
312F
100
AcDbEntity
  8
0
100
AcDbVertex
100
AcDb2dVertex
 10
0.7839792038340381
 20
6.05751303094706
 30
0.0
  0
SEQEND
  5
3739
330
312F
100
AcDbEntity
  8
0
  0
LINE
  5
3134
330
1E
100
AcDbEntity
  8
0
100
AcDbLine
 10
0.3165392432041161
 20
6.05751303094706
 30
0.0
 11
0.7839792038340381
 21
6.05751303094706
 31
0.0
  0
POLYLINE
  5
3135
330
1E
100
AcDbEntity
  8
0
100
AcDb2dPolyline
 66
     1
 10
0.0
 20
0.0
 30
0.0
  0
VERTEX
  5
373A
330
3135
100
AcDbEntity
  8
0
100
AcDbVertex
100
AcDb2dVertex
 10
0.3165392432041165
 20
6.05751303094706
 30
0.0
  0
VERTEX
  5
373B
330
3135
100
AcDbEntity
  8
0
100
AcDbVertex
100
AcDb2dVertex
 10
0.3086388495033292
 20
6.060146495513989
 30
0.0
  0
VERTEX
  5
373C
330
3135
100
AcDbEntity
  8
0
100
AcDbVertex
100
AcDb2dVertex
 10
0.3046886526529353
 20
6.06936362149824
 30
0.0
  0
SEQEND
  5
373D
330
3135
100
AcDbEntity
  8
0
  0
LINE
  5
313A
330
1E
100
AcDbEntity
  8
0
100
AcDbLine
 10
0.8089971172198646
 20
4.968575432521863
 30
0.0
 11
0.8524492825741951
 21
4.968575432521863
 31
0.0
  0
POLYLINE
  5
313B
330
1E
100
AcDbEntity
  8
0
100
AcDb2dPolyline
 66
     1
 10
0.0
 20
0.0
 30
0.0
  0
VERTEX
  5
373E
330
313B
100
AcDbEntity
  8
0
100
AcDbVertex
100
AcDb2dVertex
 10
0.8089971172198641
 20
4.968575432521863
 30
0.0
  0
VERTEX
  5
373F
330
313B
100
AcDbEntity
  8
0
100
AcDbVertex
100
AcDb2dVertex
 10
0.7997799912356128
 20
4.964625235671469
 30
0.0
  0
VERTEX
  5
3740
330
313B
100
AcDbEntity
  8
0
100
AcDbVertex
100
AcDb2dVertex
 10
0.7958297943852189
 20
4.956724841970682
 30
0.0
  0
SEQEND
  5
3741
330
313B
100
AcDbEntity
  8
0
  0
LINE
  5
3140
330
1E
100
AcDbEntity
  8
0
100
AcDbLine
 10
0.7958297943852184
 20
4.91590614118328
 30
0.0
 11
0.7958297943852184
 21
4.956724841970682
 31
0.0
  0
POLYLINE
  5
3141
330
1E
100
AcDbEntity
  8
0
100
AcDb2dPolyline
 66
     1
 10
0.0
 20
0.0
 30
0.0
  0
VERTEX
  5
3742
330
3141
100
AcDbEntity
  8
0
100
AcDbVertex
100
AcDb2dVertex
 10
0.7958297943852189
 20
4.91590614118328
 30
0.0
  0
VERTEX
  5
3743
330
3141
100
AcDbEntity
  8
0
100
AcDbVertex
100
AcDb2dVertex
 10
0.7931963298182896
 20
4.906689015199028
 30
0.0
  0
VERTEX
  5
3744
330
3141
100
AcDbEntity
  8
0
100
AcDbVertex
100
AcDb2dVertex
 10
0.7839792038340381
 20
4.902738818348634
 30
0.0
  0
SEQEND
  5
3745
330
3141
100
AcDbEntity
  8
0
  0
LINE
  5
3146
330
1E
100
AcDbEntity
  8
0
100
AcDbLine
 10
0.3165392432041161
 20
4.902738818348634
 30
0.0
 11
0.7839792038340381
 21
4.902738818348634
 31
0.0
  0
POLYLINE
  5
3147
330
1E
100
AcDbEntity
  8
0
100
AcDb2dPolyline
 66
     1
 10
0.0
 20
0.0
 30
0.0
  0
VERTEX
  5
3746
330
3147
100
AcDbEntity
  8
0
100
AcDbVertex
100
AcDb2dVertex
 10
0.3165392432041165
 20
4.902738818348634
 30
0.0
  0
VERTEX
  5
3747
330
3147
100
AcDbEntity
  8
0
100
AcDbVertex
100
AcDb2dVertex
 10
0.3086388495033292
 20
4.906689015199028
 30
0.0
  0
VERTEX
  5
3748
330
3147
100
AcDbEntity
  8
0
100
AcDbVertex
100
AcDb2dVertex
 10
0.3046886526529353
 20
4.91590614118328
 30
0.0
  0
SEQEND
  5
3749
330
3147
100
AcDbEntity
  8
0
  0
LINE
  5
314C
330
1E
100
AcDbEntity
  8
0
100
AcDbLine
 10
0.3046886526529349
 20
4.956724841970682
 30
0.0
 11
0.3046886526529349
 21
4.91590614118328
 31
0.0
  0
POLYLINE
  5
314D
330
1E
100
AcDbEntity
  8
0
100
AcDb2dPolyline
 66
     1
 10
0.0
 20
0.0
 30
0.0
  0
VERTEX
  5
374A
330
314D
100
AcDbEntity
  8
0
100
AcDbVertex
100
AcDb2dVertex
 10
0.3046886526529353
 20
4.956724841970682
 30
0.0
  0
VERTEX
  5
374B
330
314D
100
AcDbEntity
  8
0
100
AcDbVertex
100
AcDb2dVertex
 10
0.3007384558025419
 20
4.964625235671469
 30
0.0
  0
VERTEX
  5
374C
330
314D
100
AcDbEntity
  8
0
100
AcDbVertex
100
AcDb2dVertex
 10
0.2928380621017545
 20
4.968575432521863
 30
0.0
  0
SEQEND
  5
374D
330
314D
100
AcDbEntity
  8
0
  0
LINE
  5
3152
330
1E
100
AcDbEntity
  8
0
100
AcDbLine
 10
0.2493858967474241
 20
4.968575432521863
 30
0.0
 11
0.2928380621017545
 21
4.968575432521863
 31
0.0
  0
POLYLINE
  5
3153
330
1E
100
AcDbEntity
  8
0
100
AcDb2dPolyline
 66
     1
 10
0.0
 20
0.0
 30
0.0
  0
VERTEX
  5
374E
330
3153
100
AcDbEntity
  8
0
100
AcDbVertex
100
AcDb2dVertex
 10
0.2493858967474236
 20
4.968575432521863
 30
0.0
  0
VERTEX
  5
374F
330
3153
100
AcDbEntity
  8
0
100
AcDbVertex
100
AcDb2dVertex
 10
0.2401687707631717
 20
4.972525629372257
 30
0.0
  0
VERTEX
  5
3750
330
3153
100
AcDbEntity
  8
0
100
AcDbVertex
100
AcDb2dVertex
 10
0.2375353061962424
 20
4.980426023073044
 30
0.0
  0
SEQEND
  5
3751
330
3153
100
AcDbEntity
  8
0
  0
LINE
  5
3158
330
1E
100
AcDbEntity
  8
0
100
AcDbLine
 10
0.237535306196242
 20
5.619041180553359
 30
0.0
 11
0.237535306196242
 21
4.980426023073044
 31
0.0
  0
POLYLINE
  5
3159
330
1E
100
AcDbEntity
  8
0
100
AcDb2dPolyline
 66
     1
 10
0.0
 20
0.0
 30
0.0
  0
VERTEX
  5
3752
330
3159
100
AcDbEntity
  8
0
100
AcDbVertex
100
AcDb2dVertex
 10
0.2375353061962424
 20
5.619041180553359
 30
0.0
  0
VERTEX
  5
3753
330
3159
100
AcDbEntity
  8
0
100
AcDbVertex
100
AcDb2dVertex
 10
0.2401687707631717
 20
5.626941574254146
 30
0.0
  0
VERTEX
  5
3754
330
3159
100
AcDbEntity
  8
0
100
AcDbVertex
100
AcDb2dVertex
 10
0.2493858967474236
 20
5.630891771104541
 30
0.0
  0
SEQEND
  5
3755
330
3159
100
AcDbEntity
  8
0
  0
LINE
  5
315E
330
1E
100
AcDbEntity
  8
0
100
AcDbLine
 10
0.8524492825741951
 20
5.630891771104541
 30
0.0
 11
0.2493858967474241
 21
5.630891771104541
 31
0.0
  0
POLYLINE
  5
315F
330
1E
100
AcDbEntity
  8
0
100
AcDb2dPolyline
 66
     1
 10
0.0
 20
0.0
 30
0.0
  0
VERTEX
  5
3756
330
315F
100
AcDbEntity
  8
0
100
AcDbVertex
100
AcDb2dVertex
 10
0.8524492825741951
 20
5.630891771104541
 30
0.0
  0
VERTEX
  5
3757
330
315F
100
AcDbEntity
  8
0
100
AcDbVertex
100
AcDb2dVertex
 10
0.8603496762749824
 20
5.626941574254146
 30
0.0
  0
VERTEX
  5
3758
330
315F
100
AcDbEntity
  8
0
100
AcDbVertex
100
AcDb2dVertex
 10
0.8642998731253758
 20
5.619041180553359
 30
0.0
  0
SEQEND
  5
3759
330
315F
100
AcDbEntity
  8
0
  0
LINE
  5
3164
330
1E
100
AcDbEntity
  8
0
100
AcDbLine
 10
0.8642998731253763
 20
4.980426023073044
 30
0.0
 11
0.8642998731253763
 21
5.619041180553359
 31
0.0
  0
POLYLINE
  5
3165
330
1E
100
AcDbEntity
  8
0
100
AcDb2dPolyline
 66
     1
 10
0.0
 20
0.0
 30
0.0
  0
VERTEX
  5
375A
330
3165
100
AcDbEntity
  8
0
100
AcDbVertex
100
AcDb2dVertex
 10
0.8642998731253758
 20
4.980426023073044
 30
0.0
  0
VERTEX
  5
375B
330
3165
100
AcDbEntity
  8
0
100
AcDbVertex
100
AcDb2dVertex
 10
0.8603496762749824
 20
4.972525629372257
 30
0.0
  0
VERTEX
  5
375C
330
3165
100
AcDbEntity
  8
0
100
AcDbVertex
100
AcDb2dVertex
 10
0.8524492825741951
 20
4.968575432521863
 30
0.0
  0
SEQEND
  5
375D
330
3165
100
AcDbEntity
  8
0
  0
LINE
  5
316A
330
1E
100
AcDbEntity
  8
0
100
AcDbLine
 10
1.579285503046635
 20
4.956724841970682
 30
0.0
 11
1.579285503046635
 21
4.91590614118328
 31
0.0
  0
POLYLINE
  5
316B
330
1E
100
AcDbEntity
  8
0
100
AcDb2dPolyline
 66
     1
 10
0.0
 20
0.0
 30
0.0
  0
VERTEX
  5
375E
330
316B
100
AcDbEntity
  8
0
100
AcDbVertex
100
AcDb2dVertex
 10
1.579285503046635
 20
4.956724841970682
 30
0.0
  0
VERTEX
  5
375F
330
316B
100
AcDbEntity
  8
0
100
AcDbVertex
100
AcDb2dVertex
 10
1.575335306196242
 20
4.964625235671469
 30
0.0
  0
VERTEX
  5
3760
330
316B
100
AcDbEntity
  8
0
100
AcDbVertex
100
AcDb2dVertex
 10
1.567434912495455
 20
4.968575432521863
 30
0.0
  0
SEQEND
  5
3761
330
316B
100
AcDbEntity
  8
0
  0
LINE
  5
3170
330
1E
100
AcDbEntity
  8
0
100
AcDbLine
 10
1.522666014857659
 20
4.968575432521863
 30
0.0
 11
1.567434912495455
 21
4.968575432521863
 31
0.0
  0
POLYLINE
  5
3171
330
1E
100
AcDbEntity
  8
0
100
AcDb2dPolyline
 66
     1
 10
0.0
 20
0.0
 30
0.0
  0
VERTEX
  5
3762
330
3171
100
AcDbEntity
  8
0
100
AcDbVertex
100
AcDb2dVertex
 10
1.522666014857659
 20
4.968575432521863
 30
0.0
  0
VERTEX
  5
3763
330
3171
100
AcDbEntity
  8
0
100
AcDbVertex
100
AcDb2dVertex
 10
1.514765621156872
 20
4.972525629372257
 30
0.0
  0
VERTEX
  5
3764
330
3171
100
AcDbEntity
  8
0
100
AcDbVertex
100
AcDb2dVertex
 10
1.510815424306478
 20
4.980426023073044
 30
0.0
  0
SEQEND
  5
3765
330
3171
100
AcDbEntity
  8
0
  0
LINE
  5
3176
330
1E
100
AcDbEntity
  8
0
100
AcDbLine
 10
1.510815424306478
 20
5.619041180553359
 30
0.0
 11
1.510815424306478
 21
4.980426023073044
 31
0.0
  0
POLYLINE
  5
3177
330
1E
100
AcDbEntity
  8
0
100
AcDb2dPolyline
 66
     1
 10
0.0
 20
0.0
 30
0.0
  0
VERTEX
  5
3766
330
3177
100
AcDbEntity
  8
0
100
AcDbVertex
100
AcDb2dVertex
 10
1.510815424306478
 20
5.619041180553359
 30
0.0
  0
VERTEX
  5
3767
330
3177
100
AcDbEntity
  8
0
100
AcDbVertex
100
AcDb2dVertex
 10
1.514765621156872
 20
5.626941574254146
 30
0.0
  0
VERTEX
  5
3768
330
3177
100
AcDbEntity
  8
0
100
AcDbVertex
100
AcDb2dVertex
 10
1.522666014857659
 20
5.630891771104541
 30
0.0
  0
SEQEND
  5
3769
330
3177
100
AcDbEntity
  8
0
  0
LINE
  5
317C
330
1E
100
AcDbEntity
  8
0
100
AcDbLine
 10
2.125729400684431
 20
5.630891771104541
 30
0.0
 11
1.522666014857659
 21
5.630891771104541
 31
0.0
  0
POLYLINE
  5
317D
330
1E
100
AcDbEntity
  8
0
100
AcDb2dPolyline
 66
     1
 10
0.0
 20
0.0
 30
0.0
  0
VERTEX
  5
376A
330
317D
100
AcDbEntity
  8
0
100
AcDbVertex
100
AcDb2dVertex
 10
2.125729400684431
 20
5.630891771104541
 30
0.0
  0
VERTEX
  5
376B
330
317D
100
AcDbEntity
  8
0
100
AcDbVertex
100
AcDb2dVertex
 10
2.134946526668684
 20
5.626941574254146
 30
0.0
  0
VERTEX
  5
376C
330
317D
100
AcDbEntity
  8
0
100
AcDbVertex
100
AcDb2dVertex
 10
2.138896723519077
 20
5.619041180553359
 30
0.0
  0
SEQEND
  5
376D
330
317D
100
AcDbEntity
  8
0
  0
LINE
  5
3182
330
1E
100
AcDbEntity
  8
0
100
AcDbLine
 10
2.138896723519077
 20
4.980426023073044
 30
0.0
 11
2.138896723519077
 21
5.619041180553359
 31
0.0
  0
POLYLINE
  5
3183
330
1E
100
AcDbEntity
  8
0
100
AcDb2dPolyline
 66
     1
 10
0.0
 20
0.0
 30
0.0
  0
VERTEX
  5
376E
330
3183
100
AcDbEntity
  8
0
100
AcDbVertex
100
AcDb2dVertex
 10
2.138896723519077
 20
4.980426023073044
 30
0.0
  0
VERTEX
  5
376F
330
3183
100
AcDbEntity
  8
0
100
AcDbVertex
100
AcDb2dVertex
 10
2.134946526668684
 20
4.972525629372257
 30
0.0
  0
VERTEX
  5
3770
330
3183
100
AcDbEntity
  8
0
100
AcDbVertex
100
AcDb2dVertex
 10
2.125729400684431
 20
4.968575432521863
 30
0.0
  0
SEQEND
  5
3771
330
3183
100
AcDbEntity
  8
0
  0
LINE
  5
3188
330
1E
100
AcDbEntity
  8
0
100
AcDbLine
 10
2.082277235330101
 20
4.968575432521863
 30
0.0
 11
2.125729400684431
 21
4.968575432521863
 31
0.0
  0
POLYLINE
  5
3189
330
1E
100
AcDbEntity
  8
0
100
AcDb2dPolyline
 66
     1
 10
0.0
 20
0.0
 30
0.0
  0
VERTEX
  5
3772
330
3189
100
AcDbEntity
  8
0
100
AcDbVertex
100
AcDb2dVertex
 10
2.0822772353301
 20
4.968575432521863
 30
0.0
  0
VERTEX
  5
3773
330
3189
100
AcDbEntity
  8
0
100
AcDbVertex
100
AcDb2dVertex
 10
2.074376841629313
 20
4.964625235671469
 30
0.0
  0
VERTEX
  5
3774
330
3189
100
AcDbEntity
  8
0
100
AcDbVertex
100
AcDb2dVertex
 10
2.070426644778919
 20
4.956724841970682
 30
0.0
  0
SEQEND
  5
3775
330
3189
100
AcDbEntity
  8
0
  0
LINE
  5
318E
330
1E
100
AcDbEntity
  8
0
100
AcDbLine
 10
2.070426644778919
 20
4.91590614118328
 30
0.0
 11
2.070426644778919
 21
4.956724841970682
 31
0.0
  0
POLYLINE
  5
318F
330
1E
100
AcDbEntity
  8
0
100
AcDb2dPolyline
 66
     1
 10
0.0
 20
0.0
 30
0.0
  0
VERTEX
  5
3776
330
318F
100
AcDbEntity
  8
0
100
AcDbVertex
100
AcDb2dVertex
 10
2.070426644778919
 20
4.91590614118328
 30
0.0
  0
VERTEX
  5
3777
330
318F
100
AcDbEntity
  8
0
100
AcDbVertex
100
AcDb2dVertex
 10
2.066476447928526
 20
4.906689015199028
 30
0.0
  0
VERTEX
  5
3778
330
318F
100
AcDbEntity
  8
0
100
AcDbVertex
100
AcDb2dVertex
 10
2.058576054227738
 20
4.902738818348634
 30
0.0
  0
SEQEND
  5
3779
330
318F
100
AcDbEntity
  8
0
  0
LINE
  5
3194
330
1E
100
AcDbEntity
  8
0
100
AcDbLine
 10
1.591136093597817
 20
4.902738818348634
 30
0.0
 11
2.058576054227738
 21
4.902738818348634
 31
0.0
  0
POLYLINE
  5
3195
330
1E
100
AcDbEntity
  8
0
100
AcDb2dPolyline
 66
     1
 10
0.0
 20
0.0
 30
0.0
  0
VERTEX
  5
377A
330
3195
100
AcDbEntity
  8
0
100
AcDbVertex
100
AcDb2dVertex
 10
1.591136093597817
 20
4.902738818348634
 30
0.0
  0
VERTEX
  5
377B
330
3195
100
AcDbEntity
  8
0
100
AcDbVertex
100
AcDb2dVertex
 10
1.581918967613565
 20
4.906689015199028
 30
0.0
  0
VERTEX
  5
377C
330
3195
100
AcDbEntity
  8
0
100
AcDbVertex
100
AcDb2dVertex
 10
1.579285503046635
 20
4.91590614118328
 30
0.0
  0
SEQEND
  5
377D
330
3195
100
AcDbEntity
  8
0
  0
LINE
  5
319A
330
1E
100
AcDbEntity
  8
0
100
AcDbLine
 10
2.082277235330101
 20
6.122032912836824
 30
0.0
 11
2.125729400684431
 21
6.122032912836824
 31
0.0
  0
POLYLINE
  5
319B
330
1E
100
AcDbEntity
  8
0
100
AcDb2dPolyline
 66
     1
 10
0.0
 20
0.0
 30
0.0
  0
VERTEX
  5
377E
330
319B
100
AcDbEntity
  8
0
100
AcDbVertex
100
AcDb2dVertex
 10
2.0822772353301
 20
6.122032912836824
 30
0.0
  0
VERTEX
  5
377F
330
319B
100
AcDbEntity
  8
0
100
AcDbVertex
100
AcDb2dVertex
 10
2.074376841629313
 20
6.119399448269894
 30
0.0
  0
VERTEX
  5
3780
330
319B
100
AcDbEntity
  8
0
100
AcDbVertex
100
AcDb2dVertex
 10
2.070426644778919
 20
6.110182322285642
 30
0.0
  0
SEQEND
  5
3781
330
319B
100
AcDbEntity
  8
0
  0
LINE
  5
31A0
330
1E
100
AcDbEntity
  8
0
100
AcDbLine
 10
2.070426644778919
 20
6.06936362149824
 30
0.0
 11
2.070426644778919
 21
6.110182322285642
 31
0.0
  0
POLYLINE
  5
31A1
330
1E
100
AcDbEntity
  8
0
100
AcDb2dPolyline
 66
     1
 10
0.0
 20
0.0
 30
0.0
  0
VERTEX
  5
3782
330
31A1
100
AcDbEntity
  8
0
100
AcDbVertex
100
AcDb2dVertex
 10
2.070426644778919
 20
6.06936362149824
 30
0.0
  0
VERTEX
  5
3783
330
31A1
100
AcDbEntity
  8
0
100
AcDbVertex
100
AcDb2dVertex
 10
2.066476447928526
 20
6.060146495513989
 30
0.0
  0
VERTEX
  5
3784
330
31A1
100
AcDbEntity
  8
0
100
AcDbVertex
100
AcDb2dVertex
 10
2.058576054227738
 20
6.05751303094706
 30
0.0
  0
SEQEND
  5
3785
330
31A1
100
AcDbEntity
  8
0
  0
LINE
  5
31A6
330
1E
100
AcDbEntity
  8
0
100
AcDbLine
 10
1.591136093597817
 20
6.05751303094706
 30
0.0
 11
2.058576054227738
 21
6.05751303094706
 31
0.0
  0
POLYLINE
  5
31A7
330
1E
100
AcDbEntity
  8
0
100
AcDb2dPolyline
 66
     1
 10
0.0
 20
0.0
 30
0.0
  0
VERTEX
  5
3786
330
31A7
100
AcDbEntity
  8
0
100
AcDbVertex
100
AcDb2dVertex
 10
1.591136093597817
 20
6.05751303094706
 30
0.0
  0
VERTEX
  5
3787
330
31A7
100
AcDbEntity
  8
0
100
AcDbVertex
100
AcDb2dVertex
 10
1.581918967613565
 20
6.060146495513989
 30
0.0
  0
VERTEX
  5
3788
330
31A7
100
AcDbEntity
  8
0
100
AcDbVertex
100
AcDb2dVertex
 10
1.579285503046635
 20
6.06936362149824
 30
0.0
  0
SEQEND
  5
3789
330
31A7
100
AcDbEntity
  8
0
  0
LINE
  5
31AC
330
1E
100
AcDbEntity
  8
0
100
AcDbLine
 10
1.579285503046635
 20
6.110182322285642
 30
0.0
 11
1.579285503046635
 21
6.06936362149824
 31
0.0
  0
POLYLINE
  5
31AD
330
1E
100
AcDbEntity
  8
0
100
AcDb2dPolyline
 66
     1
 10
0.0
 20
0.0
 30
0.0
  0
VERTEX
  5
378A
330
31AD
100
AcDbEntity
  8
0
100
AcDbVertex
100
AcDb2dVertex
 10
1.579285503046635
 20
6.110182322285642
 30
0.0
  0
VERTEX
  5
378B
330
31AD
100
AcDbEntity
  8
0
100
AcDbVertex
100
AcDb2dVertex
 10
1.575335306196242
 20
6.119399448269894
 30
0.0
  0
VERTEX
  5
378C
330
31AD
100
AcDbEntity
  8
0
100
AcDbVertex
100
AcDb2dVertex
 10
1.567434912495455
 20
6.122032912836824
 30
0.0
  0
SEQEND
  5
378D
330
31AD
100
AcDbEntity
  8
0
  0
LINE
  5
31B2
330
1E
100
AcDbEntity
  8
0
100
AcDbLine
 10
1.522666014857659
 20
6.122032912836824
 30
0.0
 11
1.567434912495455
 21
6.122032912836824
 31
0.0
  0
POLYLINE
  5
31B3
330
1E
100
AcDbEntity
  8
0
100
AcDb2dPolyline
 66
     1
 10
0.0
 20
0.0
 30
0.0
  0
VERTEX
  5
378E
330
31B3
100
AcDbEntity
  8
0
100
AcDbVertex
100
AcDb2dVertex
 10
1.522666014857659
 20
6.122032912836824
 30
0.0
  0
VERTEX
  5
378F
330
31B3
100
AcDbEntity
  8
0
100
AcDbVertex
100
AcDb2dVertex
 10
1.514765621156872
 20
6.125983109687217
 30
0.0
  0
VERTEX
  5
3790
330
31B3
100
AcDbEntity
  8
0
100
AcDbVertex
100
AcDb2dVertex
 10
1.510815424306478
 20
6.133883503388005
 30
0.0
  0
SEQEND
  5
3791
330
31B3
100
AcDbEntity
  8
0
  0
LINE
  5
31B8
330
1E
100
AcDbEntity
  8
0
100
AcDbLine
 10
1.510815424306478
 20
6.77249866086832
 30
0.0
 11
1.510815424306478
 21
6.133883503388005
 31
0.0
  0
POLYLINE
  5
31B9
330
1E
100
AcDbEntity
  8
0
100
AcDb2dPolyline
 66
     1
 10
0.0
 20
0.0
 30
0.0
  0
VERTEX
  5
3792
330
31B9
100
AcDbEntity
  8
0
100
AcDbVertex
100
AcDb2dVertex
 10
1.510815424306478
 20
6.77249866086832
 30
0.0
  0
VERTEX
  5
3793
330
31B9
100
AcDbEntity
  8
0
100
AcDbVertex
100
AcDb2dVertex
 10
1.514765621156872
 20
6.780399054569107
 30
0.0
  0
VERTEX
  5
3794
330
31B9
100
AcDbEntity
  8
0
100
AcDbVertex
100
AcDb2dVertex
 10
1.522666014857659
 20
6.7843492514195
 30
0.0
  0
SEQEND
  5
3795
330
31B9
100
AcDbEntity
  8
0
  0
LINE
  5
31BE
330
1E
100
AcDbEntity
  8
0
100
AcDbLine
 10
2.125729400684431
 20
6.7843492514195
 30
0.0
 11
1.522666014857659
 21
6.7843492514195
 31
0.0
  0
POLYLINE
  5
31BF
330
1E
100
AcDbEntity
  8
0
100
AcDb2dPolyline
 66
     1
 10
0.0
 20
0.0
 30
0.0
  0
VERTEX
  5
3796
330
31BF
100
AcDbEntity
  8
0
100
AcDbVertex
100
AcDb2dVertex
 10
2.125729400684431
 20
6.7843492514195
 30
0.0
  0
VERTEX
  5
3797
330
31BF
100
AcDbEntity
  8
0
100
AcDbVertex
100
AcDb2dVertex
 10
2.134946526668684
 20
6.780399054569107
 30
0.0
  0
VERTEX
  5
3798
330
31BF
100
AcDbEntity
  8
0
100
AcDbVertex
100
AcDb2dVertex
 10
2.138896723519077
 20
6.77249866086832
 30
0.0
  0
SEQEND
  5
3799
330
31BF
100
AcDbEntity
  8
0
  0
LINE
  5
31C4
330
1E
100
AcDbEntity
  8
0
100
AcDbLine
 10
2.138896723519077
 20
6.133883503388005
 30
0.0
 11
2.138896723519077
 21
6.77249866086832
 31
0.0
  0
POLYLINE
  5
31C5
330
1E
100
AcDbEntity
  8
0
100
AcDb2dPolyline
 66
     1
 10
0.0
 20
0.0
 30
0.0
  0
VERTEX
  5
379A
330
31C5
100
AcDbEntity
  8
0
100
AcDbVertex
100
AcDb2dVertex
 10
2.138896723519077
 20
6.133883503388005
 30
0.0
  0
VERTEX
  5
379B
330
31C5
100
AcDbEntity
  8
0
100
AcDbVertex
100
AcDb2dVertex
 10
2.134946526668684
 20
6.125983109687217
 30
0.0
  0
VERTEX
  5
379C
330
31C5
100
AcDbEntity
  8
0
100
AcDbVertex
100
AcDb2dVertex
 10
2.125729400684431
 20
6.122032912836824
 30
0.0
  0
SEQEND
  5
379D
330
31C5
100
AcDbEntity
  8
0
  0
POLYLINE
  5
31CA
330
1E
100
AcDbEntity
  8
0
100
AcDb2dPolyline
 66
     1
 10
0.0
 20
0.0
 30
0.0
  0
VERTEX
  5
379E
330
31CA
100
AcDbEntity
  8
0
100
AcDbVertex
100
AcDb2dVertex
 10
-0.0060601662447024
 20
3.771665786852572
 30
0.0
  0
VERTEX
  5
379F
330
31CA
100
AcDbEntity
  8
0
100
AcDbVertex
100
AcDb2dVertex
 10
-0.0060601662447024
 20
3.737430747482492
 30
0.0
  0
VERTEX
  5
37A0
330
31CA
100
AcDbEntity
  8
0
100
AcDbVertex
100
AcDb2dVertex
 10
-0.0060601662447024
 20
3.707145904962807
 30
0.0
  0
SEQEND
  5
37A1
330
31CA
100
AcDbEntity
  8
0
  0
LINE
  5
31CF
330
1E
100
AcDbEntity
  8
0
100
AcDbLine
 10
-0.0060601662447022
 20
3.707145904962807
 30
0.0
 11
2.381175463676557
 21
3.707145904962807
 31
0.0
  0
LINE
  5
31D0
330
1E
100
AcDbEntity
  8
0
100
AcDbLine
 10
-0.1271995363234417
 20
3.586006534884067
 30
0.0
 11
-0.0060601662447022
 21
3.707145904962807
 31
0.0
  0
LINE
  5
31D1
330
1E
100
AcDbEntity
  8
0
100
AcDbLine
 10
-0.0705800481344667
 20
7.915422282915564
 30
0.0
 11
-0.0705800481344667
 21
3.771665786852572
 31
0.0
  0
LINE
  5
31D2
330
1E
100
AcDbEntity
  8
0
100
AcDbLine
 10
-0.0705800481344667
 20
7.915422282915564
 30
0.0
 11
-0.1917194182132062
 21
8.036561652994304
 31
0.0
  0
LINE
  5
31D3
330
1E
100
AcDbEntity
  8
0
100
AcDbLine
 10
-0.1917194182132062
 20
8.036561652994304
 30
0.0
 11
-0.1917194182132062
 21
3.650526416773831
 31
0.0
  0
LINE
  5
31D4
330
1E
100
AcDbEntity
  8
0
100
AcDbLine
 10
-0.0705800481344667
 20
3.771665786852572
 30
0.0
 11
-0.1917194182132062
 21
3.650526416773831
 31
0.0
  0
POLYLINE
  5
31D5
330
1E
100
AcDbEntity
  8
0
100
AcDb2dPolyline
 66
     1
 10
0.0
 20
0.0
 30
0.0
  0
VERTEX
  5
37A2
330
31D5
100
AcDbEntity
  8
0
100
AcDbVertex
100
AcDb2dVertex
 10
-0.0705800481344663
 20
3.771665786852572
 30
0.0
  0
VERTEX
  5
37A3
330
31D5
100
AcDbEntity
  8
0
100
AcDbVertex
100
AcDb2dVertex
 10
-0.0402952056147812
 20
3.771665786852572
 30
0.0
  0
VERTEX
  5
37A4
330
31D5
100
AcDbEntity
  8
0
100
AcDbVertex
100
AcDb2dVertex
 10
-0.0060601662447024
 20
3.771665786852572
 30
0.0
  0
SEQEND
  5
37A5
330
31D5
100
AcDbEntity
  8
0
  0
POLYLINE
  5
31DA
330
1E
100
AcDbEntity
  8
0
100
AcDb2dPolyline
 66
     1
 10
0.0
 20
0.0
 30
0.0
  0
VERTEX
  5
37A6
330
31DA
100
AcDbEntity
  8
0
100
AcDbVertex
100
AcDb2dVertex
 10
-0.0705800481344663
 20
3.771665786852572
 30
0.0
  0
VERTEX
  5
37A7
330
31DA
100
AcDbEntity
  8
0
100
AcDbVertex
100
AcDb2dVertex
 10
-0.0416119378982456
 20
3.736114015199028
 30
0.0
  0
VERTEX
  5
37A8
330
31DA
100
AcDbEntity
  8
0
100
AcDbVertex
100
AcDb2dVertex
 10
-0.0060601662447024
 20
3.707145904962807
 30
0.0
  0
SEQEND
  5
37A9
330
31DA
100
AcDbEntity
  8
0
  0
LINE
  5
31DF
330
1E
100
AcDbEntity
  8
0
100
AcDbLine
 10
-0.1917194182132062
 20
3.650526416773831
 30
0.0
 11
-0.1917194182132062
 21
3.616291377403753
 31
0.0
  0
POLYLINE
  5
31E0
330
1E
100
AcDbEntity
  8
0
100
AcDb2dPolyline
 66
     1
 10
0.0
 20
0.0
 30
0.0
  0
VERTEX
  5
37AA
330
31E0
100
AcDbEntity
  8
0
100
AcDbVertex
100
AcDb2dVertex
 10
-0.1917194182132062
 20
3.616291377403753
 30
0.0
  0
VERTEX
  5
37AB
330
31E0
100
AcDbEntity
  8
0
100
AcDbVertex
100
AcDb2dVertex
 10
-0.1904026859297418
 20
3.607074251419501
 30
0.0
  0
VERTEX
  5
37AC
330
31E0
100
AcDbEntity
  8
0
100
AcDbVertex
100
AcDb2dVertex
 10
-0.186452489079348
 20
3.597857125435249
 30
0.0
  0
VERTEX
  5
37AD
330
31E0
100
AcDbEntity
  8
0
100
AcDbVertex
100
AcDb2dVertex
 10
-0.1785520953785606
 20
3.591273464017926
 30
0.0
  0
VERTEX
  5
37AE
330
31E0
100
AcDbEntity
  8
0
100
AcDbVertex
100
AcDb2dVertex
 10
-0.1693349693943087
 20
3.587323267167532
 30
0.0
  0
VERTEX
  5
37AF
330
31E0
100
AcDbEntity
  8
0
100
AcDbVertex
100
AcDb2dVertex
 10
-0.1614345756935214
 20
3.586006534884067
 30
0.0
  0
SEQEND
  5
37B0
330
31E0
100
AcDbEntity
  8
0
  0
LINE
  5
31E8
330
1E
100
AcDbEntity
  8
0
100
AcDbLine
 10
-0.1917194182132062
 20
8.036561652994304
 30
0.0
 11
-0.1917194182132062
 21
8.070796692364382
 31
0.0
  0
POLYLINE
  5
31E9
330
1E
100
AcDbEntity
  8
0
100
AcDb2dPolyline
 66
     1
 10
0.0
 20
0.0
 30
0.0
  0
VERTEX
  5
37B1
330
31E9
100
AcDbEntity
  8
0
100
AcDbVertex
100
AcDb2dVertex
 10
-0.0705800481344663
 20
7.915422282915564
 30
0.0
  0
VERTEX
  5
37B2
330
31E9
100
AcDbEntity
  8
0
100
AcDbVertex
100
AcDb2dVertex
 10
-0.0402952056147812
 20
7.915422282915564
 30
0.0
  0
VERTEX
  5
37B3
330
31E9
100
AcDbEntity
  8
0
100
AcDbVertex
100
AcDb2dVertex
 10
-0.0060601662447024
 20
7.915422282915564
 30
0.0
  0
SEQEND
  5
37B4
330
31E9
100
AcDbEntity
  8
0
  0
POLYLINE
  5
31EE
330
1E
100
AcDbEntity
  8
0
100
AcDb2dPolyline
 66
     1
 10
0.0
 20
0.0
 30
0.0
  0
VERTEX
  5
37B5
330
31EE
100
AcDbEntity
  8
0
100
AcDbVertex
100
AcDb2dVertex
 10
0.42714475501514
 20
4.518252991576981
 30
0.0
  0
VERTEX
  5
37B6
330
31EE
100
AcDbEntity
  8
0
100
AcDbVertex
100
AcDb2dVertex
 10
0.42714475501514
 20
4.490601613624225
 30
0.0
  0
VERTEX
  5
37B7
330
31EE
100
AcDbEntity
  8
0
100
AcDbVertex
100
AcDb2dVertex
 10
0.42714475501514
 20
4.470850629372256
 30
0.0
  0
VERTEX
  5
37B8
330
31EE
100
AcDbEntity
  8
0
100
AcDbVertex
100
AcDb2dVertex
 10
0.42714475501514
 20
4.462950235671469
 30
0.0
  0
SEQEND
  5
37B9
330
31EE
100
AcDbEntity
  8
0
  0
POLYLINE
  5
31F4
330
1E
100
AcDbEntity
  8
0
100
AcDb2dPolyline
 66
     1
 10
0.0
 20
0.0
 30
0.0
  0
VERTEX
  5
37BA
330
31F4
100
AcDbEntity
  8
0
100
AcDbVertex
100
AcDb2dVertex
 10
0.6733736920230143
 20
4.518252991576981
 30
0.0
  0
VERTEX
  5
37BB
330
31F4
100
AcDbEntity
  8
0
100
AcDbVertex
100
AcDb2dVertex
 10
0.6733736920230143
 20
4.490601613624225
 30
0.0
  0
VERTEX
  5
37BC
330
31F4
100
AcDbEntity
  8
0
100
AcDbVertex
100
AcDb2dVertex
 10
0.6733736920230143
 20
4.470850629372256
 30
0.0
  0
VERTEX
  5
37BD
330
31F4
100
AcDbEntity
  8
0
100
AcDbVertex
100
AcDb2dVertex
 10
0.6733736920230143
 20
4.462950235671469
 30
0.0
  0
SEQEND
  5
37BE
330
31F4
100
AcDbEntity
  8
0
  0
POLYLINE
  5
31FA
330
1E
100
AcDbEntity
  8
0
100
AcDb2dPolyline
 66
     1
 10
0.0
 20
0.0
 30
0.0
  0
VERTEX
  5
37BF
330
31FA
100
AcDbEntity
  8
0
100
AcDbVertex
100
AcDb2dVertex
 10
1.947970542416714
 20
4.518252991576981
 30
0.0
  0
VERTEX
  5
37C0
330
31FA
100
AcDbEntity
  8
0
100
AcDbVertex
100
AcDb2dVertex
 10
1.947970542416714
 20
4.490601613624225
 30
0.0
  0
VERTEX
  5
37C1
330
31FA
100
AcDbEntity
  8
0
100
AcDbVertex
100
AcDb2dVertex
 10
1.947970542416714
 20
4.470850629372256
 30
0.0
  0
VERTEX
  5
37C2
330
31FA
100
AcDbEntity
  8
0
100
AcDbVertex
100
AcDb2dVertex
 10
1.947970542416714
 20
4.462950235671469
 30
0.0
  0
SEQEND
  5
37C3
330
31FA
100
AcDbEntity
  8
0
  0
POLYLINE
  5
3200
330
1E
100
AcDbEntity
  8
0
100
AcDb2dPolyline
 66
     1
 10
0.0
 20
0.0
 30
0.0
  0
VERTEX
  5
37C4
330
3200
100
AcDbEntity
  8
0
100
AcDbVertex
100
AcDb2dVertex
 10
1.701741605408841
 20
4.518252991576981
 30
0.0
  0
VERTEX
  5
37C5
330
3200
100
AcDbEntity
  8
0
100
AcDbVertex
100
AcDb2dVertex
 10
1.701741605408841
 20
4.490601613624225
 30
0.0
  0
VERTEX
  5
37C6
330
3200
100
AcDbEntity
  8
0
100
AcDbVertex
100
AcDb2dVertex
 10
1.701741605408841
 20
4.470850629372256
 30
0.0
  0
VERTEX
  5
37C7
330
3200
100
AcDbEntity
  8
0
100
AcDbVertex
100
AcDb2dVertex
 10
1.701741605408841
 20
4.462950235671469
 30
0.0
  0
SEQEND
  5
37C8
330
3200
100
AcDbEntity
  8
0
  0
POLYLINE
  5
3206
330
1E
100
AcDbEntity
  8
0
100
AcDb2dPolyline
 66
     1
 10
0.0
 20
0.0
 30
0.0
  0
VERTEX
  5
37C9
330
3206
100
AcDbEntity
  8
0
100
AcDbVertex
100
AcDb2dVertex
 10
1.258002825881281
 20
4.444515983702966
 30
0.0
  0
VERTEX
  5
37CA
330
3206
100
AcDbEntity
  8
0
100
AcDbVertex
100
AcDb2dVertex
 10
1.258002825881281
 20
4.416864605750209
 30
0.0
  0
VERTEX
  5
37CB
330
3206
100
AcDbEntity
  8
0
100
AcDbVertex
100
AcDb2dVertex
 10
1.258002825881281
 20
4.405014015199028
 30
0.0
  0
SEQEND
  5
37CC
330
3206
100
AcDbEntity
  8
0
  0
POLYLINE
  5
320B
330
1E
100
AcDbEntity
  8
0
100
AcDb2dPolyline
 66
     1
 10
0.0
 20
0.0
 30
0.0
  0
VERTEX
  5
37CD
330
320B
100
AcDbEntity
  8
0
100
AcDbVertex
100
AcDb2dVertex
 10
1.117112471550572
 20
4.444515983702966
 30
0.0
  0
VERTEX
  5
37CE
330
320B
100
AcDbEntity
  8
0
100
AcDbVertex
100
AcDb2dVertex
 10
1.117112471550572
 20
4.416864605750209
 30
0.0
  0
VERTEX
  5
37CF
330
320B
100
AcDbEntity
  8
0
100
AcDbVertex
100
AcDb2dVertex
 10
1.117112471550572
 20
4.405014015199028
 30
0.0
  0
SEQEND
  5
37D0
330
320B
100
AcDbEntity
  8
0
  0
POLYLINE
  5
3210
330
1E
100
AcDbEntity
  8
0
100
AcDb2dPolyline
 66
     1
 10
0.0
 20
0.0
 30
0.0
  0
VERTEX
  5
37D1
330
3210
100
AcDbEntity
  8
0
100
AcDbVertex
100
AcDb2dVertex
 10
1.113162274700179
 20
4.459000038821075
 30
0.0
  0
VERTEX
  5
37D2
330
3210
100
AcDbEntity
  8
0
100
AcDbVertex
100
AcDb2dVertex
 10
1.117112471550572
 20
4.451099645120288
 30
0.0
  0
VERTEX
  5
37D3
330
3210
100
AcDbEntity
  8
0
100
AcDbVertex
100
AcDb2dVertex
 10
1.117112471550572
 20
4.444515983702966
 30
0.0
  0
SEQEND
  5
37D4
330
3210
100
AcDbEntity
  8
0
  0
LINE
  5
3215
330
1E
100
AcDbEntity
  8
0
100
AcDbLine
 10
1.258002825881281
 20
4.405014015199028
 30
0.0
 11
1.117112471550573
 21
4.405014015199028
 31
0.0
  0
POLYLINE
  5
3216
330
1E
100
AcDbEntity
  8
0
100
AcDb2dPolyline
 66
     1
 10
0.0
 20
0.0
 30
0.0
  0
VERTEX
  5
37D5
330
3216
100
AcDbEntity
  8
0
100
AcDbVertex
100
AcDb2dVertex
 10
1.258002825881281
 20
4.444515983702966
 30
0.0
  0
VERTEX
  5
37D6
330
3216
100
AcDbEntity
  8
0
100
AcDbVertex
100
AcDb2dVertex
 10
1.259319558164746
 20
4.453733109687217
 30
0.0
  0
VERTEX
  5
37D7
330
3216
100
AcDbEntity
  8
0
100
AcDbVertex
100
AcDb2dVertex
 10
1.261953022731675
 20
4.459000038821075
 30
0.0
  0
SEQEND
  5
37D8
330
3216
100
AcDbEntity
  8
0
  0
POLYLINE
  5
321B
330
1E
100
AcDbEntity
  8
0
100
AcDb2dPolyline
 66
     1
 10
0.0
 20
0.0
 30
0.0
  0
VERTEX
  5
37D9
330
321B
100
AcDbEntity
  8
0
100
AcDbVertex
100
AcDb2dVertex
 10
1.117112471550572
 20
4.405014015199028
 30
0.0
  0
VERTEX
  5
37DA
330
321B
100
AcDbEntity
  8
0
100
AcDbVertex
100
AcDb2dVertex
 10
1.117112471550572
 20
4.39974708606517
 30
0.0
  0
VERTEX
  5
37DB
330
321B
100
AcDbEntity
  8
0
100
AcDbVertex
100
AcDb2dVertex
 10
1.117112471550572
 20
4.387896495513989
 30
0.0
  0
SEQEND
  5
37DC
330
321B
100
AcDbEntity
  8
0
  0
POLYLINE
  5
3220
330
1E
100
AcDbEntity
  8
0
100
AcDb2dPolyline
 66
     1
 10
0.0
 20
0.0
 30
0.0
  0
VERTEX
  5
37DD
330
3220
100
AcDbEntity
  8
0
100
AcDbVertex
100
AcDb2dVertex
 10
1.258002825881281
 20
4.405014015199028
 30
0.0
  0
VERTEX
  5
37DE
330
3220
100
AcDbEntity
  8
0
100
AcDbVertex
100
AcDb2dVertex
 10
1.258002825881281
 20
4.39974708606517
 30
0.0
  0
VERTEX
  5
37DF
330
3220
100
AcDbEntity
  8
0
100
AcDbVertex
100
AcDb2dVertex
 10
1.258002825881281
 20
4.387896495513989
 30
0.0
  0
SEQEND
  5
37E0
330
3220
100
AcDbEntity
  8
0
  0
LINE
  5
3225
330
1E
100
AcDbEntity
  8
0
100
AcDbLine
 10
1.258002825881281
 20
4.387896495513989
 30
0.0
 11
1.117112471550573
 21
4.387896495513989
 31
0.0
  0
LINE
  5
3226
330
1E
100
AcDbEntity
  8
0
100
AcDbLine
 10
1.117112471550573
 20
4.387896495513989
 30
0.0
 11
1.117112471550573
 21
4.30757582622265
 31
0.0
  0
LINE
  5
3227
330
1E
100
AcDbEntity
  8
0
100
AcDbLine
 10
1.258002825881281
 20
4.387896495513989
 30
0.0
 11
1.258002825881281
 21
4.30757582622265
 31
0.0
  0
LINE
  5
3228
330
1E
100
AcDbEntity
  8
0
100
AcDbLine
 10
1.227717983361596
 20
4.277290983702966
 30
0.0
 11
1.147397314070258
 21
4.277290983702966
 31
0.0
  0
POLYLINE
  5
3229
330
1E
100
AcDbEntity
  8
0
100
AcDb2dPolyline
 66
     1
 10
0.0
 20
0.0
 30
0.0
  0
VERTEX
  5
37E1
330
3229
100
AcDbEntity
  8
0
100
AcDbVertex
100
AcDb2dVertex
 10
1.227717983361597
 20
4.277290983702966
 30
0.0
  0
VERTEX
  5
37E2
330
3229
100
AcDbEntity
  8
0
100
AcDbVertex
100
AcDb2dVertex
 10
1.248785699897029
 20
4.285191377403752
 30
0.0
  0
VERTEX
  5
37E3
330
3229
100
AcDbEntity
  8
0
100
AcDbVertex
100
AcDb2dVertex
 10
1.258002825881281
 20
4.30757582622265
 30
0.0
  0
SEQEND
  5
37E4
330
3229
100
AcDbEntity
  8
0
  0
POLYLINE
  5
322E
330
1E
100
AcDbEntity
  8
0
100
AcDb2dPolyline
 66
     1
 10
0.0
 20
0.0
 30
0.0
  0
VERTEX
  5
37E5
330
322E
100
AcDbEntity
  8
0
100
AcDbVertex
100
AcDb2dVertex
 10
1.117112471550572
 20
4.30757582622265
 30
0.0
  0
VERTEX
  5
37E6
330
322E
100
AcDbEntity
  8
0
100
AcDbVertex
100
AcDb2dVertex
 10
1.126329597534825
 20
4.285191377403752
 30
0.0
  0
VERTEX
  5
37E7
330
322E
100
AcDbEntity
  8
0
100
AcDbVertex
100
AcDb2dVertex
 10
1.147397314070258
 20
4.277290983702966
 30
0.0
  0
SEQEND
  5
37E8
330
322E
100
AcDbEntity
  8
0
  0
POLYLINE
  5
3233
330
1E
100
AcDbEntity
  8
0
100
AcDb2dPolyline
 66
     1
 10
0.0
 20
0.0
 30
0.0
  0
VERTEX
  5
37E9
330
3233
100
AcDbEntity
  8
0
100
AcDbVertex
100
AcDb2dVertex
 10
2.445695345566321
 20
7.915422282915564
 30
0.0
  0
VERTEX
  5
37EA
330
3233
100
AcDbEntity
  8
0
100
AcDbVertex
100
AcDb2dVertex
 10
2.418043967613565
 20
7.950974054569106
 30
0.0
  0
VERTEX
  5
37EB
330
3233
100
AcDbEntity
  8
0
100
AcDbVertex
100
AcDb2dVertex
 10
2.381175463676557
 20
7.979942164805327
 30
0.0
  0
SEQEND
  5
37EC
330
3233
100
AcDbEntity
  8
0
  0
POLYLINE
  5
3238
330
1E
100
AcDbEntity
  8
0
100
AcDb2dPolyline
 66
     1
 10
0.0
 20
0.0
 30
0.0
  0
VERTEX
  5
37ED
330
3238
100
AcDbEntity
  8
0
100
AcDbVertex
100
AcDb2dVertex
 10
2.381175463676557
 20
7.915422282915564
 30
0.0
  0
VERTEX
  5
37EE
330
3238
100
AcDbEntity
  8
0
100
AcDbVertex
100
AcDb2dVertex
 10
2.381175463676557
 20
7.949657322285641
 30
0.0
  0
VERTEX
  5
37EF
330
3238
100
AcDbEntity
  8
0
100
AcDbVertex
100
AcDb2dVertex
 10
2.381175463676557
 20
7.979942164805327
 30
0.0
  0
SEQEND
  5
37F0
330
3238
100
AcDbEntity
  8
0
  0
POLYLINE
  5
323D
330
1E
100
AcDbEntity
  8
0
100
AcDb2dPolyline
 66
     1
 10
0.0
 20
0.0
 30
0.0
  0
VERTEX
  5
37F1
330
323D
100
AcDbEntity
  8
0
100
AcDbVertex
100
AcDb2dVertex
 10
2.566834715645061
 20
8.070796692364382
 30
0.0
  0
VERTEX
  5
37F2
330
323D
100
AcDbEntity
  8
0
100
AcDbVertex
100
AcDb2dVertex
 10
2.565517983361597
 20
8.081330550632099
 30
0.0
  0
VERTEX
  5
37F3
330
323D
100
AcDbEntity
  8
0
100
AcDbVertex
100
AcDb2dVertex
 10
2.561567786511202
 20
8.089230944332886
 30
0.0
  0
VERTEX
  5
37F4
330
323D
100
AcDbEntity
  8
0
100
AcDbVertex
100
AcDb2dVertex
 10
2.553667392810416
 20
8.095814605750209
 30
0.0
  0
VERTEX
  5
37F5
330
323D
100
AcDbEntity
  8
0
100
AcDbVertex
100
AcDb2dVertex
 10
2.545766999109628
 20
8.099764802600603
 30
0.0
  0
VERTEX
  5
37F6
330
323D
100
AcDbEntity
  8
0
100
AcDbVertex
100
AcDb2dVertex
 10
2.536549873125376
 20
8.101081534884068
 30
0.0
  0
SEQEND
  5
37F7
330
323D
100
AcDbEntity
  8
0
  0
LINE
  5
3245
330
1E
100
AcDbEntity
  8
0
100
AcDbLine
 10
2.502314833755297
 20
8.101081534884068
 30
0.0
 11
2.536549873125376
 21
8.101081534884068
 31
0.0
  0
LINE
  5
3246
330
1E
100
AcDbEntity
  8
0
100
AcDbLine
 10
2.381175463676557
 20
7.979942164805327
 30
0.0
 11
2.502314833755297
 21
8.101081534884068
 31
0.0
  0
LINE
  5
3247
330
1E
100
AcDbEntity
  8
0
100
AcDbLine
 10
-0.1271995363234417
 20
8.101081534884068
 30
0.0
 11
2.502314833755297
 21
8.101081534884068
 31
0.0
  0
LINE
  5
3248
330
1E
100
AcDbEntity
  8
0
100
AcDbLine
 10
-0.1271995363234417
 20
8.101081534884068
 30
0.0
 11
-0.0060601662447022
 21
7.979942164805327
 31
0.0
  0
LINE
  5
3249
330
1E
100
AcDbEntity
  8
0
100
AcDbLine
 10
-0.0060601662447022
 20
7.979942164805327
 30
0.0
 11
2.381175463676557
 21
7.979942164805327
 31
0.0
  0
POLYLINE
  5
324A
330
1E
100
AcDbEntity
  8
0
100
AcDb2dPolyline
 66
     1
 10
0.0
 20
0.0
 30
0.0
  0
VERTEX
  5
37F8
330
324A
100
AcDbEntity
  8
0
100
AcDbVertex
100
AcDb2dVertex
 10
-0.0060601662447024
 20
7.915422282915564
 30
0.0
  0
VERTEX
  5
37F9
330
324A
100
AcDbEntity
  8
0
100
AcDbVertex
100
AcDb2dVertex
 10
-0.0060601662447024
 20
7.949657322285641
 30
0.0
  0
VERTEX
  5
37FA
330
324A
100
AcDbEntity
  8
0
100
AcDbVertex
100
AcDb2dVertex
 10
-0.0060601662447024
 20
7.979942164805327
 30
0.0
  0
SEQEND
  5
37FB
330
324A
100
AcDbEntity
  8
0
  0
LINE
  5
324F
330
1E
100
AcDbEntity
  8
0
100
AcDbLine
 10
-0.1614345756935211
 20
8.101081534884068
 30
0.0
 11
-0.1271995363234417
 21
8.101081534884068
 31
0.0
  0
POLYLINE
  5
3250
330
1E
100
AcDbEntity
  8
0
100
AcDb2dPolyline
 66
     1
 10
0.0
 20
0.0
 30
0.0
  0
VERTEX
  5
37FC
330
3250
100
AcDbEntity
  8
0
100
AcDbVertex
100
AcDb2dVertex
 10
1.867649873125376
 20
7.170151810474619
 30
0.0
  0
VERTEX
  5
37FD
330
3250
100
AcDbEntity
  8
0
100
AcDbVertex
100
AcDb2dVertex
 10
1.867649873125376
 20
7.19648645614391
 30
0.0
  0
VERTEX
  5
37FE
330
3250
100
AcDbEntity
  8
0
100
AcDbVertex
100
AcDb2dVertex
 10
1.867649873125376
 20
7.216237440395879
 30
0.0
  0
VERTEX
  5
37FF
330
3250
100
AcDbEntity
  8
0
100
AcDbVertex
100
AcDb2dVertex
 10
1.867649873125376
 20
7.224137834096666
 30
0.0
  0
SEQEND
  5
3800
330
3250
100
AcDbEntity
  8
0
  0
POLYLINE
  5
3256
330
1E
100
AcDbEntity
  8
0
100
AcDb2dPolyline
 66
     1
 10
0.0
 20
0.0
 30
0.0
  0
VERTEX
  5
3801
330
3256
100
AcDbEntity
  8
0
100
AcDbVertex
100
AcDb2dVertex
 10
1.621420936117502
 20
7.170151810474619
 30
0.0
  0
VERTEX
  5
3802
330
3256
100
AcDbEntity
  8
0
100
AcDbVertex
100
AcDb2dVertex
 10
1.621420936117502
 20
7.19648645614391
 30
0.0
  0
VERTEX
  5
3803
330
3256
100
AcDbEntity
  8
0
100
AcDbVertex
100
AcDb2dVertex
 10
1.621420936117502
 20
7.216237440395879
 30
0.0
  0
VERTEX
  5
3804
330
3256
100
AcDbEntity
  8
0
100
AcDbVertex
100
AcDb2dVertex
 10
1.621420936117502
 20
7.224137834096666
 30
0.0
  0
SEQEND
  5
3805
330
3256
100
AcDbEntity
  8
0
  0
LINE
  5
325C
330
1E
100
AcDbEntity
  8
0
100
AcDbLine
 10
1.227717983361596
 20
7.411113818348635
 30
0.0
 11
1.147397314070258
 21
7.411113818348635
 31
0.0
  0
LINE
  5
325D
330
1E
100
AcDbEntity
  8
0
100
AcDbLine
 10
1.258002825881281
 20
7.300508306537611
 30
0.0
 11
1.258002825881281
 21
7.380828975828949
 31
0.0
  0
LINE
  5
325E
330
1E
100
AcDbEntity
  8
0
100
AcDbLine
 10
1.117112471550573
 20
7.300508306537611
 30
0.0
 11
1.117112471550573
 21
7.380828975828949
 31
0.0
  0
POLYLINE
  5
325F
330
1E
100
AcDbEntity
  8
0
100
AcDb2dPolyline
 66
     1
 10
0.0
 20
0.0
 30
0.0
  0
VERTEX
  5
3806
330
325F
100
AcDbEntity
  8
0
100
AcDbVertex
100
AcDb2dVertex
 10
1.258002825881281
 20
7.380828975828949
 30
0.0
  0
VERTEX
  5
3807
330
325F
100
AcDbEntity
  8
0
100
AcDbVertex
100
AcDb2dVertex
 10
1.248785699897029
 20
7.401896692364381
 30
0.0
  0
VERTEX
  5
3808
330
325F
100
AcDbEntity
  8
0
100
AcDbVertex
100
AcDb2dVertex
 10
1.227717983361597
 20
7.411113818348635
 30
0.0
  0
SEQEND
  5
3809
330
325F
100
AcDbEntity
  8
0
  0
POLYLINE
  5
3264
330
1E
100
AcDbEntity
  8
0
100
AcDb2dPolyline
 66
     1
 10
0.0
 20
0.0
 30
0.0
  0
VERTEX
  5
380A
330
3264
100
AcDbEntity
  8
0
100
AcDbVertex
100
AcDb2dVertex
 10
1.147397314070258
 20
7.411113818348635
 30
0.0
  0
VERTEX
  5
380B
330
3264
100
AcDbEntity
  8
0
100
AcDbVertex
100
AcDb2dVertex
 10
1.126329597534825
 20
7.401896692364381
 30
0.0
  0
VERTEX
  5
380C
330
3264
100
AcDbEntity
  8
0
100
AcDbVertex
100
AcDb2dVertex
 10
1.117112471550572
 20
7.380828975828949
 30
0.0
  0
SEQEND
  5
380D
330
3264
100
AcDbEntity
  8
0
  0
LINE
  5
3269
330
1E
100
AcDbEntity
  8
0
100
AcDbLine
 10
1.258002825881281
 20
7.300508306537611
 30
0.0
 11
1.117112471550573
 21
7.300508306537611
 31
0.0
  0
POLYLINE
  5
326A
330
1E
100
AcDbEntity
  8
0
100
AcDb2dPolyline
 66
     1
 10
0.0
 20
0.0
 30
0.0
  0
VERTEX
  5
380E
330
326A
100
AcDbEntity
  8
0
100
AcDbVertex
100
AcDb2dVertex
 10
1.258002825881281
 20
7.282074054569108
 30
0.0
  0
VERTEX
  5
380F
330
326A
100
AcDbEntity
  8
0
100
AcDbVertex
100
AcDb2dVertex
 10
1.258002825881281
 20
7.287340983702966
 30
0.0
  0
VERTEX
  5
3810
330
326A
100
AcDbEntity
  8
0
100
AcDbVertex
100
AcDb2dVertex
 10
1.258002825881281
 20
7.300508306537611
 30
0.0
  0
SEQEND
  5
3811
330
326A
100
AcDbEntity
  8
0
  0
POLYLINE
  5
326F
330
1E
100
AcDbEntity
  8
0
100
AcDb2dPolyline
 66
     1
 10
0.0
 20
0.0
 30
0.0
  0
VERTEX
  5
3812
330
326F
100
AcDbEntity
  8
0
100
AcDbVertex
100
AcDb2dVertex
 10
1.117112471550572
 20
7.282074054569108
 30
0.0
  0
VERTEX
  5
3813
330
326F
100
AcDbEntity
  8
0
100
AcDbVertex
100
AcDb2dVertex
 10
1.117112471550572
 20
7.287340983702966
 30
0.0
  0
VERTEX
  5
3814
330
326F
100
AcDbEntity
  8
0
100
AcDbVertex
100
AcDb2dVertex
 10
1.117112471550572
 20
7.300508306537611
 30
0.0
  0
SEQEND
  5
3815
330
326F
100
AcDbEntity
  8
0
  0
LINE
  5
3274
330
1E
100
AcDbEntity
  8
0
100
AcDbLine
 10
1.258002825881281
 20
7.282074054569108
 30
0.0
 11
1.117112471550573
 21
7.282074054569108
 31
0.0
  0
POLYLINE
  5
3275
330
1E
100
AcDbEntity
  8
0
100
AcDb2dPolyline
 66
     1
 10
0.0
 20
0.0
 30
0.0
  0
VERTEX
  5
3816
330
3275
100
AcDbEntity
  8
0
100
AcDbVertex
100
AcDb2dVertex
 10
1.258002825881281
 20
7.24257208606517
 30
0.0
  0
VERTEX
  5
3817
330
3275
100
AcDbEntity
  8
0
100
AcDbVertex
100
AcDb2dVertex
 10
1.258002825881281
 20
7.271540196301391
 30
0.0
  0
VERTEX
  5
3818
330
3275
100
AcDbEntity
  8
0
100
AcDbVertex
100
AcDb2dVertex
 10
1.258002825881281
 20
7.282074054569108
 30
0.0
  0
SEQEND
  5
3819
330
3275
100
AcDbEntity
  8
0
  0
POLYLINE
  5
327A
330
1E
100
AcDbEntity
  8
0
100
AcDb2dPolyline
 66
     1
 10
0.0
 20
0.0
 30
0.0
  0
VERTEX
  5
381A
330
327A
100
AcDbEntity
  8
0
100
AcDbVertex
100
AcDb2dVertex
 10
1.117112471550572
 20
7.24257208606517
 30
0.0
  0
VERTEX
  5
381B
330
327A
100
AcDbEntity
  8
0
100
AcDbVertex
100
AcDb2dVertex
 10
1.117112471550572
 20
7.271540196301391
 30
0.0
  0
VERTEX
  5
381C
330
327A
100
AcDbEntity
  8
0
100
AcDbVertex
100
AcDb2dVertex
 10
1.117112471550572
 20
7.282074054569108
 30
0.0
  0
SEQEND
  5
381D
330
327A
100
AcDbEntity
  8
0
  0
POLYLINE
  5
327F
330
1E
100
AcDbEntity
  8
0
100
AcDb2dPolyline
 66
     1
 10
0.0
 20
0.0
 30
0.0
  0
VERTEX
  5
381E
330
327F
100
AcDbEntity
  8
0
100
AcDbVertex
100
AcDb2dVertex
 10
1.261953022731675
 20
7.228088030947059
 30
0.0
  0
VERTEX
  5
381F
330
327F
100
AcDbEntity
  8
0
100
AcDbVertex
100
AcDb2dVertex
 10
1.258002825881281
 20
7.235988424647848
 30
0.0
  0
VERTEX
  5
3820
330
327F
100
AcDbEntity
  8
0
100
AcDbVertex
100
AcDb2dVertex
 10
1.258002825881281
 20
7.24257208606517
 30
0.0
  0
SEQEND
  5
3821
330
327F
100
AcDbEntity
  8
0
  0
POLYLINE
  5
3284
330
1E
100
AcDbEntity
  8
0
100
AcDb2dPolyline
 66
     1
 10
0.0
 20
0.0
 30
0.0
  0
VERTEX
  5
3822
330
3284
100
AcDbEntity
  8
0
100
AcDbVertex
100
AcDb2dVertex
 10
1.117112471550572
 20
7.24257208606517
 30
0.0
  0
VERTEX
  5
3823
330
3284
100
AcDbEntity
  8
0
100
AcDbVertex
100
AcDb2dVertex
 10
1.115795739267108
 20
7.234671692364383
 30
0.0
  0
VERTEX
  5
3824
330
3284
100
AcDbEntity
  8
0
100
AcDbVertex
100
AcDb2dVertex
 10
1.113162274700179
 20
7.228088030947059
 30
0.0
  0
SEQEND
  5
3825
330
3284
100
AcDbEntity
  8
0
  0
POLYLINE
  5
3289
330
1E
100
AcDbEntity
  8
0
100
AcDb2dPolyline
 66
     1
 10
0.0
 20
0.0
 30
0.0
  0
VERTEX
  5
3826
330
3289
100
AcDbEntity
  8
0
100
AcDbVertex
100
AcDb2dVertex
 10
0.7536943613143526
 20
7.170151810474619
 30
0.0
  0
VERTEX
  5
3827
330
3289
100
AcDbEntity
  8
0
100
AcDbVertex
100
AcDb2dVertex
 10
0.7536943613143526
 20
7.19648645614391
 30
0.0
  0
VERTEX
  5
3828
330
3289
100
AcDbEntity
  8
0
100
AcDbVertex
100
AcDb2dVertex
 10
0.7536943613143526
 20
7.216237440395879
 30
0.0
  0
VERTEX
  5
3829
330
3289
100
AcDbEntity
  8
0
100
AcDbVertex
100
AcDb2dVertex
 10
0.7536943613143526
 20
7.224137834096666
 30
0.0
  0
SEQEND
  5
382A
330
3289
100
AcDbEntity
  8
0
  0
POLYLINE
  5
328F
330
1E
100
AcDbEntity
  8
0
100
AcDb2dPolyline
 66
     1
 10
0.0
 20
0.0
 30
0.0
  0
VERTEX
  5
382B
330
328F
100
AcDbEntity
  8
0
100
AcDbVertex
100
AcDb2dVertex
 10
0.5074654243064787
 20
7.170151810474619
 30
0.0
  0
VERTEX
  5
382C
330
328F
100
AcDbEntity
  8
0
100
AcDbVertex
100
AcDb2dVertex
 10
0.5074654243064787
 20
7.19648645614391
 30
0.0
  0
VERTEX
  5
382D
330
328F
100
AcDbEntity
  8
0
100
AcDbVertex
100
AcDb2dVertex
 10
0.5074654243064787
 20
7.216237440395879
 30
0.0
  0
VERTEX
  5
382E
330
328F
100
AcDbEntity
  8
0
100
AcDbVertex
100
AcDb2dVertex
 10
0.5074654243064787
 20
7.224137834096666
 30
0.0
  0
SEQEND
  5
382F
330
328F
100
AcDbEntity
  8
0
  0
POLYLINE
  5
3295
330
1E
100
AcDbEntity
  8
0
100
AcDb2dPolyline
 66
     1
 10
0.0
 20
0.0
 30
0.0
  0
VERTEX
  5
3830
330
3295
100
AcDbEntity
  8
0
100
AcDbVertex
100
AcDb2dVertex
 10
-0.0705800481344663
 20
7.915422282915564
 30
0.0
  0
VERTEX
  5
3831
330
3295
100
AcDbEntity
  8
0
100
AcDbVertex
100
AcDb2dVertex
 10
-0.0416119378982456
 20
7.950974054569106
 30
0.0
  0
VERTEX
  5
3832
330
3295
100
AcDbEntity
  8
0
100
AcDbVertex
100
AcDb2dVertex
 10
-0.0060601662447024
 20
7.979942164805327
 30
0.0
  0
SEQEND
  5
3833
330
3295
100
AcDbEntity
  8
0
  0
POLYLINE
  5
329A
330
1E
100
AcDbEntity
  8
0
100
AcDb2dPolyline
 66
     1
 10
0.0
 20
0.0
 30
0.0
  0
VERTEX
  5
3834
330
329A
100
AcDbEntity
  8
0
100
AcDbVertex
100
AcDb2dVertex
 10
-0.1614345756935214
 20
8.101081534884068
 30
0.0
  0
VERTEX
  5
3835
330
329A
100
AcDbEntity
  8
0
100
AcDbVertex
100
AcDb2dVertex
 10
-0.1719684339612379
 20
8.099764802600603
 30
0.0
  0
VERTEX
  5
3836
330
329A
100
AcDbEntity
  8
0
100
AcDbVertex
100
AcDb2dVertex
 10
-0.1798688276620253
 20
8.095814605750209
 30
0.0
  0
VERTEX
  5
3837
330
329A
100
AcDbEntity
  8
0
100
AcDbVertex
100
AcDb2dVertex
 10
-0.186452489079348
 20
8.087914212049422
 30
0.0
  0
VERTEX
  5
3838
330
329A
100
AcDbEntity
  8
0
100
AcDbVertex
100
AcDb2dVertex
 10
-0.1904026859297418
 20
8.078697086065171
 30
0.0
  0
VERTEX
  5
3839
330
329A
100
AcDbEntity
  8
0
100
AcDbVertex
100
AcDb2dVertex
 10
-0.1917194182132062
 20
8.070796692364382
 30
0.0
  0
SEQEND
  5
383A
330
329A
100
AcDbEntity
  8
0
  0
LINE
  5
32A2
330
1E
100
AcDbEntity
  8
0
100
AcDbLine
 10
4.929052432180494
 20
3.616291377403753
 30
0.0
 11
5.098910896747424
 21
3.613657912836823
 31
0.0
  0
LINE
  5
32A3
330
1E
100
AcDbEntity
  8
0
100
AcDbLine
 10
5.098910896747424
 20
8.074746889214775
 30
0.0
 11
5.098910896747424
 21
3.613657912836823
 31
0.0
  0
LINE
  5
32A4
330
1E
100
AcDbEntity
  8
0
100
AcDbLine
 10
5.098910896747424
 20
8.074746889214775
 30
0.0
 11
4.929052432180494
 21
8.070796692364382
 31
0.0
  0
LINE
  5
32A5
330
1E
100
AcDbEntity
  8
0
100
AcDbLine
 10
4.929052432180494
 20
3.616291377403753
 30
0.0
 11
4.929052432180494
 21
8.070796692364382
 31
0.0
  0
POLYLINE
  5
32A6
330
1E
100
AcDbEntity
  8
0
100
AcDb2dPolyline
 66
     1
 10
0.0
 20
0.0
 30
0.0
  0
VERTEX
  5
383B
330
32A6
100
AcDbEntity
  8
0
100
AcDbVertex
100
AcDb2dVertex
 10
4.929052432180494
 20
3.586006534884067
 30
0.0
  0
VERTEX
  5
383C
330
32A6
100
AcDbEntity
  8
0
100
AcDbVertex
100
AcDb2dVertex
 10
4.929052432180494
 20
3.589956731734461
 30
0.0
  0
VERTEX
  5
383D
330
32A6
100
AcDbEntity
  8
0
100
AcDbVertex
100
AcDb2dVertex
 10
4.929052432180494
 20
3.601807322285642
 30
0.0
  0
VERTEX
  5
383E
330
32A6
100
AcDbEntity
  8
0
100
AcDbVertex
100
AcDb2dVertex
 10
4.929052432180494
 20
3.616291377403753
 30
0.0
  0
SEQEND
  5
383F
330
32A6
100
AcDbEntity
  8
0
  0
POLYLINE
  5
32AC
330
1E
100
AcDbEntity
  8
0
100
AcDb2dPolyline
 66
     1
 10
0.0
 20
0.0
 30
0.0
  0
VERTEX
  5
3840
330
32AC
100
AcDbEntity
  8
0
100
AcDbVertex
100
AcDb2dVertex
 10
4.929052432180494
 20
8.070796692364382
 30
0.0
  0
VERTEX
  5
3841
330
32AC
100
AcDbEntity
  8
0
100
AcDbVertex
100
AcDb2dVertex
 10
4.929052432180494
 20
8.086597479765957
 30
0.0
  0
VERTEX
  5
3842
330
32AC
100
AcDbEntity
  8
0
100
AcDbVertex
100
AcDb2dVertex
 10
4.929052432180494
 20
8.097131338033673
 30
0.0
  0
VERTEX
  5
3843
330
32AC
100
AcDbEntity
  8
0
100
AcDbVertex
100
AcDb2dVertex
 10
4.929052432180494
 20
8.101081534884068
 30
0.0
  0
SEQEND
  5
3844
330
32AC
100
AcDbEntity
  8
0
  0
POLYLINE
  5
32B2
330
1E
100
AcDbEntity
  8
0
100
AcDb2dPolyline
 66
     1
 10
0.0
 20
0.0
 30
0.0
  0
VERTEX
  5
3845
330
32B2
100
AcDbEntity
  8
0
100
AcDbVertex
100
AcDb2dVertex
 10
5.098910896747424
 20
3.613657912836823
 30
0.0
  0
VERTEX
  5
3846
330
32B2
100
AcDbEntity
  8
0
100
AcDbVertex
100
AcDb2dVertex
 10
5.098910896747424
 20
3.597857125435249
 30
0.0
  0
VERTEX
  5
3847
330
32B2
100
AcDbEntity
  8
0
100
AcDbVertex
100
AcDb2dVertex
 10
5.098910896747424
 20
3.587323267167532
 30
0.0
  0
VERTEX
  5
3848
330
32B2
100
AcDbEntity
  8
0
100
AcDbVertex
100
AcDb2dVertex
 10
5.098910896747424
 20
3.583373070317138
 30
0.0
  0
SEQEND
  5
3849
330
32B2
100
AcDbEntity
  8
0
  0
POLYLINE
  5
32B8
330
1E
100
AcDbEntity
  8
0
100
AcDb2dPolyline
 66
     1
 10
0.0
 20
0.0
 30
0.0
  0
VERTEX
  5
384A
330
32B8
100
AcDbEntity
  8
0
100
AcDbVertex
100
AcDb2dVertex
 10
5.098910896747424
 20
8.103714999450996
 30
0.0
  0
VERTEX
  5
384B
330
32B8
100
AcDbEntity
  8
0
100
AcDbVertex
100
AcDb2dVertex
 10
5.098910896747424
 20
8.099764802600603
 30
0.0
  0
VERTEX
  5
384C
330
32B8
100
AcDbEntity
  8
0
100
AcDbVertex
100
AcDb2dVertex
 10
5.098910896747424
 20
8.089230944332886
 30
0.0
  0
VERTEX
  5
384D
330
32B8
100
AcDbEntity
  8
0
100
AcDbVertex
100
AcDb2dVertex
 10
5.098910896747424
 20
8.074746889214775
 30
0.0
  0
SEQEND
  5
384E
330
32B8
100
AcDbEntity
  8
0
  0
LINE
  5
32BE
330
1E
100
AcDbEntity
  8
0
100
AcDbLine
 10
5.098910896747424
 20
3.583373070317139
 30
0.0
 11
4.929052432180494
 21
3.586006534884067
 31
0.0
  0
LINE
  5
32BF
330
1E
100
AcDbEntity
  8
0
100
AcDbLine
 10
5.224000463676556
 20
4.462950235671469
 30
0.0
 11
5.224000463676556
 21
4.449782912836824
 31
0.0
  0
LINE
  5
32C0
330
1E
100
AcDbEntity
  8
0
100
AcDbLine
 10
5.224000463676556
 20
4.449782912836824
 30
0.0
 11
5.214783337692305
 21
4.440565786852571
 31
0.0
  0
LINE
  5
32C1
330
1E
100
AcDbEntity
  8
0
100
AcDbLine
 10
5.21610006997577
 20
4.449782912836824
 30
0.0
 11
5.21610006997577
 21
4.462950235671469
 31
0.0
  0
POLYLINE
  5
32C2
330
1E
100
AcDbEntity
  8
0
100
AcDb2dPolyline
 66
     1
 10
0.0
 20
0.0
 30
0.0
  0
VERTEX
  5
384F
330
32C2
100
AcDbEntity
  8
0
100
AcDbVertex
100
AcDb2dVertex
 10
5.21610006997577
 20
4.449782912836824
 30
0.0
  0
VERTEX
  5
3850
330
32C2
100
AcDbEntity
  8
0
100
AcDbVertex
100
AcDb2dVertex
 10
5.221366999109628
 20
4.449782912836824
 30
0.0
  0
VERTEX
  5
3851
330
32C2
100
AcDbEntity
  8
0
100
AcDbVertex
100
AcDb2dVertex
 10
5.224000463676556
 20
4.449782912836824
 30
0.0
  0
SEQEND
  5
3852
330
32C2
100
AcDbEntity
  8
0
  0
POLYLINE
  5
32C7
330
1E
100
AcDbEntity
  8
0
100
AcDb2dPolyline
 66
     1
 10
0.0
 20
0.0
 30
0.0
  0
VERTEX
  5
3853
330
32C7
100
AcDbEntity
  8
0
100
AcDbVertex
100
AcDb2dVertex
 10
5.214783337692305
 20
4.448466180553358
 30
0.0
  0
VERTEX
  5
3854
330
32C7
100
AcDbEntity
  8
0
100
AcDbVertex
100
AcDb2dVertex
 10
5.214783337692305
 20
4.4431992514195
 30
0.0
  0
VERTEX
  5
3855
330
32C7
100
AcDbEntity
  8
0
100
AcDbVertex
100
AcDb2dVertex
 10
5.214783337692305
 20
4.440565786852571
 30
0.0
  0
SEQEND
  5
3856
330
32C7
100
AcDbEntity
  8
0
  0
LINE
  5
32CC
330
1E
100
AcDbEntity
  8
0
100
AcDbLine
 10
5.214783337692305
 20
4.448466180553358
 30
0.0
 11
5.21610006997577
 21
4.449782912836824
 31
0.0
  0
LINE
  5
32CD
330
1E
100
AcDbEntity
  8
0
100
AcDbLine
 10
5.224000463676556
 20
4.56697208606517
 30
0.0
 11
5.224000463676556
 21
4.556438227797453
 31
0.0
  0
POLYLINE
  5
32CE
330
1E
100
AcDbEntity
  8
0
100
AcDb2dPolyline
 66
     1
 10
0.0
 20
0.0
 30
0.0
  0
VERTEX
  5
3857
330
32CE
100
AcDbEntity
  8
0
100
AcDbVertex
100
AcDb2dVertex
 10
5.224000463676556
 20
4.556438227797453
 30
0.0
  0
VERTEX
  5
3858
330
32CE
100
AcDbEntity
  8
0
100
AcDbVertex
100
AcDb2dVertex
 10
5.224000463676556
 20
4.541954172679343
 30
0.0
  0
VERTEX
  5
3859
330
32CE
100
AcDbEntity
  8
0
100
AcDbVertex
100
AcDb2dVertex
 10
5.224000463676556
 20
4.536687243545484
 30
0.0
  0
SEQEND
  5
385A
330
32CE
100
AcDbEntity
  8
0
  0
LINE
  5
32D3
330
1E
100
AcDbEntity
  8
0
100
AcDbLine
 10
5.224000463676556
 20
4.536687243545484
 30
0.0
 11
5.224000463676556
 21
4.48928488134076
 31
0.0
  0
POLYLINE
  5
32D4
330
1E
100
AcDbEntity
  8
0
100
AcDb2dPolyline
 66
     1
 10
0.0
 20
0.0
 30
0.0
  0
VERTEX
  5
385B
330
32D4
100
AcDbEntity
  8
0
100
AcDbVertex
100
AcDb2dVertex
 10
5.21346660540884
 20
4.536687243545484
 30
0.0
  0
VERTEX
  5
385C
330
32D4
100
AcDbEntity
  8
0
100
AcDbVertex
100
AcDb2dVertex
 10
5.21346660540884
 20
4.543270904962807
 30
0.0
  0
VERTEX
  5
385D
330
32D4
100
AcDbEntity
  8
0
100
AcDbVertex
100
AcDb2dVertex
 10
5.21346660540884
 20
4.545904369529736
 30
0.0
  0
SEQEND
  5
385E
330
32D4
100
AcDbEntity
  8
0
  0
POLYLINE
  5
32D9
330
1E
100
AcDbEntity
  8
0
100
AcDb2dPolyline
 66
     1
 10
0.0
 20
0.0
 30
0.0
  0
VERTEX
  5
385F
330
32D9
100
AcDbEntity
  8
0
100
AcDbVertex
100
AcDb2dVertex
 10
5.21346660540884
 20
4.536687243545484
 30
0.0
  0
VERTEX
  5
3860
330
32D9
100
AcDbEntity
  8
0
100
AcDbVertex
100
AcDb2dVertex
 10
5.221366999109628
 20
4.536687243545484
 30
0.0
  0
VERTEX
  5
3861
330
32D9
100
AcDbEntity
  8
0
100
AcDbVertex
100
AcDb2dVertex
 10
5.224000463676556
 20
4.536687243545484
 30
0.0
  0
SEQEND
  5
3862
330
32D9
100
AcDbEntity
  8
0
  0
POLYLINE
  5
32DE
330
1E
100
AcDbEntity
  8
0
100
AcDb2dPolyline
 66
     1
 10
0.0
 20
0.0
 30
0.0
  0
VERTEX
  5
3863
330
32DE
100
AcDbEntity
  8
0
100
AcDbVertex
100
AcDb2dVertex
 10
5.21346660540884
 20
4.545904369529736
 30
0.0
  0
VERTEX
  5
3864
330
32DE
100
AcDbEntity
  8
0
100
AcDbVertex
100
AcDb2dVertex
 10
5.221366999109628
 20
4.543270904962807
 30
0.0
  0
VERTEX
  5
3865
330
32DE
100
AcDbEntity
  8
0
100
AcDbVertex
100
AcDb2dVertex
 10
5.224000463676556
 20
4.536687243545484
 30
0.0
  0
SEQEND
  5
3866
330
32DE
100
AcDbEntity
  8
0
  0
LINE
  5
32E3
330
1E
100
AcDbEntity
  8
0
100
AcDbLine
 10
5.21346660540884
 20
4.48928488134076
 30
0.0
 11
5.21346660540884
 21
4.536687243545484
 31
0.0
  0
POLYLINE
  5
32E4
330
1E
100
AcDbEntity
  8
0
100
AcDb2dPolyline
 66
     1
 10
0.0
 20
0.0
 30
0.0
  0
VERTEX
  5
3867
330
32E4
100
AcDbEntity
  8
0
100
AcDbVertex
100
AcDb2dVertex
 10
5.21346660540884
 20
4.48928488134076
 30
0.0
  0
VERTEX
  5
3868
330
32E4
100
AcDbEntity
  8
0
100
AcDbVertex
100
AcDb2dVertex
 10
5.221366999109628
 20
4.48928488134076
 30
0.0
  0
VERTEX
  5
3869
330
32E4
100
AcDbEntity
  8
0
100
AcDbVertex
100
AcDb2dVertex
 10
5.224000463676556
 20
4.48928488134076
 30
0.0
  0
SEQEND
  5
386A
330
32E4
100
AcDbEntity
  8
0
  0
POLYLINE
  5
32E9
330
1E
100
AcDbEntity
  8
0
100
AcDb2dPolyline
 66
     1
 10
0.0
 20
0.0
 30
0.0
  0
VERTEX
  5
386B
330
32E9
100
AcDbEntity
  8
0
100
AcDbVertex
100
AcDb2dVertex
 10
5.214783337692305
 20
4.478751023073043
 30
0.0
  0
VERTEX
  5
386C
330
32E9
100
AcDbEntity
  8
0
100
AcDbVertex
100
AcDb2dVertex
 10
5.214783337692305
 20
4.481384487639973
 30
0.0
  0
VERTEX
  5
386D
330
32E9
100
AcDbEntity
  8
0
100
AcDbVertex
100
AcDb2dVertex
 10
5.21346660540884
 20
4.48928488134076
 30
0.0
  0
SEQEND
  5
386E
330
32E9
100
AcDbEntity
  8
0
  0
POLYLINE
  5
32EE
330
1E
100
AcDbEntity
  8
0
100
AcDb2dPolyline
 66
     1
 10
0.0
 20
0.0
 30
0.0
  0
VERTEX
  5
386F
330
32EE
100
AcDbEntity
  8
0
100
AcDbVertex
100
AcDb2dVertex
 10
5.214783337692305
 20
4.478751023073043
 30
0.0
  0
VERTEX
  5
3870
330
32EE
100
AcDbEntity
  8
0
100
AcDbVertex
100
AcDb2dVertex
 10
5.221366999109628
 20
4.482701219923438
 30
0.0
  0
VERTEX
  5
3871
330
32EE
100
AcDbEntity
  8
0
100
AcDbVertex
100
AcDb2dVertex
 10
5.224000463676556
 20
4.48928488134076
 30
0.0
  0
SEQEND
  5
3872
330
32EE
100
AcDbEntity
  8
0
  0
LINE
  5
32F3
330
1E
100
AcDbEntity
  8
0
100
AcDbLine
 10
5.098910896747424
 20
4.432665393151784
 30
0.0
 11
5.214783337692305
 21
4.448466180553358
 31
0.0
  0
LINE
  5
32F4
330
1E
100
AcDbEntity
  8
0
100
AcDbLine
 10
5.214783337692305
 20
4.440565786852571
 30
0.0
 11
5.098910896747424
 21
4.423448267167533
 31
0.0
  0
POLYLINE
  5
32F5
330
1E
100
AcDbEntity
  8
0
100
AcDb2dPolyline
 66
     1
 10
0.0
 20
0.0
 30
0.0
  0
VERTEX
  5
3873
330
32F5
100
AcDbEntity
  8
0
100
AcDbVertex
100
AcDb2dVertex
 10
5.21346660540884
 20
4.576189212049422
 30
0.0
  0
VERTEX
  5
3874
330
32F5
100
AcDbEntity
  8
0
100
AcDbVertex
100
AcDb2dVertex
 10
5.221366999109628
 20
4.573555747482492
 30
0.0
  0
VERTEX
  5
3875
330
32F5
100
AcDbEntity
  8
0
100
AcDbVertex
100
AcDb2dVertex
 10
5.224000463676556
 20
4.566972086065169
 30
0.0
  0
SEQEND
  5
3876
330
32F5
100
AcDbEntity
  8
0
  0
POLYLINE
  5
32FA
330
1E
100
AcDbEntity
  8
0
100
AcDb2dPolyline
 66
     1
 10
0.0
 20
0.0
 30
0.0
  0
VERTEX
  5
3877
330
32FA
100
AcDbEntity
  8
0
100
AcDbVertex
100
AcDb2dVertex
 10
5.21346660540884
 20
4.566972086065169
 30
0.0
  0
VERTEX
  5
3878
330
32FA
100
AcDbEntity
  8
0
100
AcDbVertex
100
AcDb2dVertex
 10
5.21346660540884
 20
4.573555747482492
 30
0.0
  0
VERTEX
  5
3879
330
32FA
100
AcDbEntity
  8
0
100
AcDbVertex
100
AcDb2dVertex
 10
5.21346660540884
 20
4.576189212049422
 30
0.0
  0
SEQEND
  5
387A
330
32FA
100
AcDbEntity
  8
0
  0
POLYLINE
  5
32FF
330
1E
100
AcDbEntity
  8
0
100
AcDb2dPolyline
 66
     1
 10
0.0
 20
0.0
 30
0.0
  0
VERTEX
  5
387B
330
32FF
100
AcDbEntity
  8
0
100
AcDbVertex
100
AcDb2dVertex
 10
5.21346660540884
 20
4.566972086065169
 30
0.0
  0
VERTEX
  5
387C
330
32FF
100
AcDbEntity
  8
0
100
AcDbVertex
100
AcDb2dVertex
 10
5.221366999109628
 20
4.566972086065169
 30
0.0
  0
VERTEX
  5
387D
330
32FF
100
AcDbEntity
  8
0
100
AcDbVertex
100
AcDb2dVertex
 10
5.224000463676556
 20
4.566972086065169
 30
0.0
  0
SEQEND
  5
387E
330
32FF
100
AcDbEntity
  8
0
  0
LINE
  5
3304
330
1E
100
AcDbEntity
  8
0
100
AcDbLine
 10
5.21346660540884
 20
4.556438227797453
 30
0.0
 11
5.21346660540884
 21
4.56697208606517
 31
0.0
  0
POLYLINE
  5
3305
330
1E
100
AcDbEntity
  8
0
100
AcDb2dPolyline
 66
     1
 10
0.0
 20
0.0
 30
0.0
  0
VERTEX
  5
387F
330
3305
100
AcDbEntity
  8
0
100
AcDbVertex
100
AcDb2dVertex
 10
5.21346660540884
 20
4.556438227797453
 30
0.0
  0
VERTEX
  5
3880
330
3305
100
AcDbEntity
  8
0
100
AcDbVertex
100
AcDb2dVertex
 10
5.221366999109628
 20
4.556438227797453
 30
0.0
  0
VERTEX
  5
3881
330
3305
100
AcDbEntity
  8
0
100
AcDbVertex
100
AcDb2dVertex
 10
5.224000463676556
 20
4.556438227797453
 30
0.0
  0
SEQEND
  5
3882
330
3305
100
AcDbEntity
  8
0
  0
POLYLINE
  5
330A
330
1E
100
AcDbEntity
  8
0
100
AcDb2dPolyline
 66
     1
 10
0.0
 20
0.0
 30
0.0
  0
VERTEX
  5
3883
330
330A
100
AcDbEntity
  8
0
100
AcDbVertex
100
AcDb2dVertex
 10
5.21346660540884
 20
4.545904369529736
 30
0.0
  0
VERTEX
  5
3884
330
330A
100
AcDbEntity
  8
0
100
AcDbVertex
100
AcDb2dVertex
 10
5.21346660540884
 20
4.549854566380131
 30
0.0
  0
VERTEX
  5
3885
330
330A
100
AcDbEntity
  8
0
100
AcDbVertex
100
AcDb2dVertex
 10
5.21346660540884
 20
4.556438227797453
 30
0.0
  0
SEQEND
  5
3886
330
330A
100
AcDbEntity
  8
0
  0
LINE
  5
330F
330
1E
100
AcDbEntity
  8
0
100
AcDbLine
 10
5.21346660540884
 20
4.536687243545484
 30
0.0
 11
5.098910896747424
 21
4.538003975828948
 31
0.0
  0
LINE
  5
3310
330
1E
100
AcDbEntity
  8
0
100
AcDbLine
 10
5.098910896747424
 20
4.548537834096666
 30
0.0
 11
5.21346660540884
 21
4.545904369529737
 31
0.0
  0
LINE
  5
3311
330
1E
100
AcDbEntity
  8
0
100
AcDbLine
 10
5.098910896747424
 20
4.478751023073043
 30
0.0
 11
5.21346660540884
 21
4.48928488134076
 31
0.0
  0
LINE
  5
3312
330
1E
100
AcDbEntity
  8
0
100
AcDbLine
 10
5.214783337692305
 20
4.478751023073043
 30
0.0
 11
5.098910896747424
 21
4.468217164805327
 31
0.0
  0
LINE
  5
3313
330
1E
100
AcDbEntity
  8
0
100
AcDbLine
 10
5.098910896747424
 20
4.578822676616351
 30
0.0
 11
5.21346660540884
 21
4.576189212049422
 31
0.0
  0
LINE
  5
3314
330
1E
100
AcDbEntity
  8
0
100
AcDbLine
 10
5.21346660540884
 20
4.56697208606517
 30
0.0
 11
5.098910896747424
 21
4.568288818348634
 31
0.0
  0
LINE
  5
3315
330
1E
100
AcDbEntity
  8
0
100
AcDbLine
 10
5.098910896747424
 20
4.559071692364382
 30
0.0
 11
5.21346660540884
 21
4.556438227797453
 31
0.0
  0
LINE
  5
3316
330
1E
100
AcDbEntity
  8
0
100
AcDbLine
 10
5.221366999109628
 20
5.800750235671469
 30
0.0
 11
5.221366999109628
 21
5.838935471891941
 31
0.0
  0
LINE
  5
3317
330
1E
100
AcDbEntity
  8
0
100
AcDbLine
 10
5.214783337692305
 20
5.788899645120288
 30
0.0
 11
5.221366999109628
 21
5.800750235671469
 31
0.0
  0
LINE
  5
3318
330
1E
100
AcDbEntity
  8
0
100
AcDbLine
 10
5.150263455802541
 20
5.745447479765957
 30
0.0
 11
5.214783337692305
 21
5.788899645120288
 31
0.0
  0
LINE
  5
3319
330
1E
100
AcDbEntity
  8
0
100
AcDbLine
 10
5.150263455802541
 20
4.964625235671469
 30
0.0
 11
5.150263455802541
 21
5.745447479765957
 31
0.0
  0
LINE
  5
331A
330
1E
100
AcDbEntity
  8
0
100
AcDbLine
 10
5.150263455802541
 20
4.964625235671469
 30
0.0
 11
5.162114046353723
 21
4.964625235671469
 31
0.0
  0
POLYLINE
  5
331B
330
1E
100
AcDbEntity
  8
0
100
AcDb2dPolyline
 66
     1
 10
0.0
 20
0.0
 30
0.0
  0
VERTEX
  5
3887
330
331B
100
AcDbEntity
  8
0
100
AcDbVertex
100
AcDb2dVertex
 10
5.162114046353723
 20
4.964625235671469
 30
0.0
  0
VERTEX
  5
3888
330
331B
100
AcDbEntity
  8
0
100
AcDbVertex
100
AcDb2dVertex
 10
5.18449849517262
 20
4.959358306537611
 30
0.0
  0
VERTEX
  5
3889
330
331B
100
AcDbEntity
  8
0
100
AcDbVertex
100
AcDb2dVertex
 10
5.204249479424589
 20
4.946190983702965
 30
0.0
  0
VERTEX
  5
388A
330
331B
100
AcDbEntity
  8
0
100
AcDbVertex
100
AcDb2dVertex
 10
5.21610006997577
 20
4.927756731734461
 30
0.0
  0
VERTEX
  5
388B
330
331B
100
AcDbEntity
  8
0
100
AcDbVertex
100
AcDb2dVertex
 10
5.221366999109628
 20
4.904055550632098
 30
0.0
  0
SEQEND
  5
388C
330
331B
100
AcDbEntity
  8
0
  0
LINE
  5
3322
330
1E
100
AcDbEntity
  8
0
100
AcDbLine
 10
5.098910896747424
 20
5.840252204175406
 30
0.0
 11
5.221366999109628
 21
5.838935471891941
 31
0.0
  0
LINE
  5
3323
330
1E
100
AcDbEntity
  8
0
100
AcDbLine
 10
5.221366999109628
 20
4.86718704669509
 30
0.0
 11
5.221366999109628
 21
4.904055550632098
 31
0.0
  0
LINE
  5
3324
330
1E
100
AcDbEntity
  8
0
100
AcDbLine
 10
5.098910896747424
 20
4.864553582128162
 30
0.0
 11
5.221366999109628
 21
4.86718704669509
 31
0.0
  0
LINE
  5
3325
330
1E
100
AcDbEntity
  8
0
100
AcDbLine
 10
5.221366999109628
 20
6.955524448269894
 30
0.0
 11
5.221366999109628
 21
6.992392952206902
 31
0.0
  0
LINE
  5
3326
330
1E
100
AcDbEntity
  8
0
100
AcDbLine
 10
5.214783337692305
 20
6.942357125435249
 30
0.0
 11
5.221366999109628
 21
6.955524448269894
 31
0.0
  0
LINE
  5
3327
330
1E
100
AcDbEntity
  8
0
100
AcDbLine
 10
5.150263455802541
 20
6.898904960080917
 30
0.0
 11
5.214783337692305
 21
6.942357125435249
 31
0.0
  0
LINE
  5
3328
330
1E
100
AcDbEntity
  8
0
100
AcDbLine
 10
5.150263455802541
 20
6.119399448269894
 30
0.0
 11
5.150263455802541
 21
6.898904960080917
 31
0.0
  0
LINE
  5
3329
330
1E
100
AcDbEntity
  8
0
100
AcDbLine
 10
5.150263455802541
 20
6.119399448269894
 30
0.0
 11
5.162114046353723
 21
6.11808271598643
 31
0.0
  0
POLYLINE
  5
332A
330
1E
100
AcDbEntity
  8
0
100
AcDb2dPolyline
 66
     1
 10
0.0
 20
0.0
 30
0.0
  0
VERTEX
  5
388D
330
332A
100
AcDbEntity
  8
0
100
AcDbVertex
100
AcDb2dVertex
 10
5.162114046353723
 20
6.11808271598643
 30
0.0
  0
VERTEX
  5
388E
330
332A
100
AcDbEntity
  8
0
100
AcDbVertex
100
AcDb2dVertex
 10
5.18449849517262
 20
6.114132519136036
 30
0.0
  0
VERTEX
  5
388F
330
332A
100
AcDbEntity
  8
0
100
AcDbVertex
100
AcDb2dVertex
 10
5.204249479424589
 20
6.100965196301391
 30
0.0
  0
VERTEX
  5
3890
330
332A
100
AcDbEntity
  8
0
100
AcDbVertex
100
AcDb2dVertex
 10
5.21610006997577
 20
6.081214212049422
 30
0.0
  0
VERTEX
  5
3891
330
332A
100
AcDbEntity
  8
0
100
AcDbVertex
100
AcDb2dVertex
 10
5.221366999109628
 20
6.058829763230524
 30
0.0
  0
SEQEND
  5
3892
330
332A
100
AcDbEntity
  8
0
  0
LINE
  5
3331
330
1E
100
AcDbEntity
  8
0
100
AcDbLine
 10
5.098910896747424
 20
6.995026416773832
 30
0.0
 11
5.221366999109628
 21
6.992392952206902
 31
0.0
  0
LINE
  5
3332
330
1E
100
AcDbEntity
  8
0
100
AcDbLine
 10
5.221366999109628
 20
6.020644527010052
 30
0.0
 11
5.221366999109628
 21
6.058829763230524
 31
0.0
  0
LINE
  5
3333
330
1E
100
AcDbEntity
  8
0
100
AcDbLine
 10
5.098910896747424
 20
6.018011062443124
 30
0.0
 11
5.221366999109628
 21
6.020644527010052
 31
0.0
  0
LINE
  5
3334
330
1E
100
AcDbEntity
  8
0
100
AcDbLine
 10
5.224000463676556
 20
7.237305156931312
 30
0.0
 11
5.224000463676556
 21
7.224137834096666
 31
0.0
  0
LINE
  5
3335
330
1E
100
AcDbEntity
  8
0
100
AcDbLine
 10
5.214783337692305
 20
7.247839015199028
 30
0.0
 11
5.224000463676556
 21
7.237305156931312
 31
0.0
  0
POLYLINE
  5
3336
330
1E
100
AcDbEntity
  8
0
100
AcDb2dPolyline
 66
     1
 10
0.0
 20
0.0
 30
0.0
  0
VERTEX
  5
3893
330
3336
100
AcDbEntity
  8
0
100
AcDbVertex
100
AcDb2dVertex
 10
5.214783337692305
 20
7.247839015199028
 30
0.0
  0
VERTEX
  5
3894
330
3336
100
AcDbEntity
  8
0
100
AcDbVertex
100
AcDb2dVertex
 10
5.214783337692305
 20
7.245205550632098
 30
0.0
  0
VERTEX
  5
3895
330
3336
100
AcDbEntity
  8
0
100
AcDbVertex
100
AcDb2dVertex
 10
5.214783337692305
 20
7.238621889214776
 30
0.0
  0
SEQEND
  5
3896
330
3336
100
AcDbEntity
  8
0
  0
LINE
  5
333B
330
1E
100
AcDbEntity
  8
0
100
AcDbLine
 10
5.21610006997577
 20
7.237305156931312
 30
0.0
 11
5.214783337692305
 21
7.238621889214776
 31
0.0
  0
POLYLINE
  5
333C
330
1E
100
AcDbEntity
  8
0
100
AcDb2dPolyline
 66
     1
 10
0.0
 20
0.0
 30
0.0
  0
VERTEX
  5
3897
330
333C
100
AcDbEntity
  8
0
100
AcDbVertex
100
AcDb2dVertex
 10
5.224000463676556
 20
7.237305156931311
 30
0.0
  0
VERTEX
  5
3898
330
333C
100
AcDbEntity
  8
0
100
AcDbVertex
100
AcDb2dVertex
 10
5.221366999109628
 20
7.237305156931311
 30
0.0
  0
VERTEX
  5
3899
330
333C
100
AcDbEntity
  8
0
100
AcDbVertex
100
AcDb2dVertex
 10
5.21610006997577
 20
7.237305156931311
 30
0.0
  0
SEQEND
  5
389A
330
333C
100
AcDbEntity
  8
0
  0
LINE
  5
3341
330
1E
100
AcDbEntity
  8
0
100
AcDbLine
 10
5.21610006997577
 20
7.224137834096666
 30
0.0
 11
5.21610006997577
 21
7.237305156931312
 31
0.0
  0
LINE
  5
3342
330
1E
100
AcDbEntity
  8
0
100
AcDbLine
 10
5.224000463676556
 20
7.19911992071084
 30
0.0
 11
5.224000463676556
 21
7.15040082622265
 31
0.0
  0
POLYLINE
  5
3343
330
1E
100
AcDbEntity
  8
0
100
AcDb2dPolyline
 66
     1
 10
0.0
 20
0.0
 30
0.0
  0
VERTEX
  5
389B
330
3343
100
AcDbEntity
  8
0
100
AcDbVertex
100
AcDb2dVertex
 10
5.224000463676556
 20
7.15040082622265
 30
0.0
  0
VERTEX
  5
389C
330
3343
100
AcDbEntity
  8
0
100
AcDbVertex
100
AcDb2dVertex
 10
5.224000463676556
 20
7.145133897088792
 30
0.0
  0
VERTEX
  5
389D
330
3343
100
AcDbEntity
  8
0
100
AcDbVertex
100
AcDb2dVertex
 10
5.224000463676556
 20
7.130649841970683
 30
0.0
  0
SEQEND
  5
389E
330
3343
100
AcDbEntity
  8
0
  0
LINE
  5
3348
330
1E
100
AcDbEntity
  8
0
100
AcDbLine
 10
5.224000463676556
 20
7.130649841970683
 30
0.0
 11
5.224000463676556
 21
7.12143271598643
 31
0.0
  0
POLYLINE
  5
3349
330
1E
100
AcDbEntity
  8
0
100
AcDb2dPolyline
 66
     1
 10
0.0
 20
0.0
 30
0.0
  0
VERTEX
  5
389F
330
3349
100
AcDbEntity
  8
0
100
AcDbVertex
100
AcDb2dVertex
 10
5.224000463676556
 20
7.121432715986429
 30
0.0
  0
VERTEX
  5
38A0
330
3349
100
AcDbEntity
  8
0
100
AcDbVertex
100
AcDb2dVertex
 10
5.221366999109628
 20
7.121432715986429
 30
0.0
  0
VERTEX
  5
38A1
330
3349
100
AcDbEntity
  8
0
100
AcDbVertex
100
AcDb2dVertex
 10
5.21346660540884
 20
7.121432715986429
 30
0.0
  0
SEQEND
  5
38A2
330
3349
100
AcDbEntity
  8
0
  0
POLYLINE
  5
334E
330
1E
100
AcDbEntity
  8
0
100
AcDb2dPolyline
 66
     1
 10
0.0
 20
0.0
 30
0.0
  0
VERTEX
  5
38A3
330
334E
100
AcDbEntity
  8
0
100
AcDbVertex
100
AcDb2dVertex
 10
5.21346660540884
 20
7.110898857718714
 30
0.0
  0
VERTEX
  5
38A4
330
334E
100
AcDbEntity
  8
0
100
AcDbVertex
100
AcDb2dVertex
 10
5.21346660540884
 20
7.113532322285642
 30
0.0
  0
VERTEX
  5
38A5
330
334E
100
AcDbEntity
  8
0
100
AcDbVertex
100
AcDb2dVertex
 10
5.21346660540884
 20
7.121432715986429
 30
0.0
  0
SEQEND
  5
38A6
330
334E
100
AcDbEntity
  8
0
  0
POLYLINE
  5
3353
330
1E
100
AcDbEntity
  8
0
100
AcDb2dPolyline
 66
     1
 10
0.0
 20
0.0
 30
0.0
  0
VERTEX
  5
38A7
330
3353
100
AcDbEntity
  8
0
100
AcDbVertex
100
AcDb2dVertex
 10
5.224000463676556
 20
7.121432715986429
 30
0.0
  0
VERTEX
  5
38A8
330
3353
100
AcDbEntity
  8
0
100
AcDbVertex
100
AcDb2dVertex
 10
5.221366999109628
 20
7.113532322285642
 30
0.0
  0
VERTEX
  5
38A9
330
3353
100
AcDbEntity
  8
0
100
AcDbVertex
100
AcDb2dVertex
 10
5.21346660540884
 20
7.110898857718714
 30
0.0
  0
SEQEND
  5
38AA
330
3353
100
AcDbEntity
  8
0
  0
LINE
  5
3358
330
1E
100
AcDbEntity
  8
0
100
AcDbLine
 10
5.098910896747424
 20
7.263639802600604
 30
0.0
 11
5.214783337692305
 21
7.247839015199028
 31
0.0
  0
LINE
  5
3359
330
1E
100
AcDbEntity
  8
0
100
AcDbLine
 10
5.214783337692305
 20
7.238621889214776
 30
0.0
 11
5.098910896747424
 21
7.255739408899815
 31
0.0
  0
POLYLINE
  5
335A
330
1E
100
AcDbEntity
  8
0
100
AcDb2dPolyline
 66
     1
 10
0.0
 20
0.0
 30
0.0
  0
VERTEX
  5
38AB
330
335A
100
AcDbEntity
  8
0
100
AcDbVertex
100
AcDb2dVertex
 10
5.224000463676556
 20
7.19911992071084
 30
0.0
  0
VERTEX
  5
38AC
330
335A
100
AcDbEntity
  8
0
100
AcDbVertex
100
AcDb2dVertex
 10
5.221366999109628
 20
7.205703582128162
 30
0.0
  0
VERTEX
  5
38AD
330
335A
100
AcDbEntity
  8
0
100
AcDbVertex
100
AcDb2dVertex
 10
5.214783337692305
 20
7.20833704669509
 30
0.0
  0
SEQEND
  5
38AE
330
335A
100
AcDbEntity
  8
0
  0
POLYLINE
  5
335F
330
1E
100
AcDbEntity
  8
0
100
AcDb2dPolyline
 66
     1
 10
0.0
 20
0.0
 30
0.0
  0
VERTEX
  5
38AF
330
335F
100
AcDbEntity
  8
0
100
AcDbVertex
100
AcDb2dVertex
 10
5.21346660540884
 20
7.19911992071084
 30
0.0
  0
VERTEX
  5
38B0
330
335F
100
AcDbEntity
  8
0
100
AcDbVertex
100
AcDb2dVertex
 10
5.214783337692305
 20
7.205703582128162
 30
0.0
  0
VERTEX
  5
38B1
330
335F
100
AcDbEntity
  8
0
100
AcDbVertex
100
AcDb2dVertex
 10
5.214783337692305
 20
7.20833704669509
 30
0.0
  0
SEQEND
  5
38B2
330
335F
100
AcDbEntity
  8
0
  0
POLYLINE
  5
3364
330
1E
100
AcDbEntity
  8
0
100
AcDb2dPolyline
 66
     1
 10
0.0
 20
0.0
 30
0.0
  0
VERTEX
  5
38B3
330
3364
100
AcDbEntity
  8
0
100
AcDbVertex
100
AcDb2dVertex
 10
5.224000463676556
 20
7.19911992071084
 30
0.0
  0
VERTEX
  5
38B4
330
3364
100
AcDbEntity
  8
0
100
AcDbVertex
100
AcDb2dVertex
 10
5.221366999109628
 20
7.19911992071084
 30
0.0
  0
VERTEX
  5
38B5
330
3364
100
AcDbEntity
  8
0
100
AcDbVertex
100
AcDb2dVertex
 10
5.21346660540884
 20
7.19911992071084
 30
0.0
  0
SEQEND
  5
38B6
330
3364
100
AcDbEntity
  8
0
  0
LINE
  5
3369
330
1E
100
AcDbEntity
  8
0
100
AcDbLine
 10
5.21346660540884
 20
7.15040082622265
 30
0.0
 11
5.21346660540884
 21
7.19911992071084
 31
0.0
  0
POLYLINE
  5
336A
330
1E
100
AcDbEntity
  8
0
100
AcDb2dPolyline
 66
     1
 10
0.0
 20
0.0
 30
0.0
  0
VERTEX
  5
38B7
330
336A
100
AcDbEntity
  8
0
100
AcDbVertex
100
AcDb2dVertex
 10
5.224000463676556
 20
7.15040082622265
 30
0.0
  0
VERTEX
  5
38B8
330
336A
100
AcDbEntity
  8
0
100
AcDbVertex
100
AcDb2dVertex
 10
5.221366999109628
 20
7.15040082622265
 30
0.0
  0
VERTEX
  5
38B9
330
336A
100
AcDbEntity
  8
0
100
AcDbVertex
100
AcDb2dVertex
 10
5.21346660540884
 20
7.15040082622265
 30
0.0
  0
SEQEND
  5
38BA
330
336A
100
AcDbEntity
  8
0
  0
POLYLINE
  5
336F
330
1E
100
AcDbEntity
  8
0
100
AcDb2dPolyline
 66
     1
 10
0.0
 20
0.0
 30
0.0
  0
VERTEX
  5
38BB
330
336F
100
AcDbEntity
  8
0
100
AcDbVertex
100
AcDb2dVertex
 10
5.21346660540884
 20
7.141183700238398
 30
0.0
  0
VERTEX
  5
38BC
330
336F
100
AcDbEntity
  8
0
100
AcDbVertex
100
AcDb2dVertex
 10
5.21346660540884
 20
7.143817164805327
 30
0.0
  0
VERTEX
  5
38BD
330
336F
100
AcDbEntity
  8
0
100
AcDbVertex
100
AcDb2dVertex
 10
5.21346660540884
 20
7.15040082622265
 30
0.0
  0
SEQEND
  5
38BE
330
336F
100
AcDbEntity
  8
0
  0
POLYLINE
  5
3374
330
1E
100
AcDbEntity
  8
0
100
AcDb2dPolyline
 66
     1
 10
0.0
 20
0.0
 30
0.0
  0
VERTEX
  5
38BF
330
3374
100
AcDbEntity
  8
0
100
AcDbVertex
100
AcDb2dVertex
 10
5.224000463676556
 20
7.15040082622265
 30
0.0
  0
VERTEX
  5
38C0
330
3374
100
AcDbEntity
  8
0
100
AcDbVertex
100
AcDb2dVertex
 10
5.221366999109628
 20
7.143817164805327
 30
0.0
  0
VERTEX
  5
38C1
330
3374
100
AcDbEntity
  8
0
100
AcDbVertex
100
AcDb2dVertex
 10
5.21346660540884
 20
7.141183700238398
 30
0.0
  0
SEQEND
  5
38C2
330
3374
100
AcDbEntity
  8
0
  0
POLYLINE
  5
3379
330
1E
100
AcDbEntity
  8
0
100
AcDb2dPolyline
 66
     1
 10
0.0
 20
0.0
 30
0.0
  0
VERTEX
  5
38C3
330
3379
100
AcDbEntity
  8
0
100
AcDbVertex
100
AcDb2dVertex
 10
5.21346660540884
 20
7.130649841970683
 30
0.0
  0
VERTEX
  5
38C4
330
3379
100
AcDbEntity
  8
0
100
AcDbVertex
100
AcDb2dVertex
 10
5.21346660540884
 20
7.13855023567147
 30
0.0
  0
VERTEX
  5
38C5
330
3379
100
AcDbEntity
  8
0
100
AcDbVertex
100
AcDb2dVertex
 10
5.21346660540884
 20
7.141183700238398
 30
0.0
  0
SEQEND
  5
38C6
330
3379
100
AcDbEntity
  8
0
  0
POLYLINE
  5
337E
330
1E
100
AcDbEntity
  8
0
100
AcDb2dPolyline
 66
     1
 10
0.0
 20
0.0
 30
0.0
  0
VERTEX
  5
38C7
330
337E
100
AcDbEntity
  8
0
100
AcDbVertex
100
AcDb2dVertex
 10
5.224000463676556
 20
7.130649841970683
 30
0.0
  0
VERTEX
  5
38C8
330
337E
100
AcDbEntity
  8
0
100
AcDbVertex
100
AcDb2dVertex
 10
5.221366999109628
 20
7.130649841970683
 30
0.0
  0
VERTEX
  5
38C9
330
337E
100
AcDbEntity
  8
0
100
AcDbVertex
100
AcDb2dVertex
 10
5.21346660540884
 20
7.130649841970683
 30
0.0
  0
SEQEND
  5
38CA
330
337E
100
AcDbEntity
  8
0
  0
LINE
  5
3383
330
1E
100
AcDbEntity
  8
0
100
AcDbLine
 10
5.21346660540884
 20
7.12143271598643
 30
0.0
 11
5.21346660540884
 21
7.130649841970683
 31
0.0
  0
LINE
  5
3384
330
1E
100
AcDbEntity
  8
0
100
AcDbLine
 10
4.929052432180494
 20
8.101081534884068
 30
0.0
 11
5.098910896747424
 21
8.103714999450996
 31
0.0
  0
LINE
  5
3385
330
1E
100
AcDbEntity
  8
0
100
AcDbLine
 10
5.21346660540884
 20
7.110898857718714
 30
0.0
 11
5.098910896747424
 21
7.108265393151784
 31
0.0
  0
LINE
  5
3386
330
1E
100
AcDbEntity
  8
0
100
AcDbLine
 10
5.098910896747424
 20
7.118799251419501
 30
0.0
 11
5.21346660540884
 21
7.12143271598643
 31
0.0
  0
LINE
  5
3387
330
1E
100
AcDbEntity
  8
0
100
AcDbLine
 10
5.098910896747424
 20
7.218870904962807
 30
0.0
 11
5.214783337692305
 21
7.20833704669509
 31
0.0
  0
LINE
  5
3388
330
1E
100
AcDbEntity
  8
0
100
AcDbLine
 10
5.21346660540884
 20
7.19911992071084
 30
0.0
 11
5.098910896747424
 21
7.20833704669509
 31
0.0
  0
LINE
  5
3389
330
1E
100
AcDbEntity
  8
0
100
AcDbLine
 10
5.098910896747424
 20
7.149084093939185
 30
0.0
 11
5.21346660540884
 21
7.15040082622265
 31
0.0
  0
LINE
  5
338A
330
1E
100
AcDbEntity
  8
0
100
AcDbLine
 10
5.21346660540884
 20
7.141183700238399
 30
0.0
 11
5.098910896747424
 21
7.13855023567147
 31
0.0
  0
LINE
  5
338B
330
1E
100
AcDbEntity
  8
0
100
AcDbLine
 10
5.21346660540884
 20
7.130649841970683
 30
0.0
 11
5.098910896747424
 21
7.129333109687217
 31
0.0
  0
POLYLINE
  5
338C
330
1E
100
AcDbEntity
  8
0
100
AcDb2dPolyline
 66
     1
 10
0.0
 20
0.0
 30
0.0
  0
VERTEX
  5
38CB
330
338C
100
AcDbEntity
  8
0
100
AcDbVertex
100
AcDb2dVertex
 10
5.224000463676556
 20
4.462950235671469
 30
0.0
  0
VERTEX
  5
38CC
330
338C
100
AcDbEntity
  8
0
100
AcDbVertex
100
AcDb2dVertex
 10
5.217416802259234
 20
4.462950235671469
 30
0.0
  0
VERTEX
  5
38CD
330
338C
100
AcDbEntity
  8
0
100
AcDbVertex
100
AcDb2dVertex
 10
5.198982550290731
 20
4.462950235671469
 30
0.0
  0
VERTEX
  5
38CE
330
338C
100
AcDbEntity
  8
0
100
AcDbVertex
100
AcDb2dVertex
 10
5.173964636904904
 20
4.462950235671469
 30
0.0
  0
SEQEND
  5
38CF
330
338C
100
AcDbEntity
  8
0
  0
LINE
  5
3392
330
1E
100
AcDbEntity
  8
0
100
AcDbLine
 10
5.098910896747424
 20
4.462950235671469
 30
0.0
 11
5.173964636904904
 21
4.462950235671469
 31
0.0
  0
LINE
  5
3393
330
1E
100
AcDbEntity
  8
0
100
AcDbLine
 10
5.098910896747424
 20
7.224137834096666
 30
0.0
 11
5.173964636904904
 21
7.224137834096666
 31
0.0
  0
POLYLINE
  5
3394
330
1E
100
AcDbEntity
  8
0
100
AcDb2dPolyline
 66
     1
 10
0.0
 20
0.0
 30
0.0
  0
VERTEX
  5
38D0
330
3394
100
AcDbEntity
  8
0
100
AcDbVertex
100
AcDb2dVertex
 10
5.173964636904904
 20
7.224137834096666
 30
0.0
  0
VERTEX
  5
38D1
330
3394
100
AcDbEntity
  8
0
100
AcDbVertex
100
AcDb2dVertex
 10
5.198982550290731
 20
7.224137834096666
 30
0.0
  0
VERTEX
  5
38D2
330
3394
100
AcDbEntity
  8
0
100
AcDbVertex
100
AcDb2dVertex
 10
5.217416802259234
 20
7.224137834096666
 30
0.0
  0
VERTEX
  5
38D3
330
3394
100
AcDbEntity
  8
0
100
AcDbVertex
100
AcDb2dVertex
 10
5.224000463676556
 20
7.224137834096666
 30
0.0
  0
SEQEND
  5
38D4
330
3394
100
AcDbEntity
  8
0
  0
LINE
  5
339A
330
1E
100
AcDbEntity
  8
0
100
AcDbLine
 10
4.89350066052695
 20
8.036561652994304
 30
0.0
 11
4.89350066052695
 21
3.650526416773831
 31
0.0
  0
LINE
  5
339B
330
1E
100
AcDbEntity
  8
0
100
AcDbLine
 10
4.89350066052695
 20
8.036561652994304
 30
0.0
 11
4.79211227470018
 21
7.915422282915564
 31
0.0
  0
LINE
  5
339C
330
1E
100
AcDbEntity
  8
0
100
AcDbLine
 10
4.79211227470018
 20
7.915422282915564
 30
0.0
 11
4.79211227470018
 21
3.771665786852572
 31
0.0
  0
LINE
  5
339D
330
1E
100
AcDbEntity
  8
0
100
AcDbLine
 10
4.89350066052695
 20
3.650526416773831
 30
0.0
 11
4.79211227470018
 21
3.771665786852572
 31
0.0
  0
POLYLINE
  5
339E
330
1E
100
AcDbEntity
  8
0
100
AcDb2dPolyline
 66
     1
 10
0.0
 20
0.0
 30
0.0
  0
VERTEX
  5
38D5
330
339E
100
AcDbEntity
  8
0
100
AcDbVertex
100
AcDb2dVertex
 10
4.768411093597817
 20
3.771665786852572
 30
0.0
  0
VERTEX
  5
38D6
330
339E
100
AcDbEntity
  8
0
100
AcDbVertex
100
AcDb2dVertex
 10
4.77499475501514
 20
3.771665786852572
 30
0.0
  0
VERTEX
  5
38D7
330
339E
100
AcDbEntity
  8
0
100
AcDbVertex
100
AcDb2dVertex
 10
4.79211227470018
 20
3.771665786852572
 30
0.0
  0
SEQEND
  5
38D8
330
339E
100
AcDbEntity
  8
0
  0
POLYLINE
  5
33A3
330
1E
100
AcDbEntity
  8
0
100
AcDb2dPolyline
 66
     1
 10
0.0
 20
0.0
 30
0.0
  0
VERTEX
  5
38D9
330
33A3
100
AcDbEntity
  8
0
100
AcDbVertex
100
AcDb2dVertex
 10
4.768411093597817
 20
3.771665786852572
 30
0.0
  0
VERTEX
  5
38DA
330
33A3
100
AcDbEntity
  8
0
100
AcDbVertex
100
AcDb2dVertex
 10
4.77499475501514
 20
3.737430747482492
 30
0.0
  0
VERTEX
  5
38DB
330
33A3
100
AcDbEntity
  8
0
100
AcDbVertex
100
AcDb2dVertex
 10
4.79211227470018
 20
3.707145904962807
 30
0.0
  0
SEQEND
  5
38DC
330
33A3
100
AcDbEntity
  8
0
  0
POLYLINE
  5
33A8
330
1E
100
AcDbEntity
  8
0
100
AcDb2dPolyline
 66
     1
 10
0.0
 20
0.0
 30
0.0
  0
VERTEX
  5
38DD
330
33A8
100
AcDbEntity
  8
0
100
AcDbVertex
100
AcDb2dVertex
 10
4.79211227470018
 20
3.771665786852572
 30
0.0
  0
VERTEX
  5
38DE
330
33A8
100
AcDbEntity
  8
0
100
AcDbVertex
100
AcDb2dVertex
 10
4.782895148715927
 20
3.736114015199028
 30
0.0
  0
VERTEX
  5
38DF
330
33A8
100
AcDbEntity
  8
0
100
AcDbVertex
100
AcDb2dVertex
 10
4.79211227470018
 20
3.707145904962807
 30
0.0
  0
SEQEND
  5
38E0
330
33A8
100
AcDbEntity
  8
0
  0
LINE
  5
33AD
330
1E
100
AcDbEntity
  8
0
100
AcDbLine
 10
4.89350066052695
 20
3.586006534884067
 30
0.0
 11
4.898767589660809
 21
3.586006534884067
 31
0.0
  0
POLYLINE
  5
33AE
330
1E
100
AcDbEntity
  8
0
100
AcDb2dPolyline
 66
     1
 10
0.0
 20
0.0
 30
0.0
  0
VERTEX
  5
38E1
330
33AE
100
AcDbEntity
  8
0
100
AcDbVertex
100
AcDb2dVertex
 10
4.898767589660809
 20
3.586006534884067
 30
0.0
  0
VERTEX
  5
38E2
330
33AE
100
AcDbEntity
  8
0
100
AcDbVertex
100
AcDb2dVertex
 10
4.900084321944273
 20
3.587323267167532
 30
0.0
  0
VERTEX
  5
38E3
330
33AE
100
AcDbEntity
  8
0
100
AcDbVertex
100
AcDb2dVertex
 10
4.900084321944273
 20
3.59259019630139
 30
0.0
  0
VERTEX
  5
38E4
330
33AE
100
AcDbEntity
  8
0
100
AcDbVertex
100
AcDb2dVertex
 10
4.900084321944273
 20
3.599173857718713
 30
0.0
  0
VERTEX
  5
38E5
330
33AE
100
AcDbEntity
  8
0
100
AcDbVertex
100
AcDb2dVertex
 10
4.900084321944273
 20
3.608390983702965
 30
0.0
  0
VERTEX
  5
38E6
330
33AE
100
AcDbEntity
  8
0
100
AcDbVertex
100
AcDb2dVertex
 10
4.898767589660809
 20
3.616291377403753
 30
0.0
  0
SEQEND
  5
38E7
330
33AE
100
AcDbEntity
  8
0
  0
LINE
  5
33B6
330
1E
100
AcDbEntity
  8
0
100
AcDbLine
 10
4.898767589660809
 20
3.616291377403753
 30
0.0
 11
4.89350066052695
 21
3.650526416773831
 31
0.0
  0
LINE
  5
33B7
330
1E
100
AcDbEntity
  8
0
100
AcDbLine
 10
4.79211227470018
 20
3.707145904962807
 30
0.0
 11
4.89350066052695
 21
3.586006534884067
 31
0.0
  0
LINE
  5
33B8
330
1E
100
AcDbEntity
  8
0
100
AcDbLine
 10
4.898767589660809
 20
3.616291377403753
 30
0.0
 11
4.929052432180494
 21
3.616291377403753
 31
0.0
  0
LINE
  5
33B9
330
1E
100
AcDbEntity
  8
0
100
AcDbLine
 10
4.929052432180494
 20
3.616291377403753
 30
0.0
 11
4.929052432180494
 21
8.070796692364382
 31
0.0
  0
LINE
  5
33BA
330
1E
100
AcDbEntity
  8
0
100
AcDbLine
 10
4.929052432180494
 20
8.070796692364382
 30
0.0
 11
4.898767589660809
 21
8.070796692364382
 31
0.0
  0
LINE
  5
33BB
330
1E
100
AcDbEntity
  8
0
100
AcDbLine
 10
4.898767589660809
 20
8.070796692364382
 30
0.0
 11
4.89350066052695
 21
8.036561652994304
 31
0.0
  0
POLYLINE
  5
33BC
330
1E
100
AcDbEntity
  8
0
100
AcDb2dPolyline
 66
     1
 10
0.0
 20
0.0
 30
0.0
  0
VERTEX
  5
38E8
330
33BC
100
AcDbEntity
  8
0
100
AcDbVertex
100
AcDb2dVertex
 10
4.768411093597817
 20
7.915422282915564
 30
0.0
  0
VERTEX
  5
38E9
330
33BC
100
AcDbEntity
  8
0
100
AcDbVertex
100
AcDb2dVertex
 10
4.77499475501514
 20
7.915422282915564
 30
0.0
  0
VERTEX
  5
38EA
330
33BC
100
AcDbEntity
  8
0
100
AcDbVertex
100
AcDb2dVertex
 10
4.79211227470018
 20
7.915422282915564
 30
0.0
  0
SEQEND
  5
38EB
330
33BC
100
AcDbEntity
  8
0
  0
LINE
  5
33C1
330
1E
100
AcDbEntity
  8
0
100
AcDbLine
 10
4.768411093597817
 20
3.771665786852572
 30
0.0
 11
4.768411093597817
 21
7.915422282915564
 31
0.0
  0
LINE
  5
33C2
330
1E
100
AcDbEntity
  8
0
100
AcDbLine
 10
4.929052432180494
 20
3.586006534884067
 30
0.0
 11
4.898767589660809
 21
3.586006534884067
 31
0.0
  0
POLYLINE
  5
33C3
330
1E
100
AcDbEntity
  8
0
100
AcDb2dPolyline
 66
     1
 10
0.0
 20
0.0
 30
0.0
  0
VERTEX
  5
38EC
330
33C3
100
AcDbEntity
  8
0
100
AcDbVertex
100
AcDb2dVertex
 10
4.929052432180494
 20
3.616291377403753
 30
0.0
  0
VERTEX
  5
38ED
330
33C3
100
AcDbEntity
  8
0
100
AcDbVertex
100
AcDb2dVertex
 10
4.929052432180494
 20
3.595223660868319
 30
0.0
  0
VERTEX
  5
38EE
330
33C3
100
AcDbEntity
  8
0
100
AcDbVertex
100
AcDb2dVertex
 10
4.929052432180494
 20
3.586006534884067
 30
0.0
  0
SEQEND
  5
38EF
330
33C3
100
AcDbEntity
  8
0
  0
POLYLINE
  5
33C8
330
1E
100
AcDbEntity
  8
0
100
AcDb2dPolyline
 66
     1
 10
0.0
 20
0.0
 30
0.0
  0
VERTEX
  5
38F0
330
33C8
100
AcDbEntity
  8
0
100
AcDbVertex
100
AcDb2dVertex
 10
4.929052432180494
 20
8.101081534884068
 30
0.0
  0
VERTEX
  5
38F1
330
33C8
100
AcDbEntity
  8
0
100
AcDbVertex
100
AcDb2dVertex
 10
4.929052432180494
 20
8.091864408899816
 30
0.0
  0
VERTEX
  5
38F2
330
33C8
100
AcDbEntity
  8
0
100
AcDbVertex
100
AcDb2dVertex
 10
4.929052432180494
 20
8.070796692364382
 30
0.0
  0
SEQEND
  5
38F3
330
33C8
100
AcDbEntity
  8
0
  0
LINE
  5
33CD
330
1E
100
AcDbEntity
  8
0
100
AcDbLine
 10
5.173964636904904
 20
4.462950235671469
 30
0.0
 11
5.173964636904904
 21
4.47480082622265
 31
0.0
  0
LINE
  5
33CE
330
1E
100
AcDbEntity
  8
0
100
AcDbLine
 10
5.224000463676556
 20
4.48928488134076
 30
0.0
 11
5.224000463676556
 21
4.462950235671469
 31
0.0
  0
POLYLINE
  5
33CF
330
1E
100
AcDbEntity
  8
0
100
AcDb2dPolyline
 66
     1
 10
0.0
 20
0.0
 30
0.0
  0
VERTEX
  5
38F4
330
33CF
100
AcDbEntity
  8
0
100
AcDbVertex
100
AcDb2dVertex
 10
4.79211227470018
 20
7.915422282915564
 30
0.0
  0
VERTEX
  5
38F5
330
33CF
100
AcDbEntity
  8
0
100
AcDbVertex
100
AcDb2dVertex
 10
4.782895148715927
 20
7.950974054569106
 30
0.0
  0
VERTEX
  5
38F6
330
33CF
100
AcDbEntity
  8
0
100
AcDbVertex
100
AcDb2dVertex
 10
4.79211227470018
 20
7.979942164805327
 30
0.0
  0
SEQEND
  5
38F7
330
33CF
100
AcDbEntity
  8
0
  0
POLYLINE
  5
33D4
330
1E
100
AcDbEntity
  8
0
100
AcDb2dPolyline
 66
     1
 10
0.0
 20
0.0
 30
0.0
  0
VERTEX
  5
38F8
330
33D4
100
AcDbEntity
  8
0
100
AcDbVertex
100
AcDb2dVertex
 10
4.768411093597817
 20
7.915422282915564
 30
0.0
  0
VERTEX
  5
38F9
330
33D4
100
AcDbEntity
  8
0
100
AcDbVertex
100
AcDb2dVertex
 10
4.77499475501514
 20
7.949657322285641
 30
0.0
  0
VERTEX
  5
38FA
330
33D4
100
AcDbEntity
  8
0
100
AcDbVertex
100
AcDb2dVertex
 10
4.79211227470018
 20
7.979942164805327
 30
0.0
  0
SEQEND
  5
38FB
330
33D4
100
AcDbEntity
  8
0
  0
POLYLINE
  5
33D9
330
1E
100
AcDbEntity
  8
0
100
AcDb2dPolyline
 66
     1
 10
0.0
 20
0.0
 30
0.0
  0
VERTEX
  5
38FC
330
33D9
100
AcDbEntity
  8
0
100
AcDbVertex
100
AcDb2dVertex
 10
4.898767589660809
 20
8.070796692364382
 30
0.0
  0
VERTEX
  5
38FD
330
33D9
100
AcDbEntity
  8
0
100
AcDbVertex
100
AcDb2dVertex
 10
4.900084321944273
 20
8.081330550632099
 30
0.0
  0
VERTEX
  5
38FE
330
33D9
100
AcDbEntity
  8
0
100
AcDbVertex
100
AcDb2dVertex
 10
4.900084321944273
 20
8.089230944332886
 30
0.0
  0
VERTEX
  5
38FF
330
33D9
100
AcDbEntity
  8
0
100
AcDbVertex
100
AcDb2dVertex
 10
4.900084321944273
 20
8.095814605750209
 30
0.0
  0
VERTEX
  5
3900
330
33D9
100
AcDbEntity
  8
0
100
AcDbVertex
100
AcDb2dVertex
 10
4.900084321944273
 20
8.099764802600603
 30
0.0
  0
VERTEX
  5
3901
330
33D9
100
AcDbEntity
  8
0
100
AcDbVertex
100
AcDb2dVertex
 10
4.898767589660809
 20
8.101081534884068
 30
0.0
  0
SEQEND
  5
3902
330
33D9
100
AcDbEntity
  8
0
  0
LINE
  5
33E1
330
1E
100
AcDbEntity
  8
0
100
AcDbLine
 10
4.89350066052695
 20
8.101081534884068
 30
0.0
 11
4.898767589660809
 21
8.101081534884068
 31
0.0
  0
LINE
  5
33E2
330
1E
100
AcDbEntity
  8
0
100
AcDbLine
 10
4.79211227470018
 20
7.979942164805327
 30
0.0
 11
4.89350066052695
 21
8.101081534884068
 31
0.0
  0
LINE
  5
33E3
330
1E
100
AcDbEntity
  8
0
100
AcDbLine
 10
4.898767589660809
 20
8.101081534884068
 30
0.0
 11
4.929052432180494
 21
8.101081534884068
 31
0.0
  0
LINE
  5
33E4
330
1E
100
AcDbEntity
  8
0
100
AcDbLine
 10
5.173964636904904
 20
7.212287243545485
 30
0.0
 11
5.173964636904904
 21
7.224137834096666
 31
0.0
  0
LINE
  5
33E5
330
1E
100
AcDbEntity
  8
0
100
AcDbLine
 10
5.224000463676556
 20
7.224137834096666
 30
0.0
 11
5.224000463676556
 21
7.19911992071084
 31
0.0
  0
ENDSEC
  0
SECTION
  2
OBJECTS
  0
DICTIONARY
  5
C
330
0
100
AcDbDictionary
  3
ACAD_GROUP
350
D
  3
ACAD_MLINESTYLE
350
16
  3
ACAD_PLOTSETTINGS
350
18
  3
ACAD_LAYOUT
350
19
1001
ACAD
1000
TREAT_AS_HARD
1070
     0
  0
DICTIONARY
  5
33ED
330
1E
100
AcDbDictionary
  3
ACAD_LAYOUTSELFREF
350
33EE
  0
DICTIONARY
  5
33EB
330
1A
100
AcDbDictionary
  3
ACAD_LAYOUTSELFREF
350
33EC
  0
DICTIONARY
  5
D
102
{ACAD_REACTORS
330
C
102
}
330
C
100
AcDbDictionary
1001
ACAD
1000
TREAT_AS_HARD
1070
     0
  0
DICTIONARY
  5
16
102
{ACAD_REACTORS
330
C
102
}
330
C
100
AcDbDictionary
  3
STANDARD
350
17
1001
ACAD
1000
TREAT_AS_HARD
1070
     0
  0
DICTIONARY
  5
18
102
{ACAD_REACTORS
330
C
102
}
330
C
100
AcDbDictionary
1001
ACAD
1000
TREAT_AS_HARD
1070
     0
  0
DICTIONARY
  5
19
102
{ACAD_REACTORS
330
C
102
}
330
C
100
AcDbDictionary
1001
ACAD
1000
TREAT_AS_HARD
1070
     0
  0
XRECORD
  5
33EE
102
{ACAD_REACTORS
330
33ED
102
}
330
33ED
100
AcDbXrecord
340
1E
  0
XRECORD
  5
33EC
102
{ACAD_REACTORS
330
33EB
102
}
330
33EB
100
AcDbXrecord
340
1A
  0
MLINESTYLE
  5
17
102
{ACAD_REACTORS
330
16
102
}
330
16
100
AcDbMlineStyle
  2
STANDARD
 70
     0
  3

 62
   256
 51
90.0
 52
90.0
 71
     2
 49
0.5
 62
   256
  6
BYLAYER
 49
-0.5
 62
   256
  6
BYLAYER
  0
ENDSEC
  0
EOF
