999
DXF file: C:\Users\sesa63760\Dev\_Creo\CAD\MCADID0003719_3D-CAD\drw0001_1.dxf
999
Pro/ENGINEER 2019471 by Parametric Technology Corporation
  0
SECTION
  2
HEADER
  9
$ACADVER
  1
AC1024
  9
$DWGCODEPAGE
  3
ANSI_1252
  9
$EXTMAX
 10
202.9236931373
 20
286.9920802942
 30
0.0
  9
$EXTMIN
 10
-0.0
 20
0.0
 30
0.0
  9
$LIMMIN
 10
-0.0
 20
0.0
  9
$LIMMAX
 10
202.9236931373
 20
286.9920802942
  9
$VIEWCTR
 10
101.4618465687
 20
143.4960401471
  9
$VIEWSIZE
 40
286.9920802942
  9
$CLAYER
  8
0
  9
$LTSCALE
 40
18.7076319007
  9
$CELTYPE
  6
BYLAYER
  9
$DIMSCALE
 40
1.0
  9
$DIMASZ
 40
2.4157582516
  9
$DIMEXO
 40
1.0
  9
$DIMDLI
 40
12.9252729495
  9
$DIMEXE
 40
1.0
  9
$DIMCEN
 40
3.0612488565
  9
$DIMLFAC
 40
1.0
  9
$DIMBLK
  1
_FILLED
  9
$DIMALT
 70
0
  9
$DIMALTF
 40
0.0393700787
  9
$DIMTXT
 40
3.3820615523
  9
$DIMTOL
 70
1
  9
$DIMLIM
 70
0
  9
$DIMTFAC
 40
1.0
  9
$DIMTP
 40
0.01
  9
$DIMTM
 40
0.01
  9
$DIMGAP
 40
0.625
  9
$DIMDSEP
 70
46
  9
$AUNITS
 70
0
  9
$PDMODE
 70
3
  9
$PDSIZE
 40
0.3125
  9
$HANDSEED
  5
307
  9
$TILEMODE
 70
1
  9
$MEASUREMENT
 70
1
  9
$INSUNITS
 70
4
  0
ENDSEC
  0
SECTION
  2
CLASSES
  0
CLASS
  1
ACDBDICTIONARYWDFLT
  2
AcDbDictionaryWithDefault
  3
AutoCAD 2000
 90
0
 91
1
280
0
281
0
  0
CLASS
  1
ACDBPLACEHOLDER
  2
AcDbPlaceHolder
  3
AutoCAD 2000
 90
0
 91
1
280
0
281
0
  0
CLASS
  1
LAYOUT
  2
AcDbLayout
  3
AutoCAD 2000
 90
0
 91
0
280
0
281
0
  0
ENDSEC
  0
SECTION
  2
TABLES
  0
TABLE
  2
VPORT
  5
8
100
AcDbSymbolTable
 70
2
  0
VPORT
  5
1F4
100
AcDbSymbolTableRecord
100
AcDbViewportTableRecord
  2
*ACTIVE
 70
0
 10
0.0
 20
0.0
 11
1.0
 21
1.0
 12
101.4618465687
 22
143.4960401471
 13
0.0
 23
0.0
 14
1.0
 24
1.0
 15
0.0
 25
0.0
 16
0.0
 26
0.0
 36
1.0
 17
0.0
 27
0.0
 37
0.0
 40
286.9920802942
 41
0.7070707071
 42
50.0
 43
0.0
 44
0.0
 50
0.0
 51
0.0
 71
0
 72
100
 73
1
 74
1
 75
0
 76
0
 77
0
 78
0
  0
ENDTAB
  0
TABLE
  2
LTYPE
  5
5
100
AcDbSymbolTable
 70
6
  0
LTYPE
  5
14
100
AcDbSymbolTableRecord
100
AcDbLinetypeTableRecord
  2
BYBLOCK
 70
0
  3

 72
65
 73
0
 40
0.0
  0
LTYPE
  5
15
100
AcDbSymbolTableRecord
100
AcDbLinetypeTableRecord
  2
BYLAYER
 70
0
  3

 72
65
 73
0
 40
0.0
  0
LTYPE
  5
16
100
AcDbSymbolTableRecord
100
AcDbLinetypeTableRecord
  2
CONTINUOUS
 70
64
  3
Solid line
 72
65
 73
0
 40
0.0
  0
LTYPE
  5
1F5
100
AcDbSymbolTableRecord
100
AcDbLinetypeTableRecord
  2
CENTER
 70
64
  3
____ _ ____ _ ____ _ ____ _ ____ _ ____ _ ____
 72
65
 73
4
 40
0.6
 49
0.375
 74
0
 49
-0.075
 74
0
 49
0.075
 74
0
 49
-0.075
 74
0
  0
LTYPE
  5
1F6
100
AcDbSymbolTableRecord
100
AcDbLinetypeTableRecord
  2
HIDDEN
 70
64
  3
- - - - - - - - - - - - - - - - - - - -
 72
65
 73
2
 40
0.2
 49
0.1
 74
0
 49
-0.1
 74
0
  0
LTYPE
  5
1F7
100
AcDbSymbolTableRecord
100
AcDbLinetypeTableRecord
  2
PHANTOM
 70
64
  3
_____ _ _ _____ _ _ _____ _ _ _____
 72
65
 73
6
 40
0.8
 49
0.45
 74
0
 49
-0.05
 74
0
 49
0.1
 74
0
 49
-0.05
 74
0
 49
0.1
 74
0
 49
-0.05
 74
0
  0
LTYPE
  5
1F8
100
AcDbSymbolTableRecord
100
AcDbLinetypeTableRecord
  2
DOT
 70
64
  3
. . . . . . . . . . . . . . . . . . . .
 72
65
 73
2
 40
0.2
 49
0.1
 74
0
 49
-0.1
 74
0
  0
LTYPE
  5
1F9
100
AcDbSymbolTableRecord
100
AcDbLinetypeTableRecord
  2
DASHED
 70
64
  3
- - - - - - - - - - - - - - - - - - - -
 72
65
 73
2
 40
0.2
 49
0.1
 74
0
 49
-0.1
 74
0
  0
ENDTAB
  0
TABLE
  2
LAYER
  5
2
100
AcDbSymbolTable
 70
36
  0
LAYER
  5
10
100
AcDbSymbolTableRecord
100
AcDbLayerTableRecord
  2
0
 70
0
 62
7
  6
CONTINUOUS
370
-3
390
F
  0
LAYER
  5
1FA
100
AcDbSymbolTableRecord
100
AcDbLayerTableRecord
  2
DEFAULT_1
 70
0
 62
7
  6
CENTER
370
-3
390
F
  0
LAYER
  5
1FB
100
AcDbSymbolTableRecord
100
AcDbLayerTableRecord
  2
DEFAULT_2
 70
0
 62
7
  6
HIDDEN
370
-3
390
F
  0
LAYER
  5
1FC
100
AcDbSymbolTableRecord
100
AcDbLayerTableRecord
  2
DEFAULT_3
 70
0
 62
7
  6
PHANTOM
370
-3
390
F
  0
LAYER
  5
1FD
100
AcDbSymbolTableRecord
100
AcDbLayerTableRecord
  2
00_COMPONENTS
 70
0
 62
7
  6
CONTINUOUS
370
-3
390
F
  0
LAYER
  5
1FE
100
AcDbSymbolTableRecord
100
AcDbLayerTableRecord
  2
01_1_DEFAULT_DATUMS
 70
0
 62
7
  6
CONTINUOUS
370
-3
390
F
  0
LAYER
  5
1FF
100
AcDbSymbolTableRecord
100
AcDbLayerTableRecord
  2
01_PLANES
 70
0
 62
7
  6
CONTINUOUS
370
-3
390
F
  0
LAYER
  5
200
100
AcDbSymbolTableRecord
100
AcDbLayerTableRecord
  2
02_COORD_SYS
 70
0
 62
7
  6
CONTINUOUS
370
-3
390
F
  0
LAYER
  5
201
100
AcDbSymbolTableRecord
100
AcDbLayerTableRecord
  2
03_AXES
 70
0
 62
7
  6
CONTINUOUS
370
-3
390
F
  0
LAYER
  5
202
100
AcDbSymbolTableRecord
100
AcDbLayerTableRecord
  2
04_POINTS
 70
0
 62
7
  6
CONTINUOUS
370
-3
390
F
  0
LAYER
  5
203
100
AcDbSymbolTableRecord
100
AcDbLayerTableRecord
  2
05_CURVES
 70
0
 62
7
  6
CONTINUOUS
370
-3
390
F
  0
LAYER
  5
204
100
AcDbSymbolTableRecord
100
AcDbLayerTableRecord
  2
06_SURFS
 70
0
 62
7
  6
CONTINUOUS
370
-3
390
F
  0
LAYER
  5
205
100
AcDbSymbolTableRecord
100
AcDbLayerTableRecord
  2
07_COSMETICS
 70
0
 62
7
  6
CONTINUOUS
370
-3
390
F
  0
LAYER
  5
206
100
AcDbSymbolTableRecord
100
AcDbLayerTableRecord
  2
10_NOTES
 70
0
 62
7
  6
CONTINUOUS
370
-3
390
F
  0
LAYER
  5
207
100
AcDbSymbolTableRecord
100
AcDbLayerTableRecord
  2
11_NOTES_PUB
 70
0
 62
7
  6
CONTINUOUS
370
-3
390
F
  0
LAYER
  5
208
100
AcDbSymbolTableRecord
100
AcDbLayerTableRecord
  2
13_REF_GTOL
 70
0
 62
7
  6
CONTINUOUS
370
-3
390
F
  0
LAYER
  5
209
100
AcDbSymbolTableRecord
100
AcDbLayerTableRecord
  2
16_MISC
 70
0
 62
7
  6
CONTINUOUS
370
-3
390
F
  0
LAYER
  5
20A
100
AcDbSymbolTableRecord
100
AcDbLayerTableRecord
  2
17_NO_PRINT
 70
0
 62
7
  6
CONTINUOUS
370
-3
390
F
  0
LAYER
  5
20B
100
AcDbSymbolTableRecord
100
AcDbLayerTableRecord
  2
18_DATUM_CAMS_JOINTS
 70
0
 62
7
  6
CONTINUOUS
370
-3
390
F
  0
LAYER
  5
20C
100
AcDbSymbolTableRecord
100
AcDbLayerTableRecord
  2
19_DATUM_FUNCTIONAL
 70
0
 62
7
  6
CONTINUOUS
370
-3
390
F
  0
LAYER
  5
20D
100
AcDbSymbolTableRecord
100
AcDbLayerTableRecord
  2
20_DATUM_KINEMATIC_SCHEME
 70
0
 62
7
  6
CONTINUOUS
370
-3
390
F
  0
ENDTAB
  0
TABLE
  2
STYLE
  5
3
100
AcDbSymbolTable
 70
1
  0
STYLE
  5
11
100
AcDbSymbolTableRecord
100
AcDbTextStyleTableRecord
  2
STANDARD
 70
0
 40
0.0
 41
1.0
 50
0.0
 71
0
 42
0.2
  3
ARIAL.TTF
  4

  0
STYLE
  5
20E
100
AcDbSymbolTableRecord
100
AcDbTextStyleTableRecord
  2
TEXTSTYLE_1
 70
0
 40
0.0
 41
0.8
 50
0.0
 71
0
 42
0.2
  3
gdt
  4

  0
ENDTAB
  0
TABLE
  2
VIEW
  5
6
100
AcDbSymbolTable
 70
0
  0
ENDTAB
  0
TABLE
  2
UCS
  5
7
100
AcDbSymbolTable
 70
0
  0
ENDTAB
  0
TABLE
  2
APPID
  5
9
100
AcDbSymbolTable
 70
1
  0
APPID
  5
20F
100
AcDbSymbolTableRecord
100
AcDbRegAppTableRecord
  2
ACAD
 70
0
  0
ENDTAB
  0
TABLE
  2
BLOCK_RECORD
  5
1
100
AcDbSymbolTable
 70
0
  0
BLOCK_RECORD
  5
210
100
AcDbSymbolTableRecord
100
AcDbBlockTableRecord
  2
*Model_Space
  0
BLOCK_RECORD
  5
211
100
AcDbSymbolTableRecord
100
AcDbBlockTableRecord
  2
*Paper_Space
  0
BLOCK_RECORD
  5
212
100
AcDbSymbolTableRecord
100
AcDbBlockTableRecord
  2
_FILLED
  0
ENDTAB
  0
TABLE
  2
DIMSTYLE
  5
A
100
AcDbSymbolTable
 70
1
100
AcDbDimStyleTable
 71
0
  0
DIMSTYLE
105
213
100
AcDbSymbolTableRecord
100
AcDbDimStyleTableRecord
  2
STANDARD
 70
0
  3

  4

 40
1.0
 41
2.4157582516
 42
1.0
 43
0.38
 44
1.0
 45
0.0
 46
0.0
 47
0.01
 48
0.01
140
3.3820615523
141
0.09
142
0.0
143
25.4
144
1.0
145
0.0
146
1.0
147
0.625
 71
1
 72
0
 73
0
 74
0
 75
0
 76
0
 77
1
 78
8
 79
2
170
0
171
1
172
0
173
0
174
0
175
0
176
0
177
0
178
0
270
2
179
2
271
2
272
2
273
2
274
2
275
0
280
0
281
0
282
0
283
1
284
8
285
0
286
0
287
3
288
0
340
11
278
46
341
212
342
212
343
212
344
212
  0
ENDTAB
  0
ENDSEC
  0
SECTION
  2
BLOCKS
  0
BLOCK
  5
20
100
AcDbEntity
  8
0
100
AcDbBlockBegin
  2
*Model_Space
 70
0
 10
0.0
 20
0.0
 30
0.0
  3
*Model_Space
  1

  0
ENDBLK
  5
21
100
AcDbEntity
  8
0
100
AcDbBlockEnd
  0
BLOCK
  5
1C
100
AcDbEntity
  8
0
100
AcDbBlockBegin
  2
*Paper_Space
 70
0
 10
0.0
 20
0.0
 30
0.0
  3
*Paper_Space
  1

  0
ENDBLK
  5
1D
100
AcDbEntity
  8
0
100
AcDbBlockEnd
  0
BLOCK
  5
214
100
AcDbEntity
  8
0
100
AcDbBlockBegin
  2
_FILLED
 70
64
 10
0.0
 20
0.0
  3
_FILLED
  1

  0
SOLID
  5
215
100
AcDbEntity
  8
0
  6
BYBLOCK
 62
0
100
AcDbTrace
 10
0.0
 20
0.0
 11
-1.0
 21
0.25
 12
-1.0
 22
-0.25
 13
-1.0
 23
-0.25
  0
ENDBLK
  5
216
100
AcDbEntity
  8
0
  6
BYBLOCK
 62
0
100
AcDbBlockEnd
  0
ENDSEC
  0
SECTION
  2
ENTITIES
  0
LINE
  5
217
100
AcDbEntity
  8
0
100
AcDbLine
 62
7
  6
BYLAYER
 10
80.5338454151
 20
174.1875499364
 11
114.8283815199
 21
193.9873913991
  0
LINE
  5
218
100
AcDbEntity
  8
0
100
AcDbLine
 62
7
  6
BYLAYER
 10
69.3969599789
 20
159.5926803416
 11
69.3969599789
 21
146.5286416675
  0
LINE
  5
219
100
AcDbEntity
  8
0
100
AcDbLine
 62
7
  6
BYLAYER
 10
86.5706218749
 20
167.7577409859
 11
86.2632408371
 21
167.1426401564
  0
LINE
  5
21A
100
AcDbEntity
  8
0
100
AcDbLine
 62
7
  6
BYLAYER
 10
69.3969599789
 20
159.5926803416
 11
80.5338454151
 21
166.0225257651
  0
LINE
  5
21B
100
AcDbEntity
  8
0
100
AcDbLine
 62
7
  6
BYLAYER
 10
123.8691002873
 20
191.0419974849
 11
125.965266956
 21
192.2522126513
  0
LINE
  5
21C
100
AcDbEntity
  8
0
100
AcDbLine
 62
7
  6
BYLAYER
 10
80.5338454151
 20
174.1875499364
 11
80.5338454151
 21
166.0225257651
  0
LINE
  5
21D
100
AcDbEntity
  8
0
100
AcDbLine
 62
7
  6
BYLAYER
 10
80.53393815
 20
153.1628884579
 11
80.53393815
 21
161.3279126292
  0
LINE
  5
21E
100
AcDbEntity
  8
0
100
AcDbLine
 62
7
  6
BYLAYER
 10
52.7512125385
 20
108.3549942582
 11
52.7480395218
 21
108.3501862209
  0
LINE
  5
21F
100
AcDbEntity
  8
0
100
AcDbLine
 62
7
  6
BYLAYER
 10
52.7084674757
 20
108.4068402979
 11
52.705063981
 21
108.4024482086
  0
LINE
  5
220
100
AcDbEntity
  8
0
100
AcDbLine
 62
7
  6
BYLAYER
 10
85.5196322583
 20
128.7149798146
 11
85.5286850065
 21
128.7109401344
  0
LINE
  5
221
100
AcDbEntity
  8
0
100
AcDbLine
 62
7
  6
BYLAYER
 10
85.5165587562
 20
128.7128041858
 11
85.5255613393
 21
128.7087226471
  0
LINE
  5
222
100
AcDbEntity
  8
0
100
AcDbLine
 62
7
  6
BYLAYER
 10
86.2632319656
 20
167.1426401564
 11
86.2632319656
 21
168.3728499525
  0
LINE
  5
223
100
AcDbEntity
  8
0
100
AcDbLine
 62
7
  6
BYLAYER
 10
83.7297161451
 20
128.8176250193
 11
83.5797947804
 21
128.0800235765
  0
LINE
  5
224
100
AcDbEntity
  8
0
100
AcDbLine
 62
7
  6
BYLAYER
 10
125.9657379907
 20
113.8693813059
 11
99.6964590325
 21
129.0356134778
  0
LINE
  5
225
100
AcDbEntity
  8
0
100
AcDbLine
 62
7
  6
BYLAYER
 10
83.7146314542
 20
138.2625171918
 11
69.3969599789
 21
146.5286416675
  0
LWPOLYLINE
  5
226
100
AcDbEntity
  8
0
100
AcDbPolyline
 62
7
  6
BYLAYER
 90
12
 70
0
 10
79.3550678771
 20
130.8908862765
 10
77.1374937912
 20
128.5487016457
 10
75.6479059004
 20
126.7709289117
 10
74.2217722761
 20
125.7162780331
 10
72.3822131194
 20
125.1646162605
 10
69.8687255661
 20
124.8423463022
 10
68.4483699927
 20
124.7151487302
 10
65.2514644323
 20
124.3364893778
 10
62.2494759572
 20
123.415570569
 10
60.3309507902
 20
121.855011634
 10
59.0349478024
 20
119.9341507713
 10
58.585400521
 20
119.3710568372
  0
LINE
  5
227
100
AcDbEntity
  8
0
100
AcDbLine
 62
7
  6
BYLAYER
 10
33.2454352131
 20
110.3502343892
 11
29.3563641084
 21
108.104891543
  0
LINE
  5
228
100
AcDbEntity
  8
0
100
AcDbLine
 62
7
  6
BYLAYER
 10
60.4208600093
 20
111.4947089048
 11
59.1732461535
 21
110.3603006234
  0
LWPOLYLINE
  5
229
100
AcDbEntity
  8
0
100
AcDbPolyline
 62
7
  6
BYLAYER
 90
17
 70
0
 10
60.8506382741
 20
115.7334528776
 10
61.5830136091
 20
116.331856489
 10
62.6001060593
 20
117.7107069016
 10
63.2095345682
 20
118.6869452848
 10
63.6759429492
 20
119.3001124345
 10
64.1404587089
 20
119.6645809339
 10
65.0517731321
 20
120.0018657158
 10
66.3745492661
 20
120.2634314986
 10
67.8730837482
 20
120.443409633
 10
69.5331670159
 20
120.5945422764
 10
71.3524741564
 20
120.773399126
 10
73.3262153204
 20
121.0690130847
 10
75.4005860151
 20
121.6508449214
 10
77.3875026717
 20
122.7385183034
 10
79.2676451012
 20
124.5049025885
 10
80.990906573
 20
126.6226683254
 10
82.5935000145
 20
128.0242178859
  0
LINE
  5
22A
100
AcDbEntity
  8
0
100
AcDbLine
 62
7
  6
BYLAYER
 10
80.820905153
 20
132.5181021498
 11
82.3312799413
 21
133.6562403332
  0
LINE
  5
22B
100
AcDbEntity
  8
0
100
AcDbLine
 62
7
  6
BYLAYER
 10
80.4751542402
 20
131.662043615
 11
79.3550678771
 21
130.8908862765
  0
LINE
  5
22C
100
AcDbEntity
  8
0
100
AcDbLine
 62
7
  6
BYLAYER
 10
37.7216357901
 20
112.0685304596
 11
35.1525873278
 21
110.585298492
  0
LINE
  5
22D
100
AcDbEntity
  8
0
100
AcDbLine
 62
7
  6
BYLAYER
 10
28.567153636
 20
106.205869865
 11
25.3851863685
 21
104.3687711726
  0
LINE
  5
22E
100
AcDbEntity
  8
0
100
AcDbLine
 62
7
  6
BYLAYER
 10
45.5876455052
 20
115.9171268883
 11
44.880541668
 21
115.5088827345
  0
LINE
  5
22F
100
AcDbEntity
  8
0
100
AcDbLine
 62
7
  6
BYLAYER
 10
24.6995289338
 20
103.1068849197
 11
25.7601846897
 21
103.7192511505
  0
LINE
  5
230
100
AcDbEntity
  8
0
100
AcDbLine
 62
7
  6
BYLAYER
 10
24.8995280385
 20
102.7604742412
 11
24.5459761199
 21
102.5563521643
  0
LINE
  5
231
100
AcDbEntity
  8
0
100
AcDbLine
 62
7
  6
BYLAYER
 10
51.8504714777
 20
119.020291372
 11
50.3126025853
 21
118.2594022814
  0
LINE
  5
232
100
AcDbEntity
  8
0
100
AcDbLine
 62
7
  6
BYLAYER
 10
48.774733693
 20
117.4985131908
 11
47.2368648006
 21
116.7376241002
  0
LINE
  5
233
100
AcDbEntity
  8
0
100
AcDbLine
 62
7
  6
BYLAYER
 10
125.9657379907
 20
126.93341998
 11
114.8287598196
 21
133.3632118637
  0
LINE
  5
234
100
AcDbEntity
  8
0
100
AcDbLine
 62
7
  6
BYLAYER
 10
80.53393815
 20
153.1628884579
 11
69.3969599789
 21
159.5926803416
  0
LINE
  5
235
100
AcDbEntity
  8
0
100
AcDbLine
 62
7
  6
BYLAYER
 10
86.2632319656
 20
168.3728499525
 11
86.5706218749
 21
167.7577409859
  0
LINE
  5
236
100
AcDbEntity
  8
0
100
AcDbLine
 62
7
  6
BYLAYER
 10
57.3064713699
 20
109.5701659434
 11
55.8785827236
 21
108.6187843416
  0
LINE
  5
237
100
AcDbEntity
  8
0
100
AcDbLine
 62
7
  6
BYLAYER
 10
54.4506940774
 20
107.6674027398
 11
53.0228054311
 21
106.7160211381
  0
LINE
  5
238
100
AcDbEntity
  8
0
100
AcDbLine
 62
7
  6
BYLAYER
 10
167.0148325599
 20
176.3183052501
 11
164.1377427841
 21
174.6572266088
  0
LINE
  5
239
100
AcDbEntity
  8
0
100
AcDbLine
 62
7
  6
BYLAYER
 10
165.2098781547
 20
174.0382429673
 11
168.0869679306
 21
175.6993216086
  0
LINE
  5
23A
100
AcDbEntity
  8
0
100
AcDbLine
 62
7
  6
BYLAYER
 10
29.7495063256
 20
94.3600152886
 11
29.395954407
 21
94.1558932117
  0
LINE
  5
23B
100
AcDbEntity
  8
0
100
AcDbLine
 62
7
  6
BYLAYER
 10
29.9495054302
 20
94.0136046102
 11
31.010161186
 21
94.625970841
  0
LINE
  5
23C
100
AcDbEntity
  8
0
100
AcDbLine
 62
7
  6
BYLAYER
 10
35.6813357922
 20
97.1496538367
 11
35.5620056049
 21
97.0807589322
  0
LINE
  5
23D
100
AcDbEntity
  8
0
100
AcDbLine
 62
7
  6
BYLAYER
 10
83.4811750414
 20
127.9102334194
 11
85.2220778391
 21
128.6492016121
  0
LINE
  5
23E
100
AcDbEntity
  8
0
100
AcDbLine
 62
7
  6
BYLAYER
 10
114.8287598196
 20
141.528236035
 11
80.53393815
 21
161.3279126292
  0
LINE
  5
23F
100
AcDbEntity
  8
0
100
AcDbLine
 62
7
  6
BYLAYER
 10
114.8287598196
 20
141.528236035
 11
114.8287598196
 21
133.3632118637
  0
LINE
  5
240
100
AcDbEntity
  8
0
100
AcDbLine
 62
7
  6
BYLAYER
 10
51.4876190917
 20
105.6980118738
 11
50.7805152544
 21
105.28976772
  0
LINE
  5
241
100
AcDbEntity
  8
0
100
AcDbLine
 62
7
  6
BYLAYER
 10
34.5671267747
 20
95.8135495113
 11
31.3851595072
 21
93.9764508189
  0
LINE
  5
242
100
AcDbEntity
  8
0
100
AcDbLine
 62
7
  6
BYLAYER
 10
44.2216066904
 20
100.8101834097
 11
41.6133765466
 21
99.3043300228
  0
LINE
  5
243
100
AcDbEntity
  8
0
100
AcDbLine
 62
7
  6
BYLAYER
 10
40.4954027557
 20
97.7928472952
 11
36.6063316511
 21
95.5475044489
  0
LINE
  5
244
100
AcDbEntity
  8
0
100
AcDbLine
 62
7
  6
BYLAYER
 10
55.0743778609
 20
120.7551429045
 11
53.4681418899
 21
120.2418900554
  0
LINE
  5
245
100
AcDbEntity
  8
0
100
AcDbLine
 62
7
  6
BYLAYER
 10
37.7216357901
 20
112.0685304596
 11
38.7767890636
 21
112.3695592802
  0
LINE
  5
246
100
AcDbEntity
  8
0
100
AcDbLine
 62
7
  6
BYLAYER
 10
171.3971595317
 20
161.3281310375
 11
137.1026234268
 21
141.5282895748
  0
LINE
  5
247
100
AcDbEntity
  8
0
100
AcDbLine
 62
7
  6
BYLAYER
 10
50.1842441504
 20
105.0629612966
 11
50.7805152544
 21
105.28976772
  0
LINE
  5
248
100
AcDbEntity
  8
0
100
AcDbLine
 62
7
  6
BYLAYER
 10
124.9002596033
 20
136.6710274422
 11
124.9002596033
 21
144.8360516135
  0
LINE
  5
249
100
AcDbEntity
  8
0
100
AcDbLine
 62
7
  6
BYLAYER
 10
125.9657379907
 20
126.93341998
 11
125.9657379907
 21
113.8693813059
  0
LINE
  5
24A
100
AcDbEntity
  8
0
100
AcDbLine
 62
7
  6
BYLAYER
 10
127.031075936
 20
136.671032564
 11
127.031075936
 21
144.8360567353
  0
LINE
  5
24B
100
AcDbEntity
  8
0
100
AcDbLine
 62
7
  6
BYLAYER
 10
182.5340449678
 20
159.5929522897
 11
171.3971595317
 21
153.1631068662
  0
LINE
  5
24C
100
AcDbEntity
  8
0
100
AcDbLine
 62
7
  6
BYLAYER
 10
137.1026234268
 20
133.3632654035
 11
125.9657379907
 21
126.93341998
  0
LINE
  5
24D
100
AcDbEntity
  8
0
100
AcDbLine
 62
7
  6
BYLAYER
 10
137.1026234268
 20
133.3632654035
 11
137.1026234268
 21
141.5282895748
  0
LINE
  5
24E
100
AcDbEntity
  8
0
100
AcDbLine
 62
7
  6
BYLAYER
 10
182.5340449678
 20
146.5289136156
 11
125.9657379907
 21
113.8693813059
  0
LINE
  5
24F
100
AcDbEntity
  8
0
100
AcDbLine
 62
7
  6
BYLAYER
 10
165.3603830719
 20
167.757939988
 11
165.6677641097
 21
168.3730408175
  0
LINE
  5
250
100
AcDbEntity
  8
0
100
AcDbLine
 62
7
  6
BYLAYER
 10
125.965266956
 20
192.2522126513
 11
128.0614956466
 21
191.0419818316
  0
LINE
  5
251
100
AcDbEntity
  8
0
100
AcDbLine
 62
7
  6
BYLAYER
 10
171.3970667967
 20
166.0227441734
 11
182.5340449678
 21
159.5929522897
  0
LINE
  5
252
100
AcDbEntity
  8
0
100
AcDbLine
 62
7
  6
BYLAYER
 10
164.1377439616
 20
174.493935845
 11
164.927046212
 21
174.0382422874
  0
LINE
  5
253
100
AcDbEntity
  8
0
100
AcDbLine
 62
7
  6
BYLAYER
 10
165.6677641097
 20
167.1428310214
 11
165.6677641097
 21
168.3730408175
  0
LINE
  5
254
100
AcDbEntity
  8
0
100
AcDbLine
 62
7
  6
BYLAYER
 10
167.0148325599
 20
176.3183052501
 11
168.0869679306
 21
175.6993216086
  0
LINE
  5
255
100
AcDbEntity
  8
0
100
AcDbLine
 62
7
  6
BYLAYER
 10
137.1022451271
 20
193.9874449389
 11
171.3970667967
 21
174.1877683447
  0
LINE
  5
256
100
AcDbEntity
  8
0
100
AcDbLine
 62
7
  6
BYLAYER
 10
171.3970667967
 20
166.0227441734
 11
171.3970667967
 21
174.1877683447
  0
LINE
  5
257
100
AcDbEntity
  8
0
100
AcDbLine
 62
7
  6
BYLAYER
 10
171.3971595317
 20
161.3281310375
 11
171.3971595317
 21
153.1631068662
  0
LINE
  5
258
100
AcDbEntity
  8
0
100
AcDbLine
 62
7
  6
BYLAYER
 10
165.6677729811
 20
167.1428310214
 11
165.3603830719
 21
167.757939988
  0
LINE
  5
259
100
AcDbEntity
  8
0
100
AcDbLine
 62
7
  6
BYLAYER
 10
182.5340449678
 20
159.5929522897
 11
182.5340449678
 21
146.5289136156
  0
ARC
  5
25A
100
AcDbEntity
  8
0
100
AcDbCircle
 62
7
  6
BYLAYER
 10
137.0758428622
 20
216.1283646511
 40
75.5486106145
100
AcDbArc
 50
221.5464090021
 51
223.9738798806
  0
ARC
  5
25B
100
AcDbEntity
  8
0
100
AcDbCircle
 62
7
  6
BYLAYER
 10
115.4186666341
 20
215.6064079791
 40
74.7804854301
100
AcDbArc
 50
316.0142928121
 51
318.4666261126
  0
ARC
  5
25C
100
AcDbEntity
  8
0
100
AcDbCircle
 62
7
  6
BYLAYER
 10
90.9465515056
 20
150.0335926898
 40
22.7706596573
100
AcDbArc
 50
296.8634850763
 51
301.1968694811
  0
ARC
  5
25D
100
AcDbEntity
  8
0
100
AcDbCircle
 62
7
  6
BYLAYER
 10
103.712913047
 20
127.9214738815
 40
22.7706596573
100
AcDbArc
 50
118.8028343311
 51
123.136218736
  0
ARC
  5
25E
100
AcDbEntity
  8
0
100
AcDbCircle
 62
7
  6
BYLAYER
 10
100.3262066127
 20
131.0178403938
 40
18.1373612843
100
AcDbArc
 50
148.4363656726
 51
152.7262084552
  0
ARC
  5
25F
100
AcDbEntity
  8
0
100
AcDbCircle
 62
7
  6
BYLAYER
 10
91.9338254495
 20
145.4655679035
 40
18.0505553503
100
AcDbArc
 50
267.2631754772
 51
271.5736580195
  0
ARC
  5
260
100
AcDbEntity
  8
0
100
AcDbCircle
 62
7
  6
BYLAYER
 10
98.6462430965
 20
131.8081303262
 40
16.2794810787
100
AcDbArc
 50
156.9902026646
 51
161.9715379333
  0
ARC
  5
261
100
AcDbEntity
  8
0
100
AcDbCircle
 62
7
  6
BYLAYER
 10
91.7551877431
 20
143.5590503677
 40
16.1342894615
100
AcDbArc
 50
258.0057381726
 51
263.0319288541
  0
ARC
  5
262
100
AcDbEntity
  8
0
100
AcDbCircle
 62
7
  6
BYLAYER
 10
94.818733662
 20
132.6772703135
 40
12.3438126721
100
AcDbArc
 50
174.2588910242
 51
174.4104250651
  0
ARC
  5
263
100
AcDbEntity
  8
0
100
AcDbCircle
 62
7
  6
BYLAYER
 10
84.249419684
 20
130.4182676974
 40
3.4345584576
100
AcDbArc
 50
359.6460716981
 51
0.0003156884
  0
ARC
  5
264
100
AcDbEntity
  8
0
100
AcDbCircle
 62
7
  6
BYLAYER
 10
99.6947375994
 20
132.7713825553
 40
3.41827061
100
AcDbArc
 50
286.3243129309
 51
296.7977544689
  0
ARC
  5
265
100
AcDbEntity
  8
0
100
AcDbCircle
 62
7
  6
BYLAYER
 10
93.107169223
 20
144.1689579038
 40
3.3680074099
100
AcDbArc
 50
123.1433339422
 51
131.1206146739
  0
ARC
  5
266
100
AcDbEntity
  8
0
100
AcDbCircle
 62
7
  6
BYLAYER
 10
83.2106152964
 20
130.0287555433
 40
2.71777891
100
AcDbArc
 50
359.646071698
 51
0.0003156884
  0
ARC
  5
267
100
AcDbEntity
  8
0
100
AcDbCircle
 62
7
  6
BYLAYER
 10
81.1555359607
 20
128.8623624506
 40
2.5745689075
100
AcDbArc
 50
359.0043401026
 51
0.0024998495
  0
ARC
  5
268
100
AcDbEntity
  8
0
100
AcDbCircle
 62
7
  6
BYLAYER
 10
81.5869881019
 20
129.1436589392
 40
2.4678853522
100
AcDbArc
 50
359.0043401028
 51
0.0024998495
  0
ARC
  5
269
100
AcDbEntity
  8
0
100
AcDbCircle
 62
7
  6
BYLAYER
 10
81.4649608958
 20
128.517017453
 40
1.1729237883
100
AcDbArc
 50
337.7659807772
 51
339.1028662485
  0
ARC
  5
26A
100
AcDbEntity
  8
0
100
AcDbCircle
 62
7
  6
BYLAYER
 10
83.0563498534
 20
128.7027670705
 40
0.8956190209
100
AcDbArc
 50
298.5753449582
 51
310.0707439161
  0
ARC
  5
26B
100
AcDbEntity
  8
0
100
AcDbCircle
 62
7
  6
BYLAYER
 10
81.2947431905
 20
131.7539741778
 40
0.8955186498
100
AcDbArc
 50
109.6739827299
 51
121.2012303336
  0
SPLINE
  5
26C
100
AcDbEntity
  8
0
100
AcDbSpline
 62
7
  6
BYLAYER
 70
0
 71
3
 72
19
 73
15
 74
0
 42
0.0000001
 43
0.0000001
 44
0.0000000001
 40
0.0
 40
0.0
 40
0.0
 40
0.0
 40
0.1496295108
 40
0.2194455888
 40
0.2859530689
 40
0.4098347836
 40
0.468195645
 40
0.5248329951
 40
0.5804321643
 40
0.6357470193
 40
0.6915480668
 40
0.7485747907
 40
0.8686078178
 40
1.0
 40
1.0
 40
1.0
 40
1.0
 10
89.8776535895
 20
130.5405494914
 30
0.0
 10
89.8776535895
 20
130.3195979891
 30
0.0
 10
89.8553211258
 20
129.9945094737
 30
0.0
 10
89.7708635518
 20
129.5802178243
 30
0.0
 10
89.6585475743
 20
129.2123909669
 30
0.0
 10
89.4968383731
 20
128.8782124395
 30
0.0
 10
89.2847087425
 20
128.59526217
 30
0.0
 10
89.1072714751
 20
128.4152724264
 30
0.0
 10
88.9096485698
 20
128.2649907997
 30
0.0
 10
88.6933807505
 20
128.1455591561
 30
0.0
 10
88.4601289712
 20
128.0579768395
 30
0.0
 10
88.1234882655
 20
127.9831289807
 30
0.0
 10
87.6630102413
 20
127.9759475174
 30
0.0
 10
87.2971759326
 20
128.0542494048
 30
0.0
 10
87.1117232914
 20
128.111271779
 30
0.0
  0
SPLINE
  5
26D
100
AcDbEntity
  8
0
100
AcDbSpline
 62
7
  6
BYLAYER
 70
0
 71
3
 72
15
 73
11
 74
0
 42
0.0000001
 43
0.0000001
 44
0.0000000001
 40
0.0
 40
0.0
 40
0.0
 40
0.0
 40
0.0992284875
 40
0.2125185882
 40
0.3383312891
 40
0.4730210789
 40
0.6117306712
 40
0.7491202946
 40
0.8799900777
 40
1.0
 40
1.0
 40
1.0
 40
1.0
 10
80.4967328913
 20
131.6307396906
 30
0.0
 10
80.6248831549
 20
131.6132847275
 30
0.0
 10
80.8934286901
 20
131.5299652492
 30
0.0
 10
81.2750884605
 20
131.3037764239
 30
0.0
 10
81.6439801421
 20
130.9819436378
 30
0.0
 10
81.9798773445
 20
130.5821698344
 30
0.0
 10
82.2644905497
 20
130.1266638429
 30
0.0
 10
82.4818121902
 20
129.6408090805
 30
0.0
 10
82.6197508747
 20
129.1520331795
 30
0.0
 10
82.6554056919
 20
128.8246786469
 30
0.0
 10
82.6554056919
 20
128.6682587615
 30
0.0
  0
SPLINE
  5
26E
100
AcDbEntity
  8
0
100
AcDbSpline
 62
7
  6
BYLAYER
 70
0
 71
3
 72
9
 73
5
 74
0
 42
0.0000001
 43
0.0000001
 44
0.0000000001
 40
0.0
 40
0.0
 40
0.0
 40
0.0
 40
0.2604527338
 40
1.0
 40
1.0
 40
1.0
 40
1.0
 10
87.6245480891
 20
128.0341588656
 30
0.0
 10
87.6896109047
 20
128.0052798052
 30
0.0
 10
87.9418885362
 20
127.9001723961
 30
0.0
 10
88.2045531091
 20
127.8190506226
 30
0.0
 10
88.40225779
 20
127.7770110814
 30
0.0
  0
SPLINE
  5
26F
100
AcDbEntity
  8
0
100
AcDbSpline
 62
7
  6
BYLAYER
 70
0
 71
3
 72
15
 73
11
 74
0
 42
0.0000001
 43
0.0000001
 44
0.0000000001
 40
0.0
 40
0.0
 40
0.0
 40
0.0
 40
0.1515545216
 40
0.2909778471
 40
0.4189735255
 40
0.5376189745
 40
0.650416529
 40
0.761962951
 40
0.8771122393
 40
1.0
 40
1.0
 40
1.0
 40
1.0
 10
92.7963413667
 20
130.8966862115
 30
0.0
 10
92.7963413667
 20
130.6350454307
 30
0.0
 10
92.7652738106
 20
130.1317916991
 30
0.0
 10
92.6122853258
 20
129.4216481293
 30
0.0
 10
92.3564379912
 20
128.8016132108
 30
0.0
 10
92.000829213
 20
128.2864546767
 30
0.0
 10
91.5514315114
 20
127.8909926762
 30
0.0
 10
91.0197872813
 20
127.6285391377
 30
0.0
 10
90.422788478
 20
127.5063503034
 30
0.0
 10
90.0084027097
 20
127.5180897255
 30
0.0
 10
89.7978329353
 20
127.54394383
 30
0.0
  0
SPLINE
  5
270
100
AcDbEntity
  8
0
100
AcDbSpline
 62
7
  6
BYLAYER
 70
0
 71
3
 72
9
 73
5
 74
0
 42
0.0000001
 43
0.0000001
 44
0.0000000001
 40
0.0
 40
0.0
 40
0.0
 40
0.0
 40
0.2580666646
 40
1.0
 40
1.0
 40
1.0
 40
1.0
 10
90.3515555189
 20
127.5425352929
 30
0.0
 10
90.412474342
 20
127.5276961004
 30
0.0
 10
90.6497251896
 20
127.4753182722
 30
0.0
 10
90.8918820883
 20
127.4442437988
 30
0.0
 10
91.0719361201
 20
127.4356120997
 30
0.0
  0
SPLINE
  5
271
100
AcDbEntity
  8
0
100
AcDbSpline
 62
7
  6
BYLAYER
 70
0
 71
3
 72
15
 73
11
 74
0
 42
0.0000001
 43
0.0000001
 44
0.0000000001
 40
0.0
 40
0.0
 40
0.0
 40
0.0
 40
0.1519728768
 40
0.2929054972
 40
0.4232283696
 40
0.5444025965
 40
0.6589635215
 40
0.7704234938
 40
0.8828119757
 40
1.0
 40
1.0
 40
1.0
 40
1.0
 10
95.4316552437
 20
131.416425228
 30
0.0
 10
95.4316552437
 20
131.1335436697
 30
0.0
 10
95.4008100276
 20
130.5875341521
 30
0.0
 10
95.2502887795
 20
129.8115012708
 30
0.0
 10
94.998740869
 20
129.1219022552
 30
0.0
 10
94.6490245806
 20
128.5318739419
 30
0.0
 10
94.2057381542
 20
128.0541603017
 30
0.0
 10
93.6769362217
 20
127.7008979529
 30
0.0
 10
93.0753792311
 20
127.4812098536
 30
0.0
 10
92.6475800547
 20
127.427754293
 30
0.0
 10
92.4295272989
 20
127.4218304879
 30
0.0
  0
SPLINE
  5
272
100
AcDbEntity
  8
0
100
AcDbSpline
 62
7
  6
BYLAYER
 70
0
 71
3
 72
9
 73
5
 74
0
 42
0.0000001
 43
0.0000001
 44
0.0000000001
 40
0.0
 40
0.0
 40
0.0
 40
0.0
 40
0.2566758557
 40
1.0
 40
1.0
 40
1.0
 40
1.0
 10
92.9384039184
 20
127.5012424074
 30
0.0
 10
92.9996599812
 20
127.4949852558
 30
0.0
 10
93.2388050982
 20
127.4759454204
 30
0.0
 10
93.479875183
 20
127.4789909817
 30
0.0
 10
93.6574362977
 20
127.4954081337
 30
0.0
  0
SPLINE
  5
273
100
AcDbEntity
  8
0
100
AcDbSpline
 62
7
  6
BYLAYER
 70
0
 71
3
 72
15
 73
11
 74
0
 42
0.0000001
 43
0.0000001
 44
0.0000000001
 40
0.0
 40
0.0
 40
0.0
 40
0.0
 40
0.1497943923
 40
0.2912222526
 40
0.424304052
 40
0.5495966613
 40
0.6680846184
 40
0.7812757906
 40
0.8911456542
 40
1.0
 40
1.0
 40
1.0
 40
1.0
 10
102.5577453992
 20
133.9157684566
 30
0.0
 10
102.5577453992
 20
133.6384441715
 30
0.0
 10
102.5337519617
 20
133.0988442312
 30
0.0
 10
102.4189880172
 20
132.3202392031
 30
0.0
 10
102.227257738
 20
131.6034060684
 30
0.0
 10
101.9602876702
 20
130.9563955927
 30
0.0
 10
101.6202957042
 20
130.3866030035
 30
0.0
 10
101.210399478
 20
129.9010532241
 30
0.0
 10
100.7352053324
 20
129.5063835523
 30
0.0
 10
100.3791578359
 20
129.3078820223
 30
0.0
 10
100.1949356317
 20
129.2261738604
 30
0.0
  0
SPLINE
  5
274
100
AcDbEntity
  8
0
100
AcDbSpline
 62
7
  6
BYLAYER
 70
0
 71
3
 72
14
 73
10
 74
0
 42
0.0000001
 43
0.0000001
 44
0.0000000001
 40
0.0
 40
0.0
 40
0.0
 40
0.0
 40
0.2888957979
 40
0.4221529405
 40
0.5482143774
 40
0.6677728396
 40
0.7819017315
 40
0.8920552741
 40
1.0
 40
1.0
 40
1.0
 40
1.0
 10
104.7524462363
 20
135.0981305299
 30
0.0
 10
104.7524462363
 20
134.5986140974
 30
0.0
 10
104.6949364758
 20
133.8652379655
 30
0.0
 10
104.4731892209
 20
132.9420517466
 30
0.0
 10
104.2474622194
 20
132.3252897939
 30
0.0
 10
103.9597015215
 20
131.7717111974
 30
0.0
 10
103.6120432743
 20
131.2866800042
 30
0.0
 10
103.2075853204
 20
130.8754734416
 30
0.0
 10
102.9009506961
 20
130.6524265941
 30
0.0
 10
102.7412973936
 20
130.5557510754
 30
0.0
  0
SPLINE
  5
275
100
AcDbEntity
  8
0
100
AcDbSpline
 62
7
  6
BYLAYER
 70
0
 71
3
 72
25
 73
21
 74
0
 42
0.0000001
 43
0.0000001
 44
0.0000000001
 40
0.0
 40
0.0
 40
0.0
 40
0.0
 40
0.0213186006
 40
0.0428993982
 40
0.0649532086
 40
0.0876686334
 40
0.1356267726
 40
0.1877254911
 40
0.2443404044
 40
0.3054226637
 40
0.3705904567
 40
0.4392102019
 40
0.5104644272
 40
0.5834090882
 40
0.6570240665
 40
0.7302601866
 40
0.8020842069
 40
0.8715269199
 40
0.9377288335
 40
1.0
 40
1.0
 40
1.0
 40
1.0
 10
92.7420835701
 20
147.8750008294
 30
0.0
 10
92.8658842481
 20
147.9430699346
 30
0.0
 10
93.124037992
 20
148.0642909475
 30
0.0
 10
93.534523651
 20
148.197269216
 30
0.0
 10
93.9671775574
 20
148.2814411177
 30
0.0
 10
94.5810183884
 20
148.3288732107
 30
0.0
 10
95.397591025
 20
148.2575527173
 30
0.0
 10
96.40254892
 20
147.9788224483
 30
0.0
 10
97.431419287
 20
147.5138297285
 30
0.0
 10
98.4635131038
 20
146.8730556937
 30
0.0
 10
99.4781518601
 20
146.0701585248
 30
0.0
 10
100.4544225232
 20
145.1219735782
 30
0.0
 10
101.3719840826
 20
144.0484034364
 30
0.0
 10
102.2115574472
 20
142.8720436583
 30
0.0
 10
102.9554387733
 20
141.6177139237
 30
0.0
 10
103.5879161291
 20
140.3118965374
 30
0.0
 10
104.0956438608
 20
138.9821711348
 30
0.0
 10
104.4679057136
 20
137.6564413941
 30
0.0
 10
104.6968414899
 20
136.3627713175
 30
0.0
 10
104.7524462363
 20
135.5108060391
 30
0.0
 10
104.7524462363
 20
135.0981305299
 30
0.0
  0
SPLINE
  5
276
100
AcDbEntity
  8
0
100
AcDbSpline
 62
7
  6
BYLAYER
 70
0
 71
3
 72
9
 73
5
 74
0
 42
0.0000001
 43
0.0000001
 44
0.0000000001
 40
0.0
 40
0.0
 40
0.0
 40
0.0
 40
0.2686450535
 40
1.0
 40
1.0
 40
1.0
 40
1.0
 10
82.6554056919
 20
128.6682587615
 30
0.0
 10
82.6554056919
 20
128.6163996453
 30
0.0
 10
82.6483249025
 20
128.4236130152
 30
0.0
 10
82.6110982257
 20
128.230536655
 30
0.0
 10
82.5607324774
 20
128.0986457834
 30
0.0
  0
SPLINE
  5
277
100
AcDbEntity
  8
0
100
AcDbSpline
 62
7
  6
BYLAYER
 70
0
 71
3
 72
9
 73
5
 74
0
 42
0.0000001
 43
0.0000001
 44
0.0000000001
 40
0.0
 40
0.0
 40
0.0
 40
0.0
 40
0.4990268176
 40
1.0
 40
1.0
 40
1.0
 40
1.0
 10
93.6574381897
 20
127.4954042363
 30
0.0
 10
94.7812782889
 20
127.5993423211
 30
0.0
 10
97.0185259043
 20
128.0060324513
 30
0.0
 10
99.1591792184
 20
128.7668431743
 30
0.0
 10
100.1949370536
 20
129.226170281
 30
0.0
  0
SPLINE
  5
278
100
AcDbEntity
  8
0
100
AcDbSpline
 62
7
  6
BYLAYER
 70
0
 71
3
 72
11
 73
7
 74
0
 42
0.0000001
 43
0.0000001
 44
0.0000000001
 40
0.0
 40
0.0
 40
0.0
 40
0.0
 40
0.2496810804
 40
0.4991602349
 40
0.7489721553
 40
1.0
 40
1.0
 40
1.0
 40
1.0
 10
82.9491886788
 20
127.3702986018
 30
0.0
 10
83.0186725659
 20
127.4104149033
 30
0.0
 10
83.1512026695
 20
127.5023105188
 30
0.0
 10
83.324508874
 20
127.6707473945
 30
0.0
 10
83.4697349445
 20
127.8643607357
 30
0.0
 10
83.5464003623
 20
128.0065946364
 30
0.0
 10
83.5797946885
 20
128.0800233744
 30
0.0
  0
SPLINE
  5
279
100
AcDbEntity
  8
0
100
AcDbSpline
 62
7
  6
BYLAYER
 70
0
 71
3
 72
9
 73
5
 74
0
 42
0.0000001
 43
0.0000001
 44
0.0000000001
 40
0.0
 40
0.0
 40
0.0
 40
0.0
 40
0.2453366335
 40
1.0
 40
1.0
 40
1.0
 40
1.0
 10
85.5497873746
 20
141.5383475331
 30
0.0
 10
85.5235149461
 20
141.5012175149
 30
0.0
 10
85.4194937408
 20
141.3477183213
 30
0.0
 10
85.3277656695
 20
141.1859671502
 30
0.0
 10
85.2653516311
 20
141.0607466886
 30
0.0
  0
SPLINE
  5
27A
100
AcDbEntity
  8
0
100
AcDbSpline
 62
7
  6
BYLAYER
 70
0
 71
3
 72
11
 73
7
 74
0
 42
0.0000001
 43
0.0000001
 44
0.0000000001
 40
0.0
 40
0.0
 40
0.0
 40
0.0
 40
0.2525069406
 40
0.5023765439
 40
0.7511402631
 40
1.0
 40
1.0
 40
1.0
 40
1.0
 10
81.7292135438
 20
127.2306859517
 30
0.0
 10
81.8317365093
 20
127.2042535004
 30
0.0
 10
82.0403407607
 20
127.1675538183
 30
0.0
 10
82.357129042
 20
127.1694386377
 30
0.0
 10
82.6661872091
 20
127.2330965153
 30
0.0
 10
82.8588220058
 20
127.3181256903
 30
0.0
 10
82.9491886788
 20
127.3702986018
 30
0.0
  0
SPLINE
  5
27B
100
AcDbEntity
  8
0
100
AcDbSpline
 62
7
  6
BYLAYER
 70
0
 71
3
 72
25
 73
21
 74
0
 42
0.0000001
 43
0.0000001
 44
0.0000000001
 40
0.0
 40
0.0
 40
0.0
 40
0.0
 40
0.0214898191
 40
0.0430252256
 40
0.0648471768
 40
0.0871806042
 40
0.1340751265
 40
0.1849737266
 40
0.2404843364
 40
0.3007079803
 40
0.3653424364
 40
0.433779909
 40
0.5051889089
 40
0.5785825968
 40
0.6528779677
 40
0.7269502539
 40
0.7996843226
 40
0.8700297628
 40
0.9370513784
 40
1.0
 40
1.0
 40
1.0
 40
1.0
 10
90.3174453395
 20
146.3345877877
 30
0.0
 10
90.4337730551
 20
146.4193560702
 30
0.0
 10
90.6780203431
 20
146.574122806
 30
0.0
 10
91.0732668409
 20
146.7570269977
 30
0.0
 10
91.4942574408
 20
146.8890852203
 30
0.0
 10
92.0956301912
 20
146.9982698907
 30
0.0
 10
92.907479545
 20
146.998089871
 30
0.0
 10
93.9186659029
 20
146.789862435
 30
0.0
 10
94.9625215092
 20
146.3822649029
 30
0.0
 10
96.016973654
 20
145.7856151372
 30
0.0
 10
97.0598344809
 20
145.0136445591
 30
0.0
 10
98.0684303942
 20
144.0835689184
 30
0.0
 10
99.0205199351
 20
143.0161135639
 30
0.0
 10
99.894885378
 20
141.8351285954
 30
0.0
 10
100.6719491612
 20
140.5670791058
 30
0.0
 10
101.334271137
 20
139.2404106081
 30
0.0
 10
101.8670035161
 20
137.8849024662
 30
0.0
 10
102.2581899479
 20
136.5307870281
 30
0.0
 10
102.4990705883
 20
135.2085226827
 30
0.0
 10
102.5577453992
 20
134.3373924078
 30
0.0
 10
102.5577453992
 20
133.9157684566
 30
0.0
  0
SPLINE
  5
27C
100
AcDbEntity
  8
0
100
AcDbSpline
 62
7
  6
BYLAYER
 70
0
 71
3
 72
13
 73
9
 74
0
 42
0.0000001
 43
0.0000001
 44
0.0000000001
 40
0.0
 40
0.0
 40
0.0
 40
0.0
 40
0.1232852655
 40
0.2462927125
 40
0.3696058205
 40
0.4932124218
 40
0.7427613782
 40
1.0
 40
1.0
 40
1.0
 40
1.0
 10
80.0872659956
 20
132.3273236859
 30
0.0
 10
80.0242078972
 20
132.2909172931
 30
0.0
 10
79.9035005718
 20
132.2085815315
 30
0.0
 10
79.7429755421
 20
132.0595600107
 30
0.0
 10
79.6052526884
 20
131.8889974601
 30
0.0
 10
79.453537357
 20
131.6371600837
 30
0.0
 10
79.3246482074
 20
131.2838550107
 30
0.0
 10
79.2846165943
 20
130.9850942326
 30
0.0
 10
79.2776405004
 20
130.8333276099
 30
0.0
  0
SPLINE
  5
27D
100
AcDbEntity
  8
0
100
AcDbSpline
 62
7
  6
BYLAYER
 70
0
 71
3
 72
9
 73
5
 74
0
 42
0.0000001
 43
0.0000001
 44
0.0000000001
 40
0.0
 40
0.0
 40
0.0
 40
0.0
 40
0.5009718555
 40
1.0
 40
1.0
 40
1.0
 40
1.0
 10
90.3174433213
 20
146.3345902212
 30
0.0
 10
89.4017742175
 20
145.6672674509
 30
0.0
 10
87.6725571962
 20
144.1938221975
 30
0.0
 10
86.2017208659
 20
142.4596603001
 30
0.0
 10
85.5497810726
 20
141.5383559679
 30
0.0
  0
SPLINE
  5
27E
100
AcDbEntity
  8
0
100
AcDbSpline
 62
7
  6
BYLAYER
 70
0
 71
3
 72
11
 73
7
 74
0
 42
0.0000001
 43
0.0000001
 44
0.0000000001
 40
0.0
 40
0.0
 40
0.0
 40
0.0
 40
0.251025031
 40
0.5008376522
 40
0.7503168606
 40
1.0
 40
1.0
 40
1.0
 40
1.0
 10
81.0172096716
 20
132.5185773164
 30
0.0
 10
80.9369222974
 20
132.5263716782
 30
0.0
 10
80.7754121992
 20
132.5310944421
 30
0.0
 10
80.5351252615
 20
132.5021354092
 30
0.0
 10
80.3026007214
 20
132.4362656792
 30
0.0
 10
80.1567504546
 20
132.3674403176
 30
0.0
 10
80.0872659956
 20
132.3273236859
 30
0.0
  0
SPLINE
  5
27F
100
AcDbEntity
  8
0
100
AcDbSpline
 62
7
  6
BYLAYER
 70
0
 71
3
 72
9
 73
5
 74
0
 42
0.0000001
 43
0.0000001
 44
0.0000000001
 40
0.0
 40
0.0
 40
0.0
 40
0.0
 40
0.2424571322
 40
1.0
 40
1.0
 40
1.0
 40
1.0
 10
84.2052392602
 20
139.3291510813
 30
0.0
 10
84.1782447895
 20
139.2767490422
 30
0.0
 10
84.0725597579
 20
139.0577265399
 30
0.0
 10
83.9892168832
 20
138.8281552964
 30
0.0
 10
83.9375069567
 20
138.6513890461
 30
0.0
  0
SPLINE
  5
280
100
AcDbEntity
  8
0
100
AcDbSpline
 62
7
  6
BYLAYER
 70
0
 71
3
 72
15
 73
11
 74
0
 42
0.0000001
 43
0.0000001
 44
0.0000000001
 40
0.0
 40
0.0
 40
0.0
 40
0.0
 40
0.1134033759
 40
0.2220721587
 40
0.3307375368
 40
0.4441343731
 40
0.566056684
 40
0.6988862874
 40
0.8436010519
 40
1.0
 40
1.0
 40
1.0
 40
1.0
 10
84.8721014551
 20
140.511751843
 30
0.0
 10
84.998800507
 20
140.7180153082
 30
0.0
 10
85.2921443227
 20
141.0970982354
 30
0.0
 10
85.8572538704
 20
141.5333781266
 30
0.0
 10
86.5178638052
 20
141.8049437382
 30
0.0
 10
87.2524108748
 20
141.9049263153
 30
0.0
 10
88.0406962345
 20
141.8350907331
 30
0.0
 10
88.8649541008
 20
141.6007683709
 30
0.0
 10
89.7079063432
 20
141.2093188166
 30
0.0
 10
90.2511937845
 20
140.8622610634
 30
0.0
 10
90.5220371785
 20
140.6670760589
 30
0.0
  0
SPLINE
  5
281
100
AcDbEntity
  8
0
100
AcDbSpline
 62
7
  6
BYLAYER
 70
0
 71
3
 72
15
 73
11
 74
0
 42
0.0000001
 43
0.0000001
 44
0.0000000001
 40
0.0
 40
0.0
 40
0.0
 40
0.0
 40
0.1187215795
 40
0.2444902301
 40
0.3748897258
 40
0.5071775277
 40
0.6384839618
 40
0.7660070322
 40
0.8871975655
 40
1.0
 40
1.0
 40
1.0
 40
1.0
 10
90.5220371785
 20
140.6670760589
 30
0.0
 10
90.8691422204
 20
140.4169326157
 30
0.0
 10
91.5475480545
 20
139.8500908361
 30
0.0
 10
92.4745161531
 20
138.8635083669
 30
0.0
 10
93.3172195025
 20
137.7422495287
 30
0.0
 10
94.0485301301
 20
136.5222416069
 30
0.0
 10
94.64520326
 20
135.2424074347
 30
0.0
 10
95.088159494
 20
133.9434344671
 30
0.0
 10
95.3633330847
 20
132.6669281256
 30
0.0
 10
95.4316552437
 20
131.822941567
 30
0.0
 10
95.4316552437
 20
131.416425228
 30
0.0
  0
SPLINE
  5
282
100
AcDbEntity
  8
0
100
AcDbSpline
 62
7
  6
BYLAYER
 70
0
 71
3
 72
20
 73
16
 74
0
 42
0.0000001
 43
0.0000001
 44
0.0000000001
 40
0.0
 40
0.0
 40
0.0
 40
0.0
 40
0.0376014473
 40
0.0594230267
 40
0.0659396123
 40
0.0739921765
 40
0.0959373984
 40
0.1311639499
 40
0.1788599387
 40
0.237891274
 40
0.3071412265
 40
0.3855467204
 40
0.5659483289
 40
0.7726358755
 40
1.0
 40
1.0
 40
1.0
 40
1.0
 10
85.5337161182
 20
128.7230508339
 30
0.0
 10
85.5382193336
 20
128.7219573037
 30
0.0
 10
85.5461883623
 20
128.7202319384
 30
0.0
 10
85.5521820441
 20
128.7189067221
 30
0.0
 10
85.5590181806
 20
128.7179158508
 30
0.0
 10
85.5515165132
 20
128.7188249339
 30
0.0
 10
85.5457454603
 20
128.7190261525
 30
0.0
 10
85.5316005822
 20
128.7195383045
 30
0.0
 10
85.51461887
 20
128.7192177025
 30
0.0
 10
85.4927630633
 20
128.7181533316
 30
0.0
 10
85.4674475434
 20
128.7159020669
 30
0.0
 10
85.4273079149
 20
128.7107659072
 30
0.0
 10
85.3709663243
 20
128.6996304852
 30
0.0
 10
85.2980370699
 20
128.6789446898
 30
0.0
 10
85.2478711888
 20
128.6601502216
 30
0.0
 10
85.2220778418
 20
128.6492016132
 30
0.0
  0
SPLINE
  5
283
100
AcDbEntity
  8
0
100
AcDbSpline
 62
7
  6
BYLAYER
 70
0
 71
3
 72
9
 73
5
 74
0
 42
0.0000001
 43
0.0000001
 44
0.0000000001
 40
0.0
 40
0.0
 40
0.0
 40
0.0
 40
0.244420104
 40
1.0
 40
1.0
 40
1.0
 40
1.0
 10
85.5255613393
 20
128.7087226471
 30
0.0
 10
85.6514035117
 20
128.6517298593
 30
0.0
 10
86.170155811
 20
128.427210344
 30
0.0
 10
86.7035362632
 20
128.2367834677
 30
0.0
 10
87.1117258044
 20
128.1112579806
 30
0.0
  0
SPLINE
  5
284
100
AcDbEntity
  8
0
100
AcDbSpline
 62
7
  6
BYLAYER
 70
0
 71
3
 72
9
 73
5
 74
0
 42
0.0000001
 43
0.0000001
 44
0.0000000001
 40
0.0
 40
0.0
 40
0.0
 40
0.0
 40
0.2416240249
 40
1.0
 40
1.0
 40
1.0
 40
1.0
 10
83.1660371832
 20
136.8464574331
 30
0.0
 10
83.1493162826
 20
136.7949769076
 30
0.0
 10
83.0852854349
 20
136.5802495159
 30
0.0
 10
83.0413960657
 20
136.3596966649
 30
0.0
 10
83.0179296305
 20
136.1914359087
 30
0.0
  0
SPLINE
  5
285
100
AcDbEntity
  8
0
100
AcDbSpline
 62
7
  6
BYLAYER
 70
0
 71
3
 72
9
 73
5
 74
0
 42
0.0000001
 43
0.0000001
 44
0.0000000001
 40
0.0
 40
0.0
 40
0.0
 40
0.0
 40
0.255134691
 40
1.0
 40
1.0
 40
1.0
 40
1.0
 10
82.8102409235
 20
135.5616928152
 30
0.0
 10
82.7784656918
 20
135.4230294874
 30
0.0
 10
82.6620479595
 20
134.877724484
 30
0.0
 10
82.5783825557
 20
134.325304337
 30
0.0
 10
82.5368368974
 20
133.9120671171
 30
0.0
  0
SPLINE
  5
286
100
AcDbEntity
  8
0
100
AcDbSpline
 62
7
  6
BYLAYER
 70
0
 71
3
 72
26
 73
22
 74
0
 42
0.0000001
 43
0.0000001
 44
0.0000000001
 40
0.0
 40
0.0
 40
0.0
 40
0.0
 40
0.0530109517
 40
0.1011481979
 40
0.1240303732
 40
0.1465097069
 40
0.1689494357
 40
0.1917155299
 40
0.2151481207
 40
0.2395400888
 40
0.2919642597
 40
0.3501507078
 40
0.4142192788
 40
0.4835837059
 40
0.5571568539
 40
0.633515888
 40
0.7110391038
 40
0.7880228885
 40
0.8628056994
 40
0.9338735256
 40
1.0
 40
1.0
 40
1.0
 40
1.0
 10
82.8102398164
 20
135.5616937113
 30
0.0
 10
82.8570838932
 20
135.7660977307
 30
0.0
 10
82.9839514006
 20
136.1494620958
 30
0.0
 10
83.2522038181
 20
136.5682519164
 30
0.0
 10
83.5173144009
 20
136.8280794271
 30
0.0
 10
83.7365214369
 20
136.9845730304
 30
0.0
 10
83.9772656197
 20
137.1042920796
 30
0.0
 10
84.2373006424
 20
137.1860630979
 30
0.0
 10
84.5141594627
 20
137.2294071681
 30
0.0
 10
84.9117803487
 20
137.2357509113
 30
0.0
 10
85.4425560331
 20
137.1398658217
 30
0.0
 10
86.0865312647
 20
136.8794146574
 30
0.0
 10
86.7350179709
 20
136.4812285097
 30
0.0
 10
87.3681316045
 20
135.9582874375
 30
0.0
 10
87.9662960518
 20
135.3273210191
 30
0.0
 10
88.5104282071
 20
134.6085470527
 30
0.0
 10
88.9830206993
 20
133.8251221207
 30
0.0
 10
89.3688188827
 20
133.0023727477
 30
0.0
 10
89.6553567121
 20
132.1667454005
 30
0.0
 10
89.8334103305
 20
131.3453240277
 30
0.0
 10
89.8776535895
 20
130.8021355062
 30
0.0
 10
89.8776535895
 20
130.5405494914
 30
0.0
  0
SPLINE
  5
287
100
AcDbEntity
  8
0
100
AcDbSpline
 62
7
  6
BYLAYER
 70
0
 71
3
 72
11
 73
7
 74
0
 42
0.0000001
 43
0.0000001
 44
0.0000000001
 40
0.0
 40
0.0
 40
0.0
 40
0.0
 40
0.3748417268
 40
0.6857967982
 40
0.9057108024
 40
1.0
 40
1.0
 40
1.0
 40
1.0
 10
82.3312799437
 20
133.656240335
 30
0.0
 10
82.3656740343
 20
133.6821578942
 30
0.0
 10
82.4255609117
 20
133.7337453214
 30
0.0
 10
82.4955725321
 20
133.811181435
 30
0.0
 10
82.5363779632
 20
133.8704057025
 30
0.0
 10
82.5542589673
 20
133.9019079214
 30
0.0
 10
82.5585124633
 20
133.9118709084
 30
0.0
  0
SPLINE
  5
288
100
AcDbEntity
  8
0
100
AcDbSpline
 62
7
  6
BYLAYER
 70
0
 71
3
 72
26
 73
22
 74
0
 42
0.0000001
 43
0.0000001
 44
0.0000000001
 40
0.0
 40
0.0
 40
0.0
 40
0.0
 40
0.0487384135
 40
0.0717943932
 40
0.0942928238
 40
0.1165456822
 40
0.1388824423
 40
0.1616265159
 40
0.1850732233
 40
0.2349303575
 40
0.2898995368
 40
0.3504590288
 40
0.4163891491
 40
0.4869523156
 40
0.561045022
 40
0.6373211384
 40
0.714296873
 40
0.7904439795
 40
0.8642889387
 40
0.9344985858
 40
1.0
 40
1.0
 40
1.0
 40
1.0
 10
83.6619999501
 20
138.1715820202
 30
0.0
 10
83.7572975554
 20
138.3960803901
 30
0.0
 10
83.9351174771
 20
138.7139974425
 30
0.0
 10
84.2459400829
 20
139.0706687865
 30
0.0
 10
84.5041779738
 20
139.2927266607
 30
0.0
 10
84.7895226656
 20
139.471960878
 30
0.0
 10
85.0996531215
 20
139.6068415139
 30
0.0
 10
85.4319203429
 20
139.6963480666
 30
0.0
 10
85.9102416596
 20
139.7556777344
 30
0.0
 10
86.5571036707
 20
139.7066618052
 30
0.0
 10
87.3544993844
 20
139.4675343581
 30
0.0
 10
88.1690230406
 20
139.057499587
 30
0.0
 10
88.9783985304
 20
138.489146937
 30
0.0
 10
89.7603038007
 20
137.779085415
 30
0.0
 10
90.4923772916
 20
136.9478520371
 30
0.0
 10
91.1534295732
 20
136.0196183948
 30
0.0
 10
91.7241649512
 20
135.0214707511
 30
0.0
 10
92.187919813
 20
133.9826089806
 30
0.0
 10
92.5311278004
 20
132.9332365547
 30
0.0
 10
92.7438079883
 20
131.9041104704
 30
0.0
 10
92.7963413667
 20
131.2244560393
 30
0.0
 10
92.7963413667
 20
130.8966862115
 30
0.0
  0
SPLINE
  5
289
100
AcDbEntity
  8
0
100
AcDbSpline
 62
7
  6
BYLAYER
 70
0
 71
3
 72
26
 73
22
 74
0
 42
0.0000001
 43
0.0000001
 44
0.0000000001
 40
0.0
 40
0.0
 40
0.0
 40
0.0
 40
0.065191815
 40
0.1349993515
 40
0.2084039371
 40
0.2841391084
 40
0.360801294
 40
0.4369277256
 40
0.5110893692
 40
0.5819751349
 40
0.6484871884
 40
0.7098509823
 40
0.7657498809
 40
0.8164873
 40
0.8402734382
 40
0.8632468034
 40
0.8856688347
 40
0.9078376644
 40
0.9300684905
 40
0.9526715296
 40
1.0
 40
1.0
 40
1.0
 40
1.0
 10
94.0926233451
 20
131.1280722041
 30
0.0
 10
94.0926233451
 20
131.4794785228
 30
0.0
 10
94.0374728093
 20
132.2077520515
 30
0.0
 10
93.8137035519
 20
133.3109947219
 30
0.0
 10
93.452220738
 20
134.4368497195
 30
0.0
 10
92.9631348498
 20
135.553589833
 30
0.0
 10
92.3602016199
 20
136.6299963813
 30
0.0
 10
91.6603485455
 20
137.6357869245
 30
0.0
 10
90.8832330676
 20
138.5427258237
 30
0.0
 10
90.0505205583
 20
139.3254347111
 30
0.0
 10
89.1851978374
 20
139.9621212468
 30
0.0
 10
88.3103889389
 20
140.434975224
 30
0.0
 10
87.4493370107
 20
140.7302770251
 30
0.0
 10
86.7455459141
 20
140.8211147852
 30
0.0
 10
86.2195967482
 20
140.7900404719
 30
0.0
 10
85.8523242488
 20
140.7189176713
 30
0.0
 10
85.5068726021
 20
140.5996745629
 30
0.0
 10
85.1859743915
 20
140.4332551973
 30
0.0
 10
84.8922538865
 20
140.220771002
 30
0.0
 10
84.5347797767
 20
139.8738748155
 30
0.0
 10
84.3220698784
 20
139.5559442901
 30
0.0
 10
84.2052392602
 20
139.3291510813
 30
0.0
  0
SPLINE
  5
28A
100
AcDbEntity
  8
0
100
AcDbSpline
 62
7
  6
BYLAYER
 70
0
 71
3
 72
9
 73
5
 74
0
 42
0.0000001
 43
0.0000001
 44
0.0000000001
 40
0.0
 40
0.0
 40
0.0
 40
0.0
 40
0.5231965879
 40
1.0
 40
1.0
 40
1.0
 40
1.0
 10
93.5094746168
 20
131.4647456628
 30
0.0
 10
93.5094746168
 20
131.1851693272
 30
0.0
 10
93.4732784685
 20
130.6498096646
 30
0.0
 10
93.3470016945
 20
130.1267920675
 30
0.0
 10
93.2610407941
 20
129.8869454083
 30
0.0
  0
SPLINE
  5
28B
100
AcDbEntity
  8
0
100
AcDbSpline
 62
7
  6
BYLAYER
 70
0
 71
3
 72
11
 73
7
 74
0
 42
0.0000001
 43
0.0000001
 44
0.0000000001
 40
0.0
 40
0.0
 40
0.0
 40
0.0
 40
0.2686431206
 40
0.521797962
 40
0.7637416299
 40
1.0
 40
1.0
 40
1.0
 40
1.0
 10
93.2610407941
 20
129.8869454083
 30
0.0
 10
93.2051576571
 20
129.7310212186
 30
0.0
 10
93.0751262543
 20
129.4351212269
 30
0.0
 10
92.8160538531
 20
129.0390719881
 30
0.0
 10
92.5023755928
 20
128.7114184065
 30
0.0
 10
92.2584652675
 20
128.541605758
 30
0.0
 10
92.1310865886
 20
128.4709372766
 30
0.0
  0
SPLINE
  5
28C
100
AcDbEntity
  8
0
100
AcDbSpline
 62
7
  6
BYLAYER
 70
0
 71
3
 72
23
 73
19
 74
0
 42
0.0000001
 43
0.0000001
 44
0.0000000001
 40
0.0
 40
0.0
 40
0.0
 40
0.0
 40
0.0428167837
 40
0.0873032924
 40
0.1349353653
 40
0.1866789228
 40
0.2429754948
 40
0.3038180395
 40
0.3688463349
 40
0.4374330509
 40
0.5087555794
 40
0.5818564223
 40
0.6556963747
 40
0.729202296
 40
0.8013169857
 40
0.8710460529
 40
0.9375121692
 40
1.0
 40
1.0
 40
1.0
 40
1.0
 10
85.6304547238
 20
139.728144059
 30
0.0
 10
85.7895238698
 20
139.8237562096
 30
0.0
 10
86.1409110486
 20
139.9769328564
 30
0.0
 10
86.7234789261
 20
140.0710773659
 30
0.0
 10
87.3503042992
 20
140.0323375953
 30
0.0
 10
88.0072332473
 20
139.864214005
 30
0.0
 10
88.6812425779
 20
139.5720251855
 30
0.0
 10
89.3588240077
 20
139.1626305856
 30
0.0
 10
90.0261195547
 20
138.6449376889
 30
0.0
 10
90.6691706301
 20
138.030010727
 30
0.0
 10
91.2743369495
 20
137.3309920107
 30
0.0
 10
91.8286758604
 20
136.5628649596
 30
0.0
 10
92.3202748259
 20
135.7421378413
 30
0.0
 10
92.7385651655
 20
134.8864678871
 30
0.0
 10
93.0745357388
 20
134.0142645413
 30
0.0
 10
93.3210001614
 20
133.1441663553
 30
0.0
 10
93.4726100872
 20
132.2949402289
 30
0.0
 10
93.5094746168
 20
131.7356041592
 30
0.0
 10
93.5094746168
 20
131.4647456628
 30
0.0
  0
SPLINE
  5
28D
100
AcDbEntity
  8
0
100
AcDbSpline
 62
7
  6
BYLAYER
 70
0
 71
3
 72
26
 73
22
 74
0
 42
0.0000001
 43
0.0000001
 44
0.0000000001
 40
0.0
 40
0.0
 40
0.0
 40
0.0
 40
0.0645619804
 40
0.1335693817
 40
0.2060966738
 40
0.2809898276
 40
0.3569638992
 40
0.4326724423
 40
0.5067842214
 40
0.5780565501
 40
0.6454144438
 40
0.7080408183
 40
0.7654851789
 40
0.8177958741
 40
0.8656649174
 40
0.8884021502
 40
0.9106246947
 40
0.9326083503
 40
0.9546440182
 40
0.9770191525
 40
1.0
 40
1.0
 40
1.0
 40
1.0
 10
96.6130689654
 20
131.7141289392
 30
0.0
 10
96.6130689654
 20
132.1019025748
 30
0.0
 10
96.5544606516
 20
132.9047630354
 30
0.0
 10
96.3157445556
 20
134.1218722573
 30
0.0
 10
95.9294378419
 20
135.3655235383
 30
0.0
 10
95.4056178866
 20
136.6030563354
 30
0.0
 10
94.7580135331
 20
137.8022332843
 30
0.0
 10
94.0035752148
 20
138.9316185468
 30
0.0
 10
93.1620544441
 20
139.961651464
 30
0.0
 10
92.2553852096
 20
140.8654392032
 30
0.0
 10
91.3069574315
 20
141.6194744589
 30
0.0
 10
90.3408662406
 20
142.2041887186
 30
0.0
 10
89.3807566339
 20
142.6039886149
 30
0.0
 10
88.4500625195
 20
142.807196131
 30
0.0
 10
87.7039434178
 20
142.8041851486
 30
0.0
 10
87.1560934284
 20
142.692819468
 30
0.0
 10
86.775330271
 20
142.5596002205
 30
0.0
 10
86.4208097484
 20
142.3760967522
 30
0.0
 10
86.0951696049
 20
142.1435929992
 30
0.0
 10
85.8007912224
 20
141.8640104308
 30
0.0
 10
85.629513411
 20
141.6510218977
 30
0.0
 10
85.5497873746
 20
141.5383475331
 30
0.0
  0
SPLINE
  5
28E
100
AcDbEntity
  8
0
100
AcDbSpline
 62
7
  6
BYLAYER
 70
0
 71
3
 72
14
 73
10
 74
0
 42
0.0000001
 43
0.0000001
 44
0.0000000001
 40
0.0
 40
0.0
 40
0.0
 40
0.0
 40
0.2886920531
 40
0.4219480229
 40
0.5480537062
 40
0.6676960145
 40
0.7819048103
 40
0.8920978232
 40
1.0
 40
1.0
 40
1.0
 40
1.0
 10
96.1611213663
 20
131.9750551043
 30
0.0
 10
96.1611213663
 20
131.590870884
 30
0.0
 10
96.1172093881
 20
131.0267530203
 30
0.0
 10
95.9481190767
 20
130.3160855336
 30
0.0
 10
95.7759133306
 20
129.8406872708
 30
0.0
 10
95.5564217409
 20
129.4133221469
 30
0.0
 10
95.291134201
 20
129.0381013544
 30
0.0
 10
94.9824605998
 20
128.718974204
 30
0.0
 10
94.7482280809
 20
128.5449552489
 30
0.0
 10
94.6262114501
 20
128.4692515745
 30
0.0
  0
SPLINE
  5
28F
100
AcDbEntity
  8
0
100
AcDbSpline
 62
7
  6
BYLAYER
 70
0
 71
3
 72
23
 73
19
 74
0
 42
0.0000001
 43
0.0000001
 44
0.0000000001
 40
0.0
 40
0.0
 40
0.0
 40
0.0
 40
0.0428150463
 40
0.0873889198
 40
0.1351587862
 40
0.1870536155
 40
0.2434870834
 40
0.3044343943
 40
0.3695260671
 40
0.4381319916
 40
0.5094316243
 40
0.5824729433
 40
0.656224961
 40
0.7296239665
 40
0.8016224204
 40
0.8712364355
 40
0.9375984106
 40
1.0
 40
1.0
 40
1.0
 40
1.0
 10
86.8025262883
 20
141.8485922852
 30
0.0
 10
86.9934729596
 20
141.9592369571
 30
0.0
 10
87.4144650973
 20
142.1349687869
 30
0.0
 10
88.1096701296
 20
142.2377801927
 30
0.0
 10
88.85633596
 20
142.1835958907
 30
0.0
 10
89.6378624866
 20
141.9766256654
 30
0.0
 10
90.4388904017
 20
141.6232059656
 30
0.0
 10
91.2434653174
 20
141.1315132447
 30
0.0
 10
92.0352350279
 20
140.5121478514
 30
0.0
 10
92.7977498282
 20
139.7782442585
 30
0.0
 10
93.5149514331
 20
138.9453693502
 30
0.0
 10
94.1716171145
 20
138.0312405363
 30
0.0
 10
94.7537411237
 20
137.0553523888
 30
0.0
 10
95.2489062034
 20
136.0385421876
 30
0.0
 10
95.6465231102
 20
135.0025175801
 30
0.0
 10
95.9381567291
 20
133.9692477483
 30
0.0
 10
96.1175230457
 20
132.9608458117
 30
0.0
 10
96.1611213663
 20
132.2966999017
 30
0.0
 10
96.1611213663
 20
131.9750551043
 30
0.0
  0
SPLINE
  5
290
100
AcDbEntity
  8
0
100
AcDbSpline
 62
7
  6
BYLAYER
 70
0
 71
3
 72
18
 73
14
 74
0
 42
0.0000001
 43
0.0000001
 44
0.0000000001
 40
0.0
 40
0.0
 40
0.0
 40
0.0
 40
0.1264584412
 40
0.2653336491
 40
0.4101319109
 40
0.5533369405
 40
0.6876977988
 40
0.7497800346
 40
0.8077439915
 40
0.8613983665
 40
0.9108842995
 40
0.9567500672
 40
1.0
 40
1.0
 40
1.0
 40
1.0
 10
84.0548734517
 20
129.1437666145
 30
0.0
 10
84.0548734517
 20
129.3602848028
 30
0.0
 10
83.9970774936
 20
129.8151035055
 30
0.0
 10
83.7794880018
 20
130.4860062855
 30
0.0
 10
83.4420844107
 20
131.1380630079
 30
0.0
 10
83.0102520712
 20
131.7218444103
 30
0.0
 10
82.5870822138
 20
132.1263963281
 30
0.0
 10
82.2279958097
 20
132.3744023701
 30
0.0
 10
81.9643109498
 20
132.5136961572
 30
0.0
 10
81.7041856247
 20
132.6084111777
 30
0.0
 10
81.4522674304
 20
132.6563823439
 30
0.0
 10
81.2133966116
 20
132.6560525985
 30
0.0
 10
81.0629685035
 20
132.6221764417
 30
0.0
 10
80.9932509737
 20
132.5972155996
 30
0.0
  0
SPLINE
  5
291
100
AcDbEntity
  8
0
100
AcDbSpline
 62
7
  6
BYLAYER
 70
0
 71
3
 72
25
 73
21
 74
0
 42
0.0000001
 43
0.0000001
 44
0.0000000001
 40
0.0
 40
0.0
 40
0.0
 40
0.0
 40
0.0626773134
 40
0.1293699569
 40
0.199353402
 40
0.2717236036
 40
0.3454635929
 40
0.4194915726
 40
0.4927133935
 40
0.5640714505
 40
0.6325958461
 40
0.6974597197
 40
0.7580429614
 40
0.8140082429
 40
0.8653917675
 40
0.9127022998
 40
0.9351765876
 40
0.9570740027
 40
0.9786052284
 40
1.0
 40
1.0
 40
1.0
 40
1.0
 10
103.462070052
 20
134.3734459972
 30
0.0
 10
103.462070052
 20
134.7930199299
 30
0.0
 10
103.4044336648
 20
135.6596361902
 30
0.0
 10
103.1675380317
 20
136.9752607469
 30
0.0
 10
102.7826238916
 20
138.3229608411
 30
0.0
 10
102.258106654
 20
139.6731545703
 30
0.0
 10
101.6054717363
 20
140.9964560788
 30
0.0
 10
100.8389978936
 20
142.2638773731
 30
0.0
 10
99.9754746718
 20
143.4476691153
 30
0.0
 10
99.033777302
 20
144.5219371858
 30
0.0
 10
98.0344023977
 20
145.4632486578
 30
0.0
 10
96.998893871
 20
146.2511257722
 30
0.0
 10
95.9492929155
 20
146.8684311016
 30
0.0
 10
94.9072590488
 20
147.3014027499
 30
0.0
 10
93.8943829559
 20
147.5396258406
 30
0.0
 10
93.0770171267
 20
147.5692049668
 30
0.0
 10
92.4677854507
 20
147.4850044074
 30
0.0
 10
92.0401063618
 20
147.3721052226
 30
0.0
 10
91.6367742993
 20
147.2089908588
 30
0.0
 10
91.3856911639
 20
147.0672953596
 30
0.0
 10
91.2657603844
 20
146.9890088612
 30
0.0
  0
SPLINE
  5
292
100
AcDbEntity
  8
0
100
AcDbSpline
 62
7
  6
BYLAYER
 70
0
 71
3
 72
10
 73
6
 74
0
 42
0.0000001
 43
0.0000001
 44
0.0000000001
 40
0.0
 40
0.0
 40
0.0
 40
0.0
 40
0.2700682659
 40
0.5268584058
 40
1.0
 40
1.0
 40
1.0
 40
1.0
 10
102.8432605767
 20
134.730707732
 30
0.0
 10
102.8432605767
 20
134.5035346397
 30
0.0
 10
102.8256283796
 20
134.0599390493
 30
0.0
 10
102.7174480357
 20
133.2253573013
 30
0.0
 10
102.5496401126
 20
132.6278524357
 30
0.0
 10
102.3936559659
 20
132.261701284
 30
0.0
  0
SPLINE
  5
293
100
AcDbEntity
  8
0
100
AcDbSpline
 62
7
  6
BYLAYER
 70
0
 71
3
 72
20
 73
16
 74
0
 42
0.0000001
 43
0.0000001
 44
0.0000000001
 40
0.0
 40
0.0
 40
0.0
 40
0.0
 40
0.097284023
 40
0.151442323
 40
0.2091949953
 40
0.2702958753
 40
0.334347457
 40
0.4008354909
 40
0.4691587304
 40
0.6085340999
 40
0.7469499255
 40
0.8141056016
 40
0.8790088524
 40
0.9411259392
 40
1.0
 40
1.0
 40
1.0
 40
1.0
 10
93.8312843271
 20
146.7417973389
 30
0.0
 10
94.3521842723
 20
146.7040036014
 30
0.0
 10
95.1546532737
 20
146.4982419313
 30
0.0
 10
96.1739291119
 20
146.0252599376
 30
0.0
 10
96.9699162705
 20
145.5424864559
 30
0.0
 10
97.7563000254
 20
144.9522936725
 30
0.0
 10
98.5221265532
 20
144.2633936677
 30
0.0
 10
99.2557489235
 20
143.4862334561
 30
0.0
 10
100.1820301855
 20
142.3407156449
 30
0.0
 10
101.1884892873
 20
140.7708058646
 30
0.0
 10
101.9622446704
 20
139.0806936201
 30
0.0
 10
102.4139246674
 20
137.6993594135
 30
0.0
 10
102.6581766928
 20
136.6846583828
 30
0.0
 10
102.807486083
 20
135.6966550675
 30
0.0
 10
102.8432605767
 20
135.0467730819
 30
0.0
 10
102.8432605767
 20
134.730707732
 30
0.0
  0
SPLINE
  5
294
100
AcDbEntity
  8
0
100
AcDbSpline
 62
7
  6
BYLAYER
 70
0
 71
3
 72
13
 73
9
 74
0
 42
0.0000001
 43
0.0000001
 44
0.0000000001
 40
0.0
 40
0.0
 40
0.0
 40
0.0
 40
0.2909042971
 40
0.5486525483
 40
0.6671664815
 40
0.7804936036
 40
0.8906547974
 40
1.0
 40
1.0
 40
1.0
 40
1.0
 10
85.9283423541
 20
130.0119673476
 30
0.0
 10
85.9273688493
 20
129.8545140906
 30
0.0
 10
85.900054201
 20
129.5566102272
 30
0.0
 10
85.784113803
 20
129.2096953016
 30
0.0
 10
85.6450004837
 20
128.9829285128
 30
0.0
 10
85.5230283501
 20
128.8424449418
 30
0.0
 10
85.3819478868
 20
128.7288866311
 30
0.0
 10
85.2765551675
 20
128.6723308321
 30
0.0
 10
85.2220734559
 20
128.6492099894
 30
0.0
  0
SPLINE
  5
295
100
AcDbEntity
  8
0
100
AcDbSpline
 62
7
  6
BYLAYER
 70
0
 71
3
 72
15
 73
11
 74
0
 42
0.0000001
 43
0.0000001
 44
0.0000000001
 40
0.0
 40
0.0
 40
0.0
 40
0.0
 40
0.1484606611
 40
0.2830578314
 40
0.405230399
 40
0.5186255207
 40
0.6288780806
 40
0.7424693053
 40
0.8649883854
 40
1.0
 40
1.0
 40
1.0
 40
1.0
 10
87.6839126139
 20
130.3970518291
 30
0.0
 10
87.6828954725
 20
130.2325408443
 30
0.0
 10
87.6584732336
 20
129.9181927123
 30
0.0
 10
87.5431050598
 20
129.4812311292
 30
0.0
 10
87.3518339026
 20
129.1137218507
 30
0.0
 10
87.0874029944
 20
128.8290274565
 30
0.0
 10
86.7577301385
 20
128.6408101629
 30
0.0
 10
86.377612359
 20
128.5574638213
 30
0.0
 10
85.9629604891
 20
128.5787436414
 30
0.0
 10
85.6859612359
 20
128.6559351242
 30
0.0
 10
85.5457785475
 20
128.7082056246
 30
0.0
  0
SPLINE
  5
296
100
AcDbEntity
  8
0
100
AcDbSpline
 62
7
  6
BYLAYER
 70
0
 71
3
 72
9
 73
5
 74
0
 42
0.0000001
 43
0.0000001
 44
0.0000000001
 40
0.0
 40
0.0
 40
0.0
 40
0.0
 40
0.2455300891
 40
1.0
 40
1.0
 40
1.0
 40
1.0
 10
85.5457785475
 20
128.7082056246
 30
0.0
 10
85.5272772087
 20
128.7151042955
 30
0.0
 10
85.4522453829
 20
128.7440569916
 30
0.0
 10
85.3785120947
 20
128.7763534134
 30
0.0
 10
85.3236980486
 20
128.8023699711
 30
0.0
  0
SPLINE
  5
297
100
AcDbEntity
  8
0
100
AcDbSpline
 62
7
  6
BYLAYER
 70
0
 71
3
 72
15
 73
11
 74
0
 42
0.0000001
 43
0.0000001
 44
0.0000000001
 40
0.0
 40
0.0
 40
0.0
 40
0.0
 40
0.1083776347
 40
0.2182962131
 40
0.3318381209
 40
0.4507578022
 40
0.5763763522
 40
0.7095502349
 40
0.8507628676
 40
1.0
 40
1.0
 40
1.0
 40
1.0
 10
101.2358394659
 20
129.7202222841
 30
0.0
 10
101.4107323482
 20
129.8088142022
 30
0.0
 10
101.7479159617
 20
130.0190238252
 30
0.0
 10
102.1956241694
 20
130.4231725357
 30
0.0
 10
102.5812393353
 20
130.9113261903
 30
0.0
 10
102.9008127198
 20
131.4774263859
 30
0.0
 10
103.1516305184
 20
132.1151000926
 30
0.0
 10
103.3316981182
 20
132.8176346059
 30
0.0
 10
103.4394805208
 20
133.5776727101
 30
0.0
 10
103.462070052
 20
134.1034815387
 30
0.0
 10
103.462070052
 20
134.3734459972
 30
0.0
  0
SPLINE
  5
298
100
AcDbEntity
  8
0
100
AcDbSpline
 62
7
  6
BYLAYER
 70
0
 71
3
 72
14
 73
10
 74
0
 42
0.0000001
 43
0.0000001
 44
0.0000000001
 40
0.0
 40
0.0
 40
0.0
 40
0.0
 40
0.128176373
 40
0.2505503458
 40
0.3693927951
 40
0.4873428935
 40
0.6071486051
 40
0.7313556078
 40
1.0
 40
1.0
 40
1.0
 40
1.0
 10
81.793171353
 20
127.3063354354
 30
0.0
 10
81.8498016625
 20
127.30323401
 30
0.0
 10
81.9611922849
 20
127.3052687833
 30
0.0
 10
82.1226099694
 20
127.3356737833
 30
0.0
 10
82.2717649627
 20
127.3931763441
 30
0.0
 10
82.4064654256
 20
127.4771355935
 30
0.0
 10
82.5248871759
 20
127.5863393266
 30
0.0
 10
82.6624378282
 20
127.7678921192
 30
0.0
 10
82.7314028187
 20
127.9310374561
 30
0.0
 10
82.7643288841
 20
128.0452554172
 30
0.0
  0
SPLINE
  5
299
100
AcDbEntity
  8
0
100
AcDbSpline
 62
7
  6
BYLAYER
 70
0
 71
3
 72
9
 73
5
 74
0
 42
0.0000001
 43
0.0000001
 44
0.0000000001
 40
0.0
 40
0.0
 40
0.0
 40
0.0
 40
0.2358835602
 40
1.0
 40
1.0
 40
1.0
 40
1.0
 10
82.7643288841
 20
128.0452554172
 30
0.0
 10
82.7757923728
 20
128.0850213684
 30
0.0
 10
82.8173492107
 20
128.255626253
 30
0.0
 10
82.8321831232
 20
128.4321358921
 30
0.0
 10
82.8321831232
 20
128.5661985729
 30
0.0
  0
SPLINE
  5
29A
100
AcDbEntity
  8
0
100
AcDbSpline
 62
7
  6
BYLAYER
 70
0
 71
3
 72
9
 73
5
 74
0
 42
0.0000001
 43
0.0000001
 44
0.0000000001
 40
0.0
 40
0.0
 40
0.0
 40
0.0
 40
0.2446973846
 40
1.0
 40
1.0
 40
1.0
 40
1.0
 10
82.8321831232
 20
128.5661985729
 30
0.0
 10
82.8321831232
 20
128.5860156752
 30
0.0
 10
82.8311548324
 20
128.6669999762
 30
0.0
 10
82.8261292204
 20
128.7479220415
 30
0.0
 10
82.8203354769
 20
128.8088161016
 30
0.0
  0
SPLINE
  5
29B
100
AcDbEntity
  8
0
100
AcDbSpline
 62
7
  6
BYLAYER
 70
0
 71
3
 72
12
 73
8
 74
0
 42
0.0000001
 43
0.0000001
 44
0.0000000001
 40
0.0
 40
0.0
 40
0.0
 40
0.0
 40
0.2406101355
 40
0.4998150204
 40
0.7590213983
 40
0.8828625489
 40
1.0
 40
1.0
 40
1.0
 40
1.0
 10
82.8203354769
 20
128.8088161016
 30
0.0
 10
82.7961473827
 20
129.0630405562
 30
0.0
 10
82.6745377411
 20
129.5851382029
 30
0.0
 10
82.3369603957
 20
130.3211632579
 30
0.0
 10
81.939641653
 20
130.8811529631
 30
0.0
 10
81.568636769
 20
131.2619980767
 30
0.0
 10
81.3699968959
 20
131.4243358931
 30
0.0
 10
81.2687039586
 20
131.4964210854
 30
0.0
  0
SPLINE
  5
29C
100
AcDbEntity
  8
0
100
AcDbSpline
 62
7
  6
BYLAYER
 70
0
 71
3
 72
9
 73
5
 74
0
 42
0.0000001
 43
0.0000001
 44
0.0000000001
 40
0.0
 40
0.0
 40
0.0
 40
0.0
 40
0.526325543
 40
1.0
 40
1.0
 40
1.0
 40
1.0
 10
81.2687039586
 20
131.4964210854
 30
0.0
 10
81.1586245657
 20
131.5747591652
 30
0.0
 10
80.938317526
 20
131.7088560068
 30
0.0
 10
80.696341178
 20
131.8008388566
 30
0.0
 10
80.5782971728
 20
131.8300015247
 30
0.0
  0
SPLINE
  5
29D
100
AcDbEntity
  8
0
100
AcDbSpline
 62
7
  6
BYLAYER
 70
0
 71
3
 72
15
 73
11
 74
0
 42
0.0000001
 43
0.0000001
 44
0.0000000001
 40
0.0
 40
0.0
 40
0.0
 40
0.0
 40
0.1329578208
 40
0.2563150409
 40
0.3730499213
 40
0.4872232954
 40
0.6033728472
 40
0.7256705757
 40
0.8572308499
 40
1.0
 40
1.0
 40
1.0
 40
1.0
 10
80.5782971728
 20
131.8300015247
 30
0.0
 10
80.5010415664
 20
131.8490874545
 30
0.0
 10
80.3486944035
 20
131.8740708529
 30
0.0
 10
80.1239285991
 20
131.8664450974
 30
0.0
 10
79.917076676
 20
131.8113756029
 30
0.0
 10
79.7335987913
 20
131.7094464645
 30
0.0
 10
79.5784688388
 20
131.5633468198
 30
0.0
 10
79.4551473109
 20
131.3773317221
 30
0.0
 10
79.3654451026
 20
131.1561331757
 30
0.0
 10
79.3302589993
 20
130.9949548145
 30
0.0
 10
79.3178546099
 20
130.9104093712
 30
0.0
  0
SPLINE
  5
29E
100
AcDbEntity
  8
0
100
AcDbSpline
 62
7
  6
BYLAYER
 70
0
 71
3
 72
13
 73
9
 74
0
 42
0.0000001
 43
0.0000001
 44
0.0000000001
 40
0.0
 40
0.0
 40
0.0
 40
0.0
 40
0.259528944
 40
0.3813025839
 40
0.5004193478
 40
0.6194755828
 40
0.7410740502
 40
1.0
 40
1.0
 40
1.0
 40
1.0
 10
79.5754263854
 20
131.0936989733
 30
0.0
 10
79.6126980012
 20
131.1865091035
 30
0.0
 10
79.686132206
 20
131.3173590741
 30
0.0
 10
79.821017675
 20
131.456348513
 30
0.0
 10
79.9345340161
 20
131.5374550787
 30
0.0
 10
80.0609846768
 20
131.5962394942
 30
0.0
 10
80.2480958381
 20
131.6450064788
 30
0.0
 10
80.3978637127
 20
131.6442063649
 30
0.0
 10
80.4967328913
 20
131.6307396906
 30
0.0
  0
SPLINE
  5
29F
100
AcDbEntity
  8
0
100
AcDbSpline
 62
7
  6
BYLAYER
 70
0
 71
3
 72
9
 73
5
 74
0
 42
0.0000001
 43
0.0000001
 44
0.0000000001
 40
0.0
 40
0.0
 40
0.0
 40
0.0
 40
0.518443749
 40
1.0
 40
1.0
 40
1.0
 40
1.0
 10
82.5506732021
 20
128.0731942889
 30
0.0
 10
82.5179496335
 20
127.9931574442
 30
0.0
 10
82.4370812685
 20
127.8449228326
 30
0.0
 10
82.3168190964
 20
127.7251202492
 30
0.0
 10
82.2515401091
 20
127.6783304279
 30
0.0
  0
SPLINE
  5
2A0
100
AcDbEntity
  8
0
100
AcDbSpline
 62
7
  6
BYLAYER
 70
0
 71
3
 72
15
 73
11
 74
0
 42
0.0000001
 43
0.0000001
 44
0.0000000001
 40
0.0
 40
0.0
 40
0.0
 40
0.0
 40
0.1151683728
 40
0.2267144813
 40
0.3383048802
 40
0.4535974613
 40
0.5756896747
 40
0.7067704688
 40
0.8480967542
 40
1.0
 40
1.0
 40
1.0
 40
1.0
 10
93.6574362977
 20
127.4954081337
 30
0.0
 10
93.8750151544
 20
127.5155252927
 30
0.0
 10
94.3011199158
 20
127.5973959729
 30
0.0
 10
94.8942840941
 20
127.8562957855
 30
0.0
 10
95.4133858484
 20
128.2436207656
 30
0.0
 10
95.8474258078
 20
128.7501390204
 30
0.0
 10
96.1895184831
 20
129.3644913157
 30
0.0
 10
96.4355482586
 20
130.07484737
 30
0.0
 10
96.5827842371
 20
130.8688473805
 30
0.0
 10
96.6130689654
 20
131.425925639
 30
0.0
 10
96.6130689654
 20
131.7141289392
 30
0.0
  0
SPLINE
  5
2A1
100
AcDbEntity
  8
0
100
AcDbSpline
 62
7
  6
BYLAYER
 70
0
 71
3
 72
16
 73
12
 74
0
 42
0.0000001
 43
0.0000001
 44
0.0000000001
 40
0.0
 40
0.0
 40
0.0
 40
0.0
 40
0.0980386724
 40
0.1525338328
 40
0.2105642544
 40
0.3359257164
 40
0.4706646129
 40
0.6098212542
 40
0.7478780435
 40
0.8794415829
 40
1.0
 40
1.0
 40
1.0
 40
1.0
 10
81.0172100868
 20
132.5185766438
 30
0.0
 10
81.1756660666
 20
132.5032010682
 30
0.0
 10
81.4186445604
 20
132.4359075585
 30
0.0
 10
81.7269005926
 20
132.2875031399
 30
0.0
 10
82.0554595386
 20
132.0828682314
 30
0.0
 10
82.4514287621
 20
131.7466094231
 30
0.0
 10
82.8748736539
 20
131.2526574022
 30
0.0
 10
83.2346212194
 20
130.6860522739
 30
0.0
 10
83.5098397668
 20
130.0794683328
 30
0.0
 10
83.6847731919
 20
129.4681058408
 30
0.0
 10
83.7301048658
 20
129.0582437
 30
0.0
 10
83.7301048658
 20
128.8624747806
 30
0.0
  0
SPLINE
  5
2A2
100
AcDbEntity
  8
0
100
AcDbSpline
 62
7
  6
BYLAYER
 70
0
 71
3
 72
11
 73
7
 74
0
 42
0.0000001
 43
0.0000001
 44
0.0000000001
 40
0.0
 40
0.0
 40
0.0
 40
0.0
 40
0.2196138731
 40
0.4559043534
 40
0.715211733
 40
1.0
 40
1.0
 40
1.0
 40
1.0
 10
83.6328893416
 20
128.0173944353
 30
0.0
 10
83.6999083611
 20
128.0737264041
 30
0.0
 10
83.8223614449
 20
128.2115793977
 30
0.0
 10
83.9530221258
 20
128.4677188154
 30
0.0
 10
84.0336501789
 20
128.770134135
 30
0.0
 10
84.0525230606
 20
128.987261699
 30
0.0
 10
84.0545008386
 20
129.1007753126
 30
0.0
  0
SPLINE
  5
2A3
100
AcDbEntity
  8
0
100
AcDbSpline
 62
7
  6
BYLAYER
 70
0
 71
3
 72
15
 73
11
 74
0
 42
0.0000001
 43
0.0000001
 44
0.0000000001
 40
0.0
 40
0.0
 40
0.0
 40
0.0
 40
0.1198631021
 40
0.2334840764
 40
0.3449095045
 40
0.4585938368
 40
0.5785736927
 40
0.7078344147
 40
0.8481278014
 40
1.0
 40
1.0
 40
1.0
 40
1.0
 10
91.0719361201
 20
127.4356120997
 30
0.0
 10
91.2877618211
 20
127.4252655249
 30
0.0
 10
91.7119152817
 20
127.4456167527
 30
0.0
 10
92.3155788348
 20
127.6171731214
 30
0.0
 10
92.8494386306
 20
127.9266885049
 30
0.0
 10
93.2986277595
 20
128.3656625476
 30
0.0
 10
93.6534685779
 20
128.9212282932
 30
0.0
 10
93.9087574155
 20
129.5795885761
 30
0.0
 10
94.0614621948
 20
130.3267602813
 30
0.0
 10
94.0926233451
 20
130.8542968172
 30
0.0
 10
94.0926233451
 20
131.1280722041
 30
0.0
  0
SPLINE
  5
2A4
100
AcDbEntity
  8
0
100
AcDbSpline
 62
7
  6
BYLAYER
 70
0
 71
3
 72
26
 73
22
 74
0
 42
0.0000001
 43
0.0000001
 44
0.0000000001
 40
0.0
 40
0.0
 40
0.0
 40
0.0
 40
0.0658328201
 40
0.1364878817
 40
0.2108208789
 40
0.28741329
 40
0.3647027059
 40
0.4410768875
 40
0.5149847311
 40
0.5850401176
 40
0.6501412819
 40
0.7096125209
 40
0.7633800032
 40
0.8121734431
 40
0.8352518094
 40
0.8577926848
 40
0.8801285857
 40
0.9026076251
 40
0.9255672667
 40
0.9493103792
 40
1.0
 40
1.0
 40
1.0
 40
1.0
 10
91.3187203365
 20
130.6883458499
 30
0.0
 10
91.3187203365
 20
130.9849246668
 30
0.0
 10
91.2699396864
 20
131.6003231517
 30
0.0
 10
91.0730050436
 20
132.5316017253
 30
0.0
 10
90.7556176343
 20
133.480192946
 30
0.0
 10
90.3274644548
 20
134.416912162
 30
0.0
 10
89.801688154
 20
135.3131729769
 30
0.0
 10
89.1943979814
 20
136.141457438
 30
0.0
 10
88.5241855755
 20
136.8764126605
 30
0.0
 10
87.8113618003
 20
137.4956332473
 30
0.0
 10
87.0772030169
 20
137.980349489
 30
0.0
 10
86.3427317993
 20
138.3155835427
 30
0.0
 10
85.6287316816
 20
138.4901432626
 30
0.0
 10
85.055713735
 20
138.4934479868
 30
0.0
 10
84.6382091193
 20
138.4053315758
 30
0.0
 10
84.3501538517
 20
138.2982040244
 30
0.0
 10
84.0842699844
 20
138.1494937454
 30
0.0
 10
83.842848647
 20
137.9606611404
 30
0.0
 10
83.6280038523
 20
137.7332968904
 30
0.0
 10
83.3738274883
 20
137.3742922365
 30
0.0
 10
83.2365803485
 20
137.0636466439
 30
0.0
 10
83.1660371832
 20
136.8464574331
 30
0.0
  0
SPLINE
  5
2A5
100
AcDbEntity
  8
0
100
AcDbSpline
 62
7
  6
BYLAYER
 70
0
 71
3
 72
14
 73
10
 74
0
 42
0.0000001
 43
0.0000001
 44
0.0000000001
 40
0.0
 40
0.0
 40
0.0
 40
0.0
 40
0.2922830428
 40
0.424977581
 40
0.5493585026
 40
0.6667927903
 40
0.7792872594
 40
0.8894066312
 40
1.0
 40
1.0
 40
1.0
 40
1.0
 10
90.6810504361
 20
131.0564964099
 30
0.0
 10
90.6810504361
 20
130.7627735119
 30
0.0
 10
90.6415957792
 20
130.332561013
 30
0.0
 10
90.4849212122
 20
129.801675785
 30
0.0
 10
90.3264448551
 20
129.4585984252
 30
0.0
 10
90.1249736903
 20
129.1628476963
 30
0.0
 10
89.8826320303
 20
128.9189206754
 30
0.0
 10
89.6028443311
 20
128.7310718863
 30
0.0
 10
89.3961465501
 20
128.646045808
 30
0.0
 10
89.2897955628
 20
128.613778765
 30
0.0
  0
SPLINE
  5
2A6
100
AcDbEntity
  8
0
100
AcDbSpline
 62
7
  6
BYLAYER
 70
0
 71
3
 72
23
 73
19
 74
0
 42
0.0000001
 43
0.0000001
 44
0.0000000001
 40
0.0
 40
0.0
 40
0.0
 40
0.0
 40
0.0434915014
 40
0.0872292372
 40
0.1331863134
 40
0.1828813812
 40
0.2372058677
 40
0.2964536704
 40
0.3604315681
 40
0.4285753363
 40
0.5000488588
 40
0.5738258141
 40
0.6487601565
 40
0.723645716
 40
0.7972825669
 40
0.8685285754
 40
0.9363788587
 40
1.0
 40
1.0
 40
1.0
 40
1.0
 10
84.3264931143
 20
137.1891661577
 30
0.0
 10
84.4355926185
 20
137.2926187523
 30
0.0
 10
84.6829256017
 20
137.4726082505
 30
0.0
 10
85.11990234
 20
137.6338857165
 30
0.0
 10
85.6043096367
 20
137.6803133751
 30
0.0
 10
86.1220887375
 20
137.6135904849
 30
0.0
 10
86.661323164
 20
137.4379005856
 30
0.0
 10
87.2102107598
 20
137.1585807964
 30
0.0
 10
87.7565702988
 20
136.7826168239
 30
0.0
 10
88.2879158026
 20
136.3189582392
 30
0.0
 10
88.7918521782
 20
135.7785739094
 30
0.0
 10
89.2564798391
 20
135.1742811564
 30
0.0
 10
89.6707427087
 20
134.5204617518
 30
0.0
 10
90.0247823272
 20
133.832705699
 30
0.0
 10
90.3101236366
 20
133.1274175012
 30
0.0
 10
90.5200332322
 20
132.4213041562
 30
0.0
 10
90.6494205891
 20
131.7312567037
 30
0.0
 10
90.6810504361
 20
131.27643461
 30
0.0
 10
90.6810504361
 20
131.0564964099
 30
0.0
  0
SPLINE
  5
2A7
100
AcDbEntity
  8
0
100
AcDbSpline
 62
7
  6
BYLAYER
 70
0
 71
3
 72
20
 73
16
 74
0
 42
0.0000001
 43
0.0000001
 44
0.0000000001
 40
0.0
 40
0.0
 40
0.0
 40
0.0
 40
0.043004243
 40
0.0870431036
 40
0.1338420524
 40
0.1846225206
 40
0.2400243017
 40
0.3001699489
 40
0.3647696866
 40
0.4332202423
 40
0.5780244732
 40
0.7265270053
 40
0.8697567457
 40
0.9369375526
 40
1.0
 40
1.0
 40
1.0
 40
1.0
 10
82.3312845667
 20
133.6562330401
 30
0.0
 10
82.3987836538
 20
133.7071018947
 30
0.0
 10
82.5497569039
 20
133.7924789425
 30
0.0
 10
82.8072252929
 20
133.8583345996
 30
0.0
 10
83.0878742311
 20
133.8614027853
 30
0.0
 10
83.3846107467
 20
133.8030753836
 30
0.0
 10
83.6911713
 20
133.6857651728
 30
0.0
 10
84.0011489342
 20
133.5125396522
 30
0.0
 10
84.3079804488
 20
133.2874000337
 30
0.0
 10
84.7112499983
 20
132.9179020936
 30
0.0
 10
85.1615685557
 20
132.3618980866
 30
0.0
 10
85.5811175243
 20
131.6092002325
 30
0.0
 10
85.8142066855
 20
130.9384292603
 30
0.0
 10
85.9110642671
 20
130.4088875055
 30
0.0
 10
85.9283942063
 20
130.1527138472
 30
0.0
 10
85.9283942063
 20
130.0287705177
 30
0.0
  0
SPLINE
  5
2A8
100
AcDbEntity
  8
0
100
AcDbSpline
 62
7
  6
BYLAYER
 70
0
 71
3
 72
15
 73
11
 74
0
 42
0.0000001
 43
0.0000001
 44
0.0000000001
 40
0.0
 40
0.0
 40
0.0
 40
0.0
 40
0.1269172739
 40
0.2442896971
 40
0.3562209328
 40
0.4679723947
 40
0.5848472596
 40
0.711048179
 40
0.8491291399
 40
1.0
 40
1.0
 40
1.0
 40
1.0
 10
88.40225779
 20
127.7770110814
 30
0.0
 10
88.6026304754
 20
127.7344042208
 30
0.0
 10
88.997488327
 20
127.6873979444
 30
0.0
 10
89.5746073851
 20
127.7515395614
 30
0.0
 10
90.0934176286
 20
127.9555411347
 30
0.0
 10
90.5350740821
 20
128.2943945886
 30
0.0
 10
90.8855032691
 20
128.7549020078
 30
0.0
 10
91.1376445336
 20
129.3211231651
 30
0.0
 10
91.2883046931
 20
129.9774742011
 30
0.0
 10
91.3187203365
 20
130.4448307166
 30
0.0
 10
91.3187203365
 20
130.6883458499
 30
0.0
  0
SPLINE
  5
2A9
100
AcDbEntity
  8
0
100
AcDbSpline
 62
7
  6
BYLAYER
 70
0
 71
3
 72
25
 73
21
 74
0
 42
0.0000001
 43
0.0000001
 44
0.0000000001
 40
0.0
 40
0.0
 40
0.0
 40
0.0
 40
0.0545008624
 40
0.1037121471
 40
0.126918236
 40
0.1495624499
 40
0.1720095965
 40
0.1946407973
 40
0.2417522625
 40
0.2933620606
 40
0.3507328127
 40
0.4141211545
 40
0.483007551
 40
0.5563206827
 40
0.6326187384
 40
0.7102375456
 40
0.7874202866
 40
0.8624404798
 40
0.9337265751
 40
1.0
 40
1.0
 40
1.0
 40
1.0
 10
82.5477112222
 20
133.9273068429
 30
0.0
 10
82.5751773358
 20
134.0830780131
 30
0.0
 10
82.6547675718
 20
134.3760004103
 30
0.0
 10
82.8358080537
 20
134.7022802911
 30
0.0
 10
83.0202757142
 20
134.9087536184
 30
0.0
 10
83.1741589623
 20
135.0350126163
 30
0.0
 10
83.3448771612
 20
135.1341427683
 30
0.0
 10
83.5956506409
 20
135.2303223889
 30
0.0
 10
83.9504683646
 20
135.2761524734
 30
0.0
 10
84.4031727381
 20
135.2120042843
 30
0.0
 10
84.8750054372
 20
135.0366262654
 30
0.0
 10
85.3518226463
 20
134.757188977
 30
0.0
 10
85.819105913
 20
134.3833147031
 30
0.0
 10
86.2618950767
 20
133.9273066114
 30
0.0
 10
86.6656874737
 20
133.4042374576
 30
0.0
 10
87.0170870831
 20
132.8314768605
 30
0.0
 10
87.3043893852
 20
132.2281252698
 30
0.0
 10
87.5180289993
 20
131.6141908749
 30
0.0
 10
87.6508974043
 20
131.0102078147
 30
0.0
 10
87.6839780898
 20
130.6106274129
 30
0.0
 10
87.6839780898
 20
130.4182866197
 30
0.0
  0
SPLINE
  5
2AA
100
AcDbEntity
  8
0
100
AcDbSpline
 62
7
  6
BYLAYER
 70
0
 71
3
 72
11
 73
7
 74
0
 42
0.0000001
 43
0.0000001
 44
0.0000000001
 40
0.0
 40
0.0
 40
0.0
 40
0.0
 40
0.2630140023
 40
0.5131494158
 40
0.75648179
 40
1.0
 40
1.0
 40
1.0
 40
1.0
 10
57.6321760017
 20
109.8494127622
 30
0.0
 10
57.7780019684
 20
109.8410787899
 30
0.0
 10
58.0646712214
 20
109.848078593
 30
0.0
 10
58.4777736493
 20
109.9383484924
 30
0.0
 10
58.8537892929
 20
110.1073351613
 30
0.0
 10
59.0731880314
 20
110.2693220234
 30
0.0
 10
59.1732415398
 20
110.3603074093
 30
0.0
  0
SPLINE
  5
2AB
100
AcDbEntity
  8
0
100
AcDbSpline
 62
7
  6
BYLAYER
 70
0
 71
3
 72
12
 73
8
 74
0
 42
0.0000001
 43
0.0000001
 44
0.0000000001
 40
0.0
 40
0.0
 40
0.0
 40
0.0
 40
0.2883162281
 40
0.5476475358
 40
0.7816708444
 40
0.8921037002
 40
1.0
 40
1.0
 40
1.0
 40
1.0
 10
58.337964286
 20
112.0079177493
 30
0.0
 10
58.337964286
 20
111.7435369514
 30
0.0
 10
58.2995750974
 20
111.2397426172
 30
0.0
 10
58.1060150446
 20
110.5441620255
 30
0.0
 10
57.8284871199
 20
110.0561677959
 30
0.0
 10
57.546609774
 20
109.7499045455
 30
0.0
 10
57.3888049741
 20
109.6250314233
 30
0.0
 10
57.3064643577
 20
109.5701775984
 30
0.0
  0
SPLINE
  5
2AC
100
AcDbEntity
  8
0
100
AcDbSpline
 62
7
  6
BYLAYER
 70
0
 71
3
 72
9
 73
5
 74
0
 42
0.0000001
 43
0.0000001
 44
0.0000000001
 40
0.0
 40
0.0
 40
0.0
 40
0.0
 40
0.5079506212
 40
1.0
 40
1.0
 40
1.0
 40
1.0
 10
54.9648341198
 20
108.3043920554
 30
0.0
 10
55.1290689536
 20
108.3193019659
 30
0.0
 10
55.4506678204
 20
108.3849149645
 30
0.0
 10
55.7456276454
 20
108.5302287335
 30
0.0
 10
55.8785756325
 20
108.6187961257
 30
0.0
  0
SPLINE
  5
2AD
100
AcDbEntity
  8
0
100
AcDbSpline
 62
7
  6
BYLAYER
 70
0
 71
3
 72
12
 73
8
 74
0
 42
0.0000001
 43
0.0000001
 44
0.0000000001
 40
0.0
 40
0.0
 40
0.0
 40
0.0
 40
0.2883160028
 40
0.5476473405
 40
0.781670651
 40
0.8921035637
 40
1.0
 40
1.0
 40
1.0
 40
1.0
 10
55.5237719814
 20
110.2034333394
 30
0.0
 10
55.5237719814
 20
109.9283941564
 30
0.0
 10
55.4838351614
 20
109.4042893763
 30
0.0
 10
55.2824718582
 20
108.6806663702
 30
0.0
 10
54.9937553916
 20
108.1729983302
 30
0.0
 10
54.7005139617
 20
107.854387826
 30
0.0
 10
54.5363471
 20
107.7244802272
 30
0.0
 10
54.4506867522
 20
107.6674149302
 30
0.0
  0
SPLINE
  5
2AE
100
AcDbEntity
  8
0
100
AcDbSpline
 62
7
  6
BYLAYER
 70
0
 71
3
 72
9
 73
5
 74
0
 42
0.0000001
 43
0.0000001
 44
0.0000000001
 40
0.0
 40
0.0
 40
0.0
 40
0.0
 40
0.5072400206
 40
1.0
 40
1.0
 40
1.0
 40
1.0
 10
52.1161331768
 20
106.3935344866
 30
0.0
 10
52.2790531991
 20
106.4114242187
 30
0.0
 10
52.5978275329
 20
106.4816673313
 30
0.0
 10
52.8902888361
 20
106.62775842
 30
0.0
 10
53.0227980373
 20
106.7160334384
 30
0.0
  0
SPLINE
  5
2AF
100
AcDbEntity
  8
0
100
AcDbSpline
 62
7
  6
BYLAYER
 70
0
 71
3
 72
11
 73
7
 74
0
 42
0.0000001
 43
0.0000001
 44
0.0000000001
 40
0.0
 40
0.0
 40
0.0
 40
0.0
 40
0.2236084896
 40
0.4593720221
 40
0.7164484253
 40
1.0
 40
1.0
 40
1.0
 40
1.0
 10
24.5459828801
 20
102.5563403319
 30
0.0
 10
24.4075125706
 20
102.4764122544
 30
0.0
 10
24.1466104288
 20
102.2678170743
 30
0.0
 10
23.8490502008
 20
101.8438787674
 30
0.0
 10
23.6462117953
 20
101.3224462964
 30
0.0
 10
23.5794272577
 20
100.9392812812
 30
0.0
 10
23.5601308086
 20
100.7374587639
 30
0.0
  0
SPLINE
  5
2B0
100
AcDbEntity
  8
0
100
AcDbSpline
 62
7
  6
BYLAYER
 70
0
 71
3
 72
9
 73
5
 74
0
 42
0.0000001
 43
0.0000001
 44
0.0000000001
 40
0.0
 40
0.0
 40
0.0
 40
0.0
 40
0.2450535308
 40
1.0
 40
1.0
 40
1.0
 40
1.0
 10
23.5601308086
 20
100.7374587639
 30
0.0
 10
23.5570063385
 20
100.7047797763
 30
0.0
 10
23.5459436403
 20
100.5712672097
 30
0.0
 10
23.5414830965
 20
100.4372249594
 30
0.0
 10
23.5414830965
 20
100.3360903474
 30
0.0
  0
SPLINE
  5
2B1
100
AcDbEntity
  8
0
100
AcDbSpline
 62
7
  6
BYLAYER
 70
0
 71
3
 72
14
 73
10
 74
0
 42
0.0000001
 43
0.0000001
 44
0.0000000001
 40
0.0
 40
0.0
 40
0.0
 40
0.0
 40
0.2892795843
 40
0.4225456626
 40
0.5484940839
 40
0.6678936429
 40
0.7818685804
 40
0.8919521468
 40
1.0
 40
1.0
 40
1.0
 40
1.0
 10
52.7095796768
 20
108.3989489294
 30
0.0
 10
52.7095796768
 20
108.0998944996
 30
0.0
 10
52.6746670528
 20
107.6609235882
 30
0.0
 10
52.5397160643
 20
107.1091907125
 30
0.0
 10
52.4024061481
 20
106.7415468624
 30
0.0
 10
52.2274308152
 20
106.4125423068
 30
0.0
 10
52.0160690013
 20
106.1255033761
 30
0.0
 10
51.770343376
 20
105.8836337309
 30
0.0
 10
51.5843432673
 20
105.7538782701
 30
0.0
 10
51.487609112
 20
105.6980290955
 30
0.0
  0
SPLINE
  5
2B2
100
AcDbEntity
  8
0
100
AcDbSpline
 62
7
  6
BYLAYER
 70
0
 71
3
 72
11
 73
7
 74
0
 42
0.0000001
 43
0.0000001
 44
0.0000000001
 40
0.0
 40
0.0
 40
0.0
 40
0.0
 40
0.2317823704
 40
0.4715719949
 40
0.7260878356
 40
1.0
 40
1.0
 40
1.0
 40
1.0
 10
24.6995362824
 20
103.1068720268
 30
0.0
 10
24.5817329593
 20
103.0388734557
 30
0.0
 10
24.3576477808
 20
102.8715338353
 30
0.0
 10
24.0804070965
 20
102.5437675472
 30
0.0
 10
23.863932117
 20
102.1452405476
 30
0.0
 10
23.7659115306
 20
101.8493382829
 30
0.0
 10
23.7266020853
 20
101.6934753432
 30
0.0
  0
SPLINE
  5
2B3
100
AcDbEntity
  8
0
100
AcDbSpline
 62
7
  6
BYLAYER
 70
0
 71
3
 72
11
 73
7
 74
0
 42
0.0000001
 43
0.0000001
 44
0.0000000001
 40
0.0
 40
0.0
 40
0.0
 40
0.0
 40
0.231701976
 40
0.471446389
 40
0.7259905211
 40
1.0
 40
1.0
 40
1.0
 40
1.0
 10
25.3851965075
 20
104.3687536403
 30
0.0
 10
25.2501999801
 20
104.2908141873
 30
0.0
 10
24.9934066565
 20
104.0989596693
 30
0.0
 10
24.6759510886
 20
103.7229450602
 30
0.0
 10
24.4283918021
 20
103.2656685143
 30
0.0
 10
24.3165240172
 20
102.9261842986
 30
0.0
 10
24.2717426287
 20
102.7473632416
 30
0.0
  0
SPLINE
  5
2B4
100
AcDbEntity
  8
0
100
AcDbSpline
 62
7
  6
BYLAYER
 70
0
 71
3
 72
14
 73
10
 74
0
 42
0.0000001
 43
0.0000001
 44
0.0000000001
 40
0.0
 40
0.0
 40
0.0
 40
0.0
 40
0.2892799005
 40
0.4225416196
 40
0.5484930696
 40
0.6678938496
 40
0.7818671852
 40
0.8919508187
 40
1.0
 40
1.0
 40
1.0
 40
1.0
 10
41.9969644917
 20
101.1117953719
 30
0.0
 10
41.9969644917
 20
100.7443126678
 30
0.0
 10
41.954060201
 20
100.2049052218
 30
0.0
 10
41.7882387237
 20
99.5269266961
 30
0.0
 10
41.6195010738
 20
99.0751652155
 30
0.0
 10
41.4045079324
 20
98.6708656605
 30
0.0
 10
41.1447711246
 20
98.318156165
 30
0.0
 10
40.8428154586
 20
98.0209500256
 30
0.0
 10
40.6142615167
 20
97.861495325
 30
0.0
 10
40.4953962145
 20
97.7928585145
 30
0.0
  0
SPLINE
  5
2B5
100
AcDbEntity
  8
0
100
AcDbSpline
 62
7
  6
BYLAYER
 70
0
 71
3
 72
22
 73
18
 74
0
 42
0.0000001
 43
0.0000001
 44
0.0000000001
 40
0.0
 40
0.0
 40
0.0
 40
0.0
 40
0.0428208569
 40
0.0874092823
 40
0.1351989944
 40
0.1871156268
 40
0.24356999
 40
0.3045353837
 40
0.3696414462
 40
0.4382579841
 40
0.5095647263
 40
0.58261023
 40
0.729627058
 40
0.8016252198
 40
0.8712353752
 40
0.9376017423
 40
1.0
 40
1.0
 40
1.0
 40
1.0
 10
28.5671638159
 20
106.205852298
 30
0.0
 10
28.7150900583
 20
106.2912570285
 30
0.0
 10
29.0411662836
 20
106.4267889973
 30
0.0
 10
29.5794292522
 20
106.5056776569
 30
0.0
 10
30.157436302
 20
106.463132106
 30
0.0
 10
30.7623539855
 20
106.3024024679
 30
0.0
 10
31.3823025676
 20
106.0284036381
 30
0.0
 10
32.004941856
 20
105.6474710612
 30
0.0
 10
32.6176326716
 20
105.1678054549
 30
0.0
 10
33.2076328492
 20
104.5995885659
 30
0.0
 10
33.7626173372
 20
103.9547801515
 30
0.0
 10
34.4410461725
 20
103.00978362
 30
0.0
 10
34.9988013616
 20
101.979201243
 30
0.0
 10
35.411672903
 20
100.9032393672
 30
0.0
 10
35.637322312
 20
100.1035217012
 30
0.0
 10
35.7760583805
 20
99.3231489965
 30
0.0
 10
35.8097985562
 20
98.8091686795
 30
0.0
 10
35.8097985562
 20
98.560265161
 30
0.0
  0
SPLINE
  5
2B6
100
AcDbEntity
  8
0
100
AcDbSpline
 62
7
  6
BYLAYER
 70
0
 71
3
 72
11
 73
7
 74
0
 42
0.0000001
 43
0.0000001
 44
0.0000000001
 40
0.0
 40
0.0
 40
0.0
 40
0.0
 40
0.2766301555
 40
0.5318159149
 40
0.770457916
 40
1.0
 40
1.0
 40
1.0
 40
1.0
 10
34.0434684562
 20
95.4218059204
 30
0.0
 10
34.2744823467
 20
95.3449148351
 30
0.0
 10
34.7308750901
 20
95.229928356
 30
0.0
 10
35.4121046549
 20
95.1873413121
 30
0.0
 10
36.0466467438
 20
95.2853390234
 30
0.0
 10
36.4313683224
 20
95.4464899306
 30
0.0
 10
36.6063251235
 20
95.547515652
 30
0.0
  0
SPLINE
  5
2B7
100
AcDbEntity
  8
0
100
AcDbSpline
 62
7
  6
BYLAYER
 70
0
 71
3
 72
9
 73
5
 74
0
 42
0.0000001
 43
0.0000001
 44
0.0000000001
 40
0.0
 40
0.0
 40
0.0
 40
0.0
 40
0.2670486611
 40
1.0
 40
1.0
 40
1.0
 40
1.0
 10
35.8097985562
 20
98.560265161
 30
0.0
 10
35.8097985562
 20
98.4328503076
 30
0.0
 10
35.7936847258
 20
97.9562106986
 30
0.0
 10
35.709333179
 20
97.4792869689
 30
0.0
 10
35.5960955585
 20
97.1484206931
 30
0.0
  0
SPLINE
  5
2B8
100
AcDbEntity
  8
0
100
AcDbSpline
 62
7
  6
BYLAYER
 70
0
 71
3
 72
11
 73
7
 74
0
 42
0.0000001
 43
0.0000001
 44
0.0000000001
 40
0.0
 40
0.0
 40
0.0
 40
0.0
 40
0.2692288014
 40
0.5226684227
 40
0.7644403804
 40
1.0
 40
1.0
 40
1.0
 40
1.0
 10
35.5960955585
 20
97.1484206931
 30
0.0
 10
35.5460976944
 20
97.0023331381
 30
0.0
 10
35.4290681797
 20
96.7248870141
 30
0.0
 10
35.1939998426
 20
96.3522536433
 30
0.0
 10
34.9078018824
 20
96.0427108339
 30
0.0
 10
34.6841139758
 20
95.8811151322
 30
0.0
 10
34.5671165947
 20
95.8135670783
 30
0.0
  0
SPLINE
  5
2B9
100
AcDbEntity
  8
0
100
AcDbSpline
 62
7
  6
BYLAYER
 70
0
 71
3
 72
11
 73
7
 74
0
 42
0.0000001
 43
0.0000001
 44
0.0000000001
 40
0.0
 40
0.0
 40
0.0
 40
0.0
 40
0.2288379779
 40
0.4671265712
 40
0.7225379686
 40
1.0
 40
1.0
 40
1.0
 40
1.0
 10
29.356370636
 20
108.1048803398
 30
0.0
 10
29.1775792253
 20
108.0016403907
 30
0.0
 10
28.8386369819
 20
107.7422371625
 30
0.0
 10
28.4308002078
 20
107.2263716011
 30
0.0
 10
28.1261335878
 20
106.5956825023
 30
0.0
 10
28.0001255551
 20
106.1289398851
 30
0.0
 10
27.9531372812
 20
105.8830629125
 30
0.0
  0
SPLINE
  5
2BA
100
AcDbEntity
  8
0
100
AcDbSpline
 62
7
  6
BYLAYER
 70
0
 71
3
 72
11
 73
7
 74
0
 42
0.0000001
 43
0.0000001
 44
0.0000000001
 40
0.0
 40
0.0
 40
0.0
 40
0.0
 40
0.2740988008
 40
0.5286491987
 40
0.7683595237
 40
1.0
 40
1.0
 40
1.0
 40
1.0
 10
29.4197853588
 20
93.8241917737
 30
0.0
 10
29.5974418434
 20
93.7732111176
 30
0.0
 10
29.948155851
 20
93.6997257199
 30
0.0
 10
30.4691795984
 20
93.6849403404
 30
0.0
 10
30.9546689662
 20
93.7717153357
 30
0.0
 10
31.2498787552
 20
93.8983706564
 30
0.0
 10
31.3851493682
 20
93.9764683511
 30
0.0
  0
SPLINE
  5
2BB
100
AcDbEntity
  8
0
100
AcDbSpline
 62
7
  6
BYLAYER
 70
0
 71
3
 72
23
 73
19
 74
0
 42
0.0000001
 43
0.0000001
 44
0.0000000001
 40
0.0
 40
0.0
 40
0.0
 40
0.0
 40
0.0428152188
 40
0.087397823
 40
0.1351811403
 40
0.1870905328
 40
0.2435370358
 40
0.3044942603
 40
0.3695919384
 40
0.4381997231
 40
0.5094971725
 40
0.5825327744
 40
0.656276162
 40
0.7296639456
 40
0.8016518625
 40
0.8712539773
 40
0.9376082377
 40
1.0
 40
1.0
 40
1.0
 40
1.0
 10
33.2454417544
 20
110.3502231699
 30
0.0
 10
33.4241796333
 20
110.4534324135
 30
0.0
 10
33.8182037931
 20
110.6171745969
 30
0.0
 10
34.4686024748
 20
110.7124967866
 30
0.0
 10
35.167027266
 20
110.6610798448
 30
0.0
 10
35.8979679125
 20
110.4668745214
 30
0.0
 10
36.6470741274
 20
110.1358034693
 30
0.0
 10
37.3994346448
 20
109.6755144379
 30
0.0
 10
38.139767773
 20
109.0959196486
 30
0.0
 10
38.8527013625
 20
108.4093001365
 30
0.0
 10
39.5232325383
 20
107.6302110828
 30
0.0
 10
40.1371395945
 20
106.7752150569
 30
0.0
 10
40.6813352677
 20
105.8625347295
 30
0.0
 10
41.1442311931
 20
104.9116399136
 30
0.0
 10
41.5159172768
 20
103.9428152841
 30
0.0
 10
41.7885490678
 20
102.9765806325
 30
0.0
 10
41.9562050853
 20
102.0336122969
 30
0.0
 10
41.9969644917
 20
101.4125627366
 30
0.0
 10
41.9969644917
 20
101.1117953719
 30
0.0
  0
SPLINE
  5
2BC
100
AcDbEntity
  8
0
100
AcDbSpline
 62
7
  6
BYLAYER
 70
0
 71
3
 72
12
 73
8
 74
0
 42
0.0000001
 43
0.0000001
 44
0.0000000001
 40
0.0
 40
0.0
 40
0.0
 40
0.0
 40
0.286133007
 40
0.5439898587
 40
0.7784337367
 40
0.8901060362
 40
1.0
 40
1.0
 40
1.0
 40
1.0
 10
27.5421773581
 20
94.1553294728
 30
0.0
 10
27.7554697957
 20
94.0466406467
 30
0.0
 10
28.1786769722
 20
93.871314754
 30
0.0
 10
28.8231596216
 20
93.7469131533
 30
0.0
 10
29.334722402
 20
93.7785234361
 30
0.0
 10
29.7016755642
 20
93.8875699459
 30
0.0
 10
29.8698703505
 20
93.9676546915
 30
0.0
 10
29.9494980817
 20
94.013617503
 30
0.0
  0
SPLINE
  5
2BD
100
AcDbEntity
  8
0
100
AcDbSpline
 62
7
  6
BYLAYER
 70
0
 71
3
 72
21
 73
17
 74
0
 42
0.0000001
 43
0.0000001
 44
0.0000000001
 40
0.0
 40
0.0
 40
0.0
 40
0.0
 40
0.0624038463
 40
0.128782391
 40
0.198400354
 40
0.2704090457
 40
0.4174473336
 40
0.5616804467
 40
0.6303081079
 40
0.6954243998
 40
0.7563982701
 40
0.8128597592
 40
0.8647829627
 40
0.9125791215
 40
0.9571735715
 40
1.0
 40
1.0
 40
1.0
 40
1.0
 10
23.5414830965
 20
100.3360903474
 30
0.0
 10
23.5414830965
 20
100.1349038781
 30
0.0
 10
23.5687627701
 20
99.7194400748
 30
0.0
 10
23.6808959882
 20
99.0886391092
 30
0.0
 10
23.8632923629
 20
98.4422213766
 30
0.0
 10
24.197069371
 20
97.5723672139
 30
0.0
 10
24.7573726861
 20
96.5372295425
 30
0.0
 10
25.4754588597
 20
95.6176199824
 30
0.0
 10
26.1218051293
 20
94.9949822411
 30
0.0
 10
26.6170957513
 20
94.6072438337
 30
0.0
 10
27.1203957526
 20
94.2993343234
 30
0.0
 10
27.6215224524
 20
94.0778673447
 30
0.0
 10
28.1104920783
 20
93.9479516102
 30
0.0
 10
28.5777066953
 20
93.9135519277
 30
0.0
 10
29.0128063767
 20
93.977301433
 30
0.0
 10
29.2763688819
 20
94.0868815774
 30
0.0
 10
29.3959476468
 20
94.1559050441
 30
0.0
  0
SPLINE
  5
2BE
100
AcDbEntity
  8
0
100
AcDbSpline
 62
7
  6
BYLAYER
 70
0
 71
3
 72
11
 73
7
 74
0
 42
0.0000001
 43
0.0000001
 44
0.0000000001
 40
0.0
 40
0.0
 40
0.0
 40
0.0
 40
0.2190077985
 40
0.4554979955
 40
0.7151339813
 40
1.0
 40
1.0
 40
1.0
 40
1.0
 10
60.420857211
 20
111.4947130299
 30
0.0
 10
60.552647848
 20
111.6145605492
 30
0.0
 10
60.7916158956
 20
111.9043991992
 30
0.0
 10
61.0421089888
 20
112.4345169904
 30
0.0
 10
61.1919220083
 20
113.0555533748
 30
0.0
 10
61.2219811418
 20
113.499442392
 30
0.0
 10
61.2219811418
 20
113.7311451252
 30
0.0
  0
SPLINE
  5
2BF
100
AcDbEntity
  8
0
100
AcDbSpline
 62
7
  6
BYLAYER
 70
0
 71
3
 72
20
 73
16
 74
0
 42
0.0000001
 43
0.0000001
 44
0.0000000001
 40
0.0
 40
0.0
 40
0.0
 40
0.0
 40
0.043398927
 40
0.0895430795
 40
0.1393562262
 40
0.193323327
 40
0.25154104
 40
0.3137913487
 40
0.3796114226
 40
0.4483531306
 40
0.5912622115
 40
0.7355410189
 40
0.8738420786
 40
0.938784809
 40
1.0
 40
1.0
 40
1.0
 40
1.0
 10
55.074380395
 20
120.7551376738
 30
0.0
 10
55.2170843451
 20
120.8007257486
 30
0.0
 10
55.5237418002
 20
120.8593938752
 30
0.0
 10
56.0076131151
 20
120.8471622737
 30
0.0
 10
56.5163210819
 20
120.7391386787
 30
0.0
 10
57.0403235259
 20
120.5384535251
 30
0.0
 10
57.5703515601
 20
120.2495063337
 30
0.0
 10
58.0967191438
 20
119.8779515449
 30
0.0
 10
58.6097082369
 20
119.4308644627
 30
0.0
 10
59.2711650218
 20
118.7366356606
 30
0.0
 10
60.0003213968
 20
117.7400896512
 30
0.0
 10
60.6731588255
 20
116.4282489893
 30
0.0
 10
61.0425872853
 20
115.2795853148
 30
0.0
 10
61.1949336926
 20
114.3782314376
 30
0.0
 10
61.2219811418
 20
113.942453968
 30
0.0
 10
61.2219811418
 20
113.7311451252
 30
0.0
  0
SPLINE
  5
2C0
100
AcDbEntity
  8
0
100
AcDbSpline
 62
7
  6
BYLAYER
 70
0
 71
3
 72
11
 73
7
 74
0
 42
0.0000001
 43
0.0000001
 44
0.0000000001
 40
0.0
 40
0.0
 40
0.0
 40
0.0
 40
0.2439001713
 40
0.4874887407
 40
0.7375410257
 40
1.0
 40
1.0
 40
1.0
 40
1.0
 10
53.468146557
 20
120.2418803921
 30
0.0
 10
53.3415518514
 20
120.2014386759
 30
0.0
 10
53.0958390359
 20
120.0948136859
 30
0.0
 10
52.7662854673
 20
119.8599465884
 30
0.0
 10
52.4843926532
 20
119.5559248818
 30
0.0
 10
52.335330963
 20
119.3177574741
 30
0.0
 10
52.2695031105
 20
119.1907986792
 30
0.0
  0
SPLINE
  5
2C1
100
AcDbEntity
  8
0
100
AcDbSpline
 62
7
  6
BYLAYER
 70
0
 71
3
 72
21
 73
17
 74
0
 42
0.0000001
 43
0.0000001
 44
0.0000000001
 40
0.0
 40
0.0
 40
0.0
 40
0.0
 40
0.0428838069
 40
0.0878696676
 40
0.1362360191
 40
0.1887663141
 40
0.2457668335
 40
0.3071449697
 40
0.3724966203
 40
0.4411826243
 40
0.5850608726
 40
0.7313007507
 40
0.8028370659
 40
0.8719907186
 40
0.9379439683
 40
1.0
 40
1.0
 40
1.0
 40
1.0
 10
51.8504779992
 20
119.0202795859
 30
0.0
 10
51.9884813974
 20
119.0885714417
 30
0.0
 10
52.2903909282
 20
119.1925218087
 30
0.0
 10
52.7813069337
 20
119.2382521685
 30
0.0
 10
53.3048722264
 20
119.1775245236
 30
0.0
 10
53.8501031688
 20
119.0133963456
 30
0.0
 10
54.4066430477
 20
118.7503090323
 30
0.0
 10
54.9636757898
 20
118.3940292098
 30
0.0
 10
55.5102297471
 20
117.9519528702
 30
0.0
 10
56.2208831475
 20
117.2495256345
 30
0.0
 10
57.008476812
 20
116.2213348359
 30
0.0
 10
57.6220862562
 20
115.0697530752
 30
0.0
 10
57.9868405917
 20
114.1050317045
 30
0.0
 10
58.1859239738
 20
113.3890894459
 30
0.0
 10
58.3082559914
 20
112.6906568025
 30
0.0
 10
58.337964286
 20
112.2307328812
 30
0.0
 10
58.337964286
 20
112.0079177493
 30
0.0
  0
SPLINE
  5
2C2
100
AcDbEntity
  8
0
100
AcDbSpline
 62
7
  6
BYLAYER
 70
0
 71
3
 72
9
 73
5
 74
0
 42
0.0000001
 43
0.0000001
 44
0.0000000001
 40
0.0
 40
0.0
 40
0.0
 40
0.0
 40
0.4941587218
 40
1.0
 40
1.0
 40
1.0
 40
1.0
 10
50.3126094445
 20
118.2593898816
 30
0.0
 10
50.1876679049
 20
118.1975620288
 30
0.0
 10
49.9482378892
 20
118.0432588419
 30
0.0
 10
49.7494641106
 20
117.8396523294
 30
0.0
 10
49.6605175912
 20
117.7280669538
 30
0.0
  0
SPLINE
  5
2C3
100
AcDbEntity
  8
0
100
AcDbSpline
 62
7
  6
BYLAYER
 70
0
 71
3
 72
13
 73
9
 74
0
 42
0.0000001
 43
0.0000001
 44
0.0000000001
 40
0.0
 40
0.0
 40
0.0
 40
0.0
 40
0.2551324988
 40
0.3848505625
 40
0.514245849
 40
0.6419364661
 40
0.7664881049
 40
1.0
 40
1.0
 40
1.0
 40
1.0
 10
44.3859818311
 20
115.105903024
 30
0.0
 10
44.0220043262
 20
114.7010725544
 30
0.0
 10
43.4153382916
 20
114.1380562523
 30
0.0
 10
42.5084327828
 20
113.5179631053
 30
0.0
 10
41.7826611163
 20
113.1217418686
 30
0.0
 10
41.0295718377
 20
112.8078853971
 30
0.0
 10
40.036397283
 20
112.5071062804
 30
0.0
 10
39.274422529
 20
112.3946230866
 30
0.0
 10
38.7767904953
 20
112.3695612737
 30
0.0
  0
SPLINE
  5
2C4
100
AcDbEntity
  8
0
100
AcDbSpline
 62
7
  6
BYLAYER
 70
0
 71
3
 72
21
 73
17
 74
0
 42
0.0000001
 43
0.0000001
 44
0.0000000001
 40
0.0
 40
0.0
 40
0.0
 40
0.0
 40
0.0428838569
 40
0.0878697206
 40
0.1362360619
 40
0.188766326
 40
0.2457667963
 40
0.3071448717
 40
0.3724964617
 40
0.4411824211
 40
0.5850606465
 40
0.7313007046
 40
0.8028370244
 40
0.871990694
 40
0.9379439668
 40
1.0
 40
1.0
 40
1.0
 40
1.0
 10
48.7747405705
 20
117.4985007771
 30
0.0
 10
48.9183077865
 20
117.569545931
 30
0.0
 10
49.2323890586
 20
117.6776872799
 30
0.0
 10
49.7430966956
 20
117.7252611093
 30
0.0
 10
50.2877695459
 20
117.662085208
 30
0.0
 10
50.8549812995
 20
117.4913401198
 30
0.0
 10
51.4339577888
 20
117.2176465917
 30
0.0
 10
52.0134470189
 20
116.8470036754
 30
0.0
 10
52.5820351035
 20
116.3871053994
 30
0.0
 10
53.3213385368
 20
115.656360055
 30
0.0
 10
54.1406848353
 20
114.5867172805
 30
0.0
 10
54.7790326396
 20
113.3887086676
 30
0.0
 10
55.1584925148
 20
112.3850935544
 30
0.0
 10
55.3656020319
 20
111.6402876777
 30
0.0
 10
55.4928660145
 20
110.9136973478
 30
0.0
 10
55.5237719814
 20
110.4352313437
 30
0.0
 10
55.5237719814
 20
110.2034333394
 30
0.0
  0
SPLINE
  5
2C5
100
AcDbEntity
  8
0
100
AcDbSpline
 62
7
  6
BYLAYER
 70
0
 71
3
 72
9
 73
5
 74
0
 42
0.0000001
 43
0.0000001
 44
0.0000000001
 40
0.0
 40
0.0
 40
0.0
 40
0.0
 40
0.4947901035
 40
1.0
 40
1.0
 40
1.0
 40
1.0
 10
47.2368719805
 20
116.7376111345
 30
0.0
 10
47.1132093156
 20
116.6764161172
 30
0.0
 10
46.8759097081
 20
116.5253337171
 30
0.0
 10
46.6763673755
 20
116.32738296
 30
0.0
 10
46.5864008966
 20
116.2189690623
 30
0.0
  0
SPLINE
  5
2C6
100
AcDbEntity
  8
0
100
AcDbSpline
 62
7
  6
BYLAYER
 70
0
 71
3
 72
22
 73
18
 74
0
 42
0.0000001
 43
0.0000001
 44
0.0000000001
 40
0.0
 40
0.0
 40
0.0
 40
0.0
 40
0.0428208332
 40
0.08740926
 40
0.135198976
 40
0.1871156174
 40
0.2435699937
 40
0.3045354027
 40
0.3696414828
 40
0.4382580381
 40
0.5095647979
 40
0.5826103116
 40
0.7296270868
 40
0.8016252558
 40
0.8712354093
 40
0.9376017549
 40
1.0
 40
1.0
 40
1.0
 40
1.0
 10
45.5876554849
 20
115.9171096666
 30
0.0
 10
45.7331161918
 20
116.0010909697
 30
0.0
 10
46.0537577861
 20
116.134363912
 30
0.0
 10
46.5830495948
 20
116.211937889
 30
0.0
 10
47.1514232644
 20
116.170101465
 30
0.0
 10
47.7462590963
 20
116.0120506737
 30
0.0
 10
48.3558753356
 20
115.742618419
 30
0.0
 10
48.968137444
 20
115.3680346024
 30
0.0
 10
49.5706168764
 20
114.8963632672
 30
0.0
 10
50.1507838409
 20
114.3376164887
 30
0.0
 10
50.6965186524
 20
113.7035547024
 30
0.0
 10
51.3636401965
 20
112.7743081298
 30
0.0
 10
51.9120993269
 20
111.7609022157
 30
0.0
 10
52.3180895732
 20
110.7028731968
 30
0.0
 10
52.5399781132
 20
109.9164842109
 30
0.0
 10
52.6764018599
 20
109.1491178519
 30
0.0
 10
52.7095796768
 20
108.6437040066
 30
0.0
 10
52.7095796768
 20
108.3989489294
 30
0.0
  0
SPLINE
  5
2C7
100
AcDbEntity
  8
0
100
AcDbSpline
 62
7
  6
BYLAYER
 70
0
 71
3
 72
9
 73
5
 74
0
 42
0.0000001
 43
0.0000001
 44
0.0000000001
 40
0.0
 40
0.0
 40
0.0
 40
0.0
 40
0.4957974969
 40
1.0
 40
1.0
 40
1.0
 40
1.0
 10
44.8805492268
 20
115.5088696422
 30
0.0
 10
44.7889568609
 20
115.455988927
 30
0.0
 10
44.6125767374
 20
115.3341628169
 30
0.0
 10
44.4578941754
 20
115.1858801066
 30
0.0
 10
44.3859906365
 20
115.1058934038
 30
0.0
  0
SPLINE
  5
2C8
100
AcDbEntity
  8
0
100
AcDbSpline
 62
7
  6
BYLAYER
 70
0
 71
3
 72
13
 73
9
 74
0
 42
0.0000001
 43
0.0000001
 44
0.0000000001
 40
0.0
 40
0.0
 40
0.0
 40
0.0
 40
0.2335118309
 40
0.3580635881
 40
0.485754112
 40
0.615149401
 40
0.7448674777
 40
1.0
 40
1.0
 40
1.0
 40
1.0
 10
45.0098881138
 20
101.5734543868
 30
0.0
 10
45.280410377
 20
101.9918839856
 30
0.0
 10
45.7588144997
 20
102.5955293213
 30
0.0
 10
46.5158874353
 20
103.305250587
 30
0.0
 10
47.1642425084
 20
103.8005133806
 30
0.0
 10
47.8702681461
 20
104.23093567
 30
0.0
 10
48.8607397277
 20
104.7062876148
 30
0.0
 10
49.6516606049
 20
104.9501634728
 30
0.0
 10
50.1842434864
 20
105.0629592726
 30
0.0
  0
SPLINE
  5
2C9
100
AcDbEntity
  8
0
100
AcDbSpline
 62
7
  6
BYLAYER
 70
0
 71
3
 72
9
 73
5
 74
0
 42
0.0000001
 43
0.0000001
 44
0.0000000001
 40
0.0
 40
0.0
 40
0.0
 40
0.0
 40
0.5096722059
 40
1.0
 40
1.0
 40
1.0
 40
1.0
 10
45.0098817447
 20
101.573458875
 30
0.0
 10
44.9079790572
 20
101.4157740276
 30
0.0
 10
44.6747216083
 20
101.1260510727
 30
0.0
 10
44.3780203812
 20
100.9005078513
 30
0.0
 10
44.221598363
 20
100.8101978333
 30
0.0
  0
SPLINE
  5
2CA
100
AcDbEntity
  8
0
100
AcDbSpline
 62
7
  6
BYLAYER
 70
0
 71
3
 72
13
 73
9
 74
0
 42
0.0000001
 43
0.0000001
 44
0.0000000001
 40
0.0
 40
0.0
 40
0.0
 40
0.0
 40
0.2894100367
 40
0.5482916441
 40
0.6677449052
 40
0.7817710394
 40
0.8919039238
 40
1.0
 40
1.0
 40
1.0
 40
1.0
 10
36.7997403955
 20
99.6216979215
 30
0.0
 10
36.7997403955
 20
99.3479866361
 30
0.0
 10
36.7585399262
 20
98.8278707982
 30
0.0
 10
36.5777603387
 20
98.2160231736
 30
0.0
 10
36.3584565838
 20
97.8036353802
 30
0.0
 10
36.1649995602
 20
97.5409148483
 30
0.0
 10
35.9401001803
 20
97.3195449315
 30
0.0
 10
35.7698628332
 20
97.2007854795
 30
0.0
 10
35.6813268121
 20
97.1496693359
 30
0.0
  0
SPLINE
  5
2CB
100
AcDbEntity
  8
0
100
AcDbSpline
 62
7
  6
BYLAYER
 70
0
 71
3
 72
14
 73
10
 74
0
 42
0.0000001
 43
0.0000001
 44
0.0000000001
 40
0.0
 40
0.0
 40
0.0
 40
0.0
 40
0.1080464259
 40
0.2181288953
 40
0.3321032272
 40
0.4515021688
 40
0.5774503615
 40
0.7107175257
 40
1.0
 40
1.0
 40
1.0
 40
1.0
 10
31.3851493682
 20
93.9764683511
 30
0.0
 10
31.4835218984
 20
94.0332631543
 30
0.0
 10
31.672671662
 20
94.1652171675
 30
0.0
 10
31.922561708
 20
94.4111819582
 30
0.0
 10
32.1375035354
 20
94.7030846301
 30
0.0
 10
32.3154474096
 20
95.0376621308
 30
0.0
 10
32.4550849082
 20
95.4115374858
 30
0.0
 10
32.5923264777
 20
95.972624889
 30
0.0
 10
32.6278312887
 20
96.4190403115
 30
0.0
 10
32.6278312887
 20
96.7231664686
 30
0.0
  0
SPLINE
  5
2CC
100
AcDbEntity
  8
0
100
AcDbSpline
 62
7
  6
BYLAYER
 70
0
 71
3
 72
21
 73
17
 74
0
 42
0.0000001
 43
0.0000001
 44
0.0000000001
 40
0.0
 40
0.0
 40
0.0
 40
0.0
 40
0.0428267515
 40
0.0874214816
 40
0.1352179808
 40
0.1871420384
 40
0.2436045163
 40
0.3045786886
 40
0.3696941239
 40
0.4383205092
 40
0.582551635
 40
0.7295888699
 40
0.8015972437
 40
0.8712172361
 40
0.937592925
 40
1.0
 40
1.0
 40
1.0
 40
1.0
 10
30.2813689474
 20
106.5027266559
 30
0.0
 10
30.4145019223
 20
106.5795907863
 30
0.0
 10
30.7079702038
 20
106.7015685992
 30
0.0
 10
31.1924060049
 20
106.7725691637
 30
0.0
 10
31.7126127962
 20
106.7342784945
 30
0.0
 10
32.2570390681
 20
106.5896220245
 30
0.0
 10
32.8149956834
 20
106.3430224396
 30
0.0
 10
33.3753645709
 20
106.0001826658
 30
0.0
 10
33.9268186251
 20
105.5684806501
 30
0.0
 10
34.64646018
 20
104.8752535375
 30
0.0
 10
35.445967876
 20
103.8513668168
 30
0.0
 10
36.0697928432
 20
102.6988480554
 30
0.0
 10
36.4414368554
 20
101.7303536755
 30
0.0
 10
36.6445097223
 20
101.0106328851
 30
0.0
 10
36.7693748386
 20
100.3082915932
 30
0.0
 10
36.7997403955
 20
99.8457110014
 30
0.0
 10
36.7997403955
 20
99.6216979215
 30
0.0
  0
SPLINE
  5
2CD
100
AcDbEntity
  8
0
100
AcDbSpline
 62
7
  6
BYLAYER
 70
0
 71
3
 72
21
 73
17
 74
0
 42
0.0000001
 43
0.0000001
 44
0.0000000001
 40
0.0
 40
0.0
 40
0.0
 40
0.0
 40
0.0620553637
 40
0.1280076108
 40
0.1971610879
 40
0.2686974357
 40
0.4149389991
 40
0.558819446
 40
0.6275061953
 40
0.6928581668
 40
0.754236204
 40
0.811236273
 40
0.8637659047
 40
0.9121315243
 40
0.9571166921
 40
1.0
 40
1.0
 40
1.0
 40
1.0
 10
54.1166758291
 20
109.3011911344
 30
0.0
 10
54.1166758291
 20
109.5374780265
 30
0.0
 10
54.0851729
 20
110.0252086644
 30
0.0
 10
53.9554443272
 20
110.7658707064
 30
0.0
 10
53.7443255679
 20
111.5251046433
 30
0.0
 10
53.3575127516
 20
112.5481716886
 30
0.0
 10
52.7067914205
 20
113.7694074882
 30
0.0
 10
51.8715566787
 20
114.859788874
 30
0.0
 10
51.117916815
 20
115.6047004926
 30
0.0
 10
50.538306262
 20
116.0735104705
 30
0.0
 10
49.9475866403
 20
116.4513318788
 30
0.0
 10
49.357393113
 20
116.73032231
 30
0.0
 10
48.7791959611
 20
116.9043696866
 30
0.0
 10
48.2239767927
 20
116.9687655923
 30
0.0
 10
47.703381041
 20
116.920268649
 30
0.0
 10
47.3832192691
 20
116.8100317383
 30
0.0
 10
47.2368719805
 20
116.7376111345
 30
0.0
  0
SPLINE
  5
2CE
100
AcDbEntity
  8
0
100
AcDbSpline
 62
7
  6
BYLAYER
 70
0
 71
3
 72
18
 73
14
 74
0
 42
0.0000001
 43
0.0000001
 44
0.0000000001
 40
0.0
 40
0.0
 40
0.0
 40
0.0
 40
0.0436433294
 40
0.090173965
 40
0.1404225739
 40
0.1948019064
 40
0.2533600306
 40
0.3158490074
 40
0.4504056564
 40
0.593048943
 40
0.7367976321
 40
0.8745004429
 40
1.0
 40
1.0
 40
1.0
 40
1.0
 10
51.1450324286
 20
117.3368156591
 30
0.0
 10
51.2627258836
 20
117.3691449367
 30
0.0
 10
51.5144360301
 20
117.4073203575
 30
0.0
 10
51.9087678617
 20
117.3849633139
 30
0.0
 10
52.3218426656
 20
117.286467929
 30
0.0
 10
52.7461045155
 20
117.1144020436
 30
0.0
 10
53.1742158557
 20
116.8723485911
 30
0.0
 10
53.7539660771
 20
116.4521099131
 30
0.0
 10
54.4342054576
 20
115.7805397481
 30
0.0
 10
55.1263106341
 20
114.8225164066
 30
0.0
 10
55.6652333206
 20
113.7602342625
 30
0.0
 10
56.0119314814
 20
112.6711378272
 30
0.0
 10
56.1036692635
 20
111.9342204408
 30
0.0
 10
56.1036692635
 20
111.5832482306
 30
0.0
  0
SPLINE
  5
2CF
100
AcDbEntity
  8
0
100
AcDbSpline
 62
7
  6
BYLAYER
 70
0
 71
3
 72
22
 73
18
 74
0
 42
0.0000001
 43
0.0000001
 44
0.0000000001
 40
0.0
 40
0.0
 40
0.0
 40
0.0
 40
0.0623975638
 40
0.1287629181
 40
0.1983729258
 40
0.2703711918
 40
0.4173896144
 40
0.4904363093
 40
0.5617441366
 40
0.6303614243
 40
0.6954678124
 40
0.7564331261
 40
0.8128870633
 40
0.8648030103
 40
0.9125919595
 40
0.9571796897
 40
1.0
 40
1.0
 40
1.0
 40
1.0
 10
32.6278312887
 20
96.7231664686
 30
0.0
 10
32.6278312887
 20
96.9720672264
 30
0.0
 10
32.5940930851
 20
97.4860408384
 30
0.0
 10
32.4553585023
 20
98.266406303
 30
0.0
 10
32.2297130005
 20
99.0661206823
 30
0.0
 10
31.8168406669
 20
100.142088971
 30
0.0
 10
31.2590813995
 20
101.1726824582
 30
0.0
 10
30.5806428661
 20
102.1176911811
 30
0.0
 10
30.0256488264
 20
102.762507406
 30
0.0
 10
29.4356404231
 20
103.330728262
 30
0.0
 10
28.8229443209
 20
103.8103936597
 30
0.0
 10
28.2003034222
 20
104.1913223359
 30
0.0
 10
27.5803571502
 20
104.4653148081
 30
0.0
 10
26.9754452428
 20
104.6260370857
 30
0.0
 10
26.3974466298
 20
104.6685778401
 30
0.0
 10
25.8591918973
 20
104.589688398
 30
0.0
 10
25.5331210316
 20
104.4541569964
 30
0.0
 10
25.3851965075
 20
104.3687536403
 30
0.0
  0
SPLINE
  5
2D0
100
AcDbEntity
  8
0
100
AcDbSpline
 62
7
  6
BYLAYER
 70
0
 71
3
 72
12
 73
8
 74
0
 42
0.0000001
 43
0.0000001
 44
0.0000000001
 40
0.0
 40
0.0
 40
0.0
 40
0.0
 40
0.2895862536
 40
0.54863211
 40
0.7816377717
 40
0.8918381364
 40
1.0
 40
1.0
 40
1.0
 40
1.0
 10
32.0974989949
 20
97.0293470345
 30
0.0
 10
32.0974989949
 20
96.7632410431
 30
0.0
 10
32.0571880257
 20
96.2572851087
 30
0.0
 10
31.8525910964
 20
95.5625387547
 30
0.0
 10
31.5586197422
 20
95.0831786551
 30
0.0
 10
31.2617205662
 20
94.7911864061
 30
0.0
 10
31.0962344618
 20
94.6756714992
 30
0.0
 10
31.0101537433
 20
94.6259839334
 30
0.0
  0
SPLINE
  5
2D1
100
AcDbEntity
  8
0
100
AcDbSpline
 62
7
  6
BYLAYER
 70
0
 71
3
 72
10
 73
6
 74
0
 42
0.0000001
 43
0.0000001
 44
0.0000000001
 40
0.0
 40
0.0
 40
0.0
 40
0.0
 40
0.2773552265
 40
0.5362578185
 40
1.0
 40
1.0
 40
1.0
 40
1.0
 10
53.1373686959
 20
109.8665815805
 30
0.0
 10
53.1373686959
 20
109.7206906164
 30
0.0
 10
53.1224351077
 20
109.4380682172
 30
0.0
 10
53.0306111841
 20
108.9198162755
 30
0.0
 10
52.885250109
 20
108.558799835
 30
0.0
 10
52.7512125385
 20
108.3549942582
 30
0.0
  0
SPLINE
  5
2D2
100
AcDbEntity
  8
0
100
AcDbSpline
 62
7
  6
BYLAYER
 70
0
 71
3
 72
21
 73
17
 74
0
 42
0.0000001
 43
0.0000001
 44
0.0000000001
 40
0.0
 40
0.0
 40
0.0
 40
0.0
 40
0.0624038887
 40
0.12878254
 40
0.1984004999
 40
0.2704091321
 40
0.4174476262
 40
0.5616806752
 40
0.6303082944
 40
0.6954245639
 40
0.7563984237
 40
0.8128598946
 40
0.8647830586
 40
0.9125791482
 40
0.9571735318
 40
1.0
 40
1.0
 40
1.0
 40
1.0
 10
31.0368432391
 20
96.4169808037
 30
0.0
 10
31.0368432391
 20
96.6347601196
 30
0.0
 10
31.0073135784
 20
97.0844894959
 30
0.0
 10
30.8859320856
 20
97.7673157698
 30
0.0
 10
30.6884925887
 20
98.4670464305
 30
0.0
 10
30.3271872648
 20
99.408641563
 30
0.0
 10
29.7206727549
 20
100.5291514268
 30
0.0
 10
28.9433626322
 20
101.5246052229
 30
0.0
 10
28.2437096078
 20
102.1985940533
 30
0.0
 10
27.7075703175
 20
102.6183105209
 30
0.0
 10
27.162761056
 20
102.9516143113
 30
0.0
 10
26.6203044811
 20
103.1913463824
 30
0.0
 10
26.0910078432
 20
103.3319765238
 30
0.0
 10
25.5852606827
 20
103.3692131578
 30
0.0
 10
25.1142768092
 20
103.3002059914
 30
0.0
 10
24.8289773678
 20
103.1815881606
 30
0.0
 10
24.6995362824
 20
103.1068720268
 30
0.0
  0
SPLINE
  5
2D3
100
AcDbEntity
  8
0
100
AcDbSpline
 62
7
  6
BYLAYER
 70
0
 71
3
 72
12
 73
8
 74
0
 42
0.0000001
 43
0.0000001
 44
0.0000000001
 40
0.0
 40
0.0
 40
0.0
 40
0.0
 40
0.2895861248
 40
0.5486318839
 40
0.7816378435
 40
0.8918382663
 40
1.0
 40
1.0
 40
1.0
 40
1.0
 10
30.753999349
 20
96.5802771055
 30
0.0
 10
30.753999349
 20
96.334445964
 30
0.0
 10
30.7167597672
 20
95.8670392345
 30
0.0
 10
30.5277511676
 20
95.2252258835
 30
0.0
 10
30.2561775906
 20
94.7823881988
 30
0.0
 10
29.9818991134
 20
94.5126428839
 30
0.0
 10
29.8290215379
 20
94.4059291488
 30
0.0
 10
29.7494994857
 20
94.3600272874
 30
0.0
  0
SPLINE
  5
2D4
100
AcDbEntity
  8
0
100
AcDbSpline
 62
7
  6
BYLAYER
 70
0
 71
3
 72
21
 73
17
 74
0
 42
0.0000001
 43
0.0000001
 44
0.0000000001
 40
0.0
 40
0.0
 40
0.0
 40
0.0
 40
0.0624038463
 40
0.128782391
 40
0.198400354
 40
0.2704090457
 40
0.4174473336
 40
0.5616804467
 40
0.6303081079
 40
0.6954243998
 40
0.7563982701
 40
0.8128597592
 40
0.8647829627
 40
0.9125791215
 40
0.9571735715
 40
1.0
 40
1.0
 40
1.0
 40
1.0
 10
30.4004474304
 20
96.3761550286
 30
0.0
 10
30.4004474304
 20
96.5773414979
 30
0.0
 10
30.3731677567
 20
96.9928053011
 30
0.0
 10
30.2610345387
 20
97.6236062668
 30
0.0
 10
30.0786381639
 20
98.2700239994
 30
0.0
 10
29.7448611559
 20
99.1398781621
 30
0.0
 10
29.1845578407
 20
100.1750158335
 30
0.0
 10
28.4664716672
 20
101.0946253936
 30
0.0
 10
27.8201253975
 20
101.7172631349
 30
0.0
 10
27.3248347755
 20
102.1050015423
 30
0.0
 10
26.8215347742
 20
102.4129110526
 30
0.0
 10
26.3204080745
 20
102.6343780313
 30
0.0
 10
25.8314384486
 20
102.7642937657
 30
0.0
 10
25.3642238315
 20
102.7986934483
 30
0.0
 10
24.9291241501
 20
102.734943943
 30
0.0
 10
24.665561645
 20
102.6253637986
 30
0.0
 10
24.5459828801
 20
102.5563403319
 30
0.0
  0
SPLINE
  5
2D5
100
AcDbEntity
  8
0
100
AcDbSpline
 62
7
  6
BYLAYER
 70
0
 71
3
 72
21
 73
17
 74
0
 42
0.0000001
 43
0.0000001
 44
0.0000000001
 40
0.0
 40
0.0
 40
0.0
 40
0.0
 40
0.0612068492
 40
0.1261408856
 40
0.1941685057
 40
0.2645579857
 40
0.4088172748
 40
0.5517088462
 40
0.6204416976
 40
0.6862528968
 40
0.7484945097
 40
0.8067039423
 40
0.8606633131
 40
0.9104693476
 40
0.9566070184
 40
1.0
 40
1.0
 40
1.0
 40
1.0
 10
60.0281035088
 20
112.7467486582
 30
0.0
 10
60.0281035088
 20
112.9722307391
 30
0.0
 10
59.9992271553
 20
113.4372135228
 30
0.0
 10
59.8799253228
 20
114.1435985497
 30
0.0
 10
59.6854793317
 20
114.8681803648
 30
0.0
 10
59.328296292
 20
115.8475245051
 30
0.0
 10
58.7243539664
 20
117.024820288
 30
0.0
 10
57.9464410403
 20
118.0879695188
 30
0.0
 10
57.2405901765
 20
118.8287987297
 30
0.0
 10
56.6931938226
 20
119.30586673
 30
0.0
 10
56.13151997
 20
119.7023413938
 30
0.0
 10
55.5659435354
 20
120.0106658265
 30
0.0
 10
55.0067974762
 20
120.2248091141
 30
0.0
 10
54.4639716687
 20
120.3400764272
 30
0.0
 10
53.9476475403
 20
120.3531280973
 30
0.0
 10
53.6204220995
 20
120.290526062
 30
0.0
 10
53.468146557
 20
120.2418803921
 30
0.0
  0
SPLINE
  5
2D6
100
AcDbEntity
  8
0
100
AcDbSpline
 62
7
  6
BYLAYER
 70
0
 71
3
 72
21
 73
17
 74
0
 42
0.0000001
 43
0.0000001
 44
0.0000000001
 40
0.0
 40
0.0
 40
0.0
 40
0.0
 40
0.0428268398
 40
0.0874219158
 40
0.1352187979
 40
0.1871426031
 40
0.2436044423
 40
0.3045783314
 40
0.3696941907
 40
0.438320929
 40
0.582551635
 40
0.729588649
 40
0.8015974791
 40
0.8712157939
 40
0.9375955276
 40
1.0
 40
1.0
 40
1.0
 40
1.0
 10
24.8995348784
 20
102.7604622425
 30
0.0
 10
25.0191147892
 20
102.8294863727
 30
0.0
 10
25.2826804375
 20
102.9390679146
 30
0.0
 10
25.7177862293
 20
103.0028164004
 30
0.0
 10
26.1850069167
 20
102.9684127722
 30
0.0
 10
26.6739809586
 20
102.8384927181
 30
0.0
 10
27.1751092533
 20
102.6170215695
 30
0.0
 10
27.6784072605
 20
102.3091092255
 30
0.0
 10
28.1736926585
 20
101.9213712609
 30
0.0
 10
28.8200290084
 20
101.2987407839
 30
0.0
 10
29.5381047744
 20
100.3791423469
 30
0.0
 10
30.0984053842
 20
99.3440164062
 30
0.0
 10
30.4321833493
 20
98.474165344
 30
0.0
 10
30.6145834511
 20
97.827742998
 30
0.0
 10
30.7267178803
 20
97.1969351547
 30
0.0
 10
30.753999349
 20
96.7814655907
 30
0.0
 10
30.753999349
 20
96.5802771055
 30
0.0
  0
SPLINE
  5
2D7
100
AcDbEntity
  8
0
100
AcDbSpline
 62
7
  6
BYLAYER
 70
0
 71
3
 72
11
 73
7
 74
0
 42
0.0000001
 43
0.0000001
 44
0.0000000001
 40
0.0
 40
0.0
 40
0.0
 40
0.0
 40
0.2190038667
 40
0.4554937643
 40
0.7151323472
 40
1.0
 40
1.0
 40
1.0
 40
1.0
 10
59.1732415398
 20
110.3603074093
 30
0.0
 10
59.3138703356
 20
110.4881906336
 30
0.0
 10
59.5688633508
 20
110.7974686474
 30
0.0
 10
59.8361638087
 20
111.3631398792
 30
0.0
 10
59.9960266849
 20
112.0258363398
 30
0.0
 10
60.0281035088
 20
112.4995029255
 30
0.0
 10
60.0281035088
 20
112.7467486582
 30
0.0
  0
SPLINE
  5
2D8
100
AcDbEntity
  8
0
100
AcDbSpline
 62
7
  6
BYLAYER
 70
0
 71
3
 72
17
 73
13
 74
0
 42
0.0000001
 43
0.0000001
 44
0.0000000001
 40
0.0
 40
0.0
 40
0.0
 40
0.0
 40
0.0446735287
 40
0.0925926811
 40
0.1443037311
 40
0.20000331
 40
0.3226033878
 40
0.4573873421
 40
0.5989114814
 40
0.7407022927
 40
0.8762494815
 40
1.0
 40
1.0
 40
1.0
 40
1.0
 10
48.388805564
 20
115.6703321571
 30
0.0
 10
48.5095235372
 20
115.6865112595
 30
0.0
 10
48.7638175877
 20
115.6931737462
 30
0.0
 10
49.1541207265
 20
115.6313211642
 30
0.0
 10
49.5583687697
 20
115.5000558164
 30
0.0
 10
50.1247426346
 20
115.2273178715
 30
0.0
 10
50.8215748141
 20
114.7224908679
 30
0.0
 10
51.5760671614
 20
113.9327342881
 30
0.0
 10
52.2268530593
 20
112.9913795443
 30
0.0
 10
52.7301979129
 20
111.9612769465
 30
0.0
 10
53.0526623724
 20
110.9117224549
 30
0.0
 10
53.1373686959
 20
110.2039734232
 30
0.0
 10
53.1373686959
 20
109.8665815805
 30
0.0
  0
SPLINE
  5
2D9
100
AcDbEntity
  8
0
100
AcDbSpline
 62
7
  6
BYLAYER
 70
0
 71
3
 72
11
 73
7
 74
0
 42
0.0000001
 43
0.0000001
 44
0.0000000001
 40
0.0
 40
0.0
 40
0.0
 40
0.0
 40
0.2766380718
 40
0.5350416783
 40
0.7755041948
 40
1.0
 40
1.0
 40
1.0
 40
1.0
 10
45.5678344537
 20
103.7857920303
 30
0.0
 10
45.5678344537
 20
103.5727227251
 30
0.0
 10
45.5463975868
 20
103.1601508904
 30
0.0
 10
45.4426990057
 20
102.5702033973
 30
0.0
 10
45.2695191504
 20
102.038567638
 30
0.0
 10
45.1037311335
 20
101.7186819984
 30
0.0
 10
45.0098817447
 20
101.573458875
 30
0.0
  0
SPLINE
  5
2DA
100
AcDbEntity
  8
0
100
AcDbSpline
 62
7
  6
BYLAYER
 70
0
 71
3
 72
14
 73
10
 74
0
 42
0.0000001
 43
0.0000001
 44
0.0000000001
 40
0.0
 40
0.0
 40
0.0
 40
0.0
 40
0.1080477551
 40
0.2181302611
 40
0.3321028304
 40
0.451503086
 40
0.5774542011
 40
0.7107167512
 40
1.0
 40
1.0
 40
1.0
 40
1.0
 10
36.6063251235
 20
95.547515652
 30
0.0
 10
36.7251889105
 20
95.6161514509
 30
0.0
 10
36.9537403515
 20
95.7756039687
 30
0.0
 10
37.2556936482
 20
96.0728064587
 30
0.0
 10
37.5154293936
 20
96.4255127973
 30
0.0
 10
37.7304241613
 20
96.8298091143
 30
0.0
 10
37.8991630297
 20
97.2815701158
 30
0.0
 10
38.0649885339
 20
97.9595526513
 30
0.0
 10
38.1078933871
 20
98.498965585
 30
0.0
 10
38.1078933871
 20
98.8664525256
 30
0.0
  0
SPLINE
  5
2DB
100
AcDbEntity
  8
0
100
AcDbSpline
 62
7
  6
BYLAYER
 70
0
 71
3
 72
12
 73
8
 74
0
 42
0.0000001
 43
0.0000001
 44
0.0000000001
 40
0.0
 40
0.0
 40
0.0
 40
0.0
 40
0.1081602919
 40
0.2183596962
 40
0.4513646818
 40
0.7104117368
 40
1.0
 40
1.0
 40
1.0
 40
1.0
 10
29.3959476468
 20
94.1559050441
 30
0.0
 10
29.4754686347
 20
94.2018062897
 30
0.0
 10
29.6283435555
 20
94.3085200213
 30
0.0
 10
29.9026222459
 20
94.5782606667
 30
0.0
 10
30.1741967004
 20
95.0210975343
 30
0.0
 10
30.3632069702
 20
95.6629124313
 30
0.0
 10
30.4004474304
 20
96.1303220872
 30
0.0
 10
30.4004474304
 20
96.3761550286
 30
0.0
  0
SPLINE
  5
2DC
100
AcDbEntity
  8
0
100
AcDbSpline
 62
7
  6
BYLAYER
 70
0
 71
3
 72
21
 73
17
 74
0
 42
0.0000001
 43
0.0000001
 44
0.0000000001
 40
0.0
 40
0.0
 40
0.0
 40
0.0
 40
0.0614158993
 40
0.1266006378
 40
0.1949056083
 40
0.2655784528
 40
0.410333307
 40
0.5534847077
 40
0.6222177821
 40
0.6879290568
 40
0.7499711855
 40
0.8078933062
 40
0.8615047301
 40
0.9109486709
 40
0.9567779149
 40
1.0
 40
1.0
 40
1.0
 40
1.0
 10
42.7394191049
 20
102.1528154148
 30
0.0
 10
42.7394191049
 20
102.4102456798
 30
0.0
 10
42.7061199676
 20
102.9412368982
 30
0.0
 10
42.56865545
 20
103.7478292748
 30
0.0
 10
42.3446893122
 20
104.5750730436
 30
0.0
 10
41.9335337801
 20
105.6923718818
 30
0.0
 10
41.239185037
 20
107.0332451483
 30
0.0
 10
40.3455867651
 20
108.2408328136
 30
0.0
 10
39.5358552161
 20
109.0783988977
 30
0.0
 10
38.9091525398
 20
109.6148764156
 30
0.0
 10
38.267146233
 20
110.0575955781
 30
0.0
 10
37.6218875467
 20
110.3979378241
 30
0.0
 10
36.9853526918
 20
110.6290774586
 30
0.0
 10
36.3689896468
 20
110.7457159235
 30
0.0
 10
35.7846461192
 20
110.7441129717
 30
0.0
 10
35.4167753072
 20
110.6606272058
 30
0.0
 10
35.246317011
 20
110.5992572721
 30
0.0
  0
SPLINE
  5
2DD
100
AcDbEntity
  8
0
100
AcDbSpline
 62
7
  6
BYLAYER
 70
0
 71
3
 72
12
 73
8
 74
0
 42
0.0000001
 43
0.0000001
 44
0.0000000001
 40
0.0
 40
0.0
 40
0.0
 40
0.0
 40
0.1078950404
 40
0.2183269201
 40
0.4523491731
 40
0.7116815594
 40
1.0
 40
1.0
 40
1.0
 40
1.0
 10
55.8785756325
 20
108.6187961257
 30
0.0
 10
55.9625751022
 20
108.6747549569
 30
0.0
 10
56.1235583674
 20
108.8021449287
 30
0.0
 10
56.4111177838
 20
109.1145772343
 30
0.0
 10
56.6942407333
 20
109.6124071844
 30
0.0
 10
56.8917042661
 20
110.3220106321
 30
0.0
 10
56.9308681337
 20
110.8359633872
 30
0.0
 10
56.9308681337
 20
111.1056755443
 30
0.0
  0
SPLINE
  5
2DE
100
AcDbEntity
  8
0
100
AcDbSpline
 62
7
  6
BYLAYER
 70
0
 71
3
 72
21
 73
17
 74
0
 42
0.0000001
 43
0.0000001
 44
0.0000000001
 40
0.0
 40
0.0
 40
0.0
 40
0.0
 40
0.0428269568
 40
0.0874220301
 40
0.1352188921
 40
0.1871427004
 40
0.2436045645
 40
0.3045784895
 40
0.369694364
 40
0.4383210755
 40
0.5825516645
 40
0.7295886863
 40
0.801597359
 40
0.8712156094
 40
0.9375954441
 40
1.0
 40
1.0
 40
1.0
 40
1.0
 10
25.7601921324
 20
103.719238058
 30
0.0
 10
25.8896347227
 20
103.7939549904
 30
0.0
 10
26.1749380263
 20
103.9125745587
 30
0.0
 10
26.645929273
 20
103.9815801894
 30
0.0
 10
27.1516835031
 20
103.9443389823
 30
0.0
 10
27.6809853157
 20
103.8037037925
 30
0.0
 10
28.2234439181
 20
103.5639667448
 30
0.0
 10
28.768251164
 20
103.2306592621
 30
0.0
 10
29.3043847514
 20
102.8109426614
 30
0.0
 10
30.0040267464
 20
102.1369614109
 30
0.0
 10
30.7813248045
 20
101.1415200761
 30
0.0
 10
31.3878353268
 20
100.0210237533
 30
0.0
 10
31.7491411888
 20
99.0794331356
 30
0.0
 10
31.9465845635
 20
98.3796980361
 30
0.0
 10
32.0679673195
 20
97.6968644064
 30
0.0
 10
32.0974989949
 20
97.2471286754
 30
0.0
 10
32.0974989949
 20
97.0293470345
 30
0.0
  0
SPLINE
  5
2DF
100
AcDbEntity
  8
0
100
AcDbSpline
 62
7
  6
BYLAYER
 70
0
 71
3
 72
22
 73
18
 74
0
 42
0.0000001
 43
0.0000001
 44
0.0000000001
 40
0.0
 40
0.0
 40
0.0
 40
0.0
 40
0.0454830136
 40
0.0943477182
 40
0.1469802548
 40
0.203466059
 40
0.2636430346
 40
0.3271510396
 40
0.3934777354
 40
0.4619975167
 40
0.5320030263
 40
0.6027339974
 40
0.7431364744
 40
0.8113732329
 40
0.877311208
 40
0.9403638159
 40
1.0
 40
1.0
 40
1.0
 40
1.0
 10
38.7767904326
 20
112.369555581
 30
0.0
 10
38.9563916806
 20
112.3785696081
 30
0.0
 10
39.331404762
 20
112.3600832076
 30
0.0
 10
39.9009034719
 20
112.2339392122
 30
0.0
 10
40.4867263962
 20
112.0117703607
 30
0.0
 10
41.0794641567
 20
111.6976177002
 30
0.0
 10
41.6698502272
 20
111.2967859265
 30
0.0
 10
42.2483987634
 20
110.815891718
 30
0.0
 10
42.8057483594
 20
110.2628406079
 30
0.0
 10
43.3327629589
 20
109.646732371
 30
0.0
 10
43.8208291123
 20
108.9776215019
 30
0.0
 10
44.4070502975
 20
108.0323841555
 30
0.0
 10
44.8845659463
 20
107.0307425198
 30
0.0
 10
45.2343264348
 20
106.0020689968
 30
0.0
 10
45.4239168327
 20
105.2446327854
 30
0.0
 10
45.5399215414
 20
104.5069251092
 30
0.0
 10
45.5678344537
 20
104.0215770768
 30
0.0
 10
45.5678344537
 20
103.7857920303
 30
0.0
  0
SPLINE
  5
2E0
100
AcDbEntity
  8
0
100
AcDbSpline
 62
7
  6
BYLAYER
 70
0
 71
3
 72
22
 73
18
 74
0
 42
0.0000001
 43
0.0000001
 44
0.0000000001
 40
0.0
 40
0.0
 40
0.0
 40
0.0
 40
0.0623976819
 40
0.128762917
 40
0.1983724918
 40
0.2703711536
 40
0.4173889175
 40
0.4904347173
 40
0.5617420186
 40
0.630359187
 40
0.6954658273
 40
0.7564316231
 40
0.8128861207
 40
0.8648025704
 40
0.9125918674
 40
0.9571797767
 40
1.0
 40
1.0
 40
1.0
 40
1.0
 10
52.0024758396
 20
107.9907047755
 30
0.0
 10
52.0024758396
 20
108.2354578135
 30
0.0
 10
51.9692997719
 20
108.7408655286
 30
0.0
 10
51.8328779228
 20
109.5082237324
 30
0.0
 10
51.6109946541
 20
110.2946099086
 30
0.0
 10
51.2050030617
 20
111.3526431261
 30
0.0
 10
50.6565438427
 20
112.3660577136
 30
0.0
 10
49.9894185885
 20
113.2953114737
 30
0.0
 10
49.4436800288
 20
113.9293782836
 30
0.0
 10
48.8635074373
 20
114.4881297749
 30
0.0
 10
48.261022129
 20
114.9598044556
 30
0.0
 10
47.6487550566
 20
115.3343892211
 30
0.0
 10
47.0391360985
 20
115.6038197804
 30
0.0
 10
46.4443005982
 20
115.7618661101
 30
0.0
 10
45.8759306834
 20
115.8036984845
 30
0.0
 10
45.3466451993
 20
115.7261217636
 30
0.0
 10
45.0260078683
 20
115.592849971
 30
0.0
 10
44.8805492268
 20
115.5088696422
 30
0.0
  0
SPLINE
  5
2E1
100
AcDbEntity
  8
0
100
AcDbSpline
 62
7
  6
BYLAYER
 70
0
 71
3
 72
11
 73
7
 74
0
 42
0.0000001
 43
0.0000001
 44
0.0000000001
 40
0.0
 40
0.0
 40
0.0
 40
0.0
 40
0.2208123831
 40
0.4570136211
 40
0.7150798133
 40
1.0
 40
1.0
 40
1.0
 40
1.0
 10
45.5678344537
 20
103.7857920303
 30
0.0
 10
45.9094112578
 20
104.2470897938
 30
0.0
 10
46.7156798562
 20
105.13120192
 30
0.0
 10
48.2002565954
 20
106.2630613267
 30
0.0
 10
49.9838764665
 20
107.2362504447
 30
0.0
 10
51.3008368621
 20
107.7535289753
 30
0.0
 10
52.0024758396
 20
107.9907047755
 30
0.0
  0
SPLINE
  5
2E2
100
AcDbEntity
  8
0
100
AcDbSpline
 62
7
  6
BYLAYER
 70
0
 71
3
 72
21
 73
17
 74
0
 42
0.0000001
 43
0.0000001
 44
0.0000000001
 40
0.0
 40
0.0
 40
0.0
 40
0.0
 40
0.0620553707
 40
0.1280075814
 40
0.1971610179
 40
0.2686973255
 40
0.4149386484
 40
0.5588191101
 40
0.6275059093
 40
0.6928579476
 40
0.7542360536
 40
0.8112361859
 40
0.8637658665
 40
0.9121315179
 40
0.9571167086
 40
1.0
 40
1.0
 40
1.0
 40
1.0
 10
56.9308681337
 20
111.1056755443
 30
0.0
 10
56.9308681337
 20
111.3329796915
 30
0.0
 10
56.9005628047
 20
111.8021684685
 30
0.0
 10
56.7757661644
 20
112.5146729843
 30
0.0
 10
56.5726735064
 20
113.2450431919
 30
0.0
 10
56.2005664381
 20
114.2292158763
 30
0.0
 10
55.5745839851
 20
115.4040240133
 30
0.0
 10
54.771102685
 20
116.4529528971
 30
0.0
 10
54.0461133687
 20
117.1695462564
 30
0.0
 10
53.4885371548
 20
117.6205344264
 30
0.0
 10
52.9202740705
 20
117.9839930381
 30
0.0
 10
52.3525170485
 20
118.2523777526
 30
0.0
 10
51.7963003708
 20
118.4198087044
 30
0.0
 10
51.2621882431
 20
118.481756656
 30
0.0
 10
50.7613835262
 20
118.4351032776
 30
0.0
 10
50.4533930952
 20
118.3290572705
 30
0.0
 10
50.3126094445
 20
118.2593898816
 30
0.0
  0
SPLINE
  5
2E3
100
AcDbEntity
  8
0
100
AcDbSpline
 62
7
  6
BYLAYER
 70
0
 71
3
 72
12
 73
8
 74
0
 42
0.0000001
 43
0.0000001
 44
0.0000000001
 40
0.0
 40
0.0
 40
0.0
 40
0.0
 40
0.1078951287
 40
0.2183270127
 40
0.4523491836
 40
0.7116815977
 40
1.0
 40
1.0
 40
1.0
 40
1.0
 10
53.0227980373
 20
106.7160334384
 30
0.0
 10
53.1101171502
 20
106.7742037105
 30
0.0
 10
53.2774623754
 20
106.9066279962
 30
0.0
 10
53.5763856967
 20
107.2314073195
 30
0.0
 10
53.8706972772
 20
107.7489108209
 30
0.0
 10
54.0759642526
 20
108.4865568303
 30
0.0
 10
54.1166758291
 20
109.0208203319
 30
0.0
 10
54.1166758291
 20
109.3011911344
 30
0.0
  0
SPLINE
  5
2E4
100
AcDbEntity
  8
0
100
AcDbSpline
 62
7
  6
BYLAYER
 70
0
 71
3
 72
12
 73
8
 74
0
 42
0.0000001
 43
0.0000001
 44
0.0000000001
 40
0.0
 40
0.0
 40
0.0
 40
0.0
 40
0.108160345
 40
0.2183596005
 40
0.4513641316
 40
0.7104112705
 40
1.0
 40
1.0
 40
1.0
 40
1.0
 10
29.9494980817
 20
94.013617503
 30
0.0
 10
30.0355775669
 20
94.0633044036
 30
0.0
 10
30.2010608283
 20
94.1788189942
 30
0.0
 10
30.4979598519
 20
94.4708061872
 30
0.0
 10
30.7919322796
 20
94.9501649746
 30
0.0
 10
30.9965312358
 20
95.6449131496
 30
0.0
 10
31.0368432391
 20
96.150872551
 30
0.0
 10
31.0368432391
 20
96.4169808037
 30
0.0
  0
SPLINE
  5
2E5
100
AcDbEntity
  8
0
100
AcDbSpline
 62
7
  6
BYLAYER
 70
0
 71
3
 72
12
 73
8
 74
0
 42
0.0000001
 43
0.0000001
 44
0.0000000001
 40
0.0
 40
0.0
 40
0.0
 40
0.0
 40
0.2886235972
 40
0.5479053343
 40
0.7816906979
 40
0.8920596088
 40
1.0
 40
1.0
 40
1.0
 40
1.0
 10
59.0735053798
 20
113.2978736768
 30
0.0
 10
59.0735053798
 20
113.0824812545
 30
0.0
 10
59.0419094264
 20
112.6722459754
 30
0.0
 10
58.8823730827
 20
112.1065658661
 30
0.0
 10
58.6535163143
 20
111.7111891262
 30
0.0
 10
58.4213420606
 20
111.4647324403
 30
0.0
 10
58.2915133777
 20
111.3648884495
 30
0.0
 10
58.2238129661
 20
111.3212368104
 30
0.0
  0
SPLINE
  5
2E6
100
AcDbEntity
  8
0
100
AcDbSpline
 62
7
  6
BYLAYER
 70
0
 71
3
 72
11
 73
7
 74
0
 42
0.0000001
 43
0.0000001
 44
0.0000000001
 40
0.0
 40
0.0
 40
0.0
 40
0.0
 40
0.2836101621
 40
0.5431771927
 40
0.7803447064
 40
1.0
 40
1.0
 40
1.0
 40
1.0
 10
56.1036692635
 20
111.5832482306
 30
0.0
 10
56.1036692635
 20
111.4014079646
 30
0.0
 10
56.0809209577
 20
111.0524303387
 30
0.0
 10
55.9681794791
 20
110.5623363786
 30
0.0
 10
55.7797064385
 20
110.1399138874
 30
0.0
 10
55.5996976719
 20
109.9042890566
 30
0.0
 10
55.4998392342
 20
109.8049777788
 30
0.0
  0
SPLINE
  5
2E7
100
AcDbEntity
  8
0
100
AcDbSpline
 62
7
  6
BYLAYER
 70
0
 71
3
 72
19
 73
15
 74
0
 42
0.0000001
 43
0.0000001
 44
0.0000000001
 40
0.0
 40
0.0
 40
0.0
 40
0.0
 40
0.0430023835
 40
0.0883315868
 40
0.1371530502
 40
0.1901508806
 40
0.2475589735
 40
0.3092411612
 40
0.3747727103
 40
0.4435101203
 40
0.587148116
 40
0.7328278326
 40
0.8727159437
 40
1.0
 40
1.0
 40
1.0
 40
1.0
 10
53.9087880108
 20
118.9786554334
 30
0.0
 10
54.0218497097
 20
119.0280796413
 30
0.0
 10
54.2677949761
 20
119.1004427917
 30
0.0
 10
54.6636457417
 20
119.1222036783
 30
0.0
 10
55.0838279147
 20
119.06055506
 30
0.0
 10
55.5198487456
 20
118.9179968655
 30
0.0
 10
55.9636215098
 20
118.6981335739
 30
0.0
 10
56.4066843539
 20
118.4056025921
 30
0.0
 10
56.8404834876
 20
118.0463047102
 30
0.0
 10
57.4030083451
 20
117.4796574745
 30
0.0
 10
58.0254260132
 20
116.6554272448
 30
0.0
 10
58.6016517697
 20
115.5608628415
 30
0.0
 10
58.9742203504
 20
114.4306058425
 30
0.0
 10
59.0735053798
 20
113.6631067641
 30
0.0
 10
59.0735053798
 20
113.2978736768
 30
0.0
  0
SPLINE
  5
2E8
100
AcDbEntity
  8
0
100
AcDbSpline
 62
7
  6
BYLAYER
 70
0
 71
3
 72
12
 73
8
 74
0
 42
0.0000001
 43
0.0000001
 44
0.0000000001
 40
0.0
 40
0.0
 40
0.0
 40
0.0
 40
0.1078202652
 40
0.2185861598
 40
0.45362148
 40
0.7131146238
 40
1.0
 40
1.0
 40
1.0
 40
1.0
 10
41.6259137821
 20
99.3323635469
 30
0.0
 10
41.7154827307
 20
99.4007389029
 30
0.0
 10
41.8865988619
 20
99.5536474058
 30
0.0
 10
42.1910804568
 20
99.9188656904
 30
0.0
 10
42.4893522209
 20
100.4853472351
 30
0.0
 10
42.69780382
 20
101.2803328125
 30
0.0
 10
42.7394191049
 20
101.8529875344
 30
0.0
 10
42.7394191049
 20
102.1528154148
 30
0.0
  0
SPLINE
  5
2E9
100
AcDbEntity
  8
0
100
AcDbSpline
 62
7
  6
BYLAYER
 70
0
 71
3
 72
14
 73
10
 74
0
 42
0.0000001
 43
0.0000001
 44
0.0000000001
 40
0.0
 40
0.0
 40
0.0
 40
0.0
 40
0.1080470808
 40
0.2181317812
 40
0.3321075955
 40
0.4515068119
 40
0.5774545012
 40
0.7107201378
 40
1.0
 40
1.0
 40
1.0
 40
1.0
 10
50.7805076957
 20
105.2897808122
 30
0.0
 10
50.8772411517
 20
105.3456297281
 30
0.0
 10
51.0632406886
 20
105.4753870022
 30
0.0
 10
51.3089663125
 20
105.7172585022
 30
0.0
 10
51.5203303239
 20
106.0042982606
 30
0.0
 10
51.6953041235
 20
106.3333037379
 30
0.0
 10
51.8326127392
 20
106.7009465494
 30
0.0
 10
51.9675633628
 20
107.2526788915
 30
0.0
 10
52.0024758396
 20
107.6916498882
 30
0.0
 10
52.0024758396
 20
107.9907047755
 30
0.0
  0
SPLINE
  5
2EA
100
AcDbEntity
  8
0
100
AcDbSpline
 62
7
  6
BYLAYER
 70
0
 71
3
 72
23
 73
19
 74
0
 42
0.0000001
 43
0.0000001
 44
0.0000000001
 40
0.0
 40
0.0
 40
0.0
 40
0.0
 40
0.0623910379
 40
0.128744459
 40
0.1983465576
 40
0.2703347512
 40
0.3437232705
 40
0.4174676952
 40
0.4905044417
 40
0.5618028968
 40
0.6304113325
 40
0.6955092051
 40
0.7564662429
 40
0.812912272
 40
0.8648209878
 40
0.9126035393
 40
0.9571854077
 40
1.0
 40
1.0
 40
1.0
 40
1.0
 10
38.1078933871
 20
98.8664525256
 30
0.0
 10
38.1078933871
 20
99.1672164064
 30
0.0
 10
38.0671360116
 20
99.7882585257
 30
0.0
 10
37.8994818188
 20
100.7312194557
 30
0.0
 10
37.6268538213
 20
101.6974522777
 30
0.0
 10
37.2551669685
 20
102.6662818527
 30
0.0
 10
36.7922675969
 20
103.6171860256
 30
0.0
 10
36.248064627
 20
104.5298784718
 30
0.0
 10
35.6341476642
 20
105.3848864
 30
0.0
 10
34.9636056937
 20
106.1639841096
 30
0.0
 10
34.250662623
 20
106.850606798
 30
0.0
 10
33.5103233492
 20
107.4301990083
 30
0.0
 10
32.7579615309
 20
107.8904816856
 30
0.0
 10
32.0088587381
 20
108.2215445439
 30
0.0
 10
31.2779256041
 20
108.4157420882
 30
0.0
 10
30.5795110598
 20
108.4671533394
 30
0.0
 10
29.9291231078
 20
108.3718292053
 30
0.0
 10
29.5351059932
 20
108.2080879218
 30
0.0
 10
29.356370636
 20
108.1048803398
 30
0.0
  0
SPLINE
  5
2EB
100
AcDbEntity
  8
0
100
AcDbSpline
 62
7
  6
BYLAYER
 70
0
 71
3
 72
36
 73
32
 74
0
 42
0.0000001
 43
0.0000001
 44
0.0000000001
 40
0.0
 40
0.0
 40
0.0
 40
0.0
 40
0.0289493485
 40
0.0563556611
 40
0.0829470658
 40
0.1090523107
 40
0.1347816166
 40
0.1602514167
 40
0.1858250713
 40
0.2123318151
 40
0.2263664776
 40
0.2411324464
 40
0.2729911002
 40
0.3078836395
 40
0.3454122904
 40
0.3849944866
 40
0.4259477704
 40
0.5090201961
 40
0.5496518934
 40
0.5887369148
 40
0.6256603234
 40
0.6599558466
 40
0.6916104668
 40
0.7213417008
 40
0.7498553427
 40
0.7776850507
 40
0.832566984
 40
0.8874012716
 40
0.9427237265
 40
0.9709550186
 40
1.0
 40
1.0
 40
1.0
 40
1.0
 10
59.2364833976
 20
118.7323961861
 30
0.0
 10
59.4445617378
 20
118.8849396465
 30
0.0
 10
59.8259206127
 20
119.2157314237
 30
0.0
 10
60.3085877867
 20
119.7780645029
 30
0.0
 10
60.7150050812
 20
120.3658881487
 30
0.0
 10
61.0811115775
 20
120.9613112146
 30
0.0
 10
61.4422918923
 20
121.5480376503
 30
0.0
 10
61.8340980765
 20
122.1099477885
 30
0.0
 10
62.293321705
 20
122.6294424281
 30
0.0
 10
62.75449364
 20
123.0020888111
 30
0.0
 10
63.1792990571
 20
123.2534467852
 30
0.0
 10
63.6686194146
 20
123.4848051279
 30
0.0
 10
64.3585356727
 20
123.7191940174
 30
0.0
 10
65.264751047
 20
123.9291464181
 30
0.0
 10
66.2505139255
 20
124.0894085805
 30
0.0
 10
67.2955031787
 20
124.2139602421
 30
0.0
 10
68.7471379456
 20
124.351708392
 30
0.0
 10
70.2098414659
 20
124.4712308535
 30
0.0
 10
71.6517174141
 20
124.6337869326
 30
0.0
 10
72.6800041574
 20
124.7888448951
 30
0.0
 10
73.642629787
 20
124.9918510057
 30
0.0
 10
74.5218358688
 20
125.2581286635
 30
0.0
 10
75.3031408122
 20
125.6055551056
 30
0.0
 10
75.9911633583
 20
126.0198072718
 30
0.0
 10
76.6001087494
 20
126.4887068826
 30
0.0
 10
77.3241498381
 20
127.167619576
 30
0.0
 10
78.120239038
 20
128.1031874553
 30
0.0
 10
79.0156483249
 20
129.2689305455
 30
0.0
 10
79.8208232621
 20
130.2068621802
 30
0.0
 10
80.5573834604
 20
130.8902012054
 30
0.0
 10
80.9642288726
 20
131.2003388949
 30
0.0
 10
81.178402775
 20
131.3457217172
 30
0.0
  0
SPLINE
  5
2EC
100
AcDbEntity
  8
0
100
AcDbSpline
 62
7
  6
BYLAYER
 70
0
 71
3
 72
17
 73
13
 74
0
 42
0.0000001
 43
0.0000001
 44
0.0000000001
 40
0.0
 40
0.0
 40
0.0
 40
0.0
 40
0.1286926208
 40
0.2702795078
 40
0.4174383051
 40
0.5617803148
 40
0.6954501289
 40
0.8127134773
 40
0.8646759206
 40
0.9125113962
 40
0.9571388332
 40
1.0
 40
1.0
 40
1.0
 40
1.0
 10
127.9102455753
 20
131.934394718
 30
0.0
 10
127.7066746844
 20
131.8168637109
 30
0.0
 10
127.2457704796
 20
131.6266869004
 30
0.0
 10
126.4945770184
 20
131.4764238557
 30
0.0
 10
125.7000682069
 20
131.4544194835
 30
0.0
 10
124.9270699901
 20
131.5630508795
 30
0.0
 10
124.2382646661
 20
131.7931256
 30
0.0
 10
123.7591850251
 20
132.084721232
 30
0.0
 10
123.4780568448
 20
132.3668927629
 30
0.0
 10
123.3286702551
 20
132.5865544021
 30
0.0
 10
123.2366922941
 20
132.8182941703
 30
0.0
 10
123.2156957784
 20
132.9787688446
 30
0.0
 10
123.2157064753
 20
133.0570567615
 30
0.0
  0
SPLINE
  5
2ED
100
AcDbEntity
  8
0
100
AcDbSpline
 62
7
  6
BYLAYER
 70
0
 71
3
 72
9
 73
5
 74
0
 42
0.0000001
 43
0.0000001
 44
0.0000000001
 40
0.0
 40
0.0
 40
0.0
 40
0.0
 40
0.2548851882
 40
1.0
 40
1.0
 40
1.0
 40
1.0
 10
86.2632408371
 20
167.1426401564
 30
0.0
 10
85.752002822
 20
166.6737194189
 30
0.0
 10
83.7688622841
 20
164.8095577195
 30
0.0
 10
81.8784380399
 20
162.8461474246
 30
0.0
 10
80.53393815
 20
161.3279126292
 30
0.0
  0
SPLINE
  5
2EE
100
AcDbEntity
  8
0
100
AcDbSpline
 62
7
  6
BYLAYER
 70
0
 71
3
 72
9
 73
5
 74
0
 42
0.0000001
 43
0.0000001
 44
0.0000000001
 40
0.0
 40
0.0
 40
0.0
 40
0.0
 40
0.2471204121
 40
1.0
 40
1.0
 40
1.0
 40
1.0
 10
124.8999290107
 20
190.6796242386
 30
0.0
 10
124.0791421164
 20
190.9779017026
 30
0.0
 10
120.7481583684
 20
192.1584316903
 30
0.0
 10
117.3801511556
 20
193.2341579047
 30
0.0
 10
114.8283815199
 20
193.9873913991
 30
0.0
  0
SPLINE
  5
2EF
100
AcDbEntity
  8
0
100
AcDbSpline
 62
7
  6
BYLAYER
 70
0
 71
3
 72
11
 73
7
 74
0
 42
0.0000001
 43
0.0000001
 44
0.0000000001
 40
0.0
 40
0.0
 40
0.0
 40
0.0
 40
0.2434397014
 40
0.4999996162
 40
0.756559731
 40
1.0
 40
1.0
 40
1.0
 40
1.0
 10
127.0307453434
 20
190.6796293604
 30
0.0
 10
126.8653873374
 20
190.6195364447
 30
0.0
 10
126.5126133717
 20
190.5308749312
 30
0.0
 10
125.9653383465
 20
190.4874268305
 30
0.0
 10
125.418062708
 20
190.5308723684
 30
0.0
 10
125.0652877585
 20
190.6195321632
 30
0.0
 10
124.8999290107
 20
190.6796242386
 30
0.0
  0
SPLINE
  5
2F0
100
AcDbEntity
  8
0
100
AcDbSpline
 62
7
  6
BYLAYER
 70
0
 71
3
 72
9
 73
5
 74
0
 42
0.0000001
 43
0.0000001
 44
0.0000000001
 40
0.0
 40
0.0
 40
0.0
 40
0.0
 40
0.2528422574
 40
1.0
 40
1.0
 40
1.0
 40
1.0
 10
137.1022451271
 20
193.9874449389
 30
0.0
 10
136.2452801737
 20
193.7344801108
 30
0.0
 10
132.8634587262
 20
192.7087955585
 30
0.0
 10
129.5123427917
 20
191.5814691319
 30
0.0
 10
127.0307453434
 20
190.6796293604
 30
0.0
  0
SPLINE
  5
2F1
100
AcDbEntity
  8
0
100
AcDbSpline
 62
7
  6
BYLAYER
 70
0
 71
3
 72
9
 73
5
 74
0
 42
0.0000001
 43
0.0000001
 44
0.0000000001
 40
0.0
 40
0.0
 40
0.0
 40
0.0
 40
0.2452409829
 40
1.0
 40
1.0
 40
1.0
 40
1.0
 10
171.3971595317
 20
161.3281310375
 30
0.0
 10
170.954631765
 20
161.8278315254
 30
0.0
 10
169.1222393233
 20
163.8405835821
 30
0.0
 10
167.1816668136
 20
165.7542740679
 30
0.0
 10
165.6677729811
 20
167.1428310214
 30
0.0
  0
SPLINE
  5
2F2
100
AcDbEntity
  8
0
100
AcDbSpline
 62
7
  6
BYLAYER
 70
0
 71
3
 72
11
 73
7
 74
0
 42
0.0000001
 43
0.0000001
 44
0.0000000001
 40
0.0
 40
0.0
 40
0.0
 40
0.0
 40
0.2177827477
 40
0.4509152641
 40
0.7103063952
 40
1.0
 40
1.0
 40
1.0
 40
1.0
 10
128.7156811871
 20
133.0570568243
 30
0.0
 10
128.7156668756
 20
132.9523143881
 30
0.0
 10
128.676982229
 20
132.7339954925
 30
0.0
 10
128.5114661157
 20
132.4298057247
 30
0.0
 10
128.2498242488
 20
132.1548408987
 30
0.0
 10
128.0309072615
 20
132.0040583591
 30
0.0
 10
127.9102455753
 20
131.934394718
 30
0.0
  0
SPLINE
  5
2F3
100
AcDbEntity
  8
0
100
AcDbSpline
 62
7
  6
BYLAYER
 70
0
 71
3
 72
10
 73
6
 74
0
 42
0.0000001
 43
0.0000001
 44
0.0000000001
 40
0.0
 40
0.0
 40
0.0
 40
0.0
 40
0.2280370784
 40
0.4769483218
 40
1.0
 40
1.0
 40
1.0
 40
1.0
 10
173.8719949942
 20
158.4702647196
 30
0.0
 10
173.7038372712
 20
158.3731793925
 30
0.0
 10
173.3291169188
 20
158.2087992849
 30
0.0
 10
172.5009512598
 20
158.0018725164
 30
0.0
 10
171.831731177
 20
157.9850053671
 30
0.0
 10
171.3892806503
 20
158.0359500191
 30
0.0
  0
SPLINE
  5
2F4
100
AcDbEntity
  8
0
100
AcDbSpline
 62
7
  6
BYLAYER
 70
0
 71
3
 72
11
 73
7
 74
0
 42
0.0000001
 43
0.0000001
 44
0.0000000001
 40
0.0
 40
0.0
 40
0.0
 40
0.0
 40
0.2177827477
 40
0.4509152641
 40
0.7103063952
 40
1.0
 40
1.0
 40
1.0
 40
1.0
 10
174.677430606
 20
159.592926826
 30
0.0
 10
174.6774162945
 20
159.4881843897
 30
0.0
 10
174.6387316479
 20
159.2698654942
 30
0.0
 10
174.4732155346
 20
158.9656757264
 30
0.0
 10
174.2115736677
 20
158.6907109003
 30
0.0
 10
173.9926566804
 20
158.5399283608
 30
0.0
 10
173.8719949942
 20
158.4702647196
 30
0.0
  0
SPLINE
  5
2F5
100
AcDbEntity
  8
0
100
AcDbSpline
 62
7
  6
BYLAYER
 70
0
 71
3
 72
14
 73
10
 74
0
 42
0.0000001
 43
0.0000001
 44
0.0000000001
 40
0.0
 40
0.0
 40
0.0
 40
0.0
 40
0.301485461
 40
0.4469276555
 40
0.5827728672
 40
0.7058835795
 40
0.8149464404
 40
0.9113586109
 40
1.0
 40
1.0
 40
1.0
 40
1.0
 10
80.5418402916
 20
158.0357491264
 30
0.0
 10
80.142720764
 20
157.989800796
 30
0.0
 10
79.5384790893
 20
157.99725983
 30
0.0
 10
78.7768764268
 20
158.1575661898
 30
0.0
 10
78.2689363729
 20
158.3444009139
 30
0.0
 10
77.8416473461
 20
158.5908952656
 30
0.0
 10
77.5141817789
 20
158.8880237626
 30
0.0
 10
77.3036681551
 20
159.2260412784
 30
0.0
 10
77.2535582011
 20
159.4745834146
 30
0.0
 10
77.2535743407
 20
159.5927058054
 30
0.0
  0
SPLINE
  5
2F6
100
AcDbEntity
  8
0
100
AcDbSpline
 62
7
  6
BYLAYER
 70
0
 71
3
 72
11
 73
7
 74
0
 42
0.0000001
 43
0.0000001
 44
0.0000000001
 40
0.0
 40
0.0
 40
0.0
 40
0.0
 40
0.2177827477
 40
0.4509152641
 40
0.7103063952
 40
1.0
 40
1.0
 40
1.0
 40
1.0
 10
123.2157064753
 20
133.0570567615
 30
0.0
 10
123.2157207867
 20
133.1617991978
 30
0.0
 10
123.2544054334
 20
133.3801180933
 30
0.0
 10
123.4199215467
 20
133.6843078611
 30
0.0
 10
123.6815634136
 20
133.9592726872
 30
0.0
 10
123.9004804009
 20
134.1100552267
 30
0.0
 10
124.021142087
 20
134.1797188679
 30
0.0
  0
SPLINE
  5
2F7
100
AcDbEntity
  8
0
100
AcDbSpline
 62
7
  6
BYLAYER
 70
0
 71
3
 72
14
 73
10
 74
0
 42
0.0000001
 43
0.0000001
 44
0.0000000001
 40
0.0
 40
0.0
 40
0.0
 40
0.0
 40
0.3014865229
 40
0.4469284718
 40
0.5827732201
 40
0.7058834804
 40
0.8149460922
 40
0.9113583172
 40
1.0
 40
1.0
 40
1.0
 40
1.0
 10
171.3892551754
 20
161.1498939251
 30
0.0
 10
171.7883679723
 20
161.1958334514
 30
0.0
 10
172.3925966272
 20
161.1883649516
 30
0.0
 10
173.1541801918
 20
161.0280511997
 30
0.0
 10
173.6621047153
 20
160.8412143751
 30
0.0
 10
174.0893794911
 20
160.5947208623
 30
0.0
 10
174.4168333667
 20
160.2975957585
 30
0.0
 10
174.6273388887
 20
159.9595838571
 30
0.0
 10
174.6774467454
 20
159.7110469301
 30
0.0
 10
174.677430606
 20
159.592926826
 30
0.0
  0
SPLINE
  5
2F8
100
AcDbEntity
  8
0
100
AcDbSpline
 62
7
  6
BYLAYER
 70
0
 71
3
 72
11
 73
7
 74
0
 42
0.0000001
 43
0.0000001
 44
0.0000000001
 40
0.0
 40
0.0
 40
0.0
 40
0.0
 40
0.243440269
 40
0.5000003838
 40
0.7565602986
 40
1.0
 40
1.0
 40
1.0
 40
1.0
 10
127.031075936
 20
136.671032564
 30
0.0
 10
126.8657171882
 20
136.7311246394
 30
0.0
 10
126.5129422388
 20
136.8197844342
 30
0.0
 10
125.9656666002
 20
136.8632299721
 30
0.0
 10
125.4183915751
 20
136.8197818714
 30
0.0
 10
125.0656176093
 20
136.7311203579
 30
0.0
 10
124.9002596034
 20
136.6710274422
 30
0.0
  0
SPLINE
  5
2F9
100
AcDbEntity
  8
0
100
AcDbSpline
 62
7
  6
BYLAYER
 70
0
 71
3
 72
9
 73
5
 74
0
 42
0.0000001
 43
0.0000001
 44
0.0000000001
 40
0.0
 40
0.0
 40
0.0
 40
0.0
 40
0.2528422123
 40
1.0
 40
1.0
 40
1.0
 40
1.0
 10
137.1026234268
 20
133.3632654035
 30
0.0
 10
136.2456547734
 20
133.616226127
 30
0.0
 10
132.8638179289
 20
134.641894608
 30
0.0
 10
129.5126859526
 20
135.769204882
 30
0.0
 10
127.031075936
 20
136.671032564
 30
0.0
  0
SPLINE
  5
2FA
100
AcDbEntity
  8
0
100
AcDbSpline
 62
7
  6
BYLAYER
 70
0
 71
3
 72
9
 73
5
 74
0
 42
0.0000001
 43
0.0000001
 44
0.0000000001
 40
0.0
 40
0.0
 40
0.0
 40
0.0
 40
0.247120368
 40
1.0
 40
1.0
 40
1.0
 40
1.0
 10
124.9002596034
 20
136.6710274422
 30
0.0
 10
124.0794769629
 20
136.3727460149
 30
0.0
 10
120.7485096461
 20
135.1921998063
 30
0.0
 10
117.3805181322
 20
134.1164574899
 30
0.0
 10
114.8287598196
 20
133.3632118637
 30
0.0
  0
SPLINE
  5
2FB
100
AcDbEntity
  8
0
100
AcDbSpline
 62
7
  6
BYLAYER
 70
0
 71
3
 72
17
 73
13
 74
0
 42
0.0000001
 43
0.0000001
 44
0.0000000001
 40
0.0
 40
0.0
 40
0.0
 40
0.0
 40
0.1286926208
 40
0.2702795078
 40
0.4174383051
 40
0.5617803148
 40
0.6954501289
 40
0.8127134773
 40
0.8646759206
 40
0.9125113962
 40
0.9571388332
 40
1.0
 40
1.0
 40
1.0
 40
1.0
 10
124.021142087
 20
134.1797188679
 30
0.0
 10
124.224712978
 20
134.297249875
 30
0.0
 10
124.6856171828
 20
134.4874266854
 30
0.0
 10
125.436810644
 20
134.6376897301
 30
0.0
 10
126.2313194555
 20
134.6596941024
 30
0.0
 10
127.0043176723
 20
134.5510627063
 30
0.0
 10
127.6931229962
 20
134.3209879859
 30
0.0
 10
128.1722026373
 20
134.0293923539
 30
0.0
 10
128.4533308176
 20
133.7472208229
 30
0.0
 10
128.6027174073
 20
133.5275591837
 30
0.0
 10
128.6946953683
 20
133.2958194155
 30
0.0
 10
128.715691884
 20
133.1353447413
 30
0.0
 10
128.7156811871
 20
133.0570568243
 30
0.0
  0
SPLINE
  5
2FC
100
AcDbEntity
  8
0
100
AcDbSpline
 62
7
  6
BYLAYER
 70
0
 71
3
 72
11
 73
7
 74
0
 42
0.0000001
 43
0.0000001
 44
0.0000000001
 40
0.0
 40
0.0
 40
0.0
 40
0.0
 40
0.2177827477
 40
0.4509152641
 40
0.7103063952
 40
1.0
 40
1.0
 40
1.0
 40
1.0
 10
77.2535743407
 20
159.5927058054
 30
0.0
 10
77.2535886522
 20
159.6974482416
 30
0.0
 10
77.2922732988
 20
159.9157671371
 30
0.0
 10
77.4577894121
 20
160.219956905
 30
0.0
 10
77.7194312791
 20
160.494921731
 30
0.0
 10
77.9383482663
 20
160.6457042705
 30
0.0
 10
78.0590099525
 20
160.7153679117
 30
0.0
  0
SPLINE
  5
2FD
100
AcDbEntity
  8
0
100
AcDbSpline
 62
7
  6
BYLAYER
 70
0
 71
3
 72
9
 73
5
 74
0
 42
0.0000001
 43
0.0000001
 44
0.0000000001
 40
0.0
 40
0.0
 40
0.0
 40
0.0
 40
0.2471204121
 40
1.0
 40
1.0
 40
1.0
 40
1.0
 10
127.031075936
 20
144.8360567353
 30
0.0
 10
127.8518628303
 20
144.5377792713
 30
0.0
 10
131.1828465784
 20
143.3572492836
 30
0.0
 10
134.5508537911
 20
142.2815230692
 30
0.0
 10
137.1026234268
 20
141.5282895748
 30
0.0
  0
SPLINE
  5
2FE
100
AcDbEntity
  8
0
100
AcDbSpline
 62
7
  6
BYLAYER
 70
0
 71
3
 72
11
 73
7
 74
0
 42
0.0000001
 43
0.0000001
 44
0.0000000001
 40
0.0
 40
0.0
 40
0.0
 40
0.0
 40
0.2434397014
 40
0.4999996162
 40
0.756559731
 40
1.0
 40
1.0
 40
1.0
 40
1.0
 10
124.9002596034
 20
144.8360516135
 30
0.0
 10
125.0656176093
 20
144.8961445292
 30
0.0
 10
125.4183915751
 20
144.9848060427
 30
0.0
 10
125.9656666002
 20
145.0282541434
 30
0.0
 10
126.5129422388
 20
144.9848086055
 30
0.0
 10
126.8657171882
 20
144.8961488107
 30
0.0
 10
127.031075936
 20
144.8360567353
 30
0.0
  0
SPLINE
  5
2FF
100
AcDbEntity
  8
0
100
AcDbSpline
 62
7
  6
BYLAYER
 70
0
 71
3
 72
9
 73
5
 74
0
 42
0.0000001
 43
0.0000001
 44
0.0000000001
 40
0.0
 40
0.0
 40
0.0
 40
0.0
 40
0.2528422574
 40
1.0
 40
1.0
 40
1.0
 40
1.0
 10
114.8287598196
 20
141.528236035
 30
0.0
 10
115.685724773
 20
141.7812008631
 30
0.0
 10
119.0675462206
 20
142.8068854154
 30
0.0
 10
122.418662155
 20
143.934211842
 30
0.0
 10
124.9002596034
 20
144.8360516135
 30
0.0
  0
SPLINE
  5
300
100
AcDbEntity
  8
0
100
AcDbSpline
 62
7
  6
BYLAYER
 70
0
 71
3
 72
9
 73
5
 74
0
 42
0.0000001
 43
0.0000001
 44
0.0000000001
 40
0.0
 40
0.0
 40
0.0
 40
0.0
 40
0.2452409829
 40
1.0
 40
1.0
 40
1.0
 40
1.0
 10
80.5338454151
 20
174.1875499364
 30
0.0
 10
80.9763731817
 20
173.6878494485
 30
0.0
 10
82.8087656234
 20
171.6750973918
 30
0.0
 10
84.7493381331
 20
169.761406906
 30
0.0
 10
86.2632319656
 20
168.3728499525
 30
0.0
  0
SPLINE
  5
301
100
AcDbEntity
  8
0
100
AcDbSpline
 62
7
  6
BYLAYER
 70
0
 71
3
 72
9
 73
5
 74
0
 42
0.0000001
 43
0.0000001
 44
0.0000000001
 40
0.0
 40
0.0
 40
0.0
 40
0.0
 40
0.2548851882
 40
1.0
 40
1.0
 40
1.0
 40
1.0
 10
165.6677641097
 20
168.3730408175
 30
0.0
 10
166.1790021247
 20
168.841961555
 30
0.0
 10
168.1621426626
 20
170.7061232544
 30
0.0
 10
170.0525669068
 20
172.6695335493
 30
0.0
 10
171.3970667967
 20
174.1877683447
 30
0.0
  0
SPLINE
  5
302
100
AcDbEntity
  8
0
100
AcDbSpline
 62
7
  6
BYLAYER
 70
0
 71
3
 72
10
 73
6
 74
0
 42
0.0000001
 43
0.0000001
 44
0.0000000001
 40
0.0
 40
0.0
 40
0.0
 40
0.0
 40
0.2280371711
 40
0.4769489139
 40
1.0
 40
1.0
 40
1.0
 40
1.0
 10
78.0590099525
 20
160.7153679117
 30
0.0
 10
78.2271737018
 20
160.8124567181
 30
0.0
 10
78.6019085964
 20
160.97684151
 30
0.0
 10
79.430105388
 20
161.1837687071
 30
0.0
 10
80.0993501163
 20
161.2006273824
 30
0.0
 10
80.5418148057
 20
161.1496721899
 30
0.0
  0
ELLIPSE
  5
303
100
AcDbEntity
  8
0
100
AcDbEllipse
 62
7
  6
BYLAYER
 10
164.2791808842
 20
174.5755815669
 30
0.0
 11
0.2000152311
 21
0.0000000001
 31
0.0
 40
0.5772980511
 41
8.6394220363
 42
10.2101422107
  0
ELLIPSE
  5
304
100
AcDbEntity
  8
0
100
AcDbEllipse
 62
7
  6
BYLAYER
 10
165.0684615945
 20
174.1199004452
 30
0.0
 11
0.2
 21
-0.0000000001
 31
0.0
 40
0.5773859831
 41
-2.3561522499
 42
-0.7854320756
  0
ENDSEC
  0
SECTION
  2
OBJECTS
  0
DICTIONARY
  5
C
100
AcDbDictionary
280
0
281
1
  3
ACAD_GROUP
350
D
  3
ACAD_MLINESTYLE
350
17
  3
ACAD_LAYOUT
350
1A
  3
ACAD_PLOTSETTINGS
350
19
  3
ACAD_PLOTSTYLENAME
350
E
  0
DICTIONARY
  5
D
102
{ACAD_REACTORS
330
C
102
}
100
AcDbDictionary
280
0
281
1
  0
ACDBDICTIONARYWDFLT
  5
E
102
{ACAD_REACTORS
330
C
102
}
100
AcDbDictionary
281
1
  3
Normal
350
F
100
AcDbDictionaryWithDefault
340
F
  0
DICTIONARY
  5
17
102
{ACAD_REACTORS
330
C
102
}
100
AcDbDictionary
280
0
281
1
  3
Standard
350
18
  0
DICTIONARY
  5
19
102
{ACAD_REACTORS
330
C
102
}
100
AcDbDictionary
281
1
  0
DICTIONARY
  5
1A
102
{ACAD_REACTORS
330
C
102
}
100
AcDbDictionary
281
1
  3
Model
350
305
  3
Layout1
350
306
  0
ACDBPLACEHOLDER
  5
F
102
{ACAD_REACTORS
330
E
102
}
  0
MLINESTYLE
  5
18
102
{ACAD_REACTORS
330
17
102
}
100
AcDbMlineStyle
  2
STANDARD
 70
0
  3

 62
256
 51
90.0
 52
90.0
 71
2
 49
0.5
 62
256
  6
BYLAYER
 49
-0.5
 62
256
  6
BYLAYER
  0
LAYOUT
  5
305
102
{ACAD_REACTORS
330
1A
102
}
100
AcDbPlotSettings
  1

  2
none_device
  4

  6

 40
0.0
 41
0.0
 42
0.0
 43
0.0
 44
210.0
 45
297.0
 46
0.0
 47
0.0
 48
0.0
 49
0.0
140
0.0
141
0.0
142
1.0
143
1.0
 70
1024
 72
1
 73
0
 74
0
  7

 75
0
147
1.0
148
0.0
149
0.0
100
AcDbLayout
  1
Model
 70
0
 71
0
 10
0.0
 20
0.0
 11
210.0
 21
297.0
 12
0.0
 22
0.0
 32
0.0
 14
0.0
 24
0.0
 34
0.0
 15
0.0
 25
0.0
 35
0.0
146
0.0
 13
0.0
 23
0.0
 33
0.0
 16
1.0
 26
0.0
 36
0.0
 17
0.0
 27
1.0
 37
0.0
 76
0
330
210
345
0
346
0
  0
LAYOUT
  5
306
102
{ACAD_REACTORS
330
1A
102
}
100
AcDbPlotSettings
  1

  2
none_device
  4

  6

 40
0.0
 41
0.0
 42
0.0
 43
0.0
 44
210.0
 45
297.0
 46
0.0
 47
0.0
 48
0.0
 49
0.0
140
0.0
141
0.0
142
1.0
143
1.0
 70
0
 72
1
 73
0
 74
0
  7

 75
0
147
1.0
148
0.0
149
0.0
100
AcDbLayout
  1
Layout1
 70
0
 71
1
 10
0.0
 20
0.0
 11
210.0
 21
297.0
 12
0.0
 22
0.0
 32
0.0
 14
0.0
 24
0.0
 34
0.0
 15
0.0
 25
0.0
 35
0.0
146
0.0
 13
0.0
 23
0.0
 33
0.0
 16
1.0
 26
0.0
 36
0.0
 17
0.0
 27
1.0
 37
0.0
 76
0
330
211
345
0
346
0
  0
ENDSEC
  0
EOF
