999
DXF file: C:\Users\sesa63760\Dev\_Creo\CAD\MCADID0001647_3D-CAD\drw0001_1.dxf
999
Pro/ENGINEER 2019471 by Parametric Technology Corporation
  0
SECTION
  2
HEADER
  9
$ACADVER
  1
AC1024
  9
$DWGCODEPAGE
  3
ANSI_1252
  9
$EXTMAX
 10
307.2175597824
 20
434.493405978
 30
0.0
  9
$EXTMIN
 10
0.0
 20
0.0
 30
0.0
  9
$LIMMIN
 10
0.0
 20
0.0
  9
$LIMMAX
 10
307.2175597824
 20
434.493405978
  9
$VIEWCTR
 10
153.6087798912
 20
217.246702989
  9
$VIEWSIZE
 40
434.493405978
  9
$CLAYER
  8
0
  9
$LTSCALE
 40
28.3225331304
  9
$CELTYPE
  6
BYLAYER
  9
$DIMSCALE
 40
1.0
  9
$DIMASZ
 40
3.6573519022
  9
$DIMEXO
 40
1.0
  9
$DIMDLI
 40
19.5682956174
  9
$DIMEXE
 40
1.0
  9
$DIMCEN
 40
4.6345963304
  9
$DIMLFAC
 40
1.0
  9
$DIMBLK
  1
_FILLED
  9
$DIMALT
 70
0
  9
$DIMALTF
 40
0.0393700787
  9
$DIMTXT
 40
5.120292663
  9
$DIMTOL
 70
1
  9
$DIMLIM
 70
0
  9
$DIMTFAC
 40
1.0
  9
$DIMTP
 40
0.01
  9
$DIMTM
 40
0.01
  9
$DIMGAP
 40
0.625
  9
$DIMDSEP
 70
46
  9
$AUNITS
 70
0
  9
$PDMODE
 70
3
  9
$PDSIZE
 40
0.3125
  9
$HANDSEED
  5
5E4
  9
$TILEMODE
 70
1
  9
$MEASUREMENT
 70
1
  9
$INSUNITS
 70
4
  0
ENDSEC
  0
SECTION
  2
CLASSES
  0
CLASS
  1
ACDBDICTIONARYWDFLT
  2
AcDbDictionaryWithDefault
  3
AutoCAD 2000
 90
0
 91
1
280
0
281
0
  0
CLASS
  1
ACDBPLACEHOLDER
  2
AcDbPlaceHolder
  3
AutoCAD 2000
 90
0
 91
1
280
0
281
0
  0
CLASS
  1
LAYOUT
  2
AcDbLayout
  3
AutoCAD 2000
 90
0
 91
0
280
0
281
0
  0
ENDSEC
  0
SECTION
  2
TABLES
  0
TABLE
  2
VPORT
  5
8
100
AcDbSymbolTable
 70
2
  0
VPORT
  5
1F4
100
AcDbSymbolTableRecord
100
AcDbViewportTableRecord
  2
*ACTIVE
 70
0
 10
0.0
 20
0.0
 11
1.0
 21
1.0
 12
153.6087798912
 22
217.246702989
 13
0.0
 23
0.0
 14
1.0
 24
1.0
 15
0.0
 25
0.0
 16
0.0
 26
0.0
 36
1.0
 17
0.0
 27
0.0
 37
0.0
 40
434.493405978
 41
0.7070707071
 42
50.0
 43
0.0
 44
0.0
 50
0.0
 51
0.0
 71
0
 72
100
 73
1
 74
1
 75
0
 76
0
 77
0
 78
0
  0
ENDTAB
  0
TABLE
  2
LTYPE
  5
5
100
AcDbSymbolTable
 70
6
  0
LTYPE
  5
14
100
AcDbSymbolTableRecord
100
AcDbLinetypeTableRecord
  2
BYBLOCK
 70
0
  3

 72
65
 73
0
 40
0.0
  0
LTYPE
  5
15
100
AcDbSymbolTableRecord
100
AcDbLinetypeTableRecord
  2
BYLAYER
 70
0
  3

 72
65
 73
0
 40
0.0
  0
LTYPE
  5
16
100
AcDbSymbolTableRecord
100
AcDbLinetypeTableRecord
  2
CONTINUOUS
 70
64
  3
Solid line
 72
65
 73
0
 40
0.0
  0
LTYPE
  5
1F5
100
AcDbSymbolTableRecord
100
AcDbLinetypeTableRecord
  2
CENTER
 70
64
  3
____ _ ____ _ ____ _ ____ _ ____ _ ____ _ ____
 72
65
 73
4
 40
0.6
 49
0.375
 74
0
 49
-0.075
 74
0
 49
0.075
 74
0
 49
-0.075
 74
0
  0
LTYPE
  5
1F6
100
AcDbSymbolTableRecord
100
AcDbLinetypeTableRecord
  2
HIDDEN
 70
64
  3
- - - - - - - - - - - - - - - - - - - -
 72
65
 73
2
 40
0.2
 49
0.1
 74
0
 49
-0.1
 74
0
  0
LTYPE
  5
1F7
100
AcDbSymbolTableRecord
100
AcDbLinetypeTableRecord
  2
PHANTOM
 70
64
  3
_____ _ _ _____ _ _ _____ _ _ _____
 72
65
 73
6
 40
0.8
 49
0.45
 74
0
 49
-0.05
 74
0
 49
0.1
 74
0
 49
-0.05
 74
0
 49
0.1
 74
0
 49
-0.05
 74
0
  0
LTYPE
  5
1F8
100
AcDbSymbolTableRecord
100
AcDbLinetypeTableRecord
  2
DOT
 70
64
  3
. . . . . . . . . . . . . . . . . . . .
 72
65
 73
2
 40
0.2
 49
0.1
 74
0
 49
-0.1
 74
0
  0
LTYPE
  5
1F9
100
AcDbSymbolTableRecord
100
AcDbLinetypeTableRecord
  2
DASHED
 70
64
  3
- - - - - - - - - - - - - - - - - - - -
 72
65
 73
2
 40
0.2
 49
0.1
 74
0
 49
-0.1
 74
0
  0
ENDTAB
  0
TABLE
  2
LAYER
  5
2
100
AcDbSymbolTable
 70
36
  0
LAYER
  5
10
100
AcDbSymbolTableRecord
100
AcDbLayerTableRecord
  2
0
 70
0
 62
7
  6
CONTINUOUS
370
-3
390
F
  0
LAYER
  5
1FA
100
AcDbSymbolTableRecord
100
AcDbLayerTableRecord
  2
DEFAULT_1
 70
0
 62
7
  6
CENTER
370
-3
390
F
  0
LAYER
  5
1FB
100
AcDbSymbolTableRecord
100
AcDbLayerTableRecord
  2
DEFAULT_2
 70
0
 62
8
  6
HIDDEN
370
-3
390
F
  0
LAYER
  5
1FC
100
AcDbSymbolTableRecord
100
AcDbLayerTableRecord
  2
DEFAULT_3
 70
0
 62
7
  6
PHANTOM
370
-3
390
F
  0
LAYER
  5
1FD
100
AcDbSymbolTableRecord
100
AcDbLayerTableRecord
  2
00_COMPONENTS
 70
0
 62
7
  6
CONTINUOUS
370
-3
390
F
  0
LAYER
  5
1FE
100
AcDbSymbolTableRecord
100
AcDbLayerTableRecord
  2
01_1_DEFAULT_DATUMS
 70
0
 62
7
  6
CONTINUOUS
370
-3
390
F
  0
LAYER
  5
1FF
100
AcDbSymbolTableRecord
100
AcDbLayerTableRecord
  2
01_PLANES
 70
0
 62
7
  6
CONTINUOUS
370
-3
390
F
  0
LAYER
  5
200
100
AcDbSymbolTableRecord
100
AcDbLayerTableRecord
  2
02_COORD_SYS
 70
0
 62
7
  6
CONTINUOUS
370
-3
390
F
  0
LAYER
  5
201
100
AcDbSymbolTableRecord
100
AcDbLayerTableRecord
  2
03_AXES
 70
0
 62
7
  6
CONTINUOUS
370
-3
390
F
  0
LAYER
  5
202
100
AcDbSymbolTableRecord
100
AcDbLayerTableRecord
  2
04_POINTS
 70
0
 62
7
  6
CONTINUOUS
370
-3
390
F
  0
LAYER
  5
203
100
AcDbSymbolTableRecord
100
AcDbLayerTableRecord
  2
05_CURVES
 70
0
 62
7
  6
CONTINUOUS
370
-3
390
F
  0
LAYER
  5
204
100
AcDbSymbolTableRecord
100
AcDbLayerTableRecord
  2
06_SURFS
 70
0
 62
7
  6
CONTINUOUS
370
-3
390
F
  0
LAYER
  5
205
100
AcDbSymbolTableRecord
100
AcDbLayerTableRecord
  2
07_COSMETICS
 70
0
 62
7
  6
CONTINUOUS
370
-3
390
F
  0
LAYER
  5
206
100
AcDbSymbolTableRecord
100
AcDbLayerTableRecord
  2
10_NOTES
 70
0
 62
7
  6
CONTINUOUS
370
-3
390
F
  0
LAYER
  5
207
100
AcDbSymbolTableRecord
100
AcDbLayerTableRecord
  2
11_NOTES_PUB
 70
0
 62
7
  6
CONTINUOUS
370
-3
390
F
  0
LAYER
  5
208
100
AcDbSymbolTableRecord
100
AcDbLayerTableRecord
  2
13_REF_GTOL
 70
0
 62
7
  6
CONTINUOUS
370
-3
390
F
  0
LAYER
  5
209
100
AcDbSymbolTableRecord
100
AcDbLayerTableRecord
  2
16_MISC
 70
0
 62
7
  6
CONTINUOUS
370
-3
390
F
  0
LAYER
  5
20A
100
AcDbSymbolTableRecord
100
AcDbLayerTableRecord
  2
17_NO_PRINT
 70
0
 62
7
  6
CONTINUOUS
370
-3
390
F
  0
LAYER
  5
20B
100
AcDbSymbolTableRecord
100
AcDbLayerTableRecord
  2
18_DATUM_CAMS_JOINTS
 70
0
 62
7
  6
CONTINUOUS
370
-3
390
F
  0
LAYER
  5
20C
100
AcDbSymbolTableRecord
100
AcDbLayerTableRecord
  2
19_DATUM_FUNCTIONAL
 70
0
 62
7
  6
CONTINUOUS
370
-3
390
F
  0
LAYER
  5
20D
100
AcDbSymbolTableRecord
100
AcDbLayerTableRecord
  2
20_DATUM_KINEMATIC_SCHEME
 70
0
 62
7
  6
CONTINUOUS
370
-3
390
F
  0
ENDTAB
  0
TABLE
  2
STYLE
  5
3
100
AcDbSymbolTable
 70
1
  0
STYLE
  5
11
100
AcDbSymbolTableRecord
100
AcDbTextStyleTableRecord
  2
STANDARD
 70
0
 40
0.0
 41
0.8
 50
0.0
 71
0
 42
0.2
  3
txt
  4

  0
STYLE
  5
20E
100
AcDbSymbolTableRecord
100
AcDbTextStyleTableRecord
  2
TEXTSTYLE_1
 70
0
 40
0.0
 41
0.8
 50
0.0
 71
0
 42
0.2
  3
gdt
  4

  0
ENDTAB
  0
TABLE
  2
VIEW
  5
6
100
AcDbSymbolTable
 70
0
  0
ENDTAB
  0
TABLE
  2
UCS
  5
7
100
AcDbSymbolTable
 70
0
  0
ENDTAB
  0
TABLE
  2
APPID
  5
9
100
AcDbSymbolTable
 70
1
  0
APPID
  5
20F
100
AcDbSymbolTableRecord
100
AcDbRegAppTableRecord
  2
ACAD
 70
0
  0
ENDTAB
  0
TABLE
  2
BLOCK_RECORD
  5
1
100
AcDbSymbolTable
 70
0
  0
BLOCK_RECORD
  5
210
100
AcDbSymbolTableRecord
100
AcDbBlockTableRecord
  2
*Model_Space
  0
BLOCK_RECORD
  5
211
100
AcDbSymbolTableRecord
100
AcDbBlockTableRecord
  2
*Paper_Space
  0
BLOCK_RECORD
  5
212
100
AcDbSymbolTableRecord
100
AcDbBlockTableRecord
  2
_FILLED
  0
ENDTAB
  0
TABLE
  2
DIMSTYLE
  5
A
100
AcDbSymbolTable
 70
1
100
AcDbDimStyleTable
 71
0
  0
DIMSTYLE
105
213
100
AcDbSymbolTableRecord
100
AcDbDimStyleTableRecord
  2
STANDARD
 70
0
  3

  4

 40
1.0
 41
3.6573519022
 42
1.0
 43
0.38
 44
1.0
 45
0.0
 46
0.0
 47
0.01
 48
0.01
140
5.120292663
141
0.09
142
0.0
143
25.4
144
1.0
145
0.0
146
1.0
147
0.625
 71
1
 72
0
 73
0
 74
0
 75
0
 76
0
 77
1
 78
8
 79
2
170
0
171
1
172
0
173
0
174
0
175
0
176
0
177
0
178
0
270
2
179
2
271
2
272
2
273
2
274
2
275
0
280
0
281
0
282
0
283
1
284
8
285
0
286
0
287
3
288
0
340
11
278
46
341
212
342
212
343
212
344
212
  0
ENDTAB
  0
ENDSEC
  0
SECTION
  2
BLOCKS
  0
BLOCK
  5
20
100
AcDbEntity
  8
0
100
AcDbBlockBegin
  2
*Model_Space
 70
0
 10
0.0
 20
0.0
 30
0.0
  3
*Model_Space
  1

  0
ENDBLK
  5
21
100
AcDbEntity
  8
0
100
AcDbBlockEnd
  0
BLOCK
  5
1C
100
AcDbEntity
  8
0
100
AcDbBlockBegin
  2
*Paper_Space
 70
0
 10
0.0
 20
0.0
 30
0.0
  3
*Paper_Space
  1

  0
ENDBLK
  5
1D
100
AcDbEntity
  8
0
100
AcDbBlockEnd
  0
BLOCK
  5
214
100
AcDbEntity
  8
0
100
AcDbBlockBegin
  2
_FILLED
 70
64
 10
0.0
 20
0.0
  3
_FILLED
  1

  0
SOLID
  5
215
100
AcDbEntity
  8
0
  6
BYBLOCK
 62
0
100
AcDbTrace
 10
0.0
 20
0.0
 11
-1.0
 21
0.25
 12
-1.0
 22
-0.25
 13
-1.0
 23
-0.25
  0
ENDBLK
  5
216
100
AcDbEntity
  8
0
  6
BYBLOCK
 62
0
100
AcDbBlockEnd
  0
ENDSEC
  0
SECTION
  2
ENTITIES
  0
LINE
  5
217
100
AcDbEntity
  8
0
100
AcDbLine
 62
7
  6
CONTINUOUS
 10
145.3466583827
 20
400.9984571937
 11
147.1144162899
 21
402.019066605
  0
LINE
  5
218
100
AcDbEntity
  8
0
100
AcDbLine
 62
7
  6
CONTINUOUS
 10
146.6901615552
 20
401.6516453179
 11
145.7002178648
 21
401.0801044733
  0
LINE
  5
219
100
AcDbEntity
  8
0
100
AcDbLine
 62
7
  6
CONTINUOUS
 10
145.8416422038
 20
400.9984549403
 11
145.7709306231
 21
400.9576298339
  0
LINE
  5
21A
100
AcDbEntity
  8
0
100
AcDbLine
 62
7
  6
CONTINUOUS
 10
147.0437286004
 20
400.2227962032
 11
147.1144401811
 21
400.2636213096
  0
LINE
  5
21B
100
AcDbEntity
  8
0
100
AcDbLine
 62
7
  6
CONTINUOUS
 10
147.2558645201
 20
400.1819717766
 11
148.2458082105
 21
400.7535126211
  0
LINE
  5
21C
100
AcDbEntity
  8
0
100
AcDbLine
 62
7
  6
CONTINUOUS
 10
148.8821889169
 20
400.998465692
 11
147.1144310097
 21
399.9778562807
  0
LINE
  5
21D
100
AcDbEntity
  8
0
100
AcDbLine
 62
7
  6
CONTINUOUS
 10
147.4679813204
 20
399.7737385314
 11
149.2357392276
 21
400.7943479427
  0
LINE
  5
21E
100
AcDbEntity
  8
0
100
AcDbLine
 62
7
  6
CONTINUOUS
 10
148.8114907307
 20
400.4269230543
 11
147.8215470402
 21
399.8553822098
  0
LINE
  5
21F
100
AcDbEntity
  8
0
100
AcDbLine
 62
7
  6
CONTINUOUS
 10
144.6360228308
 20
397.9631549404
 11
144.8127991484
 21
398.0652161857
  0
LINE
  5
220
100
AcDbEntity
  8
0
100
AcDbLine
 62
7
  6
CONTINUOUS
 10
147.9629713792
 20
399.7737326767
 11
147.8922597985
 21
399.7329075703
  0
LINE
  5
221
100
AcDbEntity
  8
0
100
AcDbLine
 62
7
  6
CONTINUOUS
 10
149.1650577758
 20
398.9980739396
 11
149.2357693565
 21
399.0388990461
  0
LINE
  5
222
100
AcDbEntity
  8
0
100
AcDbLine
 62
7
  6
CONTINUOUS
 10
149.3771936955
 20
398.9572495131
 11
150.367137386
 21
399.5287903576
  0
LINE
  5
223
100
AcDbEntity
  8
0
100
AcDbLine
 62
7
  6
CONTINUOUS
 10
151.0035118545
 20
399.7737470298
 11
149.2357539474
 21
398.7531376184
  0
LINE
  5
224
100
AcDbEntity
  8
0
100
AcDbLine
 62
7
  6
CONTINUOUS
 10
144.3849937402
 20
395.8136558511
 11
144.6360228308
 21
395.958586699
  0
LINE
  5
225
100
AcDbEntity
  8
0
100
AcDbLine
 62
7
  6
CONTINUOUS
 10
149.5893253316
 20
398.5490077026
 11
151.3570832387
 21
399.5696171139
  0
LINE
  5
226
100
AcDbEntity
  8
0
100
AcDbLine
 62
7
  6
CONTINUOUS
 10
150.9328199061
 20
399.2022007907
 11
149.9428762157
 21
398.6306599462
  0
LINE
  5
227
100
AcDbEntity
  8
0
100
AcDbLine
 62
7
  6
CONTINUOUS
 10
150.0843005547
 20
398.5490104132
 11
150.013588974
 21
398.5081853067
  0
LINE
  5
228
100
AcDbEntity
  8
0
100
AcDbLine
 62
7
  6
CONTINUOUS
 10
144.1375075999
 20
394.6909746747
 11
144.3849937402
 21
394.8338606984
  0
LINE
  5
229
100
AcDbEntity
  8
0
100
AcDbLine
 62
7
  6
CONTINUOUS
 10
151.2863869513
 20
397.7733516761
 11
151.357098532
 21
397.8141767825
  0
LINE
  5
22A
100
AcDbEntity
  8
0
100
AcDbLine
 62
7
  6
CONTINUOUS
 10
148.4119864086
 20
395.9872714615
 11
148.235210091
 21
395.8852102162
  0
LINE
  5
22B
100
AcDbEntity
  8
0
100
AcDbLine
 62
7
  6
CONTINUOUS
 10
151.4985228709
 20
397.7325272495
 11
152.4884665614
 21
398.304068094
  0
LINE
  5
22C
100
AcDbEntity
  8
0
100
AcDbLine
 62
7
  6
CONTINUOUS
 10
153.1248558657
 20
398.549016201
 11
151.3570979586
 21
397.5284067896
  0
LINE
  5
22D
100
AcDbEntity
  8
0
100
AcDbLine
 62
7
  6
CONTINUOUS
 10
149.5893253316
 20
393.7724719027
 11
149.2357539474
 21
393.5683385874
  0
LINE
  5
22E
100
AcDbEntity
  8
0
100
AcDbLine
 62
7
  6
CONTINUOUS
 10
144.0809338039
 20
390.0858947247
 11
144.3849937402
 21
390.2614427629
  0
LINE
  5
22F
100
AcDbEntity
  8
0
100
AcDbLine
 62
7
  6
CONTINUOUS
 10
149.6706309446
 20
391.7822656719
 11
149.4231448043
 21
391.6393796483
  0
LINE
  5
230
100
AcDbEntity
  8
0
100
AcDbLine
 62
7
  6
CONTINUOUS
 10
153.1248558657
 20
393.3642171699
 11
151.3570979586
 21
392.3436077586
  0
LINE
  5
231
100
AcDbEntity
  8
0
100
AcDbLine
 62
7
  6
CONTINUOUS
 10
149.4231448043
 20
391.0678279563
 11
149.6706309446
 21
391.2107164716
  0
LINE
  5
232
100
AcDbEntity
  8
0
100
AcDbLine
 62
7
  6
CONTINUOUS
 10
150.1302664992
 20
391.2311319831
 11
150.3777526395
 21
391.3740180068
  0
LINE
  5
233
100
AcDbEntity
  8
0
100
AcDbLine
 62
7
  6
CONTINUOUS
 10
154.2562187599
 20
393.4703701992
 11
151.3500212623
 21
391.7924863073
  0
LINE
  5
234
100
AcDbEntity
  8
0
100
AcDbLine
 62
7
  6
CONTINUOUS
 10
151.3500212623
 20
390.8126911546
 11
151.102535122
 21
390.669805131
  0
LINE
  5
235
100
AcDbEntity
  8
0
100
AcDbLine
 62
7
  6
CONTINUOUS
 10
151.102535122
 20
390.098253439
 11
151.3500212623
 21
390.2411419544
  0
LINE
  5
236
100
AcDbEntity
  8
0
100
AcDbLine
 62
7
  6
CONTINUOUS
 10
149.6706309446
 20
387.2098477364
 11
149.3665710083
 21
387.0342996982
  0
LINE
  5
237
100
AcDbEntity
  8
0
100
AcDbLine
 62
7
  6
CONTINUOUS
 10
147.8815863334
 20
386.0953090571
 11
149.0695930455
 21
386.7812009579
  0
LINE
  5
238
100
AcDbEntity
  8
0
100
AcDbLine
 62
7
  6
CONTINUOUS
 10
149.154444835
 20
386.2178087734
 11
149.6706309446
 21
386.5158271838
  0
LINE
  5
239
100
AcDbEntity
  8
0
100
AcDbLine
 62
7
  6
CONTINUOUS
 10
150.0736927032
 20
386.6260520331
 11
150.3777526395
 21
386.8016000713
  0
LINE
  5
23A
100
AcDbEntity
  8
0
100
AcDbLine
 62
7
  6
CONTINUOUS
 10
151.3500212623
 20
386.2402732191
 11
151.045961326
 21
386.0647251809
  0
LINE
  5
23B
100
AcDbEntity
  8
0
100
AcDbLine
 62
7
  6
CONTINUOUS
 10
154.3693548499
 20
387.9834795859
 11
154.2562187599
 21
387.918157111
  0
LINE
  5
23C
100
AcDbEntity
  8
0
100
AcDbLine
 62
7
  6
CONTINUOUS
 10
150.8338351527
 20
385.2482342561
 11
154.581485709
 21
387.4119283981
  0
LINE
  5
23D
100
AcDbEntity
  8
0
100
AcDbLine
 62
7
  6
CONTINUOUS
 10
186.1883527451
 20
33.9236510464
 11
176.0976068891
 21
39.7494137338
  0
LINE
  5
23E
100
AcDbEntity
  8
0
100
AcDbLine
 62
7
  6
CONTINUOUS
 10
110.0338371485
 20
77.8904859767
 11
105.3866342582
 21
80.5734891188
  0
LINE
  5
23F
100
AcDbEntity
  8
0
100
AcDbLine
 62
7
  6
CONTINUOUS
 10
99.7346989719
 20
83.8365616572
 11
97.5167935097
 21
85.1170410045
  0
LINE
  5
240
100
AcDbEntity
  8
0
100
AcDbLine
 62
7
  6
CONTINUOUS
 10
166.2466513347
 20
61.7659833515
 11
119.579812357
 21
88.7084858767
  0
LINE
  5
241
100
AcDbEntity
  8
0
100
AcDbLine
 62
7
  6
CONTINUOUS
 10
112.5075142043
 20
103.8151343813
 11
172.2582908571
 21
69.3187878081
  0
LINE
  5
242
100
AcDbEntity
  8
0
100
AcDbLine
 62
7
  6
CONTINUOUS
 10
97.5167935097
 20
85.1170410045
 11
96.8431819311
 21
86.0560029738
  0
LINE
  5
243
100
AcDbEntity
  8
0
100
AcDbLine
 62
7
  6
CONTINUOUS
 10
122.5482555068
 20
317.8199405389
 11
97.5167799675
 21
303.3680976639
  0
LINE
  5
244
100
AcDbEntity
  8
0
100
AcDbLine
 62
7
  6
CONTINUOUS
 10
123.6089155056
 20
317.2075794675
 11
98.5774426775
 21
302.7557381578
  0
LINE
  5
245
100
AcDbEntity
  8
0
100
AcDbLine
 62
7
  6
CONTINUOUS
 10
152.992879218
 20
386.3847577518
 11
153.1149255977
 21
386.5708061987
  0
LINE
  5
246
100
AcDbEntity
  8
0
100
AcDbLine
 62
7
  6
CONTINUOUS
 10
151.3581516067
 20
379.014373667
 11
151.4776976978
 21
379.1885572689
  0
LINE
  5
247
100
AcDbEntity
  8
0
100
AcDbLine
 62
7
  6
CONTINUOUS
 10
97.5167799675
 20
303.3680976639
 11
96.8431819311
 21
302.4291435131
  0
LINE
  5
248
100
AcDbEntity
  8
0
100
AcDbLine
 62
7
  6
CONTINUOUS
 10
98.3431493919
 20
302.429146109
 11
98.5774446946
 21
302.7557393224
  0
LINE
  5
249
100
AcDbEntity
  8
0
100
AcDbLine
 62
7
  6
CONTINUOUS
 10
99.9916697041
 20
301.286068177
 11
101.0523223411
 21
301.8984326072
  0
LINE
  5
24A
100
AcDbEntity
  8
0
100
AcDbLine
 62
7
  6
CONTINUOUS
 10
125.0938541129
 20
315.7787345931
 11
126.1545067499
 21
316.3910990233
  0
LINE
  5
24B
100
AcDbEntity
  8
0
100
AcDbLine
 62
7
  6
CONTINUOUS
 10
103.4971011502
 20
296.194417515
 11
102.7899998839
 21
295.7861748455
  0
LINE
  5
24C
100
AcDbEntity
  8
0
100
AcDbLine
 62
7
  6
CONTINUOUS
 10
108.6011190043
 20
298.6215913475
 11
107.6646204461
 21
298.0809068803
  0
LINE
  5
24D
100
AcDbEntity
  8
0
100
AcDbLine
 62
7
  6
CONTINUOUS
 10
100.1579499179
 20
292.9963999562
 11
102.6327321831
 21
294.4253996457
  0
LINE
  5
24E
100
AcDbEntity
  8
0
100
AcDbLine
 62
7
  6
CONTINUOUS
 10
112.1146634671
 20
297.9156221061
 11
120.9926291668
 21
303.0412873965
  0
LINE
  5
24F
100
AcDbEntity
  8
0
100
AcDbLine
 62
7
  6
CONTINUOUS
 10
113.5359757086
 20
297.5114772693
 11
122.0532959041
 21
302.4289250238
  0
LINE
  5
250
100
AcDbEntity
  8
0
100
AcDbLine
 62
7
  6
CONTINUOUS
 10
112.1539465006
 20
295.4890402296
 11
110.0326359584
 21
294.2643083277
  0
LINE
  5
251
100
AcDbEntity
  8
0
100
AcDbLine
 62
7
  6
CONTINUOUS
 10
103.2958534361
 20
294.9205368904
 11
102.5874653605
 21
294.514531412
  0
LINE
  5
252
100
AcDbEntity
  8
0
100
AcDbLine
 62
7
  6
CONTINUOUS
 10
121.8058030976
 20
124.9906986948
 11
135.4883806952
 21
117.0912375454
  0
LINE
  5
253
100
AcDbEntity
  8
0
100
AcDbLine
 62
7
  6
CONTINUOUS
 10
135.4883806952
 20
117.1483927146
 11
121.8058030976
 21
125.047853864
  0
LINE
  5
254
100
AcDbEntity
  8
0
100
AcDbLine
 62
7
  6
CONTINUOUS
 10
105.2242907514
 20
136.1893712811
 11
110.0326366169
 21
133.4133343036
  0
LINE
  5
255
100
AcDbEntity
  8
0
100
AcDbLine
 62
7
  6
CONTINUOUS
 10
173.6725118176
 20
96.6716664824
 11
178.4808578285
 21
93.8956295889
  0
LINE
  5
256
100
AcDbEntity
  8
0
100
AcDbLine
 62
7
  6
CONTINUOUS
 10
106.2849448214
 20
136.8017365386
 11
111.0932924149
 21
134.0257005588
  0
LINE
  5
257
100
AcDbEntity
  8
0
100
AcDbLine
 62
7
  6
CONTINUOUS
 10
174.7331673973
 20
97.2840326115
 11
178.4808578285
 21
95.1203509444
  0
LINE
  5
258
100
AcDbEntity
  8
0
100
AcDbLine
 62
7
  6
CONTINUOUS
 10
178.4808578285
 20
95.5286377325
 11
178.127288211
 21
95.732766616
  0
LINE
  5
259
100
AcDbEntity
  8
0
100
AcDbLine
 62
7
  6
CONTINUOUS
 10
105.5778538707
 20
137.6182542805
 11
105.2242907514
 21
137.8223794247
  0
LINE
  5
25A
100
AcDbEntity
  8
0
100
AcDbLine
 62
7
  6
CONTINUOUS
 10
177.4778767821
 20
96.5151429164
 11
138.6703565605
 21
118.9201682935
  0
LINE
  5
25B
100
AcDbEntity
  8
0
100
AcDbLine
 62
7
  6
CONTINUOUS
 10
138.6703496459
 20
118.9854923789
 11
124.7402868545
 21
127.0278353581
  0
LINE
  5
25C
100
AcDbEntity
  8
0
100
AcDbLine
 62
7
  6
CONTINUOUS
 10
177.4536378566
 20
102.3351230789
 11
171.6147759166
 21
105.7061153298
  0
LINE
  5
25D
100
AcDbEntity
  8
0
100
AcDbLine
 62
7
  6
CONTINUOUS
 10
122.8383558584
 20
133.8665575061
 11
113.1438737878
 21
139.4635427185
  0
LINE
  5
25E
100
AcDbEntity
  8
0
100
AcDbLine
 62
7
  6
CONTINUOUS
 10
144.529958094
 20
392.0114920581
 11
144.6360228308
 21
392.2476386045
  0
LINE
  5
25F
100
AcDbEntity
  8
0
100
AcDbLine
 62
7
  6
CONTINUOUS
 10
144.2823990732
 20
388.7448029814
 11
144.529958094
 21
389.295976348
  0
LINE
  5
260
100
AcDbEntity
  8
0
100
AcDbLine
 62
7
  6
CONTINUOUS
 10
148.235210091
 20
390.1696938803
 11
148.1291453542
 21
389.933547334
  0
LINE
  5
261
100
AcDbEntity
  8
0
100
AcDbLine
 62
7
  6
CONTINUOUS
 10
148.1291453542
 20
387.2180316239
 11
147.8815863334
 21
386.6668582573
  0
LINE
  5
262
100
AcDbEntity
  8
0
100
AcDbLine
 62
7
  6
CONTINUOUS
 10
108.293238962
 20
286.2647595867
 11
107.587431744
 21
285.8542839054
  0
LINE
  5
263
100
AcDbEntity
  8
0
100
AcDbLine
 62
7
  6
CONTINUOUS
 10
111.4468550635
 20
291.8160612763
 11
112.5075129688
 21
292.4284287481
  0
LINE
  5
264
100
AcDbEntity
  8
0
100
AcDbLine
 62
7
  6
CONTINUOUS
 10
113.7548722306
 20
292.7175731466
 11
112.6942195936
 21
292.1052087165
  0
LINE
  5
265
100
AcDbEntity
  8
0
100
AcDbLine
 62
7
  6
CONTINUOUS
 10
143.2678470849
 20
307.7356510155
 11
141.146535489
 21
306.5109185052
  0
LINE
  5
266
100
AcDbEntity
  8
0
100
AcDbLine
 62
7
  6
CONTINUOUS
 10
109.4970734097
 20
285.802098684
 11
108.7899721434
 21
285.3938560145
  0
LINE
  5
267
100
AcDbEntity
  8
0
100
AcDbLine
 62
7
  6
CONTINUOUS
 10
144.6820718246
 20
305.2861768027
 11
142.5607602287
 21
304.0614442924
  0
LINE
  5
268
100
AcDbEntity
  8
0
100
AcDbLine
 62
7
  6
CONTINUOUS
 10
122.0532959041
 20
291.4061237105
 11
123.6089155056
 21
292.304255745
  0
LINE
  5
269
100
AcDbEntity
  8
0
100
AcDbLine
 62
7
  6
CONTINUOUS
 10
115.5324069868
 20
286.416574268
 11
122.0532959041
 21
290.1813887668
  0
LINE
  5
26A
100
AcDbEntity
  8
0
100
AcDbLine
 62
7
  6
CONTINUOUS
 10
116.2449684572
 20
283.8906889031
 11
115.1843158202
 21
283.278324473
  0
LINE
  5
26B
100
AcDbEntity
  8
0
100
AcDbLine
 62
7
  6
CONTINUOUS
 10
144.6820718246
 20
300.1097485535
 11
142.5607602287
 21
298.8850160432
  0
LINE
  5
26C
100
AcDbEntity
  8
0
100
AcDbLine
 62
7
  6
CONTINUOUS
 10
147.948916837
 20
301.4568624474
 11
147.5105291161
 21
301.2037585423
  0
LINE
  5
26D
100
AcDbEntity
  8
0
100
AcDbLine
 62
7
  6
CONTINUOUS
 10
105.057926663
 20
284.5093406172
 11
107.5328752144
 21
285.9380522888
  0
LINE
  5
26E
100
AcDbEntity
  8
0
100
AcDbLine
 62
7
  6
CONTINUOUS
 10
160.9108481736
 20
137.7828038976
 11
160.0999474247
 21
137.6067982804
  0
LWPOLYLINE
  5
26F
100
AcDbEntity
  8
0
100
AcDbPolyline
 62
7
  6
CONTINUOUS
 90
3
 70
0
 10
163.5015697546
 20
136.9047937446
 10
154.9060979912
 20
135.2334091103
 10
144.7466119883
 20
138.7648598782
  0
LINE
  5
270
100
AcDbEntity
  8
0
100
AcDbLine
 62
7
  6
CONTINUOUS
 10
173.0360871968
 20
120.3909900871
 11
120.4134430142
 21
150.7720005611
  0
LINE
  5
271
100
AcDbEntity
  8
0
100
AcDbLine
 62
7
  6
CONTINUOUS
 10
111.4468543234
 20
130.963847939
 11
110.0326366169
 21
133.4133343036
  0
LINE
  5
272
100
AcDbEntity
  8
0
100
AcDbLine
 62
7
  6
CONTINUOUS
 10
111.0932924149
 20
134.0257005588
 11
112.5075101213
 21
131.5762141942
  0
LINE
  5
273
100
AcDbEntity
  8
0
100
AcDbLine
 62
7
  6
CONTINUOUS
 10
118.4792039119
 20
278.7740146322
 11
119.5398565489
 21
279.3863790624
  0
LINE
  5
274
100
AcDbEntity
  8
0
100
AcDbLine
 62
7
  6
CONTINUOUS
 10
137.0005402887
 20
144.6809935463
 11
153.838060337
 21
146.1851093709
  0
LINE
  5
275
100
AcDbEntity
  8
0
100
AcDbLine
 62
7
  6
CONTINUOUS
 10
139.6102994505
 20
149.6282017891
 11
132.8413356738
 21
149.0235155459
  0
LINE
  5
276
100
AcDbEntity
  8
0
100
AcDbLine
 62
7
  6
CONTINUOUS
 10
134.9626471854
 20
150.2482480075
 11
140.30921885
 21
150.7258688725
  0
LINE
  5
277
100
AcDbEntity
  8
0
100
AcDbLine
 62
7
  6
CONTINUOUS
 10
113.1438705594
 20
163.9504483443
 11
116.4673078152
 21
162.0317043578
  0
LINE
  5
278
100
AcDbEntity
  8
0
100
AcDbLine
 62
7
  6
CONTINUOUS
 10
175.5109510064
 20
127.9436122431
 11
177.4536378566
 21
126.8220264593
  0
LINE
  5
279
100
AcDbEntity
  8
0
100
AcDbLine
 62
7
  6
CONTINUOUS
 10
177.4536378566
 20
128.0467455032
 11
176.5716036433
 21
128.5559766733
  0
LINE
  5
27A
100
AcDbEntity
  8
0
100
AcDbLine
 62
7
  6
CONTINUOUS
 10
116.4673078152
 20
163.2564230201
 11
114.2044969942
 21
164.5628279019
  0
LINE
  5
27B
100
AcDbEntity
  8
0
100
AcDbLine
 62
7
  6
CONTINUOUS
 10
135.267904779
 20
151.2771450808
 11
134.487306369
 21
151.7512981878
  0
LWPOLYLINE
  5
27C
100
AcDbEntity
  8
0
100
AcDbPolyline
 62
7
  6
CONTINUOUS
 90
5
 70
0
 10
144.7466119883
 20
138.7648598782
 10
134.6129374253
 20
146.9419280292
 10
126.0150663604
 20
158.5318026911
 10
120.2727324202
 20
171.7427656644
 10
118.2350841301
 20
184.6897448826
  0
LINE
  5
27D
100
AcDbEntity
  8
0
100
AcDbLine
 62
7
  6
CONTINUOUS
 10
96.8431320373
 20
86.0560029738
 11
96.8431320373
 21
302.4291435132
  0
LINE
  5
27E
100
AcDbEntity
  8
0
100
AcDbLine
 62
7
  6
CONTINUOUS
 10
97.5167947509
 20
85.1170402879
 11
97.5167947509
 21
301.4901808273
  0
LINE
  5
27F
100
AcDbEntity
  8
0
100
AcDbLine
 62
7
  6
CONTINUOUS
 10
98.5774426775
 20
302.1025482991
 11
98.5774426775
 21
302.7557381578
  0
LINE
  5
280
100
AcDbEntity
  8
0
100
AcDbLine
 62
7
  6
CONTINUOUS
 10
105.2242894343
 20
241.5182021501
 11
105.2242894343
 21
239.8851940065
  0
LINE
  5
281
100
AcDbEntity
  8
0
100
AcDbLine
 62
7
  6
CONTINUOUS
 10
105.2242907514
 20
137.8223794247
 11
105.2242907514
 21
136.1893712811
  0
LINE
  5
282
100
AcDbEntity
  8
0
100
AcDbLine
 62
7
  6
CONTINUOUS
 10
105.5801846418
 20
239.6797224611
 11
105.5801846418
 21
137.6169086397
  0
LINE
  5
283
100
AcDbEntity
  8
0
100
AcDbLine
 62
7
  6
CONTINUOUS
 10
148.2103648877
 20
401.182216952
 11
148.1043838715
 21
400.8351621542
  0
LINE
  5
284
100
AcDbEntity
  8
0
100
AcDbLine
 62
7
  6
CONTINUOUS
 10
150.3316940632
 20
399.9574946885
 11
150.225713047
 21
399.6104398906
  0
LINE
  5
285
100
AcDbEntity
  8
0
100
AcDbLine
 62
7
  6
CONTINUOUS
 10
152.4530232386
 20
398.7327724249
 11
152.3470422224
 21
398.385717627
  0
LINE
  5
286
100
AcDbEntity
  8
0
100
AcDbLine
 62
7
  6
CONTINUOUS
 10
169.1809909373
 20
146.9459952148
 11
169.8601414202
 21
146.7098178679
  0
LINE
  5
287
100
AcDbEntity
  8
0
100
AcDbLine
 62
7
  6
CONTINUOUS
 10
106.2849435043
 20
240.497559264
 11
106.2849435043
 21
240.9058470906
  0
LINE
  5
288
100
AcDbEntity
  8
0
100
AcDbLine
 62
7
  6
CONTINUOUS
 10
106.2849448214
 20
136.8017365386
 11
106.2849448214
 21
137.404948115
  0
LINE
  5
289
100
AcDbEntity
  8
0
100
AcDbLine
 62
7
  6
CONTINUOUS
 10
108.8305324168
 20
137.6264383185
 11
108.8305324168
 21
239.436183895
  0
LINE
  5
28A
100
AcDbEntity
  8
0
100
AcDbLine
 62
7
  6
CONTINUOUS
 10
111.4468550635
 20
291.8160612763
 11
111.4468550635
 21
239.5586916264
  0
LINE
  5
28B
100
AcDbEntity
  8
0
100
AcDbLine
 62
7
  6
CONTINUOUS
 10
111.4468543234
 20
130.963847939
 11
111.4468550635
 21
78.7063160791
  0
LINE
  5
28C
100
AcDbEntity
  8
0
100
AcDbLine
 62
7
  6
CONTINUOUS
 10
112.0124996842
 20
239.8852648452
 11
112.0124996842
 21
217.023101614
  0
LINE
  5
28D
100
AcDbEntity
  8
0
100
AcDbLine
 62
7
  6
CONTINUOUS
 10
112.0124996842
 20
163.9504445006
 11
112.0124996842
 21
139.4635370109
  0
LINE
  5
28E
100
AcDbEntity
  8
0
100
AcDbLine
 62
7
  6
CONTINUOUS
 10
112.5075129688
 20
292.4284287481
 11
112.5075091334
 21
240.171056978
  0
LINE
  5
28F
100
AcDbEntity
  8
0
100
AcDbLine
 62
7
  6
CONTINUOUS
 10
112.5075101213
 20
131.5762141942
 11
112.5075129688
 21
79.3186835509
  0
LINE
  5
290
100
AcDbEntity
  8
0
100
AcDbLine
 62
7
  6
CONTINUOUS
 10
113.1438737878
 20
139.4635427185
 11
113.1438737878
 21
163.9504502082
  0
LINE
  5
291
100
AcDbEntity
  8
0
100
AcDbLine
 62
7
  6
CONTINUOUS
 10
113.1438737878
 20
217.0231073216
 11
113.1438737878
 21
241.5100148113
  0
LINE
  5
292
100
AcDbEntity
  8
0
100
AcDbLine
 62
7
  6
CONTINUOUS
 10
113.6388363772
 20
242.4489694264
 11
113.6388363772
 21
242.3903415075
  0
LINE
  5
293
100
AcDbEntity
  8
0
100
AcDbLine
 62
7
  6
CONTINUOUS
 10
113.6388363772
 20
216.7373432744
 11
113.6388363772
 21
164.8307762769
  0
LINE
  5
294
100
AcDbEntity
  8
0
100
AcDbLine
 62
7
  6
CONTINUOUS
 10
116.4673078152
 20
218.3704446099
 11
116.4673078152
 21
157.6081380099
  0
LINE
  5
295
100
AcDbEntity
  8
0
100
AcDbLine
 62
7
  6
CONTINUOUS
 10
150.1581077878
 20
379.3812514818
 11
151.5512539086
 21
385.6624336955
  0
LINE
  5
296
100
AcDbEntity
  8
0
100
AcDbLine
 62
7
  6
CONTINUOUS
 10
151.4776901153
 20
379.1885578323
 11
153.1150433023
 21
386.5707796698
  0
LINE
  5
297
100
AcDbEntity
  8
0
100
AcDbLine
 62
7
  6
CONTINUOUS
 10
135.6337687366
 20
257.6058591677
 11
135.1350123835
 21
257.3179037719
  0
LINE
  5
298
100
AcDbEntity
  8
0
100
AcDbLine
 62
7
  6
CONTINUOUS
 10
106.2849435043
 20
240.497559264
 11
105.2242894343
 21
239.8851940065
  0
LINE
  5
299
100
AcDbEntity
  8
0
100
AcDbLine
 62
7
  6
CONTINUOUS
 10
134.0743597465
 20
255.4807936002
 11
135.6337687366
 21
256.3811134261
  0
LINE
  5
29A
100
AcDbEntity
  8
0
100
AcDbLine
 62
7
  6
CONTINUOUS
 10
112.5781722742
 20
243.0613302783
 11
112.5075091334
 21
243.0205331466
  0
LINE
  5
29B
100
AcDbEntity
  8
0
100
AcDbLine
 62
7
  6
CONTINUOUS
 10
113.5372892369
 20
242.3903415075
 11
113.6388363772
 21
242.4489694264
  0
LINE
  5
29C
100
AcDbEntity
  8
0
100
AcDbLine
 62
7
  6
CONTINUOUS
 10
112.5075107799
 20
240.1710579286
 11
110.0326352998
 21
238.7421651727
  0
LINE
  5
29D
100
AcDbEntity
  8
0
100
AcDbLine
 62
7
  6
CONTINUOUS
 10
189.2273918663
 20
281.2014899069
 11
187.1060802704
 21
279.9767573966
  0
LINE
  5
29E
100
AcDbEntity
  8
0
100
AcDbLine
 62
7
  6
CONTINUOUS
 10
145.2435915115
 20
255.3974212052
 11
144.1190740849
 21
254.7481845775
  0
LINE
  5
29F
100
AcDbEntity
  8
0
100
AcDbLine
 62
7
  6
CONTINUOUS
 10
126.7911138698
 20
180.8366001439
 11
121.4637228921
 21
184.2346907545
  0
LINE
  5
2A0
100
AcDbEntity
  8
0
100
AcDbLine
 62
7
  6
CONTINUOUS
 10
121.1990142013
 20
184.714525798
 11
126.7911138698
 21
181.1475900397
  0
LINE
  5
2A1
100
AcDbEntity
  8
0
100
AcDbLine
 62
7
  6
CONTINUOUS
 10
169.1030668172
 20
158.5439811163
 11
164.8176364726
 21
161.277454345
  0
LINE
  5
2A2
100
AcDbEntity
  8
0
100
AcDbLine
 62
7
  6
CONTINUOUS
 10
165.072330106
 20
162.1429817376
 11
167.4071499216
 21
160.6537106618
  0
LINE
  5
2A3
100
AcDbEntity
  8
0
100
AcDbLine
 62
7
  6
CONTINUOUS
 10
170.2076324289
 20
108.1433367349
 11
171.6147759166
 21
105.7061153298
  0
LINE
  5
2A4
100
AcDbEntity
  8
0
100
AcDbLine
 62
7
  6
CONTINUOUS
 10
121.4637228921
 20
184.2346907545
 11
121.1990142013
 21
184.714525798
  0
LINE
  5
2A5
100
AcDbEntity
  8
0
100
AcDbLine
 62
7
  6
CONTINUOUS
 10
121.8058030976
 20
125.047853864
 11
121.8058030976
 21
124.9906986948
  0
LINE
  5
2A6
100
AcDbEntity
  8
0
100
AcDbLine
 62
7
  6
CONTINUOUS
 10
122.0532959041
 20
302.4289250238
 11
122.0532959041
 21
290.1813887668
  0
LINE
  5
2A7
100
AcDbEntity
  8
0
100
AcDbLine
 62
7
  6
CONTINUOUS
 10
123.6089126582
 20
261.5228856034
 11
123.6089126582
 21
236.6928807511
  0
LINE
  5
2A8
100
AcDbEntity
  8
0
100
AcDbLine
 62
7
  6
CONTINUOUS
 10
123.6089126582
 20
134.3114464298
 11
123.6089126582
 21
127.0278356803
  0
LINE
  5
2A9
100
AcDbEntity
  8
0
100
AcDbLine
 62
7
  6
CONTINUOUS
 10
123.6089155056
 20
317.2075794675
 11
123.6089155056
 21
292.304255745
  0
LINE
  5
2AA
100
AcDbEntity
  8
0
100
AcDbLine
 62
7
  6
CONTINUOUS
 10
124.2454980289
 20
216.7374947056
 11
124.2454980289
 21
233.4758089543
  0
LINE
  5
2AB
100
AcDbEntity
  8
0
100
AcDbLine
 62
7
  6
CONTINUOUS
 10
124.245499346
 20
134.6789863262
 11
124.245499346
 21
148.5596118573
  0
LINE
  5
2AC
100
AcDbEntity
  8
0
100
AcDbLine
 62
7
  6
CONTINUOUS
 10
124.7402868545
 20
127.0278353581
 11
124.7402868545
 21
134.9646503222
  0
LINE
  5
2AD
100
AcDbEntity
  8
0
100
AcDbLine
 62
7
  6
CONTINUOUS
 10
124.7402868545
 20
235.0682763666
 11
124.7402868545
 21
260.8697011836
  0
LINE
  5
2AE
100
AcDbEntity
  8
0
100
AcDbLine
 62
7
  6
CONTINUOUS
 10
124.740289702
 20
292.3042554229
 11
124.740289702
 21
317.2075791453
  0
LINE
  5
2AF
100
AcDbEntity
  8
0
100
AcDbLine
 62
7
  6
CONTINUOUS
 10
125.0938541129
 20
315.7787345931
 11
125.0938541129
 21
290.8754108707
  0
LINE
  5
2B0
100
AcDbEntity
  8
0
100
AcDbLine
 62
7
  6
CONTINUOUS
 10
125.3061487546
 20
147.947259489
 11
125.3061487546
 21
135.2913488924
  0
LINE
  5
2B1
100
AcDbEntity
  8
0
100
AcDbLine
 62
7
  6
CONTINUOUS
 10
125.3061537848
 20
234.0881751851
 11
125.3061537848
 21
217.3498609364
  0
LINE
  5
2B2
100
AcDbEntity
  8
0
100
AcDbLine
 62
7
  6
CONTINUOUS
 10
126.7911138698
 20
202.2817865107
 11
126.7911138698
 21
179.8316798425
  0
LINE
  5
2B3
100
AcDbEntity
  8
0
100
AcDbLine
 62
7
  6
CONTINUOUS
 10
130.326663075
 20
203.4291611781
 11
130.326663075
 21
194.4038340355
  0
LINE
  5
2B4
100
AcDbEntity
  8
0
100
AcDbLine
 62
7
  6
CONTINUOUS
 10
117.95224024
 20
214.0430025968
 11
118.3975477314
 21
215.0272133581
  0
LINE
  5
2B5
100
AcDbEntity
  8
0
100
AcDbLine
 62
7
  6
CONTINUOUS
 10
120.9928120582
 20
212.2875673524
 11
120.5475045668
 21
211.303356591
  0
LINE
  5
2B6
100
AcDbEntity
  8
0
100
AcDbLine
 62
7
  6
CONTINUOUS
 10
144.1190740849
 20
253.5234388359
 11
145.2435915115
 21
254.1726754636
  0
LINE
  5
2B7
100
AcDbEntity
  8
0
100
AcDbLine
 62
7
  6
CONTINUOUS
 10
190.6416102313
 20
278.7520252144
 11
188.5202986354
 21
277.5272927042
  0
LINE
  5
2B8
100
AcDbEntity
  8
0
100
AcDbLine
 62
7
  6
CONTINUOUS
 10
122.8383545413
 20
235.9130303594
 11
123.8990102971
 21
236.5253965902
  0
LINE
  5
2B9
100
AcDbEntity
  8
0
100
AcDbLine
 62
7
  6
CONTINUOUS
 10
190.6416102313
 20
273.444754831
 11
188.5202986354
 21
272.2200223207
  0
LINE
  5
2BA
100
AcDbEntity
  8
0
100
AcDbLine
 62
7
  6
CONTINUOUS
 10
197.0056025413
 20
276.7108453119
 11
193.4700662057
 21
274.6696077145
  0
LINE
  5
2BB
100
AcDbEntity
  8
0
100
AcDbLine
 62
7
  6
CONTINUOUS
 10
125.3061537848
 20
234.0881751851
 11
124.2454980289
 21
233.4758089543
  0
LINE
  5
2BC
100
AcDbEntity
  8
0
100
AcDbLine
 62
7
  6
CONTINUOUS
 10
148.3617323081
 20
252.2987401241
 11
148.5127116165
 21
252.3858965493
  0
LINE
  5
2BD
100
AcDbEntity
  8
0
100
AcDbLine
 62
7
  6
CONTINUOUS
 10
175.7938267161
 20
258.7473752993
 11
172.2582908571
 21
256.7073553845
  0
LINE
  5
2BE
100
AcDbEntity
  8
0
100
AcDbLine
 62
7
  6
CONTINUOUS
 10
164.5302743279
 20
164.2325590442
 11
171.299251812
 21
155.8119154222
  0
LINE
  5
2BF
100
AcDbEntity
  8
0
100
AcDbLine
 62
7
  6
CONTINUOUS
 10
136.7926795822
 20
193.7732761179
 11
133.3024843999
 21
203.697895245
  0
LINE
  5
2C0
100
AcDbEntity
  8
0
100
AcDbLine
 62
7
  6
CONTINUOUS
 10
133.5233630893
 20
203.5332535006
 11
136.9814538773
 21
193.6999255103
  0
LINE
  5
2C1
100
AcDbEntity
  8
0
100
AcDbLine
 62
7
  6
CONTINUOUS
 10
169.5415381199
 20
57.2616730057
 11
171.9629081898
 21
48.6784143022
  0
LINE
  5
2C2
100
AcDbEntity
  8
0
100
AcDbLine
 62
7
  6
CONTINUOUS
 10
132.4479745867
 20
203.1100890192
 11
132.4479745867
 21
195.6370604222
  0
LINE
  5
2C3
100
AcDbEntity
  8
0
100
AcDbLine
 62
7
  6
CONTINUOUS
 10
134.0743597465
 20
264.7072630296
 11
134.0743597465
 21
255.4807936002
  0
LINE
  5
2C4
100
AcDbEntity
  8
0
100
AcDbLine
 62
7
  6
CONTINUOUS
 10
135.1350123835
 20
257.3179037719
 11
135.1350123835
 21
264.0949087974
  0
LINE
  5
2C5
100
AcDbEntity
  8
0
100
AcDbLine
 62
7
  6
CONTINUOUS
 10
135.4883806952
 20
117.0912375454
 11
135.4883806952
 21
117.1483927146
  0
LINE
  5
2C6
100
AcDbEntity
  8
0
100
AcDbLine
 62
7
  6
CONTINUOUS
 10
135.6337687366
 20
257.6058591677
 11
135.6337687366
 21
256.3811134261
  0
LINE
  5
2C7
100
AcDbEntity
  8
0
100
AcDbLine
 62
7
  6
CONTINUOUS
 10
136.3408756336
 20
256.3811158862
 11
136.3408756336
 21
257.6058616278
  0
LINE
  5
2C8
100
AcDbEntity
  8
0
100
AcDbLine
 62
7
  6
CONTINUOUS
 10
138.6703565605
 20
118.9201682935
 11
138.6703496459
 21
118.9854923789
  0
LINE
  5
2C9
100
AcDbEntity
  8
0
100
AcDbLine
 62
7
  6
CONTINUOUS
 10
141.2906441917
 20
254.7481760678
 11
141.2906441917
 21
253.5234303263
  0
LINE
  5
2CA
100
AcDbEntity
  8
0
100
AcDbLine
 62
7
  6
CONTINUOUS
 10
142.5607602287
 20
304.0614442924
 11
142.5607602287
 21
298.8850160432
  0
LINE
  5
2CB
100
AcDbEntity
  8
0
100
AcDbLine
 62
7
  6
CONTINUOUS
 10
143.6762332874
 20
210.4109264471
 11
143.6762332874
 21
206.8004088592
  0
LINE
  5
2CC
100
AcDbEntity
  8
0
100
AcDbLine
 62
7
  6
CONTINUOUS
 10
143.8688076306
 20
394.6787616202
 11
143.8688076306
 21
393.82136989
  0
LINE
  5
2CD
100
AcDbEntity
  8
0
100
AcDbLine
 62
7
  6
CONTINUOUS
 10
143.8688076306
 20
389.7184773401
 11
143.8688076306
 21
389.2694037999
  0
LINE
  5
2CE
100
AcDbEntity
  8
0
100
AcDbLine
 62
7
  6
CONTINUOUS
 10
144.1190740849
 20
254.7481845775
 11
144.1190740849
 21
253.5234388359
  0
LINE
  5
2CF
100
AcDbEntity
  8
0
100
AcDbLine
 62
7
  6
CONTINUOUS
 10
144.2823990732
 20
388.1732537812
 11
144.2823990732
 21
388.7448029814
  0
LINE
  5
2D0
100
AcDbEntity
  8
0
100
AcDbLine
 62
7
  6
CONTINUOUS
 10
144.3849937402
 20
390.2614427629
 11
144.3849937402
 21
393.5233564426
  0
LINE
  5
2D1
100
AcDbEntity
  8
0
100
AcDbLine
 62
7
  6
CONTINUOUS
 10
144.3849937402
 20
394.8338606984
 11
144.3849937402
 21
395.8136558511
  0
LINE
  5
2D2
100
AcDbEntity
  8
0
100
AcDbLine
 62
7
  6
CONTINUOUS
 10
144.529958094
 20
389.295976348
 11
144.529958094
 21
392.0114920581
  0
LINE
  5
2D3
100
AcDbEntity
  8
0
100
AcDbLine
 62
7
  6
CONTINUOUS
 10
144.6360228308
 20
392.2476386045
 11
144.6360228308
 21
397.9631549404
  0
LINE
  5
2D4
100
AcDbEntity
  8
0
100
AcDbLine
 62
7
  6
CONTINUOUS
 10
144.6820718246
 20
300.1097485535
 11
144.6820718246
 21
305.2861768027
  0
LINE
  5
2D5
100
AcDbEntity
  8
0
100
AcDbLine
 62
7
  6
CONTINUOUS
 10
179.0042114767
 20
245.4406841346
 11
178.2984042587
 21
245.0302084533
  0
LINE
  5
2D6
100
AcDbEntity
  8
0
100
AcDbLine
 62
7
  6
CONTINUOUS
 10
174.2080737238
 20
255.370342097
 11
173.5009723986
 21
254.9620993934
  0
LINE
  5
2D7
100
AcDbEntity
  8
0
100
AcDbLine
 62
7
  6
CONTINUOUS
 10
179.312091519
 20
257.7975158955
 11
178.3755929608
 21
257.2568314282
  0
LINE
  5
2D8
100
AcDbEntity
  8
0
100
AcDbLine
 62
7
  6
CONTINUOUS
 10
168.4079124168
 20
251.1730321234
 11
167.3472597799
 21
250.5606676933
  0
LINE
  5
2D9
100
AcDbEntity
  8
0
100
AcDbLine
 62
7
  6
CONTINUOUS
 10
170.8689224326
 20
252.1723245042
 11
173.3437046978
 21
253.6013241937
  0
LINE
  5
2DA
100
AcDbEntity
  8
0
100
AcDbLine
 62
7
  6
CONTINUOUS
 10
134.4984500587
 20
228.7806784908
 11
125.3061537848
 21
223.473535442
  0
LINE
  5
2DB
100
AcDbEntity
  8
0
100
AcDbLine
 62
7
  6
CONTINUOUS
 10
118.942174221
 20
219.7993120599
 11
116.4673078152
 21
218.3704558034
  0
LINE
  5
2DC
100
AcDbEntity
  8
0
100
AcDbLine
 62
7
  6
CONTINUOUS
 10
125.3061537848
 20
217.3498721299
 11
124.2454980289
 21
216.7375058991
  0
LINE
  5
2DD
100
AcDbEntity
  8
0
100
AcDbLine
 62
7
  6
CONTINUOUS
 10
211.9976290728
 20
266.8306704488
 11
210.9369764358
 21
266.2183060186
  0
LINE
  5
2DE
100
AcDbEntity
  8
0
100
AcDbLine
 62
7
  6
CONTINUOUS
 10
186.895444664
 20
252.3380040327
 11
185.8347920271
 21
251.7256396025
  0
LINE
  5
2DF
100
AcDbEntity
  8
0
100
AcDbLine
 62
7
  6
CONTINUOUS
 10
188.3803793508
 20
250.909160536
 11
213.4118551882
 21
265.3610035831
  0
LINE
  5
2E0
100
AcDbEntity
  8
0
100
AcDbLine
 62
7
  6
CONTINUOUS
 10
180.2080460742
 20
244.9780233185
 11
179.5009446581
 21
244.5697805625
  0
LINE
  5
2E1
100
AcDbEntity
  8
0
100
AcDbLine
 62
7
  6
CONTINUOUS
 10
189.4410439386
 20
250.2967994042
 11
214.4725216142
 21
264.7486465144
  0
LINE
  5
2E2
100
AcDbEntity
  8
0
100
AcDbLine
 62
7
  6
CONTINUOUS
 10
175.7688991777
 20
243.6852651651
 11
178.2438477291
 21
245.1139768368
  0
LINE
  5
2E3
100
AcDbEntity
  8
0
100
AcDbLine
 62
7
  6
CONTINUOUS
 10
174.0068259508
 20
254.0964614383
 11
173.2984378752
 21
253.6904559599
  0
LINE
  5
2E4
100
AcDbEntity
  8
0
100
AcDbLine
 62
7
  6
CONTINUOUS
 10
116.4673078152
 20
215.1043614712
 11
113.1438705594
 21
217.0231054577
  0
LINE
  5
2E5
100
AcDbEntity
  8
0
100
AcDbLine
 62
7
  6
CONTINUOUS
 10
177.4536378566
 20
179.8946835727
 11
175.5109510064
 21
181.0162693566
  0
LINE
  5
2E6
100
AcDbEntity
  8
0
100
AcDbLine
 62
7
  6
CONTINUOUS
 10
116.4673078152
 20
218.3704558034
 11
173.0360871968
 21
185.711194651
  0
LINE
  5
2E7
100
AcDbEntity
  8
0
100
AcDbLine
 62
7
  6
CONTINUOUS
 10
175.5109536026
 20
187.1400509074
 11
170.2076311118
 21
190.2018563078
  0
LINE
  5
2E8
100
AcDbEntity
  8
0
100
AcDbLine
 62
7
  6
CONTINUOUS
 10
124.2454980289
 20
216.7375058991
 11
118.942174221
 21
219.7993120599
  0
LINE
  5
2E9
100
AcDbEntity
  8
0
100
AcDbLine
 62
7
  6
CONTINUOUS
 10
170.6755925073
 20
161.3018241713
 11
153.827181233
 21
182.2613481125
  0
LINE
  5
2EA
100
AcDbEntity
  8
0
100
AcDbLine
 62
7
  6
CONTINUOUS
 10
155.9746494042
 20
183.453541534
 11
169.24156345
 21
166.9494214692
  0
LINE
  5
2EB
100
AcDbEntity
  8
0
100
AcDbLine
 62
7
  6
CONTINUOUS
 10
124.2454980289
 20
233.4758089543
 11
122.8383545413
 21
235.9130303594
  0
LINE
  5
2EC
100
AcDbEntity
  8
0
100
AcDbLine
 62
7
  6
CONTINUOUS
 10
123.8990102971
 20
236.5253965902
 11
125.3061537848
 21
234.0881751851
  0
LINE
  5
2ED
100
AcDbEntity
  8
0
100
AcDbLine
 62
7
  6
CONTINUOUS
 10
160.0999474247
 20
137.6067982804
 11
156.7760537602
 21
147.0585271711
  0
LINE
  5
2EE
100
AcDbEntity
  8
0
100
AcDbLine
 62
7
  6
CONTINUOUS
 10
157.5530234008
 20
147.3310183168
 11
160.9108481736
 21
137.7828038976
  0
LINE
  5
2EF
100
AcDbEntity
  8
0
100
AcDbLine
 62
7
  6
CONTINUOUS
 10
115.1843158202
 20
283.278324473
 11
112.6942195936
 21
292.1052087165
  0
LINE
  5
2F0
100
AcDbEntity
  8
0
100
AcDbLine
 62
7
  6
CONTINUOUS
 10
113.7548722306
 20
292.7175731466
 11
116.2449684572
 21
283.8906889031
  0
LINE
  5
2F1
100
AcDbEntity
  8
0
100
AcDbLine
 62
7
  6
CONTINUOUS
 10
143.6847283215
 20
206.7392372184
 11
143.6762847666
 21
206.8004088949
  0
LINE
  5
2F2
100
AcDbEntity
  8
0
100
AcDbLine
 62
7
  6
CONTINUOUS
 10
145.0062332874
 20
210.4026325236
 11
145.0062332874
 21
206.8004088592
  0
LINE
  5
2F3
100
AcDbEntity
  8
0
100
AcDbLine
 62
7
  6
CONTINUOUS
 10
145.2435915115
 20
255.3974212052
 11
145.2435915115
 21
254.1726754636
  0
LINE
  5
2F4
100
AcDbEntity
  8
0
100
AcDbLine
 62
7
  6
CONTINUOUS
 10
145.3466583827
 20
398.0064635871
 11
145.3466583827
 21
400.9984571937
  0
LINE
  5
2F5
100
AcDbEntity
  8
0
100
AcDbLine
 62
7
  6
CONTINUOUS
 10
145.4489204462
 20
252.3266030822
 11
145.4489192212
 21
253.3491471804
  0
LINE
  5
2F6
100
AcDbEntity
  8
0
100
AcDbLine
 62
7
  6
CONTINUOUS
 10
145.4489192212
 20
254.8480524782
 11
145.4489192212
 21
255.5945364196
  0
LINE
  5
2F7
100
AcDbEntity
  8
0
100
AcDbLine
 62
7
  6
CONTINUOUS
 10
145.4489204462
 20
310.7765609296
 11
145.4489192212
 21
311.7991050278
  0
LINE
  5
2F8
100
AcDbEntity
  8
0
100
AcDbLine
 62
7
  6
CONTINUOUS
 10
145.4489192212
 20
313.0238546236
 11
145.448910651
 21
314.0444737473
  0
LINE
  5
2F9
100
AcDbEntity
  8
0
100
AcDbLine
 62
7
  6
CONTINUOUS
 10
145.8416422038
 20
400.9984549403
 11
145.8416422038
 21
400.9168054073
  0
LINE
  5
2FA
100
AcDbEntity
  8
0
100
AcDbLine
 62
7
  6
CONTINUOUS
 10
146.6901615552
 20
401.6516453179
 11
146.6901615552
 21
400.4269236139
  0
LINE
  5
2FB
100
AcDbEntity
  8
0
100
AcDbLine
 62
7
  6
CONTINUOUS
 10
146.8315858942
 20
401.5699957848
 11
146.8315858942
 21
400.3452740809
  0
LINE
  5
2FC
100
AcDbEntity
  8
0
100
AcDbLine
 62
7
  6
CONTINUOUS
 10
147.1144310097
 20
399.9778562807
 11
147.1144310097
 21
397.057306654
  0
LINE
  5
2FD
100
AcDbEntity
  8
0
100
AcDbLine
 62
7
  6
CONTINUOUS
 10
147.4326890747
 20
401.6311981347
 11
147.4326890747
 21
400.2840608714
  0
LINE
  5
2FE
100
AcDbEntity
  8
0
100
AcDbLine
 62
7
  6
CONTINUOUS
 10
147.4679813204
 20
396.8531889047
 11
147.4679813204
 21
399.7737385314
  0
LINE
  5
2FF
100
AcDbEntity
  8
0
100
AcDbLine
 62
7
  6
CONTINUOUS
 10
147.5105291161
 20
295.8964881589
 11
147.5105291161
 21
301.2037585423
  0
LINE
  5
300
100
AcDbEntity
  8
0
100
AcDbLine
 62
7
  6
CONTINUOUS
 10
147.8815863334
 20
386.6668582573
 11
147.8815863334
 21
386.0953090571
  0
LINE
  5
301
100
AcDbEntity
  8
0
100
AcDbLine
 62
7
  6
CONTINUOUS
 10
147.948916837
 20
216.4724462705
 11
147.948916837
 21
249.9551027418
  0
LINE
  5
302
100
AcDbEntity
  8
0
100
AcDbLine
 62
7
  6
CONTINUOUS
 10
147.948916837
 20
256.002784788
 11
147.948916837
 21
256.7344285027
  0
LINE
  5
303
100
AcDbEntity
  8
0
100
AcDbLine
 62
7
  6
CONTINUOUS
 10
147.948916837
 20
262.9847715115
 11
147.948916837
 21
308.4050558881
  0
LINE
  5
304
100
AcDbEntity
  8
0
100
AcDbLine
 62
7
  6
CONTINUOUS
 10
147.948916837
 20
314.4527402195
 11
147.948916837
 21
379.7729442966
  0
LINE
  5
305
100
AcDbEntity
  8
0
100
AcDbLine
 62
7
  6
CONTINUOUS
 10
147.9629713792
 20
399.7737326767
 11
147.9629713792
 21
399.6920831437
  0
LINE
  5
306
100
AcDbEntity
  8
0
100
AcDbLine
 62
7
  6
CONTINUOUS
 10
148.0719563002
 20
380.4519041135
 11
148.0719563002
 21
380.1725133443
  0
LINE
  5
307
100
AcDbEntity
  8
0
100
AcDbLine
 62
7
  6
CONTINUOUS
 10
148.1043838715
 20
400.8351621542
 11
148.1043838715
 21
400.6718617284
  0
LINE
  5
308
100
AcDbEntity
  8
0
100
AcDbLine
 62
7
  6
CONTINUOUS
 10
148.1291453542
 20
389.933547334
 11
148.1291453542
 21
387.2180316239
  0
LINE
  5
309
100
AcDbEntity
  8
0
100
AcDbLine
 62
7
  6
CONTINUOUS
 10
148.235210091
 20
395.8852102162
 11
148.235210091
 21
390.1696938803
  0
LINE
  5
30A
100
AcDbEntity
  8
0
100
AcDbLine
 62
7
  6
CONTINUOUS
 10
148.3617323081
 20
252.2987401241
 11
148.3617412851
 21
249.4410228723
  0
LINE
  5
30B
100
AcDbEntity
  8
0
100
AcDbLine
 62
7
  6
CONTINUOUS
 10
148.8114907307
 20
400.4269230543
 11
148.8114907307
 21
399.2022013503
  0
LINE
  5
30C
100
AcDbEntity
  8
0
100
AcDbLine
 62
7
  6
CONTINUOUS
 10
148.8821889169
 20
400.5902267941
 11
148.8821889169
 21
400.998465692
  0
LINE
  5
30D
100
AcDbEntity
  8
0
100
AcDbLine
 62
7
  6
CONTINUOUS
 10
148.9529150697
 20
400.3452735213
 11
148.9529150697
 21
399.1205518173
  0
LINE
  5
30E
100
AcDbEntity
  8
0
100
AcDbLine
 62
7
  6
CONTINUOUS
 10
149.0695928857
 20
391.8435087799
 11
149.0695930455
 21
395.9285188629
  0
LINE
  5
30F
100
AcDbEntity
  8
0
100
AcDbLine
 62
7
  6
CONTINUOUS
 10
149.0695930455
 20
386.7812009579
 11
149.0695928857
 21
390.4554546708
  0
LINE
  5
310
100
AcDbEntity
  8
0
100
AcDbLine
 62
7
  6
CONTINUOUS
 10
149.1544453462
 20
386.6668826087
 11
149.154444835
 21
386.2178087734
  0
LINE
  5
311
100
AcDbEntity
  8
0
100
AcDbLine
 62
7
  6
CONTINUOUS
 10
149.2357539474
 20
398.7531376184
 11
149.2357539474
 21
393.5683385874
  0
LINE
  5
312
100
AcDbEntity
  8
0
100
AcDbLine
 62
7
  6
CONTINUOUS
 10
149.5540182501
 20
400.4064758711
 11
149.5540182501
 21
399.0593386079
  0
LINE
  5
313
100
AcDbEntity
  8
0
100
AcDbLine
 62
7
  6
CONTINUOUS
 10
149.5893253316
 20
393.3642086716
 11
149.5893253316
 21
398.5490077026
  0
LINE
  5
314
100
AcDbEntity
  8
0
100
AcDbLine
 62
7
  6
CONTINUOUS
 10
149.6706309446
 20
391.7822656719
 11
149.6706309446
 21
391.2107164716
  0
LINE
  5
315
100
AcDbEntity
  8
0
100
AcDbLine
 62
7
  6
CONTINUOUS
 10
149.6706309446
 20
387.2098477364
 11
149.6706309446
 21
386.5158271838
  0
LINE
  5
316
100
AcDbEntity
  8
0
100
AcDbLine
 62
7
  6
CONTINUOUS
 10
149.8615665299
 20
391.2189189286
 11
149.8615665299
 21
390.3615271984
  0
LINE
  5
317
100
AcDbEntity
  8
0
100
AcDbLine
 62
7
  6
CONTINUOUS
 10
149.8615665299
 20
386.2586346485
 11
149.8615665299
 21
385.8095611083
  0
LINE
  5
318
100
AcDbEntity
  8
0
100
AcDbLine
 62
7
  6
CONTINUOUS
 10
150.0843005547
 20
398.5490104132
 11
150.0843005547
 21
398.4673608802
  0
LINE
  5
319
100
AcDbEntity
  8
0
100
AcDbLine
 62
7
  6
CONTINUOUS
 10
150.225713047
 20
399.6104398906
 11
150.225713047
 21
399.4471394648
  0
LINE
  5
31A
100
AcDbEntity
  8
0
100
AcDbLine
 62
7
  6
CONTINUOUS
 10
150.8338351527
 20
390.6570796866
 11
150.8338351527
 21
389.8002003462
  0
LINE
  5
31B
100
AcDbEntity
  8
0
100
AcDbLine
 62
7
  6
CONTINUOUS
 10
150.8338351527
 20
385.6973057258
 11
150.8338351527
 21
385.2482342561
  0
LINE
  5
31C
100
AcDbEntity
  8
0
100
AcDbLine
 62
7
  6
CONTINUOUS
 10
150.9328199061
 20
399.2022007907
 11
150.9328199061
 21
397.9774790868
  0
LINE
  5
31D
100
AcDbEntity
  8
0
100
AcDbLine
 62
7
  6
CONTINUOUS
 10
151.0035118545
 20
399.3654837986
 11
151.0035118545
 21
399.7737470298
  0
LINE
  5
31E
100
AcDbEntity
  8
0
100
AcDbLine
 62
7
  6
CONTINUOUS
 10
151.0742442451
 20
399.1205512577
 11
151.0742442451
 21
397.8958295538
  0
LINE
  5
31F
100
AcDbEntity
  8
0
100
AcDbLine
 62
7
  6
CONTINUOUS
 10
151.3500212623
 20
391.7924863073
 11
151.3500212623
 21
390.8126911546
  0
LINE
  5
320
100
AcDbEntity
  8
0
100
AcDbLine
 62
7
  6
CONTINUOUS
 10
151.3500212623
 20
390.2411419544
 11
151.3500212623
 21
386.2402732191
  0
LINE
  5
321
100
AcDbEntity
  8
0
100
AcDbLine
 62
7
  6
CONTINUOUS
 10
151.3570979586
 20
397.5284067896
 11
151.3570979586
 21
392.3436077586
  0
LINE
  5
322
100
AcDbEntity
  8
0
100
AcDbLine
 62
7
  6
CONTINUOUS
 10
151.6753474256
 20
399.1817536076
 11
151.6753474256
 21
397.8346163443
  0
LINE
  5
323
100
AcDbEntity
  8
0
100
AcDbLine
 62
7
  6
CONTINUOUS
 10
151.7521024801
 20
245.2747749653
 11
151.7521024801
 21
254.5012443947
  0
LINE
  5
324
100
AcDbEntity
  8
0
100
AcDbLine
 62
7
  6
CONTINUOUS
 10
151.9489249432
 20
216.4724462705
 11
151.9489249432
 21
245.1611420339
  0
LINE
  5
325
100
AcDbEntity
  8
0
100
AcDbLine
 62
7
  6
CONTINUOUS
 10
151.9489249432
 20
260.6754179992
 11
151.9489249432
 21
308.2906701882
  0
LINE
  5
326
100
AcDbEntity
  8
0
100
AcDbLine
 62
7
  6
CONTINUOUS
 10
151.9489249432
 20
314.4527402195
 11
151.9489249432
 21
379.7729442966
  0
LINE
  5
327
100
AcDbEntity
  8
0
100
AcDbLine
 62
7
  6
CONTINUOUS
 10
152.3470422224
 20
398.385717627
 11
152.3470422224
 21
398.2224172012
  0
LINE
  5
328
100
AcDbEntity
  8
0
100
AcDbLine
 62
7
  6
CONTINUOUS
 10
153.1248558657
 20
393.3642171699
 11
153.1248558657
 21
398.549016201
  0
LINE
  5
329
100
AcDbEntity
  8
0
100
AcDbLine
 62
7
  6
CONTINUOUS
 10
154.2562187599
 20
387.918157111
 11
154.2562187599
 21
393.4703701992
  0
LINE
  5
32A
100
AcDbEntity
  8
0
100
AcDbLine
 62
7
  6
CONTINUOUS
 10
154.448922559
 20
313.0238546236
 11
154.4489311293
 21
314.0444737473
  0
LINE
  5
32B
100
AcDbEntity
  8
0
100
AcDbLine
 62
7
  6
CONTINUOUS
 10
154.448922559
 20
310.7784779797
 11
154.448922559
 21
311.7991050278
  0
LINE
  5
32C
100
AcDbEntity
  8
0
100
AcDbLine
 62
7
  6
CONTINUOUS
 10
154.5380536303
 20
205.4558067971
 11
154.5380536303
 21
201.8535831327
  0
LINE
  5
32D
100
AcDbEntity
  8
0
100
AcDbLine
 62
7
  6
CONTINUOUS
 10
154.581485709
 20
387.8610019383
 11
154.581485709
 21
387.4119283981
  0
LINE
  5
32E
100
AcDbEntity
  8
0
100
AcDbLine
 62
7
  6
CONTINUOUS
 10
155.8680533516
 20
205.4644532359
 11
155.8680536303
 21
201.8535831327
  0
LINE
  5
32F
100
AcDbEntity
  8
0
100
AcDbLine
 62
7
  6
CONTINUOUS
 10
172.2582908571
 20
255.1232358903
 11
171.0729546351
 21
252.2901376783
  0
LINE
  5
330
100
AcDbEntity
  8
0
100
AcDbLine
 62
7
  6
CONTINUOUS
 10
145.0059894379
 20
206.8004077294
 11
144.879231216
 21
206.5747403261
  0
LINE
  5
331
100
AcDbEntity
  8
0
100
AcDbLine
 62
7
  6
CONTINUOUS
 10
144.993304143
 20
213.4372751991
 11
147.2554245206
 21
215.2092320702
  0
LINE
  5
332
100
AcDbEntity
  8
0
100
AcDbLine
 62
7
  6
CONTINUOUS
 10
148.0848854446
 20
214.1695272255
 11
145.822765067
 21
212.3975703544
  0
LINE
  5
333
100
AcDbEntity
  8
0
100
AcDbLine
 62
7
  6
CONTINUOUS
 10
126.6761863436
 20
202.2189247528
 11
126.7207538055
 21
202.2410242301
  0
LINE
  5
334
100
AcDbEntity
  8
0
100
AcDbLine
 62
7
  6
CONTINUOUS
 10
126.7911138698
 20
202.0101156448
 11
126.8420154962
 21
202.0200134373
  0
LINE
  5
335
100
AcDbEntity
  8
0
100
AcDbLine
 62
7
  6
CONTINUOUS
 10
178.127288211
 20
197.7955804374
 11
178.4808565114
 21
197.5914523143
  0
LINE
  5
336
100
AcDbEntity
  8
0
100
AcDbLine
 62
7
  6
CONTINUOUS
 10
105.2242894343
 20
239.8851940065
 11
105.5778538707
 21
239.6810681019
  0
LINE
  5
337
100
AcDbEntity
  8
0
100
AcDbLine
 62
7
  6
CONTINUOUS
 10
106.6390293459
 20
240.2931329101
 11
106.2849435043
 21
240.497559264
  0
LINE
  5
338
100
AcDbEntity
  8
0
100
AcDbLine
 62
7
  6
CONTINUOUS
 10
178.4808565114
 20
199.224460458
 11
173.6725105005
 21
202.0004973514
  0
LINE
  5
339
100
AcDbEntity
  8
0
100
AcDbLine
 62
7
  6
CONTINUOUS
 10
110.0326352998
 20
238.7421651727
 11
105.2242894343
 21
241.5182021501
  0
LINE
  5
33A
100
AcDbEntity
  8
0
100
AcDbLine
 62
7
  6
CONTINUOUS
 10
171.2678916578
 20
207.5523117354
 11
151.9489249432
 21
218.7058700414
  0
LINE
  5
33B
100
AcDbEntity
  8
0
100
AcDbLine
 62
7
  6
CONTINUOUS
 10
147.948916837
 20
221.0152235537
 11
134.4984500587
 21
228.7806784908
  0
LINE
  5
33C
100
AcDbEntity
  8
0
100
AcDbLine
 62
7
  6
CONTINUOUS
 10
113.1438737878
 20
241.5100148113
 11
122.8383545413
 21
235.9130303594
  0
LINE
  5
33D
100
AcDbEntity
  8
0
100
AcDbLine
 62
7
  6
CONTINUOUS
 10
171.6147745995
 20
207.752588183
 11
172.2582908571
 21
207.3810623035
  0
LINE
  5
33E
100
AcDbEntity
  8
0
100
AcDbLine
 62
7
  6
CONTINUOUS
 10
113.6388363772
 20
242.4489694264
 11
112.5781722742
 21
243.0613302783
  0
LINE
  5
33F
100
AcDbEntity
  8
0
100
AcDbLine
 62
7
  6
CONTINUOUS
 10
123.8990102971
 20
236.5253965902
 11
114.2045295437
 21
242.1223810422
  0
LINE
  5
340
100
AcDbEntity
  8
0
100
AcDbLine
 62
7
  6
CONTINUOUS
 10
96.8431819311
 20
302.4291435131
 11
97.5167935097
 21
301.4901815439
  0
LINE
  5
341
100
AcDbEntity
  8
0
100
AcDbLine
 62
7
  6
CONTINUOUS
 10
151.3052557446
 20
212.1908203575
 11
153.5673762456
 21
208.5211259154
  0
LINE
  5
342
100
AcDbEntity
  8
0
100
AcDbLine
 62
7
  6
CONTINUOUS
 10
152.4430080021
 20
212.8796837307
 11
154.7051283782
 21
209.2099894913
  0
LINE
  5
343
100
AcDbEntity
  8
0
100
AcDbLine
 62
7
  6
CONTINUOUS
 10
111.4468550635
 20
291.8160612763
 11
110.0326258354
 21
294.2643258522
  0
LINE
  5
344
100
AcDbEntity
  8
0
100
AcDbLine
 62
7
  6
CONTINUOUS
 10
112.6942195936
 20
292.1052087165
 11
112.5075129688
 21
292.4284287481
  0
LINE
  5
345
100
AcDbEntity
  8
0
100
AcDbLine
 62
7
  6
CONTINUOUS
 10
112.1539363777
 20
295.4890577542
 11
113.7548722306
 21
292.7175731466
  0
LINE
  5
346
100
AcDbEntity
  8
0
100
AcDbLine
 62
7
  6
CONTINUOUS
 10
169.3079428513
 20
146.5849983857
 11
167.1072717705
 21
152.8427636853
  0
LINE
  5
347
100
AcDbEntity
  8
0
100
AcDbLine
 62
7
  6
CONTINUOUS
 10
170.2076311118
 20
206.940159363
 11
170.2076311118
 21
190.2018451143
  0
LINE
  5
348
100
AcDbEntity
  8
0
100
AcDbLine
 62
7
  6
CONTINUOUS
 10
170.2076324289
 20
122.023962266
 11
170.2076324289
 21
108.1433367349
  0
LINE
  5
349
100
AcDbEntity
  8
0
100
AcDbLine
 62
7
  6
CONTINUOUS
 10
112.6942195936
 20
79.4264818196
 11
116.2849242991
 21
88.0086976158
  0
LINE
  5
34A
100
AcDbEntity
  8
0
100
AcDbLine
 62
7
  6
CONTINUOUS
 10
117.3455769361
 20
88.6210620459
 11
113.7548722306
 21
80.0388462497
  0
LINE
  5
34B
100
AcDbEntity
  8
0
100
AcDbLine
 62
7
  6
CONTINUOUS
 10
155.8678097809
 20
201.8535820029
 11
155.7410515589
 21
201.6279145996
  0
LINE
  5
34C
100
AcDbEntity
  8
0
100
AcDbLine
 62
7
  6
CONTINUOUS
 10
132.4479745867
 20
195.6285664971
 11
130.326663075
 21
194.4038340355
  0
LINE
  5
34D
100
AcDbEntity
  8
0
100
AcDbLine
 62
7
  6
CONTINUOUS
 10
136.6590471012
 20
194.1532696162
 11
134.6740275455
 21
193.0072248823
  0
LINE
  5
34E
100
AcDbEntity
  8
0
100
AcDbLine
 62
7
  6
CONTINUOUS
 10
134.6830750703
 20
192.9915540162
 11
134.5416543028
 21
192.9099051855
  0
LINE
  5
34F
100
AcDbEntity
  8
0
100
AcDbLine
 62
7
  6
CONTINUOUS
 10
134.6813094463
 20
192.9560117589
 11
132.7014187021
 21
191.812928128
  0
LINE
  5
350
100
AcDbEntity
  8
0
100
AcDbLine
 62
7
  6
CONTINUOUS
 10
98.5774526562
 20
302.1025482991
 11
98.3431493919
 21
302.429146109
  0
LINE
  5
351
100
AcDbEntity
  8
0
100
AcDbLine
 62
7
  6
CONTINUOUS
 10
172.2582927512
 20
204.4499836913
 11
173.6725105005
 21
202.0004973514
  0
LINE
  5
352
100
AcDbEntity
  8
0
100
AcDbLine
 62
7
  6
CONTINUOUS
 10
172.2582908571
 20
256.7073553845
 11
172.2582908571
 21
252.974579747
  0
LINE
  5
353
100
AcDbEntity
  8
0
100
AcDbLine
 62
7
  6
CONTINUOUS
 10
172.2582908571
 20
244.6603164249
 11
172.2582908571
 21
204.4499847848
  0
LINE
  5
354
100
AcDbEntity
  8
0
100
AcDbLine
 62
7
  6
CONTINUOUS
 10
172.2582908571
 20
95.8551406702
 11
172.2582908571
 21
48.8489754646
  0
LINE
  5
355
100
AcDbEntity
  8
0
100
AcDbLine
 62
7
  6
CONTINUOUS
 10
173.0360871968
 20
185.7111834575
 11
173.0360871968
 21
120.3909900871
  0
LINE
  5
356
100
AcDbEntity
  8
0
100
AcDbLine
 62
7
  6
CONTINUOUS
 10
175.5109536026
 20
187.1400509074
 11
175.5109536026
 21
181.0162715855
  0
LINE
  5
357
100
AcDbEntity
  8
0
100
AcDbLine
 62
7
  6
CONTINUOUS
 10
175.5109536026
 20
127.9436144721
 11
175.5109536026
 21
121.8198351501
  0
LINE
  5
358
100
AcDbEntity
  8
0
100
AcDbLine
 62
7
  6
CONTINUOUS
 10
177.4536378566
 20
96.6717193013
 11
177.4536378566
 21
198.7345331227
  0
LINE
  5
359
100
AcDbEntity
  8
0
100
AcDbLine
 62
7
  6
CONTINUOUS
 10
178.1248384043
 20
95.7341809805
 11
178.1248384043
 21
197.7969948019
  0
LINE
  5
35A
100
AcDbEntity
  8
0
100
AcDbLine
 62
7
  6
CONTINUOUS
 10
178.4808565114
 20
197.5914523143
 11
178.4808565114
 21
199.224460458
  0
LINE
  5
35B
100
AcDbEntity
  8
0
100
AcDbLine
 62
7
  6
CONTINUOUS
 10
178.4808578285
 20
93.8956295889
 11
178.4808578285
 21
95.5286377325
  0
LINE
  5
35C
100
AcDbEntity
  8
0
100
AcDbLine
 62
7
  6
CONTINUOUS
 10
177.6631548484
 20
199.2882640043
 11
177.4538685011
 21
198.7345332525
  0
LINE
  5
35D
100
AcDbEntity
  8
0
100
AcDbLine
 62
7
  6
CONTINUOUS
 10
213.6461500536
 20
265.6875940376
 11
213.4118574532
 21
265.3610048908
  0
LINE
  5
35E
100
AcDbEntity
  8
0
100
AcDbLine
 62
7
  6
CONTINUOUS
 10
214.4725216142
 20
264.7486465144
 11
215.1461175145
 21
265.6875976876
  0
LINE
  5
35F
100
AcDbEntity
  8
0
100
AcDbLine
 62
7
  6
CONTINUOUS
 10
154.7583434014
 20
185.1759082843
 11
157.4348334807
 21
188.3897064269
  0
LINE
  5
360
100
AcDbEntity
  8
0
100
AcDbLine
 62
7
  6
CONTINUOUS
 10
157.8443037885
 20
187.8377430968
 11
154.9877653396
 21
184.4077516941
  0
LINE
  5
361
100
AcDbEntity
  8
0
100
AcDbLine
 62
7
  6
CONTINUOUS
 10
134.487306369
 20
151.7512981878
 11
137.3601838182
 21
155.2009086615
  0
LINE
  5
362
100
AcDbEntity
  8
0
100
AcDbLine
 62
7
  6
CONTINUOUS
 10
137.9389354291
 20
154.4843878083
 11
135.267904779
 21
151.2771450808
  0
LINE
  5
363
100
AcDbEntity
  8
0
100
AcDbLine
 62
7
  6
CONTINUOUS
 10
136.9679114997
 20
153.1591324433
 11
138.0042534687
 21
154.4035211004
  0
LINE
  5
364
100
AcDbEntity
  8
0
100
AcDbLine
 62
7
  6
CONTINUOUS
 10
172.2582908571
 20
208.1241202499
 11
170.2076311118
 21
206.940159363
  0
LINE
  5
365
100
AcDbEntity
  8
0
100
AcDbLine
 62
7
  6
CONTINUOUS
 10
113.537291606
 20
164.8307762769
 11
112.0125092907
 21
163.9504480515
  0
LINE
  5
366
100
AcDbEntity
  8
0
100
AcDbLine
 62
7
  6
CONTINUOUS
 10
134.6813094463
 20
192.9560117589
 11
134.5416543028
 21
192.9099051855
  0
LINE
  5
367
100
AcDbEntity
  8
0
100
AcDbLine
 62
7
  6
CONTINUOUS
 10
172.2582908571
 20
233.4357894194
 11
151.7521024801
 21
245.2747749653
  0
LINE
  5
368
100
AcDbEntity
  8
0
100
AcDbLine
 62
7
  6
CONTINUOUS
 10
134.0743597465
 20
255.4807936002
 11
112.5075128872
 21
267.9321367529
  0
LINE
  5
369
100
AcDbEntity
  8
0
100
AcDbLine
 62
7
  6
CONTINUOUS
 10
136.3408756336
 20
256.3811158862
 11
141.2906441917
 21
253.5234303263
  0
LINE
  5
36A
100
AcDbEntity
  8
0
100
AcDbLine
 62
7
  6
CONTINUOUS
 10
148.3617412851
 20
249.4410228723
 11
151.7521024801
 21
247.4836422583
  0
LINE
  5
36B
100
AcDbEntity
  8
0
100
AcDbLine
 62
7
  6
CONTINUOUS
 10
141.2906441917
 20
254.7481760678
 11
136.3408756336
 21
257.6058616278
  0
LINE
  5
36C
100
AcDbEntity
  8
0
100
AcDbLine
 62
7
  6
CONTINUOUS
 10
151.7521024801
 20
248.7083879999
 11
148.3617412851
 21
250.6657686139
  0
LINE
  5
36D
100
AcDbEntity
  8
0
100
AcDbLine
 62
7
  6
CONTINUOUS
 10
148.0751041048
 20
380.417946229
 11
146.9083560212
 21
386.6571911283
  0
LINE
  5
36E
100
AcDbEntity
  8
0
100
AcDbLine
 62
7
  6
CONTINUOUS
 10
149.3906252527
 20
380.6186600542
 11
148.3192333061
 21
386.3479831463
  0
LINE
  5
36F
100
AcDbEntity
  8
0
100
AcDbLine
 62
7
  6
CONTINUOUS
 10
186.1883527451
 20
250.2967915857
 11
186.1883527451
 21
33.9236510464
  0
LINE
  5
370
100
AcDbEntity
  8
0
100
AcDbLine
 62
7
  6
CONTINUOUS
 10
186.895444664
 20
252.3380040327
 11
186.895444664
 21
251.1132838739
  0
LINE
  5
371
100
AcDbEntity
  8
0
100
AcDbLine
 62
7
  6
CONTINUOUS
 10
188.5202986354
 20
277.5272927042
 11
188.5202986354
 21
272.2200223207
  0
LINE
  5
372
100
AcDbEntity
  8
0
100
AcDbLine
 62
7
  6
CONTINUOUS
 10
189.4410439386
 20
33.9236588649
 11
189.4410439386
 21
250.2967994042
  0
LINE
  5
373
100
AcDbEntity
  8
0
100
AcDbLine
 62
7
  6
CONTINUOUS
 10
190.6416102313
 20
273.444754831
 11
190.6416102313
 21
278.7520252144
  0
LINE
  5
374
100
AcDbEntity
  8
0
100
AcDbLine
 62
7
  6
CONTINUOUS
 10
193.4700662057
 20
269.4931794654
 11
193.4700662057
 21
274.6696077145
  0
LINE
  5
375
100
AcDbEntity
  8
0
100
AcDbLine
 62
7
  6
CONTINUOUS
 10
136.9670672651
 20
153.1598357244
 11
135.267904779
 21
151.2771450808
  0
LINE
  5
376
100
AcDbEntity
  8
0
100
AcDbLine
 62
7
  6
CONTINUOUS
 10
153.8380614333
 20
182.2478130786
 11
155.9593729447
 21
183.4725455405
  0
LINE
  5
377
100
AcDbEntity
  8
0
100
AcDbLine
 62
7
  6
CONTINUOUS
 10
168.0309292378
 20
187.440093309
 11
167.2535278008
 21
186.9912630593
  0
LINE
  5
378
100
AcDbEntity
  8
0
100
AcDbLine
 62
7
  6
CONTINUOUS
 10
117.4725838898
 20
158.2493844325
 11
116.6951824527
 21
157.8005541827
  0
LINE
  5
379
100
AcDbEntity
  8
0
100
AcDbLine
 62
7
  6
CONTINUOUS
 10
173.0360871968
 20
185.711194651
 11
175.5109536026
 21
187.1400509074
  0
LINE
  5
37A
100
AcDbEntity
  8
0
100
AcDbLine
 62
7
  6
CONTINUOUS
 10
172.0308137564
 20
180.5120487437
 11
171.2534123194
 21
180.063218494
  0
LINE
  5
37B
100
AcDbEntity
  8
0
100
AcDbLine
 62
7
  6
CONTINUOUS
 10
121.4724684084
 20
151.3213398672
 11
120.6950669714
 21
150.8725096174
  0
LINE
  5
37C
100
AcDbEntity
  8
0
100
AcDbLine
 62
7
  6
CONTINUOUS
 10
144.1190740849
 20
253.5234388359
 11
141.2906441917
 21
253.5234303263
  0
LINE
  5
37D
100
AcDbEntity
  8
0
100
AcDbLine
 62
7
  6
CONTINUOUS
 10
141.2906441917
 20
254.7481760678
 11
144.1190740849
 21
254.7481845775
  0
LINE
  5
37E
100
AcDbEntity
  8
0
100
AcDbLine
 62
7
  6
CONTINUOUS
 10
151.7521024801
 20
254.5012443947
 11
134.0743597465
 21
264.7072630296
  0
LINE
  5
37F
100
AcDbEntity
  8
0
100
AcDbLine
 62
7
  6
CONTINUOUS
 10
118.4792039119
 20
278.7740146322
 11
167.3472597799
 21
250.5606676933
  0
LINE
  5
380
100
AcDbEntity
  8
0
100
AcDbLine
 62
7
  6
CONTINUOUS
 10
168.4079124168
 20
251.1730321234
 11
119.5398565489
 21
279.3863790624
  0
LINE
  5
381
100
AcDbEntity
  8
0
100
AcDbLine
 62
7
  6
CONTINUOUS
 10
142.5607602287
 20
304.0614442924
 11
141.1465304312
 21
306.5109272654
  0
LINE
  5
382
100
AcDbEntity
  8
0
100
AcDbLine
 62
7
  6
CONTINUOUS
 10
143.2678420271
 20
307.7356597757
 11
144.6820718246
 21
305.2861768027
  0
LINE
  5
383
100
AcDbEntity
  8
0
100
AcDbLine
 62
7
  6
CONTINUOUS
 10
168.510585588
 20
126.4738658238
 11
168.9558930794
 21
127.4580765852
  0
LINE
  5
384
100
AcDbEntity
  8
0
100
AcDbLine
 62
7
  6
CONTINUOUS
 10
171.5511574062
 20
124.7184305794
 11
171.1058499148
 21
123.7342198181
  0
LINE
  5
385
100
AcDbEntity
  8
0
100
AcDbLine
 62
7
  6
CONTINUOUS
 10
106.2849448214
 20
136.8017365386
 11
105.2242907514
 21
136.1893712811
  0
LINE
  5
386
100
AcDbEntity
  8
0
100
AcDbLine
 62
7
  6
CONTINUOUS
 10
112.0124989945
 20
139.4635366039
 11
108.8305324244
 21
137.6264383141
  0
LINE
  5
387
100
AcDbEntity
  8
0
100
AcDbLine
 62
7
  6
CONTINUOUS
 10
132.8413356738
 20
149.0235155459
 11
134.9626471854
 21
150.2482480075
  0
LINE
  5
388
100
AcDbEntity
  8
0
100
AcDbLine
 62
7
  6
CONTINUOUS
 10
164.0509607158
 20
164.6064588139
 11
162.4412926457
 21
163.6771220677
  0
LINE
  5
389
100
AcDbEntity
  8
0
100
AcDbLine
 62
7
  6
CONTINUOUS
 10
111.0932924149
 20
134.0257005588
 11
110.0326366169
 21
133.4133343036
  0
LINE
  5
38A
100
AcDbEntity
  8
0
100
AcDbLine
 62
7
  6
CONTINUOUS
 10
140.0691692087
 20
149.8931287861
 11
139.6102994505
 21
149.6282017891
  0
LINE
  5
38B
100
AcDbEntity
  8
0
100
AcDbLine
 62
7
  6
CONTINUOUS
 10
112.5075101213
 20
131.5762141942
 11
111.4468543234
 21
130.963847939
  0
LINE
  5
38C
100
AcDbEntity
  8
0
100
AcDbLine
 62
7
  6
CONTINUOUS
 10
97.5167935097
 20
301.4901815439
 11
110.0326359584
 21
294.2643200078
  0
LINE
  5
38D
100
AcDbEntity
  8
0
100
AcDbLine
 62
7
  6
CONTINUOUS
 10
173.672511159
 20
257.5226521865
 11
186.1883527451
 21
250.2967915857
  0
LINE
  5
38E
100
AcDbEntity
  8
0
100
AcDbLine
 62
7
  6
CONTINUOUS
 10
98.5774526562
 20
302.1025482991
 11
99.9916697041
 21
301.286068177
  0
LINE
  5
38F
100
AcDbEntity
  8
0
100
AcDbLine
 62
7
  6
CONTINUOUS
 10
185.8347920271
 20
251.7256396025
 11
187.249008501
 21
250.9091578165
  0
LINE
  5
390
100
AcDbEntity
  8
0
100
AcDbLine
 62
7
  6
CONTINUOUS
 10
101.0523223411
 20
301.8984326072
 11
112.1539363777
 21
295.4890577542
  0
LINE
  5
391
100
AcDbEntity
  8
0
100
AcDbLine
 62
7
  6
CONTINUOUS
 10
175.7938317814
 20
258.7473782194
 11
186.895444664
 21
252.3380040327
  0
LINE
  5
392
100
AcDbEntity
  8
0
100
AcDbLine
 62
7
  6
CONTINUOUS
 10
125.0938541129
 20
290.8754108707
 11
147.948916837
 21
277.6803327671
  0
LINE
  5
393
100
AcDbEntity
  8
0
100
AcDbLine
 62
7
  6
CONTINUOUS
 10
151.9489249432
 20
275.3709792548
 11
191.3496636334
 21
252.6234667833
  0
LINE
  5
394
100
AcDbEntity
  8
0
100
AcDbLine
 62
7
  6
CONTINUOUS
 10
124.740289702
 20
292.3042554229
 11
125.0938541129
 21
292.100129533
  0
LINE
  5
395
100
AcDbEntity
  8
0
100
AcDbLine
 62
7
  6
CONTINUOUS
 10
210.9369764358
 20
266.2183060186
 11
210.9369764358
 21
263.9321396312
  0
LINE
  5
396
100
AcDbEntity
  8
0
100
AcDbLine
 62
7
  6
CONTINUOUS
 10
211.9976290728
 20
266.8306704488
 11
211.9976290728
 21
264.5445043044
  0
LINE
  5
397
100
AcDbEntity
  8
0
100
AcDbLine
 62
7
  6
CONTINUOUS
 10
213.4118487549
 20
266.0141888059
 11
213.4118487549
 21
265.3610048908
  0
LINE
  5
398
100
AcDbEntity
  8
0
100
AcDbLine
 62
7
  6
CONTINUOUS
 10
214.4725149341
 20
264.7486426577
 11
214.4725149341
 21
48.3755021183
  0
LINE
  5
399
100
AcDbEntity
  8
0
100
AcDbLine
 62
7
  6
CONTINUOUS
 10
215.1461674081
 20
49.3144571482
 11
215.1461674081
 21
265.6875976876
  0
LINE
  5
39A
100
AcDbEntity
  8
0
100
AcDbLine
 62
7
  6
CONTINUOUS
 10
125.3061551018
 20
135.291352557
 11
122.8383558584
 21
133.8665575061
  0
LINE
  5
39B
100
AcDbEntity
  8
0
100
AcDbLine
 62
7
  6
CONTINUOUS
 10
157.5723855195
 20
147.3378274016
 11
171.0990160579
 21
155.1473845674
  0
LINE
  5
39C
100
AcDbEntity
  8
0
100
AcDbLine
 62
7
  6
CONTINUOUS
 10
123.6089131592
 20
127.0278359696
 11
112.5075101213
 21
120.6184749942
  0
LINE
  5
39D
100
AcDbEntity
  8
0
100
AcDbLine
 62
7
  6
CONTINUOUS
 10
112.5075101213
 20
119.7939061267
 11
121.8058030976
 21
125.047853864
  0
LINE
  5
39E
100
AcDbEntity
  8
0
100
AcDbLine
 62
7
  6
CONTINUOUS
 10
121.8058030976
 20
124.9906986948
 11
112.5075101213
 21
119.7367509575
  0
LINE
  5
39F
100
AcDbEntity
  8
0
100
AcDbLine
 62
7
  6
CONTINUOUS
 10
139.9030738843
 20
149.7188088276
 11
139.6102994505
 21
149.6282017891
  0
LINE
  5
3A0
100
AcDbEntity
  8
0
100
AcDbLine
 62
7
  6
CONTINUOUS
 10
122.0532959041
 20
302.4289250238
 11
120.9926291668
 21
303.0412873965
  0
LINE
  5
3A1
100
AcDbEntity
  8
0
100
AcDbLine
 62
7
  6
CONTINUOUS
 10
188.5202986354
 20
277.5272927042
 11
187.106070155
 21
279.9767749167
  0
LINE
  5
3A2
100
AcDbEntity
  8
0
100
AcDbLine
 62
7
  6
CONTINUOUS
 10
189.2273817509
 20
281.201507427
 11
190.6416102313
 21
278.7520252144
  0
LINE
  5
3A3
100
AcDbEntity
  8
0
100
AcDbLine
 62
7
  6
CONTINUOUS
 10
138.6703496459
 20
118.9854923789
 11
135.4883806952
 21
117.1483927146
  0
LINE
  5
3A4
100
AcDbEntity
  8
0
100
AcDbLine
 62
7
  6
CONTINUOUS
 10
138.6703565605
 20
118.9201682935
 11
112.5075142043
 21
103.8151343813
  0
LINE
  5
3A5
100
AcDbEntity
  8
0
100
AcDbLine
 62
7
  6
CONTINUOUS
 10
210.9369764358
 20
266.2183060186
 11
194.8842960032
 21
275.4861157218
  0
LINE
  5
3A6
100
AcDbEntity
  8
0
100
AcDbLine
 62
7
  6
CONTINUOUS
 10
187.106070155
 20
279.9767749167
 11
151.9489249432
 21
300.2743029772
  0
LINE
  5
3A7
100
AcDbEntity
  8
0
100
AcDbLine
 62
7
  6
CONTINUOUS
 10
141.1465304312
 20
306.5109272654
 11
125.0938541129
 21
315.7787345931
  0
LINE
  5
3A8
100
AcDbEntity
  8
0
100
AcDbLine
 62
7
  6
CONTINUOUS
 10
213.4118487549
 20
266.0141888059
 11
211.9976290728
 21
266.8306704488
  0
LINE
  5
3A9
100
AcDbEntity
  8
0
100
AcDbLine
 62
7
  6
CONTINUOUS
 10
126.1545067499
 20
316.3910990233
 11
124.740289702
 21
317.2075791453
  0
LINE
  5
3AA
100
AcDbEntity
  8
0
100
AcDbLine
 62
7
  6
CONTINUOUS
 10
214.4725080719
 20
266.6265566793
 11
197.0055974837
 21
276.710854072
  0
LINE
  5
3AB
100
AcDbEntity
  8
0
100
AcDbLine
 62
7
  6
CONTINUOUS
 10
189.2273918663
 20
281.201501587
 11
151.9489249432
 21
302.7237476018
  0
LINE
  5
3AC
100
AcDbEntity
  8
0
100
AcDbLine
 62
7
  6
CONTINUOUS
 10
143.2678521425
 20
307.7356539357
 11
125.8009467002
 21
317.8199483574
  0
LINE
  5
3AD
100
AcDbEntity
  8
0
100
AcDbLine
 62
7
  6
CONTINUOUS
 10
213.4118487549
 20
266.0141888059
 11
213.6461500536
 21
265.6875940376
  0
LINE
  5
3AE
100
AcDbEntity
  8
0
100
AcDbLine
 62
7
  6
CONTINUOUS
 10
215.1461175145
 20
265.6875976876
 11
214.4725080719
 21
266.6265566793
  0
LINE
  5
3AF
100
AcDbEntity
  8
0
100
AcDbLine
 62
7
  6
CONTINUOUS
 10
103.4971011502
 20
92.0688132326
 11
102.7899998839
 21
91.6605705631
  0
LINE
  5
3B0
100
AcDbEntity
  8
0
100
AcDbLine
 62
7
  6
CONTINUOUS
 10
100.1579499179
 20
88.8707956738
 11
102.6327321831
 21
90.2997953633
  0
LINE
  5
3B1
100
AcDbEntity
  8
0
100
AcDbLine
 62
7
  6
CONTINUOUS
 10
176.5716036433
 20
128.5559766733
 11
175.5109510064
 21
127.9436122431
  0
LINE
  5
3B2
100
AcDbEntity
  8
0
100
AcDbLine
 62
7
  6
CONTINUOUS
 10
103.2958534361
 20
90.794932608
 11
102.5874653605
 21
90.3889271296
  0
LINE
  5
3B3
100
AcDbEntity
  8
0
100
AcDbLine
 62
7
  6
CONTINUOUS
 10
108.293238962
 20
82.1391553043
 11
107.587431744
 21
81.728679623
  0
LINE
  5
3B4
100
AcDbEntity
  8
0
100
AcDbLine
 62
7
  6
CONTINUOUS
 10
116.2849242991
 20
88.0086976158
 11
117.3455769361
 21
88.6210620459
  0
LINE
  5
3B5
100
AcDbEntity
  8
0
100
AcDbLine
 62
7
  6
CONTINUOUS
 10
175.5109536026
 20
121.8198463436
 11
173.0360871968
 21
120.3909900871
  0
LINE
  5
3B6
100
AcDbEntity
  8
0
100
AcDbLine
 62
7
  6
CONTINUOUS
 10
109.4970734097
 20
81.6764944016
 11
108.7899721434
 21
81.2682517321
  0
LINE
  5
3B7
100
AcDbEntity
  8
0
100
AcDbLine
 62
7
  6
CONTINUOUS
 10
113.7548722306
 20
80.0388462497
 11
110.0338371485
 21
77.8904859767
  0
LINE
  5
3B8
100
AcDbEntity
  8
0
100
AcDbLine
 62
7
  6
CONTINUOUS
 10
105.057926663
 20
80.3837363348
 11
107.5328752144
 21
81.8124480064
  0
LINE
  5
3B9
100
AcDbEntity
  8
0
100
AcDbLine
 62
7
  6
CONTINUOUS
 10
174.7331673973
 20
97.2840326115
 11
172.2582920927
 21
95.8551399569
  0
LINE
  5
3BA
100
AcDbEntity
  8
0
100
AcDbLine
 62
7
  6
CONTINUOUS
 10
150.3466383997
 20
378.9687239454
 11
150.4178692672
 21
378.9341716149
  0
LINE
  5
3BB
100
AcDbEntity
  8
0
100
AcDbLine
 62
7
  6
CONTINUOUS
 10
147.8815863334
 20
386.0953090571
 11
144.2823990732
 21
388.1732537812
  0
LINE
  5
3BC
100
AcDbEntity
  8
0
100
AcDbLine
 62
7
  6
CONTINUOUS
 10
147.8815863334
 20
386.6668582573
 11
144.2823990732
 21
388.7448029814
  0
LINE
  5
3BD
100
AcDbEntity
  8
0
100
AcDbLine
 62
7
  6
CONTINUOUS
 10
149.154444835
 20
386.2178087734
 11
148.6240996677
 21
386.5239967716
  0
LINE
  5
3BE
100
AcDbEntity
  8
0
100
AcDbLine
 62
7
  6
CONTINUOUS
 10
143.8688076306
 20
389.2694037999
 11
144.3531699662
 21
388.9897634013
  0
LINE
  5
3BF
100
AcDbEntity
  8
0
100
AcDbLine
 62
7
  6
CONTINUOUS
 10
149.8615665299
 20
385.8095611083
 11
150.8338351527
 21
385.2482342561
  0
LINE
  5
3C0
100
AcDbEntity
  8
0
100
AcDbLine
 62
7
  6
CONTINUOUS
 10
148.1291453542
 20
387.2180316239
 11
144.529958094
 21
389.295976348
  0
LINE
  5
3C1
100
AcDbEntity
  8
0
100
AcDbLine
 62
7
  6
CONTINUOUS
 10
143.8688076306
 20
389.7184773401
 11
144.5476223136
 21
389.3265723661
  0
LINE
  5
3C2
100
AcDbEntity
  8
0
100
AcDbLine
 62
7
  6
CONTINUOUS
 10
149.0413046635
 20
386.7322029346
 11
149.1544453462
 21
386.6668826087
  0
LINE
  5
3C3
100
AcDbEntity
  8
0
100
AcDbLine
 62
7
  6
CONTINUOUS
 10
149.8615665299
 20
386.2586346485
 11
150.8338351527
 21
385.6973077963
  0
LINE
  5
3C4
100
AcDbEntity
  8
0
100
AcDbLine
 62
7
  6
CONTINUOUS
 10
149.6706309446
 20
386.5158271838
 11
149.8879104985
 21
386.3903836128
  0
LINE
  5
3C5
100
AcDbEntity
  8
0
100
AcDbLine
 62
7
  6
CONTINUOUS
 10
151.0459672605
 20
386.0647286072
 11
150.0736986378
 21
386.6260554594
  0
LINE
  5
3C6
100
AcDbEntity
  8
0
100
AcDbLine
 62
7
  6
CONTINUOUS
 10
149.3665769429
 20
387.0343031245
 11
149.069593027
 21
387.2057629893
  0
LINE
  5
3C7
100
AcDbEntity
  8
0
100
AcDbLine
 62
7
  6
CONTINUOUS
 10
144.529958094
 20
389.8266631472
 11
144.0809397385
 21
390.085898151
  0
LINE
  5
3C8
100
AcDbEntity
  8
0
100
AcDbLine
 62
7
  6
CONTINUOUS
 10
151.3500212623
 20
386.2402732191
 11
150.3777526395
 21
386.8016000713
  0
LINE
  5
3C9
100
AcDbEntity
  8
0
100
AcDbLine
 62
7
  6
CONTINUOUS
 10
149.6706309446
 20
387.2098477364
 11
149.0695930117
 21
387.5568492985
  0
LINE
  5
3CA
100
AcDbEntity
  8
0
100
AcDbLine
 62
7
  6
CONTINUOUS
 10
144.529958094
 20
390.1777494476
 11
144.3849937402
 21
390.2614427629
  0
LINE
  5
3CB
100
AcDbEntity
  8
0
100
AcDbLine
 62
7
  6
CONTINUOUS
 10
215.1461175145
 20
49.3144571482
 11
214.4725216142
 21
48.375505975
  0
LINE
  5
3CC
100
AcDbEntity
  8
0
100
AcDbLine
 62
7
  6
CONTINUOUS
 10
174.2080737238
 20
51.2447378146
 11
173.5009723986
 21
50.836495111
  0
LINE
  5
3CD
100
AcDbEntity
  8
0
100
AcDbLine
 62
7
  6
CONTINUOUS
 10
170.8689224326
 20
48.0467202218
 11
173.3437046978
 21
49.4757199113
  0
LINE
  5
3CE
100
AcDbEntity
  8
0
100
AcDbLine
 62
7
  6
CONTINUOUS
 10
174.0068259508
 20
49.9708571559
 11
173.2984378752
 21
49.5648516775
  0
LINE
  5
3CF
100
AcDbEntity
  8
0
100
AcDbLine
 62
7
  6
CONTINUOUS
 10
148.345013965
 20
380.1943934813
 11
148.4235583415
 21
380.1661104695
  0
LINE
  5
3D0
100
AcDbEntity
  8
0
100
AcDbLine
 62
7
  6
CONTINUOUS
 10
148.1291453542
 20
389.933547334
 11
144.529958094
 21
392.0114920581
  0
LINE
  5
3D1
100
AcDbEntity
  8
0
100
AcDbLine
 62
7
  6
CONTINUOUS
 10
148.235210091
 20
390.1696938803
 11
144.6360228308
 21
392.2476386045
  0
LINE
  5
3D2
100
AcDbEntity
  8
0
100
AcDbLine
 62
7
  6
CONTINUOUS
 10
150.8338351527
 20
389.8002003462
 11
149.8615665299
 21
390.3615271984
  0
LINE
  5
3D3
100
AcDbEntity
  8
0
100
AcDbLine
 62
7
  6
CONTINUOUS
 10
144.6360228308
 20
393.3784280083
 11
143.8688076306
 21
393.82136989
  0
LINE
  5
3D4
100
AcDbEntity
  8
0
100
AcDbLine
 62
7
  6
CONTINUOUS
 10
154.2562187599
 20
388.0487972603
 11
154.36935485
 21
387.9834795859
  0
LINE
  5
3D5
100
AcDbEntity
  8
0
100
AcDbLine
 62
7
  6
CONTINUOUS
 10
154.2562187599
 20
388.1502547375
 11
154.5193523049
 21
387.9983379513
  0
LINE
  5
3D6
100
AcDbEntity
  8
0
100
AcDbLine
 62
7
  6
CONTINUOUS
 10
143.8688076306
 20
394.6787616202
 11
144.6360228308
 21
394.2358197385
  0
LINE
  5
3D7
100
AcDbEntity
  8
0
100
AcDbLine
 62
7
  6
CONTINUOUS
 10
149.8615665299
 20
391.2189189286
 11
150.8338351527
 21
390.6575920764
  0
LINE
  5
3D8
100
AcDbEntity
  8
0
100
AcDbLine
 62
7
  6
CONTINUOUS
 10
151.102535122
 20
390.669805131
 11
150.1302664992
 21
391.2311319831
  0
LINE
  5
3D9
100
AcDbEntity
  8
0
100
AcDbLine
 62
7
  6
CONTINUOUS
 10
149.4231448043
 20
391.6393796483
 11
149.069588359
 21
391.8435009393
  0
LINE
  5
3DA
100
AcDbEntity
  8
0
100
AcDbLine
 62
7
  6
CONTINUOUS
 10
144.6360228308
 20
394.4031632831
 11
144.1375075999
 21
394.6909746747
  0
LINE
  5
3DB
100
AcDbEntity
  8
0
100
AcDbLine
 62
7
  6
CONTINUOUS
 10
151.3500212623
 20
390.8126911546
 11
150.3777526395
 21
391.3740180068
  0
LINE
  5
3DC
100
AcDbEntity
  8
0
100
AcDbLine
 62
7
  6
CONTINUOUS
 10
149.6706309446
 20
391.7822656719
 11
149.0695928969
 21
392.1292673003
  0
LINE
  5
3DD
100
AcDbEntity
  8
0
100
AcDbLine
 62
7
  6
CONTINUOUS
 10
144.6360228308
 20
394.688932264
 11
144.3849937402
 21
394.8338606984
  0
LINE
  5
3DE
100
AcDbEntity
  8
0
100
AcDbLine
 62
7
  6
CONTINUOUS
 10
151.3500212623
 20
391.7924863073
 11
149.0695929352
 21
393.1090624309
  0
LINE
  5
3DF
100
AcDbEntity
  8
0
100
AcDbLine
 62
7
  6
CONTINUOUS
 10
144.6360228308
 20
395.6687274168
 11
144.3849937402
 21
395.8136558511
  0
LINE
  5
3E0
100
AcDbEntity
  8
0
100
AcDbLine
 62
7
  6
CONTINUOUS
 10
151.3570979586
 20
392.3436077586
 11
149.5893253316
 21
393.3642086716
  0
LINE
  5
3E1
100
AcDbEntity
  8
0
100
AcDbLine
 62
7
  6
CONTINUOUS
 10
149.2357539474
 20
393.5683385874
 11
149.0695929569
 21
393.6642695097
  0
LINE
  5
3E2
100
AcDbEntity
  8
0
100
AcDbLine
 62
7
  6
CONTINUOUS
 10
148.235210091
 20
395.8852102162
 11
144.6360228308
 21
397.9631549404
  0
LINE
  5
3E3
100
AcDbEntity
  8
0
100
AcDbLine
 62
7
  6
CONTINUOUS
 10
148.4119864086
 20
395.9872714615
 11
144.8127991484
 21
398.0652161857
  0
LINE
  5
3E4
100
AcDbEntity
  8
0
100
AcDbLine
 62
7
  6
CONTINUOUS
 10
149.0695930455
 20
395.9285188629
 11
145.4704057853
 21
398.0064635871
  0
LINE
  5
3E5
100
AcDbEntity
  8
0
100
AcDbLine
 62
7
  6
CONTINUOUS
 10
154.2562187599
 20
393.4703701992
 11
153.1248558657
 21
394.1235480938
  0
LINE
  5
3E6
100
AcDbEntity
  8
0
100
AcDbLine
 62
7
  6
CONTINUOUS
 10
151.3570979586
 20
397.5284067896
 11
149.5893253316
 21
398.5490077026
  0
LINE
  5
3E7
100
AcDbEntity
  8
0
100
AcDbLine
 62
7
  6
CONTINUOUS
 10
149.2357539474
 20
398.7531376184
 11
147.4679813204
 21
399.7737385314
  0
LINE
  5
3E8
100
AcDbEntity
  8
0
100
AcDbLine
 62
7
  6
CONTINUOUS
 10
147.1144310097
 20
399.9778562807
 11
145.3466583827
 21
400.9984571937
  0
LINE
  5
3E9
100
AcDbEntity
  8
0
100
AcDbLine
 62
7
  6
CONTINUOUS
 10
145.7709306231
 20
400.9576298339
 11
147.0437286004
 21
400.2227962032
  0
LINE
  5
3EA
100
AcDbEntity
  8
0
100
AcDbLine
 62
7
  6
CONTINUOUS
 10
147.8922597985
 20
399.7329075703
 11
149.1650577758
 21
398.9980739396
  0
LINE
  5
3EB
100
AcDbEntity
  8
0
100
AcDbLine
 62
7
  6
CONTINUOUS
 10
150.013588974
 20
398.5081853067
 11
151.2863869513
 21
397.7733516761
  0
LINE
  5
3EC
100
AcDbEntity
  8
0
100
AcDbLine
 62
7
  6
CONTINUOUS
 10
145.7002178648
 20
401.0801044733
 11
145.8416422038
 21
400.9984549403
  0
LINE
  5
3ED
100
AcDbEntity
  8
0
100
AcDbLine
 62
7
  6
CONTINUOUS
 10
147.1144401811
 20
400.2636213096
 11
147.2558645201
 21
400.1819717766
  0
LINE
  5
3EE
100
AcDbEntity
  8
0
100
AcDbLine
 62
7
  6
CONTINUOUS
 10
147.8215470402
 20
399.8553822098
 11
147.9629713792
 21
399.7737326767
  0
LINE
  5
3EF
100
AcDbEntity
  8
0
100
AcDbLine
 62
7
  6
CONTINUOUS
 10
149.2357693565
 20
399.0388990461
 11
149.3771936955
 21
398.9572495131
  0
LINE
  5
3F0
100
AcDbEntity
  8
0
100
AcDbLine
 62
7
  6
CONTINUOUS
 10
149.9428762157
 20
398.6306599462
 11
150.0843005547
 21
398.5490104132
  0
LINE
  5
3F1
100
AcDbEntity
  8
0
100
AcDbLine
 62
7
  6
CONTINUOUS
 10
151.357098532
 20
397.8141767825
 11
151.4985228709
 21
397.7325272495
  0
LINE
  5
3F2
100
AcDbEntity
  8
0
100
AcDbLine
 62
7
  6
CONTINUOUS
 10
152.4884665614
 20
398.304068094
 11
152.3470422224
 21
398.385717627
  0
LINE
  5
3F3
100
AcDbEntity
  8
0
100
AcDbLine
 62
7
  6
CONTINUOUS
 10
151.0742442451
 20
399.1205512577
 11
150.9328199061
 21
399.2022007907
  0
LINE
  5
3F4
100
AcDbEntity
  8
0
100
AcDbLine
 62
7
  6
CONTINUOUS
 10
150.367137386
 20
399.5287903576
 11
150.225713047
 21
399.6104398906
  0
LINE
  5
3F5
100
AcDbEntity
  8
0
100
AcDbLine
 62
7
  6
CONTINUOUS
 10
148.9529150697
 20
400.3452735213
 11
148.8114907307
 21
400.4269230543
  0
LINE
  5
3F6
100
AcDbEntity
  8
0
100
AcDbLine
 62
7
  6
CONTINUOUS
 10
148.2458082105
 20
400.7535126211
 11
148.1043838715
 21
400.8351621542
  0
LINE
  5
3F7
100
AcDbEntity
  8
0
100
AcDbLine
 62
7
  6
CONTINUOUS
 10
146.8315858942
 20
401.5699957848
 11
146.6901615552
 21
401.6516453179
  0
LINE
  5
3F8
100
AcDbEntity
  8
0
100
AcDbLine
 62
7
  6
CONTINUOUS
 10
152.4530232386
 20
398.7327724249
 11
151.6753474256
 21
399.1817536076
  0
LINE
  5
3F9
100
AcDbEntity
  8
0
100
AcDbLine
 62
7
  6
CONTINUOUS
 10
150.3316940632
 20
399.9574946885
 11
149.5540182501
 21
400.4064758711
  0
LINE
  5
3FA
100
AcDbEntity
  8
0
100
AcDbLine
 62
7
  6
CONTINUOUS
 10
148.2103648877
 20
401.182216952
 11
147.4326890747
 21
401.6311981347
  0
LINE
  5
3FB
100
AcDbEntity
  8
0
100
AcDbLine
 62
7
  6
CONTINUOUS
 10
153.1248558657
 20
398.549016201
 11
151.3570832387
 21
399.5696171139
  0
LINE
  5
3FC
100
AcDbEntity
  8
0
100
AcDbLine
 62
7
  6
CONTINUOUS
 10
151.0035118545
 20
399.7737470298
 11
149.2357392276
 21
400.7943479427
  0
LINE
  5
3FD
100
AcDbEntity
  8
0
100
AcDbLine
 62
7
  6
CONTINUOUS
 10
148.8821889169
 20
400.998465692
 11
147.1144162899
 21
402.019066605
  0
LINE
  5
3FE
100
AcDbEntity
  8
0
100
AcDbLine
 62
7
  6
CONTINUOUS
 10
179.0042114767
 20
41.3150798522
 11
178.2984042587
 21
40.9046041709
  0
LINE
  5
3FF
100
AcDbEntity
  8
0
100
AcDbLine
 62
7
  6
CONTINUOUS
 10
180.2080460742
 20
40.8524190361
 11
179.5009446581
 21
40.4441762801
  0
LINE
  5
400
100
AcDbEntity
  8
0
100
AcDbLine
 62
7
  6
CONTINUOUS
 10
175.7688991777
 20
39.5596608827
 11
178.2438477291
 21
40.9883725544
  0
LINE
  5
401
100
AcDbEntity
  8
0
100
AcDbLine
 62
7
  6
CONTINUOUS
 10
189.4410439386
 20
33.9236588649
 11
214.4725149341
 21
48.3755021183
  0
LINE
  5
402
100
AcDbEntity
  8
0
100
AcDbLine
 62
7
  6
CONTINUOUS
 10
151.0742442451
 20
399.1205512577
 11
151.6753474256
 21
399.1817536076
  0
LINE
  5
403
100
AcDbEntity
  8
0
100
AcDbLine
 62
7
  6
CONTINUOUS
 10
148.9529150697
 20
400.3452735213
 11
149.5540182501
 21
400.4064758711
  0
LINE
  5
404
100
AcDbEntity
  8
0
100
AcDbLine
 62
7
  6
CONTINUOUS
 10
146.8315858942
 20
401.5699957848
 11
147.4326890747
 21
401.6311981347
  0
LINE
  5
405
100
AcDbEntity
  8
0
100
AcDbLine
 62
7
  6
CONTINUOUS
 10
149.0695930455
 20
395.9285188629
 11
148.4119864086
 21
395.9872714615
  0
LINE
  5
406
100
AcDbEntity
  8
0
100
AcDbLine
 62
7
  6
CONTINUOUS
 10
144.8127991484
 20
398.0652161857
 11
145.4704057853
 21
398.0064635871
  0
ARC
  5
407
100
AcDbEntity
  8
0
100
AcDbCircle
 62
7
  6
CONTINUOUS
 10
108.644386269
 20
170.9917989702
 40
48.2462078423
100
AcDbArc
 50
16.145210356
 51
16.5727646872
  0
ARC
  5
408
100
AcDbEntity
  8
0
100
AcDbCircle
 62
7
  6
CONTINUOUS
 10
109.6196013759
 20
171.2746436642
 40
47.2308288058
100
AcDbArc
 50
16.5813394946
 51
17.1171304886
  0
ARC
  5
409
100
AcDbEntity
  8
0
100
AcDbCircle
 62
7
  6
CONTINUOUS
 10
106.52792373
 20
86.8997481304
 40
7.4792541143
100
AcDbArc
 50
203.7345348029
 51
207.9750021254
  0
ARC
  5
40A
100
AcDbEntity
  8
0
100
AcDbCircle
 62
7
  6
CONTINUOUS
 10
103.2764858202
 20
86.2195667562
 40
4.1332990003
100
AcDbArc
 50
180.0016152614
 51
180.7356747632
  0
ARC
  5
40B
100
AcDbEntity
  8
0
100
AcDbCircle
 62
7
  6
CONTINUOUS
 10
104.2347165143
 20
84.2588809254
 40
3.9591180546
100
AcDbArc
 50
239.9884889475
 51
242.3990001841
  0
ARC
  5
40C
100
AcDbEntity
  8
0
100
AcDbCircle
 62
7
  6
CONTINUOUS
 10
119.261002289
 20
154.6632393984
 40
3.4415354697
100
AcDbArc
 50
209.180545776
 51
210.8208204232
  0
ARC
  5
40D
100
AcDbEntity
  8
0
100
AcDbCircle
 62
7
  6
CONTINUOUS
 10
112.7087838023
 20
161.7014277633
 40
3.2371665543
100
AcDbArc
 50
73.2697916279
 51
75.1709390751
  0
ARC
  5
40E
100
AcDbEntity
  8
0
100
AcDbCircle
 62
7
  6
CONTINUOUS
 10
107.6880967952
 20
83.6967562508
 40
2.7095364807
100
AcDbArc
 50
267.5100019185
 51
268.7949331721
  0
ARC
  5
40F
100
AcDbEntity
  8
0
100
AcDbCircle
 62
7
  6
CONTINUOUS
 10
119.6082916818
 20
87.6746937776
 40
2.4526497752
100
AcDbArc
 50
155.1461168867
 51
157.30314245
  0
ARC
  5
410
100
AcDbEntity
  8
0
100
AcDbCircle
 62
7
  6
CONTINUOUS
 10
106.6134298705
 20
83.3435900718
 40
1.7891303633
100
AcDbArc
 50
315.0330004803
 51
320.1302206557
  0
ARC
  5
411
100
AcDbEntity
  8
0
100
AcDbCircle
 62
7
  6
CONTINUOUS
 10
103.4902608589
 20
88.8539210302
 40
1.7825806924
100
AcDbArc
 50
134.5828330962
 51
136.3677338914
  0
ARC
  5
412
100
AcDbEntity
  8
0
100
AcDbCircle
 62
7
  6
CONTINUOUS
 10
103.4206882581
 20
88.9350630092
 40
1.6754845901
100
AcDbArc
 50
118.7568453264
 51
119.81741468
  0
ARC
  5
413
100
AcDbEntity
  8
0
100
AcDbCircle
 62
7
  6
CONTINUOUS
 10
106.7451139728
 20
83.1772208087
 40
1.6754221923
100
AcDbArc
 50
291.9410055445
 51
300.1777652417
  0
ARC
  5
414
100
AcDbEntity
  8
0
100
AcDbCircle
 62
7
  6
CONTINUOUS
 10
117.9139572986
 20
87.510514548
 40
1.6689318063
100
AcDbArc
 50
119.9857491388
 51
122.7630807145
  0
ARC
  5
415
100
AcDbEntity
  8
0
100
AcDbCircle
 62
7
  6
CONTINUOUS
 10
64.8367127505
 20
250.2899562031
 40
86.6003931846
100
AcDbArc
 50
321.342000472
 51
323.9738737749
  0
ARC
  5
416
100
AcDbEntity
  8
0
100
AcDbCircle
 62
7
  6
CONTINUOUS
 10
107.622970706
 20
291.3917296655
 40
7.8572952879
100
AcDbArc
 50
15.6017945543
 51
16.2457955039
  0
ARC
  5
417
100
AcDbEntity
  8
0
100
AcDbCircle
 62
7
  6
CONTINUOUS
 10
106.52792373
 20
291.0253524128
 40
7.4792541143
100
AcDbArc
 50
203.7345348028
 51
207.9750021254
  0
ARC
  5
418
100
AcDbEntity
  8
0
100
AcDbCircle
 62
7
  6
CONTINUOUS
 10
108.7314373037
 20
293.7671846324
 40
5.2883384643
100
AcDbArc
 50
58.482699141
 51
59.9937505599
  0
ARC
  5
419
100
AcDbEntity
  8
0
100
AcDbCircle
 62
7
  6
CONTINUOUS
 10
103.2764858202
 20
290.3451710386
 40
4.1332990003
100
AcDbArc
 50
180.0016152614
 51
180.7356747632
  0
ARC
  5
41A
100
AcDbEntity
  8
0
100
AcDbCircle
 62
7
  6
CONTINUOUS
 10
104.2347165142
 20
288.3844852075
 40
3.9591180543
100
AcDbArc
 50
239.9884889474
 51
242.3990001842
  0
ARC
  5
41B
100
AcDbEntity
  8
0
100
AcDbCircle
 62
7
  6
CONTINUOUS
 10
112.7042251646
 20
239.2444392468
 40
3.2543350753
100
AcDbArc
 50
73.7447072033
 51
75.1679845355
  0
ARC
  5
41C
100
AcDbEntity
  8
0
100
AcDbCircle
 62
7
  6
CONTINUOUS
 10
107.6880967952
 20
287.8223605324
 40
2.7095364799
100
AcDbArc
 50
267.5100019184
 51
268.7949331723
  0
ARC
  5
41D
100
AcDbEntity
  8
0
100
AcDbCircle
 62
7
  6
CONTINUOUS
 10
106.6130234659
 20
287.4694816155
 40
1.7896210535
100
AcDbArc
 50
315.0435893901
 51
320.1329031491
  0
ARC
  5
41E
100
AcDbEntity
  8
0
100
AcDbCircle
 62
7
  6
CONTINUOUS
 10
103.4902608587
 20
292.9795253128
 40
1.7825806922
100
AcDbArc
 50
134.5828330961
 51
136.3677338915
  0
ARC
  5
41F
100
AcDbEntity
  8
0
100
AcDbCircle
 62
7
  6
CONTINUOUS
 10
103.4206882582
 20
293.0606672915
 40
1.6754845902
100
AcDbArc
 50
118.7568453263
 51
119.8174146798
  0
ARC
  5
420
100
AcDbEntity
  8
0
100
AcDbCircle
 62
7
  6
CONTINUOUS
 10
106.7451139731
 20
287.3028250906
 40
1.6754221917
100
AcDbArc
 50
291.9410055445
 51
300.1777652419
  0
ARC
  5
421
100
AcDbEntity
  8
0
100
AcDbCircle
 62
7
  6
CONTINUOUS
 10
168.6564299591
 20
137.159526334
 40
49.1856302194
100
AcDbArc
 50
105.9428925777
 51
106.1348800226
  0
ARC
  5
422
100
AcDbEntity
  8
0
100
AcDbCircle
 62
7
  6
CONTINUOUS
 10
132.7130853412
 20
153.9870233885
 40
38.5566095552
100
AcDbArc
 50
2.4640544099
 51
3.1989856017
  0
ARC
  5
423
100
AcDbEntity
  8
0
100
AcDbCircle
 62
7
  6
CONTINUOUS
 10
165.7097310477
 20
147.4042245299
 40
38.5254046761
100
AcDbArc
 50
98.823111361
 51
105.9701214634
  0
ARC
  5
424
100
AcDbEntity
  8
0
100
AcDbCircle
 62
7
  6
CONTINUOUS
 10
128.7715340949
 20
172.3543108314
 40
37.7096676318
100
AcDbArc
 50
343.5304927812
 51
344.2888314806
  0
ARC
  5
425
100
AcDbEntity
  8
0
100
AcDbCircle
 62
7
  6
CONTINUOUS
 10
128.9359899888
 20
172.3057489515
 40
37.5381917028
100
AcDbArc
 50
342.9150863545
 51
343.5304093683
  0
ARC
  5
426
100
AcDbEntity
  8
0
100
AcDbCircle
 62
7
  6
CONTINUOUS
 10
134.4015410046
 20
154.055388369
 40
36.8667761149
100
AcDbArc
 50
0.0253322101
 51
2.4707206059
  0
ARC
  5
427
100
AcDbEntity
  8
0
100
AcDbCircle
 62
7
  6
CONTINUOUS
 10
174.5273175637
 20
130.4716999304
 40
33.0524631383
100
AcDbArc
 50
104.9315308279
 51
106.622172459
  0
ARC
  5
428
100
AcDbEntity
  8
0
100
AcDbCircle
 62
7
  6
CONTINUOUS
 10
132.2515114573
 20
191.0303450798
 40
12.5007425869
100
AcDbArc
 50
116.4873051069
 51
119.9965054269
  0
ARC
  5
429
100
AcDbEntity
  8
0
100
AcDbCircle
 62
7
  6
CONTINUOUS
 10
138.6285366698
 20
184.301215683
 40
9.5261436569
100
AcDbArc
 50
99.9839025341
 51
100.8955117902
  0
ARC
  5
42A
100
AcDbEntity
  8
0
100
AcDbCircle
 62
7
  6
CONTINUOUS
 10
153.3165576169
 20
154.7099331157
 40
8.5123233839
100
AcDbArc
 50
294.31898277
 51
299.9973208248
  0
ARC
  5
42B
100
AcDbEntity
  8
0
100
AcDbCircle
 62
7
  6
CONTINUOUS
 10
177.2388962447
 20
46.0756726784
 40
7.4792541143
100
AcDbArc
 50
203.7345348029
 51
207.9750021254
  0
ARC
  5
42C
100
AcDbEntity
  8
0
100
AcDbCircle
 62
7
  6
CONTINUOUS
 10
173.9874583342
 20
45.3954913042
 40
4.1332989996
100
AcDbArc
 50
180.0016152614
 51
180.7356747633
  0
ARC
  5
42D
100
AcDbEntity
  8
0
100
AcDbCircle
 62
7
  6
CONTINUOUS
 10
174.9456890291
 20
43.4348054734
 40
3.9591180546
100
AcDbArc
 50
239.9884889475
 51
242.3990001841
  0
ARC
  5
42E
100
AcDbEntity
  8
0
100
AcDbCircle
 62
7
  6
CONTINUOUS
 10
178.3990693099
 20
42.8726807988
 40
2.7095364807
100
AcDbArc
 50
267.5100019185
 51
268.7949331721
  0
ARC
  5
42F
100
AcDbEntity
  8
0
100
AcDbCircle
 62
7
  6
CONTINUOUS
 10
136.152230954
 20
191.8454357633
 40
2.0314386229
100
AcDbArc
 50
65.9085072558
 51
71.6229757321
  0
ARC
  5
430
100
AcDbEntity
  8
0
100
AcDbCircle
 62
7
  6
CONTINUOUS
 10
177.3244023852
 20
42.5195146198
 40
1.7891303633
100
AcDbArc
 50
315.0330004802
 51
320.1302206557
  0
ARC
  5
431
100
AcDbEntity
  8
0
100
AcDbCircle
 62
7
  6
CONTINUOUS
 10
174.2012333735
 20
48.0298455783
 40
1.7825806923
100
AcDbArc
 50
134.5828330961
 51
136.3677338914
  0
ARC
  5
432
100
AcDbEntity
  8
0
100
AcDbCircle
 62
7
  6
CONTINUOUS
 10
174.131660773
 20
48.110987557
 40
1.6754845903
100
AcDbArc
 50
118.7568453265
 51
119.8174146799
  0
ARC
  5
433
100
AcDbEntity
  8
0
100
AcDbCircle
 62
7
  6
CONTINUOUS
 10
177.4560864875
 20
42.3531453567
 40
1.6754221923
100
AcDbArc
 50
291.9410055445
 51
300.1777652417
  0
ARC
  5
434
100
AcDbEntity
  8
0
100
AcDbCircle
 62
7
  6
CONTINUOUS
 10
149.8242298815
 20
259.1319526476
 40
6.8723723297
100
AcDbArc
 50
257.9664167722
 51
258.9982350734
  0
ARC
  5
435
100
AcDbEntity
  8
0
100
AcDbCircle
 62
7
  6
CONTINUOUS
 10
149.820357474
 20
256.6007581112
 40
6.8601845212
100
AcDbArc
 50
257.0868249106
 51
258.5537811101
  0
ARC
  5
436
100
AcDbEntity
  8
0
100
AcDbCircle
 62
7
  6
CONTINUOUS
 10
149.766872464
 20
256.3683803518
 40
6.6217311147
100
AcDbArc
 50
255.4108926217
 51
257.0885720485
  0
ARC
  5
437
100
AcDbEntity
  8
0
100
AcDbCircle
 62
7
  6
CONTINUOUS
 10
149.8052697464
 20
255.9937334328
 40
6.4624206136
100
AcDbArc
 50
256.3728231301
 51
257.3974707212
  0
ARC
  5
438
100
AcDbEntity
  8
0
100
AcDbCircle
 62
7
  6
CONTINUOUS
 10
149.7516817848
 20
255.7760721181
 40
6.2382611653
100
AcDbArc
 50
254.1750686803
 51
256.3801500581
  0
ARC
  5
439
100
AcDbEntity
  8
0
100
AcDbCircle
 62
7
  6
CONTINUOUS
 10
148.9236623917
 20
254.228586821
 40
4.3148358003
100
AcDbArc
 50
240.0108544337
 51
241.8701585379
  0
ARC
  5
43A
100
AcDbEntity
  8
0
100
AcDbCircle
 62
7
  6
CONTINUOUS
 10
147.8681224949
 20
299.9811503287
 40
3.1886449124
100
AcDbArc
 50
177.6886311903
 51
180.0134807408
  0
ARC
  5
43B
100
AcDbEntity
  8
0
100
AcDbCircle
 62
7
  6
CONTINUOUS
 10
145.7468108989
 20
298.7564178184
 40
3.1886449123
100
AcDbArc
 50
177.6886311903
 51
180.0134807408
  0
ARC
  5
43C
100
AcDbEntity
  8
0
100
AcDbCircle
 62
7
  6
CONTINUOUS
 10
147.3057209298
 20
255.59698176
 40
1.8560520081
100
AcDbArc
 50
168.6569017502
 51
180.1424581925
  0
ARC
  5
43D
100
AcDbEntity
  8
0
100
AcDbCircle
 62
7
  6
CONTINUOUS
 10
147.1838231768
 20
253.2863245224
 40
1.7440928911
100
AcDbArc
 50
155.062622797
 51
160.5784080161
  0
ARC
  5
43E
100
AcDbEntity
  8
0
100
AcDbCircle
 62
7
  6
CONTINUOUS
 10
146.9475829092
 20
253.8890985726
 40
1.7393629696
100
AcDbArc
 50
148.9239630565
 51
151.5253879038
  0
ARC
  5
43F
100
AcDbEntity
  8
0
100
AcDbCircle
 62
7
  6
CONTINUOUS
 10
150.6377629594
 20
216.9602405963
 40
1.4911326277
100
AcDbArc
 50
306.1867354624
 51
310.2599097725
  0
ARC
  5
440
100
AcDbEntity
  8
0
100
AcDbCircle
 62
7
  6
CONTINUOUS
 10
149.7050888319
 20
310.7576286863
 40
6.0708441762
100
AcDbArc
 50
105.8540281826
 51
107.0576988827
  0
ARC
  5
441
100
AcDbEntity
  8
0
100
AcDbCircle
 62
7
  6
CONTINUOUS
 10
149.6032732336
 20
311.496072939
 40
5.2253626868
100
AcDbArc
 50
108.1319244029
 51
109.5737567393
  0
ARC
  5
442
100
AcDbEntity
  8
0
100
AcDbCircle
 62
7
  6
CONTINUOUS
 10
150.921853852
 20
316.0384171818
 40
4.4222915167
100
AcDbArc
 50
296.7319560853
 51
299.9689212887
  0
ARC
  5
443
100
AcDbEntity
  8
0
100
AcDbCircle
 62
7
  6
CONTINUOUS
 10
148.9236629556
 20
312.6785456702
 40
4.3148369498
100
AcDbArc
 50
240.0108545974
 51
241.8701735651
  0
ARC
  5
444
100
AcDbEntity
  8
0
100
AcDbCircle
 62
7
  6
CONTINUOUS
 10
150.9980052649
 20
312.6364000652
 40
4.2664245021
100
AcDbArc
 50
298.7638672512
 51
299.9953219172
  0
ARC
  5
445
100
AcDbEntity
  8
0
100
AcDbCircle
 62
7
  6
CONTINUOUS
 10
151.0962751031
 20
312.4667115568
 40
4.0703350551
100
AcDbArc
 50
299.9914377747
 51
302.0054124495
  0
ARC
  5
446
100
AcDbEntity
  8
0
100
AcDbCircle
 62
7
  6
CONTINUOUS
 10
151.1937331631
 20
314.5515471264
 40
3.8825653076
100
AcDbArc
 50
299.9301602536
 51
305.6549851608
  0
ARC
  5
447
100
AcDbEntity
  8
0
100
AcDbCircle
 62
7
  6
CONTINUOUS
 10
150.984141476
 20
312.9778882766
 40
3.5880631184
100
AcDbArc
 50
57.355018011
 51
60.0152948139
  0
ARC
  5
448
100
AcDbEntity
  8
0
100
AcDbCircle
 62
7
  6
CONTINUOUS
 10
148.8599252905
 20
315.8389820273
 40
3.4844385732
100
AcDbArc
 50
235.0762871533
 51
240.0530035454
  0
ARC
  5
449
100
AcDbEntity
  8
0
100
AcDbCircle
 62
7
  6
CONTINUOUS
 10
151.0379362663
 20
315.8389506874
 40
3.484401747
100
AcDbArc
 50
299.947416968
 51
304.9237670941
  0
ARC
  5
44A
100
AcDbEntity
  8
0
100
AcDbCircle
 62
7
  6
CONTINUOUS
 10
149.9496254185
 20
377.5344833245
 40
3.3933457341
100
AcDbArc
 50
80.4187890922
 51
100.2158013473
  0
ARC
  5
44B
100
AcDbEntity
  8
0
100
AcDbCircle
 62
7
  6
CONTINUOUS
 10
151.4792305468
 20
314.1502539843
 40
3.3900811479
100
AcDbArc
 50
305.6877129533
 51
309.8783809217
  0
ARC
  5
44C
100
AcDbEntity
  8
0
100
AcDbCircle
 62
7
  6
CONTINUOUS
 10
149.9532125244
 20
382.0060525901
 40
3.3876377539
100
AcDbArc
 50
273.542346009
 51
276.8893053107
  0
ARC
  5
44D
100
AcDbEntity
  8
0
100
AcDbCircle
 62
7
  6
CONTINUOUS
 10
149.9831603261
 20
381.7796824693
 40
3.1593108494
100
AcDbArc
 50
276.8425495769
 51
282.7567067194
  0
ARC
  5
44E
100
AcDbEntity
  8
0
100
AcDbCircle
 62
7
  6
CONTINUOUS
 10
147.8694115207
 20
313.5485151291
 40
2.5746548899
100
AcDbArc
 50
221.767482034
 51
223.4151939222
  0
ARC
  5
44F
100
AcDbEntity
  8
0
100
AcDbCircle
 62
7
  6
CONTINUOUS
 10
147.7420919378
 20
313.4362419217
 40
2.4049070618
100
AcDbArc
 50
217.5766557488
 51
221.7929579607
  0
ARC
  5
450
100
AcDbEntity
  8
0
100
AcDbCircle
 62
7
  6
CONTINUOUS
 10
152.4232541679
 20
313.2407640646
 40
2.0735344928
100
AcDbArc
 50
326.4987813981
 51
328.2415864434
  0
ARC
  5
451
100
AcDbEntity
  8
0
100
AcDbCircle
 62
7
  6
CONTINUOUS
 10
148.6129806851
 20
379.7731339789
 40
0.6640471579
100
AcDbArc
 50
173.6246143673
 51
180.0163486139
  0
ARC
  5
452
100
AcDbEntity
  8
0
100
AcDbCircle
 62
7
  6
CONTINUOUS
 10
149.6180494272
 20
386.6378301393
 40
0.4664337918
100
AcDbArc
 50
157.7577333484
 51
165.1410964535
  0
ARC
  5
453
100
AcDbEntity
  8
0
100
AcDbCircle
 62
7
  6
CONTINUOUS
 10
177.2388962447
 20
250.2012769608
 40
7.4792541143
100
AcDbArc
 50
203.7345348028
 51
207.9750021254
  0
ARC
  5
454
100
AcDbEntity
  8
0
100
AcDbCircle
 62
7
  6
CONTINUOUS
 10
179.4424098184
 20
252.9431091803
 40
5.2883384644
100
AcDbArc
 50
58.482699141
 51
59.9937505599
  0
ARC
  5
455
100
AcDbEntity
  8
0
100
AcDbCircle
 62
7
  6
CONTINUOUS
 10
173.9874583342
 20
249.5210955866
 40
4.1332989996
100
AcDbArc
 50
180.0016152614
 51
180.7356747633
  0
ARC
  5
456
100
AcDbEntity
  8
0
100
AcDbCircle
 62
7
  6
CONTINUOUS
 10
174.9456890291
 20
247.5604097559
 40
3.9591180547
100
AcDbArc
 50
239.9884889475
 51
242.3990001841
  0
ARC
  5
457
100
AcDbEntity
  8
0
100
AcDbCircle
 62
7
  6
CONTINUOUS
 10
190.0574654018
 20
269.3600888084
 40
3.4151950704
100
AcDbArc
 50
0.0125154855
 51
2.233390542
  0
ARC
  5
458
100
AcDbEntity
  8
0
100
AcDbCircle
 62
7
  6
CONTINUOUS
 10
178.3990693099
 20
246.9982850815
 40
2.7095364811
100
AcDbArc
 50
267.5100019186
 51
268.7949331719
  0
ARC
  5
459
100
AcDbEntity
  8
0
100
AcDbCircle
 62
7
  6
CONTINUOUS
 10
177.3239959806
 20
246.6454061635
 40
1.7896210534
100
AcDbArc
 50
315.04358939
 51
320.1329031492
  0
ARC
  5
45A
100
AcDbEntity
  8
0
100
AcDbCircle
 62
7
  6
CONTINUOUS
 10
174.2012333736
 20
252.1554498606
 40
1.7825806925
100
AcDbArc
 50
134.5828330962
 51
136.3677338913
  0
ARC
  5
45B
100
AcDbEntity
  8
0
100
AcDbCircle
 62
7
  6
CONTINUOUS
 10
174.131660773
 20
252.2365918393
 40
1.6754845904
100
AcDbArc
 50
118.7568453264
 51
119.8174146798
  0
ARC
  5
45C
100
AcDbEntity
  8
0
100
AcDbCircle
 62
7
  6
CONTINUOUS
 10
177.4560864874
 20
246.4787496391
 40
1.6754221924
100
AcDbArc
 50
291.9410055445
 51
300.1777652417
  0
SPLINE
  5
45D
100
AcDbEntity
  8
0
100
AcDbSpline
 62
7
  6
CONTINUOUS
 70
0
 71
3
 72
9
 73
5
 74
0
 42
0.0000001
 43
0.0000001
 44
0.0000000001
 40
0.0
 40
0.0
 40
0.0
 40
0.0
 40
0.242197788
 40
1.0
 40
1.0
 40
1.0
 40
1.0
 10
151.4807765294
 20
215.6821548498
 30
0.0
 10
151.4844584893
 20
215.6239137665
 30
0.0
 10
151.5044583215
 20
215.3837608894
 30
0.0
 10
151.5430055345
 20
215.1452447846
 30
0.0
 10
151.5812104501
 20
214.9666946482
 30
0.0
  0
SPLINE
  5
45E
100
AcDbEntity
  8
0
100
AcDbSpline
 62
7
  6
CONTINUOUS
 70
0
 71
3
 72
9
 73
5
 74
0
 42
0.0000001
 43
0.0000001
 44
0.0000000001
 40
0.0
 40
0.0
 40
0.0
 40
0.0
 40
0.2373367549
 40
1.0
 40
1.0
 40
1.0
 40
1.0
 10
151.5812104501
 20
214.9666946482
 30
0.0
 10
151.6186892676
 20
214.7915379205
 30
0.0
 10
151.8133070333
 20
214.0615528901
 30
0.0
 10
152.1409324925
 20
213.3696745779
 30
0.0
 10
152.4429929694
 20
212.8797081309
 30
0.0
  0
SPLINE
  5
45F
100
AcDbEntity
  8
0
100
AcDbSpline
 62
7
  6
CONTINUOUS
 70
0
 71
3
 72
9
 73
5
 74
0
 42
0.0000001
 43
0.0000001
 44
0.0000000001
 40
0.0
 40
0.0
 40
0.0
 40
0.0
 40
0.238164047
 40
1.0
 40
1.0
 40
1.0
 40
1.0
 10
150.1681097024
 20
215.4131681468
 30
0.0
 10
150.1939688449
 20
215.1417682886
 30
0.0
 10
150.3807079837
 20
214.0099308876
 30
0.0
 10
150.8484789332
 20
212.9337560486
 30
0.0
 10
151.3052393369
 20
212.1908583546
 30
0.0
  0
SPLINE
  5
460
100
AcDbEntity
  8
0
100
AcDbSpline
 62
7
  6
CONTINUOUS
 70
0
 71
3
 72
9
 73
5
 74
0
 42
0.0000001
 43
0.0000001
 44
0.0000000001
 40
0.0
 40
0.0
 40
0.0
 40
0.0
 40
0.2351703269
 40
1.0
 40
1.0
 40
1.0
 40
1.0
 10
155.8680466399
 20
205.4644590388
 30
0.0
 10
155.8675428664
 20
205.7741280401
 30
0.0
 10
155.7505547611
 20
207.0904287889
 30
0.0
 10
155.2326318573
 20
208.352020393
 30
0.0
 10
154.7051450436
 20
209.2099510756
 30
0.0
  0
SPLINE
  5
461
100
AcDbEntity
  8
0
100
AcDbSpline
 62
7
  6
CONTINUOUS
 70
0
 71
3
 72
9
 73
5
 74
0
 42
0.0000001
 43
0.0000001
 44
0.0000000001
 40
0.0
 40
0.0
 40
0.0
 40
0.0
 40
0.4688332444
 40
1.0
 40
1.0
 40
1.0
 40
1.0
 10
154.5380536298
 20
205.4558165569
 30
0.0
 10
154.5380602627
 20
205.9628897018
 30
0.0
 10
154.3369861708
 20
207.0453066868
 30
0.0
 10
153.8688731953
 20
208.0320735391
 30
0.0
 10
153.5673912784
 20
208.5211015152
 30
0.0
  0
SPLINE
  5
462
100
AcDbEntity
  8
0
100
AcDbSpline
 62
7
  6
CONTINUOUS
 70
0
 71
3
 72
9
 73
5
 74
0
 42
0.0000001
 43
0.0000001
 44
0.0000000001
 40
0.0
 40
0.0
 40
0.0
 40
0.0
 40
0.2341284837
 40
1.0
 40
1.0
 40
1.0
 40
1.0
 10
151.3631432064
 20
215.6559631068
 30
0.0
 10
151.3137000707
 20
215.6274172696
 30
0.0
 10
151.0968483805
 20
215.5153900348
 30
0.0
 10
150.8624542246
 20
215.4391610762
 30
0.0
 10
150.6803443921
 20
215.397759313
 30
0.0
  0
SPLINE
  5
463
100
AcDbEntity
  8
0
100
AcDbSpline
 62
7
  6
CONTINUOUS
 70
0
 71
3
 72
8
 73
4
 74
0
 42
0.0000001
 43
0.0000001
 44
0.0000000001
 40
0.0
 40
0.0
 40
0.0
 40
0.0
 40
1.0
 40
1.0
 40
1.0
 40
1.0
 10
150.6803443921
 20
215.397759313
 30
0.0
 10
150.5288994774
 20
215.3633290661
 30
0.0
 10
150.3744348704
 20
215.3406193795
 30
0.0
 10
150.2196061114
 20
215.3284103882
 30
0.0
  0
SPLINE
  5
464
100
AcDbEntity
  8
0
100
AcDbSpline
 62
7
  6
CONTINUOUS
 70
0
 71
3
 72
12
 73
8
 74
0
 42
0.0000001
 43
0.0000001
 44
0.0000000001
 40
0.0
 40
0.0
 40
0.0
 40
0.0
 40
0.3042576174
 40
0.5844628011
 40
0.707194965
 40
0.8162393692
 40
1.0
 40
1.0
 40
1.0
 40
1.0
 10
150.2196061114
 20
215.3284103882
 30
0.0
 10
149.9388184103
 20
215.3062689292
 30
0.0
 10
149.3927395208
 20
215.3296424675
 30
0.0
 10
148.7552711241
 20
215.5176164195
 30
0.0
 10
148.348070975
 20
215.7667534773
 30
0.0
 10
148.0664639861
 20
216.029962355
 30
0.0
 10
147.9489120023
 20
216.3023344271
 30
0.0
 10
147.9488991862
 20
216.4724465056
 30
0.0
  0
SPLINE
  5
465
100
AcDbEntity
  8
0
100
AcDbSpline
 62
7
  6
CONTINUOUS
 70
0
 71
3
 72
10
 73
6
 74
0
 42
0.0000001
 43
0.0000001
 44
0.0000000001
 40
0.0
 40
0.0
 40
0.0
 40
0.0
 40
0.4976880797
 40
0.7481509974
 40
1.0
 40
1.0
 40
1.0
 40
1.0
 10
117.6947217766
 20
150.9712919669
 30
0.0
 10
118.1438981313
 20
150.7119657443
 30
0.0
 10
118.9219042897
 20
150.4566419972
 30
0.0
 10
119.9715811451
 20
150.5458108483
 30
0.0
 10
120.4673602207
 20
150.7410393719
 30
0.0
 10
120.6946576189
 20
150.8722731658
 30
0.0
  0
SPLINE
  5
466
100
AcDbEntity
  8
0
100
AcDbSpline
 62
7
  6
CONTINUOUS
 70
0
 71
3
 72
11
 73
7
 74
0
 42
0.0000001
 43
0.0000001
 44
0.0000000001
 40
0.0
 40
0.0
 40
0.0
 40
0.0
 40
0.2482153933
 40
0.4955503854
 40
0.7442820144
 40
1.0
 40
1.0
 40
1.0
 40
1.0
 10
116.6947776001
 20
157.8003205562
 30
0.0
 10
116.3763609785
 20
157.6164913143
 30
0.0
 10
115.8123587454
 20
157.1084863247
 30
0.0
 10
115.3357250005
 20
156.0864225536
 30
0.0
 10
115.2330345142
 20
154.9599406128
 30
0.0
 10
115.3723345041
 20
154.2167925425
 30
0.0
 10
115.4835146673
 20
153.8546918785
 30
0.0
  0
SPLINE
  5
467
100
AcDbEntity
  8
0
100
AcDbSpline
 62
7
  6
CONTINUOUS
 70
0
 71
3
 72
8
 73
4
 74
0
 42
0.0000001
 43
0.0000001
 44
0.0000000001
 40
0.0
 40
0.0
 40
0.0
 40
0.0
 40
1.0
 40
1.0
 40
1.0
 40
1.0
 10
115.4835146673
 20
153.8546918785
 30
0.0
 10
115.6009788419
 20
153.4721249313
 30
0.0
 10
115.7647723245
 20
153.1013836395
 30
0.0
 10
115.9650476908
 20
152.7549084181
 30
0.0
  0
SPLINE
  5
468
100
AcDbEntity
  8
0
100
AcDbSpline
 62
7
  6
CONTINUOUS
 70
0
 71
3
 72
9
 73
5
 74
0
 42
0.0000001
 43
0.0000001
 44
0.0000000001
 40
0.0
 40
0.0
 40
0.0
 40
0.0
 40
0.2562276424
 40
1.0
 40
1.0
 40
1.0
 40
1.0
 10
115.9650476908
 20
152.7549084181
 30
0.0
 10
116.071884591
 20
152.5700812007
 30
0.0
 10
116.5296987785
 20
151.8743659666
 30
0.0
 10
117.1580465546
 20
151.2811345411
 30
0.0
 10
117.6947217766
 20
150.9712919669
 30
0.0
  0
SPLINE
  5
469
100
AcDbEntity
  8
0
100
AcDbSpline
 62
7
  6
CONTINUOUS
 70
0
 71
3
 72
10
 73
6
 74
0
 42
0.0000001
 43
0.0000001
 44
0.0000000001
 40
0.0
 40
0.0
 40
0.0
 40
0.0
 40
0.4976880797
 40
0.7481509974
 40
1.0
 40
1.0
 40
1.0
 40
1.0
 10
168.2530671246
 20
180.1620008434
 30
0.0
 10
168.7022434793
 20
179.9026746209
 30
0.0
 10
169.4802496377
 20
179.6473508737
 30
0.0
 10
170.5299264931
 20
179.7365197249
 30
0.0
 10
171.0257055687
 20
179.9317482485
 30
0.0
 10
171.2530029669
 20
180.0629820424
 30
0.0
  0
SPLINE
  5
46A
100
AcDbEntity
  8
0
100
AcDbSpline
 62
7
  6
CONTINUOUS
 70
0
 71
3
 72
13
 73
9
 74
0
 42
0.0000001
 43
0.0000001
 44
0.0000000001
 40
0.0
 40
0.0
 40
0.0
 40
0.0
 40
0.1224699175
 40
0.2444587043
 40
0.4889542327
 40
0.6172993047
 40
0.7475846202
 40
1.0
 40
1.0
 40
1.0
 40
1.0
 10
167.2531229481
 20
186.9910294328
 30
0.0
 10
166.9658181045
 20
186.8251617362
 30
0.0
 10
166.4507179156
 20
186.3803000573
 30
0.0
 10
165.809391782
 20
185.1933279183
 30
0.0
 10
165.7904944143
 20
183.7755905573
 30
0.0
 10
166.2176637048
 20
182.4767888602
 30
0.0
 10
166.8920106954
 20
181.2623135255
 30
0.0
 10
167.660924035
 20
180.5038670816
 30
0.0
 10
168.2530671246
 20
180.1620008434
 30
0.0
  0
SPLINE
  5
46B
100
AcDbEntity
  8
0
100
AcDbSpline
 62
7
  6
CONTINUOUS
 70
0
 71
3
 72
11
 73
7
 74
0
 42
0.0000001
 43
0.0000001
 44
0.0000000001
 40
0.0
 40
0.0
 40
0.0
 40
0.0
 40
0.2898001112
 40
0.5490507031
 40
0.782230163
 40
1.0
 40
1.0
 40
1.0
 40
1.0
 10
171.2683135161
 20
154.0716882936
 30
0.0
 10
171.2683135161
 20
152.1709669988
 30
0.0
 10
170.9812554645
 20
148.5574514018
 30
0.0
 10
169.5162217318
 20
143.5930984936
 30
0.0
 10
167.0536453621
 20
139.5642840207
 30
0.0
 10
164.7385506216
 20
137.6188680789
 30
0.0
 10
163.5015971758
 20
136.9047462487
 30
0.0
  0
SPLINE
  5
46C
100
AcDbEntity
  8
0
100
AcDbSpline
 62
7
  6
CONTINUOUS
 70
0
 71
3
 72
13
 73
9
 74
0
 42
0.0000001
 43
0.0000001
 44
0.0000000001
 40
0.0
 40
0.0
 40
0.0
 40
0.0
 40
0.0871398081
 40
0.1868484731
 40
0.3045123423
 40
0.4386460221
 40
0.7300494215
 40
1.0
 40
1.0
 40
1.0
 40
1.0
 10
168.9558928655
 20
127.4580769558
 30
0.0
 10
169.0633128035
 20
127.520013665
 30
0.0
 10
169.3330949341
 20
127.5893123899
 30
0.0
 10
169.7673216564
 20
127.5023046989
 30
0.0
 10
170.2110882001
 20
127.2601130723
 30
0.0
 10
170.7931683362
 20
126.7438965657
 30
0.0
 10
171.3399207045
 20
125.8987341802
 30
0.0
 10
171.5511574062
 20
125.1025604113
 30
0.0
 10
171.5511574062
 20
124.7184305794
 30
0.0
  0
SPLINE
  5
46D
100
AcDbEntity
  8
0
100
AcDbSpline
 62
7
  6
CONTINUOUS
 70
0
 71
3
 72
13
 73
9
 74
0
 42
0.0000001
 43
0.0000001
 44
0.0000000001
 40
0.0
 40
0.0
 40
0.0
 40
0.0
 40
0.0871398081
 40
0.1868484731
 40
0.3045123423
 40
0.4386460221
 40
0.7300494215
 40
1.0
 40
1.0
 40
1.0
 40
1.0
 10
118.3975475175
 20
215.0272137287
 30
0.0
 10
118.5049674555
 20
215.089150438
 30
0.0
 10
118.7747495861
 20
215.1584491629
 30
0.0
 10
119.2089763084
 20
215.0714414718
 30
0.0
 10
119.652742852
 20
214.8292498453
 30
0.0
 10
120.2348229882
 20
214.3130333387
 30
0.0
 10
120.7815753565
 20
213.4678709531
 30
0.0
 10
120.9928120582
 20
212.6716971843
 30
0.0
 10
120.9928120582
 20
212.2875673524
 30
0.0
  0
SPLINE
  5
46E
100
AcDbEntity
  8
0
100
AcDbSpline
 62
7
  6
CONTINUOUS
 70
0
 71
3
 72
9
 73
5
 74
0
 42
0.0000001
 43
0.0000001
 44
0.0000000001
 40
0.0
 40
0.0
 40
0.0
 40
0.0
 40
0.2380306513
 40
1.0
 40
1.0
 40
1.0
 40
1.0
 10
114.2044969942
 20
164.5628279019
 30
0.0
 10
114.1623694616
 20
164.5871504777
 30
0.0
 10
113.9819529888
 20
164.6833584731
 30
0.0
 10
113.7897744356
 20
164.7567243926
 30
0.0
 10
113.6406522997
 20
164.8015678253
 30
0.0
  0
SPLINE
  5
46F
100
AcDbEntity
  8
0
100
AcDbSpline
 62
7
  6
CONTINUOUS
 70
0
 71
3
 72
11
 73
7
 74
0
 42
0.0000001
 43
0.0000001
 44
0.0000000001
 40
0.0
 40
0.0
 40
0.0
 40
0.0
 40
0.1937710899
 40
0.4206770213
 40
0.6920909635
 40
1.0
 40
1.0
 40
1.0
 40
1.0
 10
162.8232164299
 20
164.9585480941
 30
0.0
 10
162.9346995802
 20
165.0228088018
 30
0.0
 10
163.2229990202
 20
165.0867555472
 30
0.0
 10
163.6772809368
 20
164.9633267043
 30
0.0
 10
164.1321567916
 20
164.6706226706
 30
0.0
 10
164.4021666554
 20
164.391925705
 30
0.0
 10
164.5302743279
 20
164.2325590442
 30
0.0
  0
SPLINE
  5
470
100
AcDbEntity
  8
0
100
AcDbSpline
 62
7
  6
CONTINUOUS
 70
0
 71
3
 72
9
 73
5
 74
0
 42
0.0000001
 43
0.0000001
 44
0.0000000001
 40
0.0
 40
0.0
 40
0.0
 40
0.0
 40
0.487301909
 40
1.0
 40
1.0
 40
1.0
 40
1.0
 10
126.7207538055
 20
202.2410242301
 30
0.0
 10
127.7032869729
 20
202.7258051786
 30
0.0
 10
129.8595774696
 20
203.4554585664
 30
0.0
 10
132.1226501764
 20
203.6353240481
 30
0.0
 10
133.275068247
 20
203.6089590232
 30
0.0
  0
SPLINE
  5
471
100
AcDbEntity
  8
0
100
AcDbSpline
 62
7
  6
CONTINUOUS
 70
0
 71
3
 72
16
 73
12
 74
0
 42
0.0000001
 43
0.0000001
 44
0.0000000001
 40
0.0
 40
0.0
 40
0.0
 40
0.0
 40
0.0955195686
 40
0.1486519844
 40
0.2053732793
 40
0.3285807642
 40
0.4621646261
 40
0.6014491685
 40
0.7410282215
 40
0.8754617207
 40
1.0
 40
1.0
 40
1.0
 40
1.0
 10
133.275068247
 20
203.6089590232
 30
0.0
 10
135.3482310326
 20
203.5615291973
 30
0.0
 10
138.5706195813
 20
202.8899239006
 30
0.0
 10
142.6886584966
 20
201.1732490974
 30
0.0
 10
147.1172011029
 20
198.7027811953
 30
0.0
 10
152.5135128454
 20
194.4875929376
 30
0.0
 10
158.364215527
 20
188.1437206002
 30
0.0
 10
163.4397937725
 20
180.7308819293
 30
0.0
 10
167.4503381013
 20
172.671026421
 30
0.0
 10
170.1689959012
 20
164.4257240032
 30
0.0
 10
171.0588049211
 20
158.8381145389
 30
0.0
 10
171.2096141491
 20
156.1386297964
 30
0.0
  0
SPLINE
  5
472
100
AcDbEntity
  8
0
100
AcDbSpline
 62
7
  6
CONTINUOUS
 70
0
 71
3
 72
9
 73
5
 74
0
 42
0.0000001
 43
0.0000001
 44
0.0000000001
 40
0.0
 40
0.0
 40
0.0
 40
0.0
 40
0.2391570946
 40
1.0
 40
1.0
 40
1.0
 40
1.0
 10
146.8705055727
 20
250.262528631
 30
0.0
 10
146.9588002866
 20
250.2115528074
 30
0.0
 10
147.3357127717
 20
250.011862648
 30
0.0
 10
147.7384726422
 20
249.8627453953
 30
0.0
 10
148.0505147358
 20
249.7742446432
 30
0.0
  0
SPLINE
  5
473
100
AcDbEntity
  8
0
100
AcDbSpline
 62
7
  6
CONTINUOUS
 70
0
 71
3
 72
9
 73
5
 74
0
 42
0.0000001
 43
0.0000001
 44
0.0000000001
 40
0.0
 40
0.0
 40
0.0
 40
0.0
 40
0.5000003501
 40
1.0
 40
1.0
 40
1.0
 40
1.0
 10
113.1438705594
 20
217.0231054577
 30
0.0
 10
112.9759673865
 20
217.1200412978
 30
0.0
 10
112.5781902385
 20
217.1967031684
 30
0.0
 10
112.1804111358
 20
217.1200427618
 30
0.0
 10
112.0125092907
 20
217.0231051649
 30
0.0
  0
SPLINE
  5
474
100
AcDbEntity
  8
0
100
AcDbSpline
 62
7
  6
CONTINUOUS
 70
0
 71
3
 72
9
 73
5
 74
0
 42
0.0000001
 43
0.0000001
 44
0.0000000001
 40
0.0
 40
0.0
 40
0.0
 40
0.0
 40
0.5192768099
 40
1.0
 40
1.0
 40
1.0
 40
1.0
 10
107.5027203564
 20
240.1833606802
 30
0.0
 10
107.3538947949
 20
240.1487555939
 30
0.0
 10
107.0547672395
 20
240.1345987449
 30
0.0
 10
106.7620630001
 20
240.2139307169
 30
0.0
 10
106.6395617051
 20
240.2846552725
 30
0.0
  0
SPLINE
  5
475
100
AcDbEntity
  8
0
100
AcDbSpline
 62
7
  6
CONTINUOUS
 70
0
 71
3
 72
9
 73
5
 74
0
 42
0.0000001
 43
0.0000001
 44
0.0000000001
 40
0.0
 40
0.0
 40
0.0
 40
0.0
 40
0.2376499151
 40
1.0
 40
1.0
 40
1.0
 40
1.0
 10
114.2044969938
 20
242.1223925052
 30
0.0
 10
114.1606182936
 20
242.1477261278
 30
0.0
 10
113.9722524381
 20
242.2478353399
 30
0.0
 10
113.7712036254
 20
242.323173307
 30
0.0
 10
113.615171151
 20
242.3686790251
 30
0.0
  0
SPLINE
  5
476
100
AcDbEntity
  8
0
100
AcDbSpline
 62
7
  6
CONTINUOUS
 70
0
 71
3
 72
10
 73
6
 74
0
 42
0.0000001
 43
0.0000001
 44
0.0000000001
 40
0.0
 40
0.0
 40
0.0
 40
0.0
 40
0.2339813111
 40
0.4745856095
 40
1.0
 40
1.0
 40
1.0
 40
1.0
 10
145.4496746588
 20
252.326333383
 30
0.0
 10
145.4501516635
 20
252.1227252493
 30
0.0
 10
145.5201973436
 20
251.7066004974
 30
0.0
 10
145.9340717094
 20
250.9284724451
 30
0.0
 10
146.4745465933
 20
250.4911304827
 30
0.0
 10
146.8705055727
 20
250.262528631
 30
0.0
  0
SPLINE
  5
477
100
AcDbEntity
  8
0
100
AcDbSpline
 62
7
  6
CONTINUOUS
 70
0
 71
3
 72
8
 73
4
 74
0
 42
0.0000001
 43
0.0000001
 44
0.0000000001
 40
0.0
 40
0.0
 40
0.0
 40
0.0
 40
1.0
 40
1.0
 40
1.0
 40
1.0
 10
177.9351663606
 20
199.5394025218
 30
0.0
 10
177.8849559459
 20
199.5019709797
 30
0.0
 10
177.8366248994
 20
199.4618087772
 30
0.0
 10
177.7911014207
 20
199.4187992553
 30
0.0
  0
SPLINE
  5
478
100
AcDbEntity
  8
0
100
AcDbSpline
 62
7
  6
CONTINUOUS
 70
0
 71
3
 72
8
 73
4
 74
0
 42
0.0000001
 43
0.0000001
 44
0.0000000001
 40
0.0
 40
0.0
 40
0.0
 40
0.0
 40
1.0
 40
1.0
 40
1.0
 40
1.0
 10
177.7911014207
 20
199.4187992553
 30
0.0
 10
177.7453785793
 20
199.3756013802
 30
0.0
 10
177.7022889898
 20
199.3293389888
 30
0.0
 10
177.6631548484
 20
199.2800931401
 30
0.0
  0
SPLINE
  5
479
100
AcDbEntity
  8
0
100
AcDbSpline
 62
7
  6
CONTINUOUS
 70
0
 71
3
 72
12
 73
8
 74
0
 42
0.0000001
 43
0.0000001
 44
0.0000000001
 40
0.0
 40
0.0
 40
0.0
 40
0.0
 40
0.1924255348
 40
0.3141084467
 40
0.449505386
 40
0.7365330893
 40
1.0
 40
1.0
 40
1.0
 40
1.0
 10
183.0273322368
 20
256.95676106
 30
0.0
 10
183.3791399671
 20
257.0508129957
 30
0.0
 10
184.0200551731
 20
256.8976569062
 30
0.0
 10
184.7223503849
 20
256.4254394658
 30
0.0
 10
185.4610908699
 20
255.6962209447
 30
0.0
 10
186.1416556467
 20
254.5700783242
 30
0.0
 10
186.4004302187
 20
253.5305106673
 30
0.0
 10
186.4004302187
 20
253.0319031819
 30
0.0
  0
SPLINE
  5
47A
100
AcDbEntity
  8
0
100
AcDbSpline
 62
7
  6
CONTINUOUS
 70
0
 71
3
 72
9
 73
5
 74
0
 42
0.0000001
 43
0.0000001
 44
0.0000000001
 40
0.0
 40
0.0
 40
0.0
 40
0.0
 40
0.509824852
 40
1.0
 40
1.0
 40
1.0
 40
1.0
 10
185.8046111859
 20
253.0023036412
 30
0.0
 10
185.5377519153
 20
253.8235321811
 30
0.0
 10
184.767293493
 20
255.3585145709
 30
0.0
 10
183.6089990033
 20
256.6366917178
 30
0.0
 10
182.9480775463
 20
257.1391301533
 30
0.0
  0
SPLINE
  5
47B
100
AcDbEntity
  8
0
100
AcDbSpline
 62
7
  6
CONTINUOUS
 70
0
 71
3
 72
9
 73
5
 74
0
 42
0.0000001
 43
0.0000001
 44
0.0000000001
 40
0.0
 40
0.0
 40
0.0
 40
0.0
 40
0.2560316611
 40
1.0
 40
1.0
 40
1.0
 40
1.0
 10
182.9480775463
 20
257.1391301533
 30
0.0
 10
182.8981321368
 20
257.1770991027
 30
0.0
 10
182.7009108621
 20
257.3225345981
 30
0.0
 10
182.4949579971
 20
257.4562702588
 30
0.0
 10
182.3370763598
 20
257.5474212025
 30
0.0
  0
SPLINE
  5
47C
100
AcDbEntity
  8
0
100
AcDbSpline
 62
7
  6
CONTINUOUS
 70
0
 71
3
 72
11
 73
7
 74
0
 42
0.0000001
 43
0.0000001
 44
0.0000000001
 40
0.0
 40
0.0
 40
0.0
 40
0.0
 40
0.2754560026
 40
0.5304489295
 40
0.7689857755
 40
1.0
 40
1.0
 40
1.0
 40
1.0
 10
182.3370763598
 20
257.5474212025
 30
0.0
 10
182.0848782619
 20
257.6930245482
 30
0.0
 10
181.5744309247
 20
257.934385277
 30
0.0
 10
180.7755565624
 20
258.1213239653
 30
0.0
 10
179.9996193372
 20
258.0948934089
 30
0.0
 10
179.5236011628
 20
257.9196303164
 30
0.0
 10
179.312093318
 20
257.7975169342
 30
0.0
  0
SPLINE
  5
47D
100
AcDbEntity
  8
0
100
AcDbSpline
 62
7
  6
CONTINUOUS
 70
0
 71
3
 72
12
 73
8
 74
0
 42
0.0000001
 43
0.0000001
 44
0.0000000001
 40
0.0
 40
0.0
 40
0.0
 40
0.0
 40
0.1924255348
 40
0.3141084467
 40
0.449505386
 40
0.7365330893
 40
1.0
 40
1.0
 40
1.0
 40
1.0
 10
112.3163597221
 20
297.7808365121
 30
0.0
 10
112.6681674524
 20
297.8748884477
 30
0.0
 10
113.3090826584
 20
297.7217323582
 30
0.0
 10
114.0113778702
 20
297.2495149178
 30
0.0
 10
114.7501183552
 20
296.5202963967
 30
0.0
 10
115.430683132
 20
295.3941537763
 30
0.0
 10
115.689457704
 20
294.3545861193
 30
0.0
 10
115.689457704
 20
293.8559786339
 30
0.0
  0
SPLINE
  5
47E
100
AcDbEntity
  8
0
100
AcDbSpline
 62
7
  6
CONTINUOUS
 70
0
 71
3
 72
9
 73
5
 74
0
 42
0.0000001
 43
0.0000001
 44
0.0000000001
 40
0.0
 40
0.0
 40
0.0
 40
0.0
 40
0.4646621542
 40
1.0
 40
1.0
 40
1.0
 40
1.0
 10
114.7588197617
 20
289.524951885
 30
0.0
 10
115.060186474
 20
289.8883554596
 30
0.0
 10
115.470203788
 20
290.8687968513
 30
0.0
 10
115.4693480295
 20
291.9017004356
 30
0.0
 10
115.4045606281
 20
292.4417420126
 30
0.0
  0
SPLINE
  5
47F
100
AcDbEntity
  8
0
100
AcDbSpline
 62
7
  6
CONTINUOUS
 70
0
 71
3
 72
9
 73
5
 74
0
 42
0.0000001
 43
0.0000001
 44
0.0000000001
 40
0.0
 40
0.0
 40
0.0
 40
0.0
 40
0.2438550729
 40
1.0
 40
1.0
 40
1.0
 40
1.0
 10
115.4045606281
 20
292.4417420126
 30
0.0
 10
115.3940546128
 20
292.529315907
 30
0.0
 10
115.3434997125
 20
292.8875218319
 30
0.0
 10
115.2643101945
 20
293.2415293558
 30
0.0
 10
115.1907572194
 20
293.5049491356
 30
0.0
  0
SPLINE
  5
480
100
AcDbEntity
  8
0
100
AcDbSpline
 62
7
  6
CONTINUOUS
 70
0
 71
3
 72
9
 73
5
 74
0
 42
0.0000001
 43
0.0000001
 44
0.0000000001
 40
0.0
 40
0.0
 40
0.0
 40
0.0
 40
0.5084976545
 40
1.0
 40
1.0
 40
1.0
 40
1.0
 10
115.1665272283
 20
293.5898753013
 30
0.0
 10
114.914002809
 20
294.456529698
 30
0.0
 10
114.1359346799
 20
296.0831129856
 30
0.0
 10
112.9317062569
 20
297.4351635071
 30
0.0
 10
112.2371050316
 20
297.9632056053
 30
0.0
  0
SPLINE
  5
481
100
AcDbEntity
  8
0
100
AcDbSpline
 62
7
  6
CONTINUOUS
 70
0
 71
3
 72
9
 73
5
 74
0
 42
0.0000001
 43
0.0000001
 44
0.0000000001
 40
0.0
 40
0.0
 40
0.0
 40
0.0
 40
0.2560316611
 40
1.0
 40
1.0
 40
1.0
 40
1.0
 10
112.2371050316
 20
297.9632056053
 30
0.0
 10
112.1871596221
 20
298.0011745548
 30
0.0
 10
111.9899383474
 20
298.1466100501
 30
0.0
 10
111.7839854824
 20
298.2803457109
 30
0.0
 10
111.6261038451
 20
298.3714966545
 30
0.0
  0
SPLINE
  5
482
100
AcDbEntity
  8
0
100
AcDbSpline
 62
7
  6
CONTINUOUS
 70
0
 71
3
 72
11
 73
7
 74
0
 42
0.0000001
 43
0.0000001
 44
0.0000000001
 40
0.0
 40
0.0
 40
0.0
 40
0.0
 40
0.2754560026
 40
0.5304489295
 40
0.7689857755
 40
1.0
 40
1.0
 40
1.0
 40
1.0
 10
111.6261038451
 20
298.3714966545
 30
0.0
 10
111.3739057472
 20
298.5171000002
 30
0.0
 10
110.86345841
 20
298.758460729
 30
0.0
 10
110.0645840477
 20
298.9453994173
 30
0.0
 10
109.2886468225
 20
298.9189688609
 30
0.0
 10
108.8126286481
 20
298.7437057684
 30
0.0
 10
108.6011208033
 20
298.6215923862
 30
0.0
  0
SPLINE
  5
483
100
AcDbEntity
  8
0
100
AcDbSpline
 62
7
  6
CONTINUOUS
 70
0
 71
3
 72
10
 73
6
 74
0
 42
0.0000001
 43
0.0000001
 44
0.0000000001
 40
0.0
 40
0.0
 40
0.0
 40
0.0
 40
0.5269815487
 40
0.7668495146
 40
1.0
 40
1.0
 40
1.0
 40
1.0
 10
173.0689973571
 20
39.7776133616
 30
0.0
 10
173.498280278
 20
39.5297723586
 30
0.0
 10
174.2005251493
 20
39.2589448854
 30
0.0
 10
175.1522799758
 20
39.292692712
 30
0.0
 10
175.5789571565
 20
39.4500123661
 30
0.0
 10
175.7688884319
 20
39.5596546789
 30
0.0
  0
SPLINE
  5
484
100
AcDbEntity
  8
0
100
AcDbSpline
 62
7
  6
CONTINUOUS
 70
0
 71
3
 72
15
 73
11
 74
0
 42
0.0000001
 43
0.0000001
 44
0.0000000001
 40
0.0
 40
0.0
 40
0.0
 40
0.0
 40
0.0986057272
 40
0.204097122
 40
0.3217381094
 40
0.4524035785
 40
0.5922870545
 40
0.734822803
 40
0.8727336768
 40
1.0
 40
1.0
 40
1.0
 40
1.0
 10
170.8689122215
 20
48.0467143263
 30
0.0
 10
170.5899297225
 20
47.8856243546
 30
0.0
 10
170.0938001959
 20
47.396284353
 30
0.0
 10
169.7231778897
 20
46.3877926125
 30
0.0
 10
169.6754281202
 20
45.2195859394
 30
0.0
 10
169.9160541059
 20
43.965397598
 30
0.0
 10
170.4151464148
 20
42.7040417667
 30
0.0
 10
171.1328472764
 20
41.5253133334
 30
0.0
 10
172.0148639162
 20
40.5184752906
 30
0.0
 10
172.7089133626
 20
39.9855032497
 30
0.0
 10
173.0689973571
 20
39.7776133616
 30
0.0
  0
SPLINE
  5
485
100
AcDbEntity
  8
0
100
AcDbSpline
 62
7
  6
CONTINUOUS
 70
0
 71
3
 72
9
 73
5
 74
0
 42
0.0000001
 43
0.0000001
 44
0.0000000001
 40
0.0
 40
0.0
 40
0.0
 40
0.0
 40
0.4999983336
 40
1.0
 40
1.0
 40
1.0
 40
1.0
 10
136.3408756336
 20
256.3811158862
 30
0.0
 10
136.2359343786
 20
256.4417030125
 30
0.0
 10
135.987324185
 20
256.4896808447
 30
0.0
 10
135.7387136992
 20
256.4417030669
 30
0.0
 10
135.6337719066
 20
256.3811152564
 30
0.0
  0
SPLINE
  5
486
100
AcDbEntity
  8
0
100
AcDbSpline
 62
7
  6
CONTINUOUS
 70
0
 71
3
 72
9
 73
5
 74
0
 42
0.0000001
 43
0.0000001
 44
0.0000000001
 40
0.0
 40
0.0
 40
0.0
 40
0.0
 40
0.2589876968
 40
1.0
 40
1.0
 40
1.0
 40
1.0
 10
145.4186333625
 20
254.7183734509
 30
0.0
 10
145.3949714379
 20
254.6747279577
 30
0.0
 10
145.3109811821
 20
254.5023875333
 30
0.0
 10
145.258938233
 20
254.3138931241
 30
0.0
 10
145.2435915115
 20
254.1726754636
 30
0.0
  0
SPLINE
  5
487
100
AcDbEntity
  8
0
100
AcDbSpline
 62
7
  6
CONTINUOUS
 70
0
 71
3
 72
8
 73
4
 74
0
 42
0.0000001
 43
0.0000001
 44
0.0000000001
 40
0.0
 40
0.0
 40
0.0
 40
0.0
 40
1.0
 40
1.0
 40
1.0
 40
1.0
 10
173.2985466861
 20
49.5646620496
 30
0.0
 10
173.171877684
 20
49.4920667549
 30
0.0
 10
173.0539587359
 20
49.4019402631
 30
0.0
 10
172.9499692439
 20
49.2994644198
 30
0.0
  0
SPLINE
  5
488
100
AcDbEntity
  8
0
100
AcDbSpline
 62
7
  6
CONTINUOUS
 70
0
 71
3
 72
9
 73
5
 74
0
 42
0.0000001
 43
0.0000001
 44
0.0000000001
 40
0.0
 40
0.0
 40
0.0
 40
0.0
 40
0.2660476756
 40
1.0
 40
1.0
 40
1.0
 40
1.0
 10
148.3914434432
 20
252.4105967977
 30
0.0
 10
148.2310349766
 20
252.4447941143
 30
0.0
 10
147.6334199449
 20
252.5948646762
 30
0.0
 10
147.0538849603
 20
252.8326804786
 30
0.0
 10
146.6684416801
 20
253.0696617927
 30
0.0
  0
SPLINE
  5
489
100
AcDbEntity
  8
0
100
AcDbSpline
 62
7
  6
CONTINUOUS
 70
0
 71
3
 72
9
 73
5
 74
0
 42
0.0000001
 43
0.0000001
 44
0.0000000001
 40
0.0
 40
0.0
 40
0.0
 40
0.0
 40
0.2594711594
 40
1.0
 40
1.0
 40
1.0
 40
1.0
 10
146.6684416801
 20
253.0696617927
 30
0.0
 10
146.6225024821
 20
253.0979064971
 30
0.0
 10
146.4476611526
 20
253.210267781
 30
0.0
 10
146.2820002284
 20
253.3372530381
 30
0.0
 10
146.1673484922
 20
253.4399314251
 30
0.0
  0
SPLINE
  5
48A
100
AcDbEntity
  8
0
100
AcDbSpline
 62
7
  6
CONTINUOUS
 70
0
 71
3
 72
9
 73
5
 74
0
 42
0.0000001
 43
0.0000001
 44
0.0000000001
 40
0.0
 40
0.0
 40
0.0
 40
0.0
 40
0.269683303
 40
1.0
 40
1.0
 40
1.0
 40
1.0
 10
146.1673484922
 20
253.4399314251
 30
0.0
 10
146.096833501
 20
253.5030823708
 30
0.0
 10
145.8466488001
 20
253.7488002431
 30
0.0
 10
145.6455894203
 20
254.0499798251
 30
0.0
 10
145.554243013
 20
254.2894948176
 30
0.0
  0
SPLINE
  5
48B
100
AcDbEntity
  8
0
100
AcDbSpline
 62
7
  6
CONTINUOUS
 70
0
 71
3
 72
9
 73
5
 74
0
 42
0.0000001
 43
0.0000001
 44
0.0000000001
 40
0.0
 40
0.0
 40
0.0
 40
0.0
 40
0.2554365634
 40
1.0
 40
1.0
 40
1.0
 40
1.0
 10
145.554243013
 20
254.2894948176
 30
0.0
 10
145.5369438632
 20
254.3348540807
 30
0.0
 10
145.4766777546
 20
254.5151591879
 30
0.0
 10
145.4489815425
 20
254.7065468089
 30
0.0
 10
145.4490372759
 20
254.8480521751
 30
0.0
  0
SPLINE
  5
48C
100
AcDbEntity
  8
0
100
AcDbSpline
 62
7
  6
CONTINUOUS
 70
0
 71
3
 72
9
 73
5
 74
0
 42
0.0000001
 43
0.0000001
 44
0.0000000001
 40
0.0
 40
0.0
 40
0.0
 40
0.0
 40
0.2433281678
 40
1.0
 40
1.0
 40
1.0
 40
1.0
 10
173.5010356257
 20
50.8363864078
 30
0.0
 10
173.4185962695
 20
50.7887466331
 30
0.0
 10
173.0935520654
 20
50.5691279486
 30
0.0
 10
172.8372459958
 20
50.2551255089
 30
0.0
 10
172.6919978755
 20
49.9971138585
 30
0.0
  0
SPLINE
  5
48D
100
AcDbEntity
  8
0
100
AcDbSpline
 62
7
  6
CONTINUOUS
 70
0
 71
3
 72
9
 73
5
 74
0
 42
0.0000001
 43
0.0000001
 44
0.0000000001
 40
0.0
 40
0.0
 40
0.0
 40
0.0
 40
0.2415172291
 40
1.0
 40
1.0
 40
1.0
 40
1.0
 10
172.6919978755
 20
49.9971138585
 30
0.0
 10
172.665524042
 20
49.9500870366
 30
0.0
 10
172.5618308185
 20
49.7520598406
 30
0.0
 10
172.4816413386
 20
49.5420409859
 30
0.0
 10
172.4328488437
 20
49.3797349802
 30
0.0
  0
SPLINE
  5
48E
100
AcDbEntity
  8
0
100
AcDbSpline
 62
7
  6
CONTINUOUS
 70
0
 71
3
 72
9
 73
5
 74
0
 42
0.0000001
 43
0.0000001
 44
0.0000000001
 40
0.0
 40
0.0
 40
0.0
 40
0.0
 40
0.2444313903
 40
1.0
 40
1.0
 40
1.0
 40
1.0
 10
172.4328488437
 20
49.3797349802
 30
0.0
 10
172.4223608331
 20
49.3448470919
 30
0.0
 10
172.3816928867
 20
49.2014478469
 30
0.0
 10
172.3497713313
 20
49.0556062409
 30
0.0
 10
172.3300902003
 20
48.94472888
 30
0.0
  0
SPLINE
  5
48F
100
AcDbEntity
  8
0
100
AcDbSpline
 62
7
  6
CONTINUOUS
 70
0
 71
3
 72
10
 73
6
 74
0
 42
0.0000001
 43
0.0000001
 44
0.0000000001
 40
0.0
 40
0.0
 40
0.0
 40
0.0
 40
0.5269815487
 40
0.7668495146
 40
1.0
 40
1.0
 40
1.0
 40
1.0
 10
173.0689973571
 20
243.903217644
 30
0.0
 10
173.498280278
 20
243.655376641
 30
0.0
 10
174.2005251493
 20
243.3845491678
 30
0.0
 10
175.1522799758
 20
243.4182969944
 30
0.0
 10
175.5789571565
 20
243.5756166485
 30
0.0
 10
175.7688884319
 20
243.6852589613
 30
0.0
  0
SPLINE
  5
490
100
AcDbEntity
  8
0
100
AcDbSpline
 62
7
  6
CONTINUOUS
 70
0
 71
3
 72
15
 73
11
 74
0
 42
0.0000001
 43
0.0000001
 44
0.0000000001
 40
0.0
 40
0.0
 40
0.0
 40
0.0
 40
0.0986057272
 40
0.204097122
 40
0.3217381094
 40
0.4524035785
 40
0.5922870545
 40
0.734822803
 40
0.8727336768
 40
1.0
 40
1.0
 40
1.0
 40
1.0
 10
170.8689122215
 20
252.1723186086
 30
0.0
 10
170.5899297225
 20
252.011228637
 30
0.0
 10
170.0938001959
 20
251.5218886354
 30
0.0
 10
169.7231778897
 20
250.5133968949
 30
0.0
 10
169.6754281202
 20
249.3451902218
 30
0.0
 10
169.9160541059
 20
248.0910018804
 30
0.0
 10
170.4151464148
 20
246.8296460491
 30
0.0
 10
171.1328472764
 20
245.6509176158
 30
0.0
 10
172.0148639162
 20
244.644079573
 30
0.0
 10
172.7089133626
 20
244.1111075321
 30
0.0
 10
173.0689973571
 20
243.903217644
 30
0.0
  0
SPLINE
  5
491
100
AcDbEntity
  8
0
100
AcDbSpline
 62
7
  6
CONTINUOUS
 70
0
 71
3
 72
8
 73
4
 74
0
 42
0.0000001
 43
0.0000001
 44
0.0000000001
 40
0.0
 40
0.0
 40
0.0
 40
0.0
 40
1.0
 40
1.0
 40
1.0
 40
1.0
 10
173.2985466861
 20
253.690266332
 30
0.0
 10
173.171877684
 20
253.6176710373
 30
0.0
 10
173.0539587359
 20
253.5275445455
 30
0.0
 10
172.9499692439
 20
253.4250687022
 30
0.0
  0
SPLINE
  5
492
100
AcDbEntity
  8
0
100
AcDbSpline
 62
7
  6
CONTINUOUS
 70
0
 71
3
 72
9
 73
5
 74
0
 42
0.0000001
 43
0.0000001
 44
0.0000000001
 40
0.0
 40
0.0
 40
0.0
 40
0.0
 40
0.2433281678
 40
1.0
 40
1.0
 40
1.0
 40
1.0
 10
173.5010356257
 20
254.9619906901
 30
0.0
 10
173.4185962695
 20
254.9143509155
 30
0.0
 10
173.0935520654
 20
254.694732231
 30
0.0
 10
172.8372459958
 20
254.3807297913
 30
0.0
 10
172.6919978755
 20
254.1227181409
 30
0.0
  0
SPLINE
  5
493
100
AcDbEntity
  8
0
100
AcDbSpline
 62
7
  6
CONTINUOUS
 70
0
 71
3
 72
9
 73
5
 74
0
 42
0.0000001
 43
0.0000001
 44
0.0000000001
 40
0.0
 40
0.0
 40
0.0
 40
0.0
 40
0.2415172291
 40
1.0
 40
1.0
 40
1.0
 40
1.0
 10
172.6919978755
 20
254.1227181409
 30
0.0
 10
172.665524042
 20
254.075691319
 30
0.0
 10
172.5618308185
 20
253.877664123
 30
0.0
 10
172.4816413386
 20
253.6676452683
 30
0.0
 10
172.4328488437
 20
253.5053392626
 30
0.0
  0
SPLINE
  5
494
100
AcDbEntity
  8
0
100
AcDbSpline
 62
7
  6
CONTINUOUS
 70
0
 71
3
 72
9
 73
5
 74
0
 42
0.0000001
 43
0.0000001
 44
0.0000000001
 40
0.0
 40
0.0
 40
0.0
 40
0.0
 40
0.2444313903
 40
1.0
 40
1.0
 40
1.0
 40
1.0
 10
172.4328488437
 20
253.5053392626
 30
0.0
 10
172.4223608331
 20
253.4704513743
 30
0.0
 10
172.3816928867
 20
253.3270521293
 30
0.0
 10
172.3497713313
 20
253.1812105233
 30
0.0
 10
172.3300902003
 20
253.0703331624
 30
0.0
  0
SPLINE
  5
495
100
AcDbEntity
  8
0
100
AcDbSpline
 62
7
  6
CONTINUOUS
 70
0
 71
3
 72
8
 73
4
 74
0
 42
0.0000001
 43
0.0000001
 44
0.0000000001
 40
0.0
 40
0.0
 40
0.0
 40
0.0
 40
1.0
 40
1.0
 40
1.0
 40
1.0
 10
145.5882353427
 20
312.440503313
 30
0.0
 10
145.5534917816
 20
312.3617835282
 30
0.0
 10
145.5243718005
 20
312.2802755761
 30
0.0
 10
145.5020778563
 20
312.1971678171
 30
0.0
  0
SPLINE
  5
496
100
AcDbEntity
  8
0
100
AcDbSpline
 62
7
  6
CONTINUOUS
 70
0
 71
3
 72
8
 73
4
 74
0
 42
0.0000001
 43
0.0000001
 44
0.0000000001
 40
0.0
 40
0.0
 40
0.0
 40
0.0
 40
1.0
 40
1.0
 40
1.0
 40
1.0
 10
145.5020778563
 20
312.1971678171
 30
0.0
 10
145.4673963248
 20
312.067881391
 30
0.0
 10
145.449106708
 20
311.9329624824
 30
0.0
 10
145.449104268
 20
311.7991051383
 30
0.0
  0
SPLINE
  5
497
100
AcDbEntity
  8
0
100
AcDbSpline
 62
7
  6
CONTINUOUS
 70
0
 71
3
 72
11
 73
7
 74
0
 42
0.0000001
 43
0.0000001
 44
0.0000000001
 40
0.0
 40
0.0
 40
0.0
 40
0.0
 40
0.2393907054
 40
0.5044403687
 40
0.767087836
 40
1.0
 40
1.0
 40
1.0
 40
1.0
 10
153.1309158334
 20
311.1867831422
 30
0.0
 10
152.6584505141
 20
310.9140067912
 30
0.0
 10
151.555731836
 20
310.5236445491
 30
0.0
 10
149.8013819952
 20
310.3594356117
 30
0.0
 10
148.0692832888
 20
310.5878756678
 30
0.0
 10
147.0026278147
 20
311.0219689276
 30
0.0
 10
146.5598892791
 20
311.3147515487
 30
0.0
  0
SPLINE
  5
498
100
AcDbEntity
  8
0
100
AcDbSpline
 62
7
  6
CONTINUOUS
 70
0
 71
3
 72
9
 73
5
 74
0
 42
0.0000001
 43
0.0000001
 44
0.0000000001
 40
0.0
 40
0.0
 40
0.0
 40
0.0
 40
0.2617762042
 40
1.0
 40
1.0
 40
1.0
 40
1.0
 10
146.5598892791
 20
311.3147515487
 30
0.0
 10
146.5068443534
 20
311.3498301134
 30
0.0
 10
146.3076328191
 20
311.4888329082
 30
0.0
 10
146.1224448651
 20
311.6487213439
 30
0.0
 10
145.9992016709
 20
311.7790058977
 30
0.0
  0
SPLINE
  5
499
100
AcDbEntity
  8
0
100
AcDbSpline
 62
7
  6
CONTINUOUS
 70
0
 71
3
 72
9
 73
5
 74
0
 42
0.0000001
 43
0.0000001
 44
0.0000000001
 40
0.0
 40
0.0
 40
0.0
 40
0.0
 40
0.5190546222
 40
1.0
 40
1.0
 40
1.0
 40
1.0
 10
145.8361112924
 20
311.9696759479
 30
0.0
 10
145.7160666458
 20
312.1258750641
 30
0.0
 10
145.5211456705
 20
312.4591735627
 30
0.0
 10
145.449124415
 20
312.8413190658
 30
0.0
 10
145.4491158418
 20
313.0238549495
 30
0.0
  0
SPLINE
  5
49A
100
AcDbEntity
  8
0
100
AcDbSpline
 62
7
  6
CONTINUOUS
 70
0
 71
3
 72
9
 73
5
 74
0
 42
0.0000001
 43
0.0000001
 44
0.0000000001
 40
0.0
 40
0.0
 40
0.0
 40
0.0
 40
0.2603582359
 40
1.0
 40
1.0
 40
1.0
 40
1.0
 10
148.170184907
 20
380.3008617804
 30
0.0
 10
148.1544082749
 20
380.2832102215
 30
0.0
 10
148.0960556147
 20
380.2134738185
 30
0.0
 10
148.0471042339
 20
380.1356227239
 30
0.0
 10
148.0185886122
 20
380.0747112476
 30
0.0
  0
SPLINE
  5
49B
100
AcDbEntity
  8
0
100
AcDbSpline
 62
7
  6
CONTINUOUS
 70
0
 71
3
 72
9
 73
5
 74
0
 42
0.0000001
 43
0.0000001
 44
0.0000000001
 40
0.0
 40
0.0
 40
0.0
 40
0.0
 40
0.2579148231
 40
1.0
 40
1.0
 40
1.0
 40
1.0
 10
148.0185886122
 20
380.0747112476
 30
0.0
 10
148.0072491933
 20
380.0504894103
 30
0.0
 10
147.9678503042
 20
379.9545444275
 30
0.0
 10
147.9489057756
 20
379.8498957043
 30
0.0
 10
147.9489335542
 20
379.7729445016
 30
0.0
  0
SPLINE
  5
49C
100
AcDbEntity
  8
0
100
AcDbSpline
 62
7
  6
CONTINUOUS
 70
0
 71
3
 72
10
 73
6
 74
0
 42
0.0000001
 43
0.0000001
 44
0.0000000001
 40
0.0
 40
0.0
 40
0.0
 40
0.0
 40
0.5269815487
 40
0.7668495146
 40
1.0
 40
1.0
 40
1.0
 40
1.0
 10
102.3580248424
 20
80.6016888137
 30
0.0
 10
102.7873077633
 20
80.3538478106
 30
0.0
 10
103.4895526346
 20
80.0830203374
 30
0.0
 10
104.4413074611
 20
80.1167681641
 30
0.0
 10
104.8679846418
 20
80.2740878181
 30
0.0
 10
105.0579159172
 20
80.3837301309
 30
0.0
  0
SPLINE
  5
49D
100
AcDbEntity
  8
0
100
AcDbSpline
 62
7
  6
CONTINUOUS
 70
0
 71
3
 72
9
 73
5
 74
0
 42
0.0000001
 43
0.0000001
 44
0.0000000001
 40
0.0
 40
0.0
 40
0.0
 40
0.0
 40
0.4478014953
 40
1.0
 40
1.0
 40
1.0
 40
1.0
 10
143.8688076306
 20
394.6782492304
 30
0.0
 10
143.902027429
 20
394.6525721288
 30
0.0
 10
144.0021156159
 20
394.6282829922
 30
0.0
 10
144.0926691147
 20
394.6650873178
 30
0.0
 10
144.1375075999
 20
394.6909746747
 30
0.0
  0
SPLINE
  5
49E
100
AcDbEntity
  8
0
100
AcDbSpline
 62
7
  6
CONTINUOUS
 70
0
 71
3
 72
15
 73
11
 74
0
 42
0.0000001
 43
0.0000001
 44
0.0000000001
 40
0.0
 40
0.0
 40
0.0
 40
0.0
 40
0.0986057272
 40
0.204097122
 40
0.3217381094
 40
0.4524035785
 40
0.5922870545
 40
0.734822803
 40
0.8727336768
 40
1.0
 40
1.0
 40
1.0
 40
1.0
 10
100.1579397068
 20
88.8707897783
 30
0.0
 10
99.8789572078
 20
88.7096998067
 30
0.0
 10
99.3828276812
 20
88.220359805
 30
0.0
 10
99.012205375
 20
87.2118680645
 30
0.0
 10
98.9644556055
 20
86.0436613914
 30
0.0
 10
99.2050815912
 20
84.78947305
 30
0.0
 10
99.7041739001
 20
83.5281172188
 30
0.0
 10
100.4218747617
 20
82.3493887855
 30
0.0
 10
101.3038914015
 20
81.3425507426
 30
0.0
 10
101.9979408479
 20
80.8095787017
 30
0.0
 10
102.3580248424
 20
80.6016888137
 30
0.0
  0
SPLINE
  5
49F
100
AcDbEntity
  8
0
100
AcDbSpline
 62
7
  6
CONTINUOUS
 70
0
 71
3
 72
9
 73
5
 74
0
 42
0.0000001
 43
0.0000001
 44
0.0000000001
 40
0.0
 40
0.0
 40
0.0
 40
0.0
 40
0.4995488339
 40
1.0
 40
1.0
 40
1.0
 40
1.0
 10
143.8688076306
 20
389.7184750784
 30
0.0
 10
143.8688069563
 20
389.7911152738
 30
0.0
 10
143.9183958921
 20
389.9346990072
 30
0.0
 10
144.0179118246
 20
390.0495091852
 30
0.0
 10
144.0809338039
 20
390.0858947247
 30
0.0
  0
SPLINE
  5
4A0
100
AcDbEntity
  8
0
100
AcDbSpline
 62
7
  6
CONTINUOUS
 70
0
 71
3
 72
8
 73
4
 74
0
 42
0.0000001
 43
0.0000001
 44
0.0000000001
 40
0.0
 40
0.0
 40
0.0
 40
0.0
 40
1.0
 40
1.0
 40
1.0
 40
1.0
 10
102.5875741714
 20
90.3887375017
 30
0.0
 10
102.4609051693
 20
90.316142207
 30
0.0
 10
102.3429862212
 20
90.2260157151
 30
0.0
 10
102.2389967292
 20
90.1235398718
 30
0.0
  0
SPLINE
  5
4A1
100
AcDbEntity
  8
0
100
AcDbSpline
 62
7
  6
CONTINUOUS
 70
0
 71
3
 72
9
 73
5
 74
0
 42
0.0000001
 43
0.0000001
 44
0.0000000001
 40
0.0
 40
0.0
 40
0.0
 40
0.0
 40
0.2940790398
 40
1.0
 40
1.0
 40
1.0
 40
1.0
 10
154.581485709
 20
387.8610032303
 30
0.0
 10
154.581485709
 20
387.8761270977
 30
0.0
 10
154.577940781
 20
387.9268413022
 30
0.0
 10
154.5508237335
 20
387.9802380667
 30
0.0
 10
154.5193782393
 20
387.9983809346
 30
0.0
  0
SPLINE
  5
4A2
100
AcDbEntity
  8
0
100
AcDbSpline
 62
7
  6
CONTINUOUS
 70
0
 71
3
 72
9
 73
5
 74
0
 42
0.0000001
 43
0.0000001
 44
0.0000000001
 40
0.0
 40
0.0
 40
0.0
 40
0.0
 40
0.2664225138
 40
1.0
 40
1.0
 40
1.0
 40
1.0
 10
150.8338351527
 20
389.8002003462
 30
0.0
 10
150.8503568542
 20
389.8320482289
 30
0.0
 10
150.919639123
 20
389.9472423224
 30
0.0
 10
151.0169814766
 20
390.0488593136
 30
0.0
 10
151.102535122
 20
390.098253439
 30
0.0
  0
SPLINE
  5
4A3
100
AcDbEntity
  8
0
100
AcDbSpline
 62
7
  6
CONTINUOUS
 70
0
 71
3
 72
9
 73
5
 74
0
 42
0.0000001
 43
0.0000001
 44
0.0000000001
 40
0.0
 40
0.0
 40
0.0
 40
0.0
 40
0.2316575553
 40
1.0
 40
1.0
 40
1.0
 40
1.0
 10
149.8615665299
 20
386.2586323868
 30
0.0
 10
149.8615664333
 20
386.2690308947
 30
0.0
 10
149.8641627992
 20
386.3139076282
 30
0.0
 10
149.875383093
 20
386.3580473436
 30
0.0
 10
149.8873006049
 20
386.3904117891
 30
0.0
  0
SPLINE
  5
4A4
100
AcDbEntity
  8
0
100
AcDbSpline
 62
7
  6
CONTINUOUS
 70
0
 71
3
 72
8
 73
4
 74
0
 42
0.0000001
 43
0.0000001
 44
0.0000000001
 40
0.0
 40
0.0
 40
0.0
 40
0.0
 40
1.0
 40
1.0
 40
1.0
 40
1.0
 10
149.8873006049
 20
386.3904117891
 30
0.0
 10
149.9049934249
 20
386.4384602673
 30
0.0
 10
149.9305043125
 20
386.4842386218
 30
0.0
 10
149.9618906416
 20
386.5246934175
 30
0.0
  0
SPLINE
  5
4A5
100
AcDbEntity
  8
0
100
AcDbSpline
 62
7
  6
CONTINUOUS
 70
0
 71
3
 72
9
 73
5
 74
0
 42
0.0000001
 43
0.0000001
 44
0.0000000001
 40
0.0
 40
0.0
 40
0.0
 40
0.0
 40
0.2671862337
 40
1.0
 40
1.0
 40
1.0
 40
1.0
 10
149.9618906416
 20
386.5246934175
 30
0.0
 10
149.970155485
 20
386.5353462259
 30
0.0
 10
150.0027374031
 20
386.5738268218
 30
0.0
 10
150.0416672141
 20
386.6075622187
 30
0.0
 10
150.0736927032
 20
386.6260520331
 30
0.0
  0
SPLINE
  5
4A6
100
AcDbEntity
  8
0
100
AcDbSpline
 62
7
  6
CONTINUOUS
 70
0
 71
3
 72
9
 73
5
 74
0
 42
0.0000001
 43
0.0000001
 44
0.0000000001
 40
0.0
 40
0.0
 40
0.0
 40
0.0
 40
0.4478014953
 40
1.0
 40
1.0
 40
1.0
 40
1.0
 10
149.8615665299
 20
391.2184065388
 30
0.0
 10
149.8947863283
 20
391.1927294372
 30
0.0
 10
149.9948745152
 20
391.1684403006
 30
0.0
 10
150.085428014
 20
391.2052446262
 30
0.0
 10
150.1302664992
 20
391.2311319831
 30
0.0
  0
SPLINE
  5
4A7
100
AcDbEntity
  8
0
100
AcDbSpline
 62
7
  6
CONTINUOUS
 70
0
 71
3
 72
9
 73
5
 74
0
 42
0.0000001
 43
0.0000001
 44
0.0000000001
 40
0.0
 40
0.0
 40
0.0
 40
0.0
 40
0.2433281678
 40
1.0
 40
1.0
 40
1.0
 40
1.0
 10
102.790063111
 20
91.6604618598
 30
0.0
 10
102.7076237548
 20
91.6128220851
 30
0.0
 10
102.3825795507
 20
91.3932034006
 30
0.0
 10
102.1262734811
 20
91.079200961
 30
0.0
 10
101.9810253608
 20
90.8211893106
 30
0.0
  0
SPLINE
  5
4A8
100
AcDbEntity
  8
0
100
AcDbSpline
 62
7
  6
CONTINUOUS
 70
0
 71
3
 72
9
 73
5
 74
0
 42
0.0000001
 43
0.0000001
 44
0.0000000001
 40
0.0
 40
0.0
 40
0.0
 40
0.0
 40
0.2415172291
 40
1.0
 40
1.0
 40
1.0
 40
1.0
 10
101.9810253608
 20
90.8211893106
 30
0.0
 10
101.9545515273
 20
90.7741624886
 30
0.0
 10
101.8508583038
 20
90.5761352927
 30
0.0
 10
101.7706688239
 20
90.3661164379
 30
0.0
 10
101.721876329
 20
90.2038104323
 30
0.0
  0
SPLINE
  5
4A9
100
AcDbEntity
  8
0
100
AcDbSpline
 62
7
  6
CONTINUOUS
 70
0
 71
3
 72
9
 73
5
 74
0
 42
0.0000001
 43
0.0000001
 44
0.0000000001
 40
0.0
 40
0.0
 40
0.0
 40
0.0
 40
0.2444313903
 40
1.0
 40
1.0
 40
1.0
 40
1.0
 10
101.721876329
 20
90.2038104323
 30
0.0
 10
101.7113883184
 20
90.1689225439
 30
0.0
 10
101.670720372
 20
90.0255232989
 30
0.0
 10
101.6387988166
 20
89.8796816929
 30
0.0
 10
101.6191176856
 20
89.768804332
 30
0.0
  0
SPLINE
  5
4AA
100
AcDbEntity
  8
0
100
AcDbSpline
 62
7
  6
CONTINUOUS
 70
0
 71
3
 72
10
 73
6
 74
0
 42
0.0000001
 43
0.0000001
 44
0.0000000001
 40
0.0
 40
0.0
 40
0.0
 40
0.0
 40
0.5269815487
 40
0.7668495146
 40
1.0
 40
1.0
 40
1.0
 40
1.0
 10
102.3580248424
 20
284.7272930961
 30
0.0
 10
102.7873077633
 20
284.479452093
 30
0.0
 10
103.4895526346
 20
284.2086246198
 30
0.0
 10
104.4413074611
 20
284.2423724465
 30
0.0
 10
104.8679846418
 20
284.3996921005
 30
0.0
 10
105.0579159172
 20
284.5093344133
 30
0.0
  0
SPLINE
  5
4AB
100
AcDbEntity
  8
0
100
AcDbSpline
 62
7
  6
CONTINUOUS
 70
0
 71
3
 72
15
 73
11
 74
0
 42
0.0000001
 43
0.0000001
 44
0.0000000001
 40
0.0
 40
0.0
 40
0.0
 40
0.0
 40
0.0986057272
 40
0.204097122
 40
0.3217381094
 40
0.4524035785
 40
0.5922870545
 40
0.734822803
 40
0.8727336768
 40
1.0
 40
1.0
 40
1.0
 40
1.0
 10
100.1579397068
 20
292.9963940607
 30
0.0
 10
99.8789572078
 20
292.8353040891
 30
0.0
 10
99.3828276812
 20
292.3459640874
 30
0.0
 10
99.012205375
 20
291.3374723469
 30
0.0
 10
98.9644556055
 20
290.1692656738
 30
0.0
 10
99.2050815912
 20
288.9150773324
 30
0.0
 10
99.7041739001
 20
287.6537215012
 30
0.0
 10
100.4218747617
 20
286.4749930679
 30
0.0
 10
101.3038914015
 20
285.468155025
 30
0.0
 10
101.9979408479
 20
284.9351829841
 30
0.0
 10
102.3580248424
 20
284.7272930961
 30
0.0
  0
SPLINE
  5
4AC
100
AcDbEntity
  8
0
100
AcDbSpline
 62
7
  6
CONTINUOUS
 70
0
 71
3
 72
8
 73
4
 74
0
 42
0.0000001
 43
0.0000001
 44
0.0000000001
 40
0.0
 40
0.0
 40
0.0
 40
0.0
 40
1.0
 40
1.0
 40
1.0
 40
1.0
 10
102.5875741714
 20
294.514341784
 30
0.0
 10
102.4609051693
 20
294.4417464894
 30
0.0
 10
102.3429862212
 20
294.3516199975
 30
0.0
 10
102.2389967292
 20
294.2491441542
 30
0.0
  0
SPLINE
  5
4AD
100
AcDbEntity
  8
0
100
AcDbSpline
 62
7
  6
CONTINUOUS
 70
0
 71
3
 72
9
 73
5
 74
0
 42
0.0000001
 43
0.0000001
 44
0.0000000001
 40
0.0
 40
0.0
 40
0.0
 40
0.0
 40
0.2433281678
 40
1.0
 40
1.0
 40
1.0
 40
1.0
 10
102.790063111
 20
295.7860661422
 30
0.0
 10
102.7076237548
 20
295.7384263675
 30
0.0
 10
102.3825795507
 20
295.518807683
 30
0.0
 10
102.1262734811
 20
295.2048052434
 30
0.0
 10
101.9810253608
 20
294.9467935929
 30
0.0
  0
SPLINE
  5
4AE
100
AcDbEntity
  8
0
100
AcDbSpline
 62
7
  6
CONTINUOUS
 70
0
 71
3
 72
9
 73
5
 74
0
 42
0.0000001
 43
0.0000001
 44
0.0000000001
 40
0.0
 40
0.0
 40
0.0
 40
0.0
 40
0.2415172291
 40
1.0
 40
1.0
 40
1.0
 40
1.0
 10
101.9810253608
 20
294.9467935929
 30
0.0
 10
101.9545515273
 20
294.899766771
 30
0.0
 10
101.8508583038
 20
294.7017395751
 30
0.0
 10
101.7706688239
 20
294.4917207203
 30
0.0
 10
101.721876329
 20
294.3294147146
 30
0.0
  0
SPLINE
  5
4AF
100
AcDbEntity
  8
0
100
AcDbSpline
 62
7
  6
CONTINUOUS
 70
0
 71
3
 72
9
 73
5
 74
0
 42
0.0000001
 43
0.0000001
 44
0.0000000001
 40
0.0
 40
0.0
 40
0.0
 40
0.0
 40
0.2444313903
 40
1.0
 40
1.0
 40
1.0
 40
1.0
 10
101.721876329
 20
294.3294147146
 30
0.0
 10
101.7113883184
 20
294.2945268263
 30
0.0
 10
101.670720372
 20
294.1511275813
 30
0.0
 10
101.6387988166
 20
294.0052859753
 30
0.0
 10
101.6191176856
 20
293.8944086144
 30
0.0
  0
SPLINE
  5
4B0
100
AcDbEntity
  8
0
100
AcDbSpline
 62
7
  6
CONTINUOUS
 70
0
 71
3
 72
9
 73
5
 74
0
 42
0.0000001
 43
0.0000001
 44
0.0000000001
 40
0.0
 40
0.0
 40
0.0
 40
0.0
 40
0.2427488621
 40
1.0
 40
1.0
 40
1.0
 40
1.0
 10
117.693185697
 20
89.1945937518
 30
0.0
 10
117.6626326028
 20
89.1589411912
 30
0.0
 10
117.5422802694
 20
89.0073801295
 30
0.0
 10
117.4443786534
 20
88.8384523712
 30
0.0
 10
117.3827999308
 20
88.7055562253
 30
0.0
  0
SPLINE
  5
4B1
100
AcDbEntity
  8
0
100
AcDbSpline
 62
7
  6
CONTINUOUS
 70
0
 71
3
 72
8
 73
4
 74
0
 42
0.0000001
 43
0.0000001
 44
0.0000000001
 40
0.0
 40
0.0
 40
0.0
 40
0.0
 40
1.0
 40
1.0
 40
1.0
 40
1.0
 10
117.0798509119
 20
88.9560593968
 30
0.0
 10
117.2355864943
 20
89.0459204975
 30
0.0
 10
117.4080619241
 20
89.1106714877
 30
0.0
 10
117.5839404526
 20
89.1480256337
 30
0.0
  0
SPLINE
  5
4B2
100
AcDbEntity
  8
0
100
AcDbSpline
 62
7
  6
CONTINUOUS
 70
0
 71
3
 72
8
 73
4
 74
0
 42
0.0000001
 43
0.0000001
 44
0.0000000001
 40
0.0
 40
0.0
 40
0.0
 40
0.0
 40
1.0
 40
1.0
 40
1.0
 40
1.0
 10
117.5839404526
 20
89.1480256337
 30
0.0
 10
117.7130571325
 20
89.1754482154
 30
0.0
 10
117.8456916814
 20
89.1888838494
 30
0.0
 10
117.9776821351
 20
89.1901625851
 30
0.0
  0
SPLINE
  5
4B3
100
AcDbEntity
  8
0
100
AcDbSpline
 62
7
  6
CONTINUOUS
 70
0
 71
3
 72
9
 73
5
 74
0
 42
0.0000001
 43
0.0000001
 44
0.0000000001
 40
0.0
 40
0.0
 40
0.0
 40
0.0
 40
0.2265958137
 40
1.0
 40
1.0
 40
1.0
 40
1.0
 10
117.9776821351
 20
89.1901625851
 30
0.0
 10
118.1049269186
 20
89.1913953443
 30
0.0
 10
118.6671872178
 20
89.1472738788
 30
0.0
 10
119.2036735943
 20
88.9256447798
 30
0.0
 10
119.579812357
 20
88.7084858767
 30
0.0
  0
SPLINE
  5
4B4
100
AcDbEntity
  8
0
100
AcDbSpline
 62
7
  6
CONTINUOUS
 70
0
 71
3
 72
9
 73
5
 74
0
 42
0.0000001
 43
0.0000001
 44
0.0000000001
 40
0.0
 40
0.0
 40
0.0
 40
0.0
 40
0.220853087
 40
1.0
 40
1.0
 40
1.0
 40
1.0
 10
149.1731259641
 20
391.6145757475
 30
0.0
 10
149.1566402315
 20
391.6240935631
 30
0.0
 10
149.0892045986
 20
391.6808504569
 30
0.0
 10
149.0695928857
 20
391.7763518377
 30
0.0
 10
149.0695928857
 20
391.8435087799
 30
0.0
  0
SPLINE
  5
4B5
100
AcDbEntity
  8
0
100
AcDbSpline
 62
7
  6
CONTINUOUS
 70
0
 71
3
 72
8
 73
4
 74
0
 42
0.0000001
 43
0.0000001
 44
0.0000000001
 40
0.0
 40
0.0
 40
0.0
 40
0.0
 40
1.0
 40
1.0
 40
1.0
 40
1.0
 10
149.3906539387
 20
380.6186656781
 30
0.0
 10
149.3955697545
 20
380.592399397
 30
0.0
 10
149.3927422868
 20
380.5641312048
 30
0.0
 10
149.3844056269
 20
380.5387425681
 30
0.0
  0
SPLINE
  5
4B6
100
AcDbEntity
  8
0
100
AcDbSpline
 62
7
  6
CONTINUOUS
 70
0
 71
3
 72
9
 73
5
 74
0
 42
0.0000001
 43
0.0000001
 44
0.0000000001
 40
0.0
 40
0.0
 40
0.0
 40
0.0
 40
0.2171313862
 40
1.0
 40
1.0
 40
1.0
 40
1.0
 10
149.3844056269
 20
380.5387425681
 30
0.0
 10
149.3799469636
 20
380.5251640625
 30
0.0
 10
149.3524103226
 20
380.4649122565
 30
0.0
 10
149.3043576353
 20
380.4163387238
 30
0.0
 10
149.2640150456
 20
380.384280482
 30
0.0
  0
SPLINE
  5
4B7
100
AcDbEntity
  8
0
100
AcDbSpline
 62
7
  6
CONTINUOUS
 70
0
 71
3
 72
9
 73
5
 74
0
 42
0.0000001
 43
0.0000001
 44
0.0000000001
 40
0.0
 40
0.0
 40
0.0
 40
0.0
 40
0.2374371831
 40
1.0
 40
1.0
 40
1.0
 40
1.0
 10
151.9488925863
 20
379.7729445259
 30
0.0
 10
151.9488769392
 20
379.8177448633
 30
0.0
 10
151.9296800541
 20
380.0066527849
 30
0.0
 10
151.8313916569
 20
380.1814456469
 30
0.0
 10
151.7370535513
 20
380.2900850392
 30
0.0
  0
SPLINE
  5
4B8
100
AcDbEntity
  8
0
100
AcDbSpline
 62
7
  6
CONTINUOUS
 70
0
 71
3
 72
9
 73
5
 74
0
 42
0.0000001
 43
0.0000001
 44
0.0000000001
 40
0.0
 40
0.0
 40
0.0
 40
0.0
 40
0.2397903124
 40
1.0
 40
1.0
 40
1.0
 40
1.0
 10
153.0273392374
 20
316.1104850882
 30
0.0
 10
152.9470989255
 20
316.1568108058
 30
0.0
 10
152.6060973954
 20
316.3388976298
 30
0.0
 10
152.2434000163
 20
316.4790375799
 30
0.0
 10
151.9624688711
 20
316.5648289688
 30
0.0
  0
SPLINE
  5
4B9
100
AcDbEntity
  8
0
100
AcDbSpline
 62
7
  6
CONTINUOUS
 70
0
 71
3
 72
11
 73
7
 74
0
 42
0.0000001
 43
0.0000001
 44
0.0000000001
 40
0.0
 40
0.0
 40
0.0
 40
0.0
 40
0.2849637892
 40
0.5431866007
 40
0.7776184722
 40
1.0
 40
1.0
 40
1.0
 40
1.0
 10
147.9243002498
 20
316.5614154705
 30
0.0
 10
147.5828034291
 20
316.456615376
 30
0.0
 10
146.946795185
 20
316.1986257144
 30
0.0
 10
146.1419172595
 20
315.6297306899
 30
0.0
 10
145.5876735372
 20
314.902087794
 30
0.0
 10
145.4489106509
 20
314.323255082
 30
0.0
 10
145.4489106509
 20
314.0444891417
 30
0.0
  0
SPLINE
  5
4BA
100
AcDbEntity
  8
0
100
AcDbSpline
 62
7
  6
CONTINUOUS
 70
0
 71
3
 72
10
 73
6
 74
0
 42
0.0000001
 43
0.0000001
 44
0.0000000001
 40
0.0
 40
0.0
 40
0.0
 40
0.0
 40
0.2341895442
 40
0.4745005871
 40
1.0
 40
1.0
 40
1.0
 40
1.0
 10
154.4489311294
 20
314.0444891417
 30
0.0
 10
154.4489311294
 20
314.248448837
 30
0.0
 10
154.3775662987
 20
314.6647248543
 30
0.0
 10
153.9647659901
 20
315.4438920702
 30
0.0
 10
153.4236922614
 20
315.8816557399
 30
0.0
 10
153.0273392374
 20
316.1104850882
 30
0.0
  0
SPLINE
  5
4BB
100
AcDbEntity
  8
0
100
AcDbSpline
 62
7
  6
CONTINUOUS
 70
0
 71
3
 72
9
 73
5
 74
0
 42
0.0000001
 43
0.0000001
 44
0.0000000001
 40
0.0
 40
0.0
 40
0.0
 40
0.0
 40
0.4999998047
 40
1.0
 40
1.0
 40
1.0
 40
1.0
 10
149.0695928857
 20
390.4554546708
 30
0.0
 10
149.0695928857
 20
390.5766309956
 30
0.0
 10
149.1523464073
 20
390.8159245678
 30
0.0
 10
149.3182027901
 20
391.0072400178
 30
0.0
 10
149.4231448043
 20
391.0678279563
 30
0.0
  0
SPLINE
  5
4BC
100
AcDbEntity
  8
0
100
AcDbSpline
 62
7
  6
CONTINUOUS
 70
0
 71
3
 72
8
 73
4
 74
0
 42
0.0000001
 43
0.0000001
 44
0.0000000001
 40
0.0
 40
0.0
 40
0.0
 40
0.0
 40
1.0
 40
1.0
 40
1.0
 40
1.0
 10
154.4487259394
 20
313.0238542987
 30
0.0
 10
154.4487298673
 20
312.8940428614
 30
0.0
 10
154.4315605426
 20
312.7632541684
 30
0.0
 10
154.3988845606
 20
312.6376226061
 30
0.0
  0
SPLINE
  5
4BD
100
AcDbEntity
  8
0
100
AcDbSpline
 62
7
  6
CONTINUOUS
 70
0
 71
3
 72
9
 73
5
 74
0
 42
0.0000001
 43
0.0000001
 44
0.0000000001
 40
0.0
 40
0.0
 40
0.0
 40
0.0
 40
0.2430944262
 40
1.0
 40
1.0
 40
1.0
 40
1.0
 10
154.3988845606
 20
312.6376226061
 30
0.0
 10
154.3879995629
 20
312.5957723178
 30
0.0
 10
154.3362227901
 20
312.4254603208
 30
0.0
 10
154.2571859814
 20
312.263870855
 30
0.0
 10
154.1863285933
 20
312.1493824342
 30
0.0
  0
SPLINE
  5
4BE
100
AcDbEntity
  8
0
100
AcDbSpline
 62
7
  6
CONTINUOUS
 70
0
 71
3
 72
9
 73
5
 74
0
 42
0.0000001
 43
0.0000001
 44
0.0000000001
 40
0.0
 40
0.0
 40
0.0
 40
0.0
 40
0.2375322535
 40
1.0
 40
1.0
 40
1.0
 40
1.0
 10
154.1523208415
 20
312.0962669126
 30
0.0
 10
154.1198674436
 20
312.0472285819
 30
0.0
 10
153.9746213812
 20
311.8464914085
 30
0.0
 10
153.7975825655
 20
311.6698129992
 30
0.0
 10
153.6528153689
 20
311.5486815347
 30
0.0
  0
SPLINE
  5
4BF
100
AcDbEntity
  8
0
100
AcDbSpline
 62
7
  6
CONTINUOUS
 70
0
 71
3
 72
13
 73
9
 74
0
 42
0.0000001
 43
0.0000001
 44
0.0000000001
 40
0.0
 40
0.0
 40
0.0
 40
0.0
 40
0.2640987346
 40
0.5453652626
 40
0.6760730189
 40
0.7940403684
 40
0.9003000657
 40
1.0
 40
1.0
 40
1.0
 40
1.0
 10
146.8705055727
 20
308.7124817774
 30
0.0
 10
147.5555102032
 20
308.3170031165
 30
0.0
 10
149.1812095284
 20
307.8733811951
 30
0.0
 10
151.2396906957
 20
307.991390949
 30
0.0
 10
152.7487566461
 20
308.5163556478
 30
0.0
 10
153.6562015741
 20
309.093688915
 30
0.0
 10
154.2883477825
 20
309.8578098877
 30
0.0
 10
154.4488666659
 20
310.4820499172
 30
0.0
 10
154.4481671215
 20
310.7806485257
 30
0.0
  0
SPLINE
  5
4C0
100
AcDbEntity
  8
0
100
AcDbSpline
 62
7
  6
CONTINUOUS
 70
0
 71
3
 72
9
 73
5
 74
0
 42
0.0000001
 43
0.0000001
 44
0.0000000001
 40
0.0
 40
0.0
 40
0.0
 40
0.0
 40
0.2462373757
 40
1.0
 40
1.0
 40
1.0
 40
1.0
 10
154.4487375122
 20
311.7991049172
 30
0.0
 10
154.4487384722
 20
311.8517716932
 30
0.0
 10
154.4376600814
 20
312.0656067779
 30
0.0
 10
154.3802182409
 20
312.2762884456
 30
0.0
 10
154.3165428094
 20
312.4244003672
 30
0.0
  0
SPLINE
  5
4C1
100
AcDbEntity
  8
0
100
AcDbSpline
 62
7
  6
CONTINUOUS
 70
0
 71
3
 72
9
 73
5
 74
0
 42
0.0000001
 43
0.0000001
 44
0.0000000001
 40
0.0
 40
0.0
 40
0.0
 40
0.0
 40
0.5446263534
 40
1.0
 40
1.0
 40
1.0
 40
1.0
 10
150.3418646163
 20
378.979627371
 30
0.0
 10
150.2768895446
 20
379.0318737344
 30
0.0
 10
150.1699852957
 20
379.1496350639
 30
0.0
 10
150.1428932014
 20
379.3132201785
 30
0.0
 10
150.1581131049
 20
379.3812503098
 30
0.0
  0
SPLINE
  5
4C2
100
AcDbEntity
  8
0
100
AcDbSpline
 62
7
  6
CONTINUOUS
 70
0
 71
3
 72
9
 73
5
 74
0
 42
0.0000001
 43
0.0000001
 44
0.0000000001
 40
0.0
 40
0.0
 40
0.0
 40
0.0
 40
0.2264280902
 40
1.0
 40
1.0
 40
1.0
 40
1.0
 10
149.2640150456
 20
380.384280482
 30
0.0
 10
149.2480171441
 20
380.3715677485
 30
0.0
 10
149.1743856075
 20
380.3191924782
 30
0.0
 10
149.0921808751
 20
380.2796637252
 30
0.0
 10
149.026991112
 20
380.254686809
 30
0.0
  0
SPLINE
  5
4C3
100
AcDbEntity
  8
0
100
AcDbSpline
 62
7
  6
CONTINUOUS
 70
0
 71
3
 72
9
 73
5
 74
0
 42
0.0000001
 43
0.0000001
 44
0.0000000001
 40
0.0
 40
0.0
 40
0.0
 40
0.0
 40
0.7623376553
 40
1.0
 40
1.0
 40
1.0
 40
1.0
 10
149.026991112
 20
380.254686809
 30
0.0
 10
148.883169109
 20
380.1995826033
 30
0.0
 10
148.6794412913
 20
380.1603438385
 30
0.0
 10
148.4772234748
 20
380.1671751554
 30
0.0
 10
148.4295056085
 20
380.1725133443
 30
0.0
  0
SPLINE
  5
4C4
100
AcDbEntity
  8
0
100
AcDbSpline
 62
7
  6
CONTINUOUS
 70
0
 71
3
 72
10
 73
6
 74
0
 42
0.0000001
 43
0.0000001
 44
0.0000000001
 40
0.0
 40
0.0
 40
0.0
 40
0.0
 40
0.2339813111
 40
0.4745856095
 40
1.0
 40
1.0
 40
1.0
 40
1.0
 10
145.4496746587
 20
310.7762865295
 30
0.0
 10
145.4501516634
 20
310.5726783957
 30
0.0
 10
145.5201973435
 20
310.1565536438
 30
0.0
 10
145.9340717093
 20
309.3784255915
 30
0.0
 10
146.4745465933
 20
308.9410836291
 30
0.0
 10
146.8705055727
 20
308.7124817774
 30
0.0
  0
SPLINE
  5
4C5
100
AcDbEntity
  8
0
100
AcDbSpline
 62
7
  6
CONTINUOUS
 70
0
 71
3
 72
9
 73
5
 74
0
 42
0.0000001
 43
0.0000001
 44
0.0000000001
 40
0.0
 40
0.0
 40
0.0
 40
0.0
 40
0.2760092336
 40
1.0
 40
1.0
 40
1.0
 40
1.0
 10
168.4079126697
 20
251.1730319775
 30
0.0
 10
168.542024579
 20
251.0956041711
 30
0.0
 10
169.0399784813
 20
250.8397798897
 30
0.0
 10
169.6038578351
 20
250.6874202729
 30
0.0
 10
170.0100423003
 20
250.6913553816
 30
0.0
  0
SPLINE
  5
4C6
100
AcDbEntity
  8
0
100
AcDbSpline
 62
7
  6
CONTINUOUS
 70
0
 71
3
 72
10
 73
6
 74
0
 42
0.0000001
 43
0.0000001
 44
0.0000000001
 40
0.0
 40
0.0
 40
0.0
 40
0.0
 40
0.5172100499
 40
0.7702151947
 40
1.0
 40
1.0
 40
1.0
 40
1.0
 10
116.2449684572
 20
283.8906889031
 30
0.0
 10
116.5111930365
 20
282.946978664
 30
0.0
 10
117.1832515909
 20
281.6048045116
 30
0.0
 10
118.4306858605
 20
280.1703410485
 30
0.0
 10
119.1625854166
 20
279.6041917754
 30
0.0
 10
119.5398569619
 20
279.3863788239
 30
0.0
  0
SPLINE
  5
4C7
100
AcDbEntity
  8
0
100
AcDbSpline
 62
7
  6
CONTINUOUS
 70
0
 71
3
 72
9
 73
5
 74
0
 42
0.0000001
 43
0.0000001
 44
0.0000000001
 40
0.0
 40
0.0
 40
0.0
 40
0.0
 40
0.5213761168
 40
1.0
 40
1.0
 40
1.0
 40
1.0
 10
146.5994483235
 20
257.4896261114
 30
0.0
 10
146.3237515058
 20
257.2998441494
 30
0.0
 10
145.8366211445
 20
256.8634622707
 30
0.0
 10
145.5465514477
 20
256.2632534854
 30
0.0
 10
145.4859232056
 20
255.9620369611
 30
0.0
  0
SPLINE
  5
4C8
100
AcDbEntity
  8
0
100
AcDbSpline
 62
7
  6
CONTINUOUS
 70
0
 71
3
 72
9
 73
5
 74
0
 42
0.0000001
 43
0.0000001
 44
0.0000000001
 40
0.0
 40
0.0
 40
0.0
 40
0.0
 40
0.4999994563
 40
1.0
 40
1.0
 40
1.0
 40
1.0
 10
188.3803793508
 20
250.909160536
 30
0.0
 10
188.2124760685
 20
250.8122221094
 30
0.0
 10
187.8146944796
 20
250.7355578437
 30
0.0
 10
187.4169128475
 20
250.8122203899
 30
0.0
 10
187.249008501
 20
250.9091578165
 30
0.0
  0
SPLINE
  5
4C9
100
AcDbEntity
  8
0
100
AcDbSpline
 62
7
  6
CONTINUOUS
 70
0
 71
3
 72
11
 73
7
 74
0
 42
0.0000001
 43
0.0000001
 44
0.0000000001
 40
0.0
 40
0.0
 40
0.0
 40
0.0
 40
0.2326319284
 40
0.489949065
 40
0.7526118785
 40
1.0
 40
1.0
 40
1.0
 40
1.0
 10
190.6416102313
 20
273.444750031
 30
0.0
 10
190.6416102313
 20
273.0875870467
 30
0.0
 10
190.7602646207
 20
272.334646502
 30
0.0
 10
191.1869213941
 20
271.2531774025
 30
0.0
 10
191.8270230304
 20
270.2556653937
 30
0.0
 10
192.3797206658
 20
269.6896180502
 30
0.0
 10
192.6784088684
 20
269.4549963303
 30
0.0
  0
SPLINE
  5
4CA
100
AcDbEntity
  8
0
100
AcDbSpline
 62
7
  6
CONTINUOUS
 70
0
 71
3
 72
9
 73
5
 74
0
 42
0.0000001
 43
0.0000001
 44
0.0000000001
 40
0.0
 40
0.0
 40
0.0
 40
0.0
 40
0.2602037457
 40
1.0
 40
1.0
 40
1.0
 40
1.0
 10
192.6784088684
 20
269.4549963303
 30
0.0
 10
192.7253137188
 20
269.4181522348
 30
0.0
 10
192.9085770882
 20
269.2804723849
 30
0.0
 10
193.1041189196
 20
269.1587150057
 30
0.0
 10
193.2549666539
 20
269.081240591
 30
0.0
  0
SPLINE
  5
4CB
100
AcDbEntity
  8
0
100
AcDbSpline
 62
7
  6
CONTINUOUS
 70
0
 71
3
 72
11
 73
7
 74
0
 42
0.0000001
 43
0.0000001
 44
0.0000000001
 40
0.0
 40
0.0
 40
0.0
 40
0.0
 40
0.2326319284
 40
0.489949065
 40
0.7526118785
 40
1.0
 40
1.0
 40
1.0
 40
1.0
 10
144.6794776708
 20
299.9804000937
 30
0.0
 10
144.6794776708
 20
299.6232370167
 30
0.0
 10
144.798132091
 20
298.8702962766
 30
0.0
 10
145.2247889752
 20
297.7888268963
 30
0.0
 10
145.8648907776
 20
296.7913146286
 30
0.0
 10
146.4175885565
 20
296.225267138
 30
0.0
 10
146.7162768367
 20
295.9906453572
 30
0.0
  0
SPLINE
  5
4CC
100
AcDbEntity
  8
0
100
AcDbSpline
 62
7
  6
CONTINUOUS
 70
0
 71
3
 72
9
 73
5
 74
0
 42
0.0000001
 43
0.0000001
 44
0.0000000001
 40
0.0
 40
0.0
 40
0.0
 40
0.0
 40
0.2623459238
 40
1.0
 40
1.0
 40
1.0
 40
1.0
 10
146.7162768367
 20
295.9906453572
 30
0.0
 10
146.7715095533
 20
295.9472596632
 30
0.0
 10
146.9861486494
 20
295.7872923832
 30
0.0
 10
147.2177728674
 20
295.6492272867
 30
0.0
 10
147.3968618168
 20
295.5659973398
 30
0.0
  0
SPLINE
  5
4CD
100
AcDbEntity
  8
0
100
AcDbSpline
 62
7
  6
CONTINUOUS
 70
0
 71
3
 72
11
 73
7
 74
0
 42
0.0000001
 43
0.0000001
 44
0.0000000001
 40
0.0
 40
0.0
 40
0.0
 40
0.0
 40
0.2893966498
 40
0.5491278543
 40
0.7823136856
 40
1.0
 40
1.0
 40
1.0
 40
1.0
 10
147.5105291161
 20
295.8964841319
 30
0.0
 10
147.5105293322
 20
295.7192453015
 30
0.0
 10
147.4832899479
 20
295.3818532441
 30
0.0
 10
147.3471525856
 20
294.9180328471
 30
0.0
 10
147.116837145
 20
294.5417166973
 30
0.0
 10
146.900688766
 20
294.3601008965
 30
0.0
 10
146.7851826886
 20
294.293522623
 30
0.0
  0
SPLINE
  5
4CE
100
AcDbEntity
  8
0
100
AcDbSpline
 62
7
  6
CONTINUOUS
 70
0
 71
3
 72
11
 73
7
 74
0
 42
0.0000001
 43
0.0000001
 44
0.0000000001
 40
0.0
 40
0.0
 40
0.0
 40
0.0
 40
0.2893966051
 40
0.5491278405
 40
0.7823136736
 40
1.0
 40
1.0
 40
1.0
 40
1.0
 10
193.4726603908
 20
269.3608348114
 30
0.0
 10
193.4726603908
 20
269.1835960565
 30
0.0
 10
193.445420959
 20
268.8462041517
 30
0.0
 10
193.3092840082
 20
268.3823837646
 30
0.0
 10
193.0789685558
 20
268.0060676953
 30
0.0
 10
192.8628201994
 20
267.8244519861
 30
0.0
 10
192.7473141452
 20
267.75787373
 30
0.0
  0
SPLINE
  5
4CF
100
AcDbEntity
  8
0
100
AcDbSpline
 62
7
  6
CONTINUOUS
 70
0
 71
3
 72
11
 73
7
 74
0
 42
0.0000001
 43
0.0000001
 44
0.0000000001
 40
0.0
 40
0.0
 40
0.0
 40
0.0
 40
0.2372436391
 40
0.5000005261
 40
0.7627571268
 40
1.0
 40
1.0
 40
1.0
 40
1.0
 10
125.8009467002
 20
317.8199483574
 30
0.0
 10
125.5700480263
 20
317.9532547532
 30
0.0
 10
125.0330959699
 20
318.1477555605
 30
0.0
 10
124.1745985467
 20
318.2409487945
 30
0.0
 10
123.3161024189
 20
318.1477516428
 30
0.0
 10
122.779152474
 20
317.9532481694
 30
0.0
 10
122.5482555068
 20
317.8199405389
 30
0.0
  0
SPLINE
  5
4D0
100
AcDbEntity
  8
0
100
AcDbSpline
 62
7
  6
CONTINUOUS
 70
0
 71
3
 72
9
 73
5
 74
0
 42
0.0000001
 43
0.0000001
 44
0.0000000001
 40
0.0
 40
0.0
 40
0.0
 40
0.0
 40
0.5507927839
 40
1.0
 40
1.0
 40
1.0
 40
1.0
 10
145.0062332879
 20
210.4026423222
 30
0.0
 10
145.0062280009
 20
210.8085028252
 30
0.0
 10
145.112520387
 20
211.5600575614
 30
0.0
 10
145.5601320445
 20
212.1918339546
 30
0.0
 10
145.8207110246
 20
212.3959497728
 30
0.0
  0
SPLINE
  5
4D1
100
AcDbEntity
  8
0
100
AcDbSpline
 62
7
  6
CONTINUOUS
 70
0
 71
3
 72
10
 73
6
 74
0
 42
0.0000001
 43
0.0000001
 44
0.0000000001
 40
0.0
 40
0.0
 40
0.0
 40
0.0
 40
0.5163810999
 40
0.7603740259
 40
1.0
 40
1.0
 40
1.0
 40
1.0
 10
143.6762402654
 20
210.4112921228
 30
0.0
 10
143.6771913065
 20
210.996937591
 30
0.0
 10
143.8263641596
 20
211.8788546469
 30
0.0
 10
144.3931901259
 20
212.8718759258
 30
0.0
 10
144.7810824472
 20
213.2701999556
 30
0.0
 10
144.9946202245
 20
213.4383060698
 30
0.0
  0
SPLINE
  5
4D2
100
AcDbEntity
  8
0
100
AcDbSpline
 62
7
  6
CONTINUOUS
 70
0
 71
3
 72
9
 73
5
 74
0
 42
0.0000001
 43
0.0000001
 44
0.0000000001
 40
0.0
 40
0.0
 40
0.0
 40
0.0
 40
0.2548791517
 40
1.0
 40
1.0
 40
1.0
 40
1.0
 10
149.0549975621
 20
215.4396389009
 30
0.0
 10
148.9999774227
 20
215.3145169897
 30
0.0
 10
148.7575456236
 20
214.8358671244
 30
0.0
 10
148.3975393264
 20
214.4156669948
 30
0.0
 10
148.0835693433
 20
214.1684963392
 30
0.0
  0
SPLINE
  5
4D3
100
AcDbEntity
  8
0
100
AcDbSpline
 62
7
  6
CONTINUOUS
 70
0
 71
3
 72
9
 73
5
 74
0
 42
0.0000001
 43
0.0000001
 44
0.0000000001
 40
0.0
 40
0.0
 40
0.0
 40
0.0
 40
0.2641591205
 40
1.0
 40
1.0
 40
1.0
 40
1.0
 10
147.9830396235
 20
216.4106974802
 30
0.0
 10
147.9681104532
 20
216.3485725306
 30
0.0
 10
147.9037954202
 20
216.1154112161
 30
0.0
 10
147.80674358
 20
215.8907054702
 30
0.0
 10
147.715915147
 20
215.7376443517
 30
0.0
  0
SPLINE
  5
4D4
100
AcDbEntity
  8
0
100
AcDbSpline
 62
7
  6
CONTINUOUS
 70
0
 71
3
 72
9
 73
5
 74
0
 42
0.0000001
 43
0.0000001
 44
0.0000000001
 40
0.0
 40
0.0
 40
0.0
 40
0.0
 40
0.2594387502
 40
1.0
 40
1.0
 40
1.0
 40
1.0
 10
147.715915147
 20
215.7376443517
 30
0.0
 10
147.6849956886
 20
215.6855398868
 30
0.0
 10
147.5572518141
 20
215.4899508538
 30
0.0
 10
147.3936279925
 20
215.3175007483
 30
0.0
 10
147.2574785631
 20
215.2108526519
 30
0.0
  0
SPLINE
  5
4D5
100
AcDbEntity
  8
0
100
AcDbSpline
 62
7
  6
CONTINUOUS
 70
0
 71
3
 72
9
 73
5
 74
0
 42
0.0000001
 43
0.0000001
 44
0.0000000001
 40
0.0
 40
0.0
 40
0.0
 40
0.0
 40
0.4649874564
 40
1.0
 40
1.0
 40
1.0
 40
1.0
 10
151.9488925882
 20
216.4724464999
 30
0.0
 10
151.9489334576
 20
216.3553755792
 30
0.0
 10
151.8772497629
 20
216.1013707778
 30
0.0
 10
151.7041523474
 20
215.9094455931
 30
0.0
 10
151.601416333
 20
215.8223264127
 30
0.0
  0
SPLINE
  5
4D6
100
AcDbEntity
  8
0
100
AcDbSpline
 62
7
  6
CONTINUOUS
 70
0
 71
3
 72
8
 73
4
 74
0
 42
0.0000001
 43
0.0000001
 44
0.0000000001
 40
0.0
 40
0.0
 40
0.0
 40
0.0
 40
1.0
 40
1.0
 40
1.0
 40
1.0
 10
151.5181557446
 20
215.7567518937
 30
0.0
 10
151.4684353561
 20
215.7203311834
 30
0.0
 10
151.4165187381
 20
215.6867793005
 30
0.0
 10
151.3631432064
 20
215.6559631068
 30
0.0
  0
SPLINE
  5
4D7
100
AcDbEntity
  8
0
100
AcDbSpline
 62
7
  6
CONTINUOUS
 70
0
 71
3
 72
11
 73
7
 74
0
 42
0.0000001
 43
0.0000001
 44
0.0000000001
 40
0.0
 40
0.0
 40
0.0
 40
0.0
 40
0.2372428732
 40
0.4999994739
 40
0.7627563609
 40
1.0
 40
1.0
 40
1.0
 40
1.0
 10
189.4410439386
 20
33.9236588649
 30
0.0
 10
189.2101469713
 20
33.7903512345
 30
0.0
 10
188.6731970265
 20
33.5958477611
 30
0.0
 10
187.8147008987
 20
33.5026506094
 30
0.0
 10
186.9562034755
 20
33.5958438433
 30
0.0
 10
186.4192514191
 20
33.7903446506
 30
0.0
 10
186.1883527451
 20
33.9236510464
 30
0.0
  0
SPLINE
  5
4D8
100
AcDbEntity
  8
0
100
AcDbSpline
 62
7
  6
CONTINUOUS
 70
0
 71
3
 72
11
 73
7
 74
0
 42
0.0000001
 43
0.0000001
 44
0.0000000001
 40
0.0
 40
0.0
 40
0.0
 40
0.0
 40
0.1818937639
 40
0.4083485012
 40
0.6814586676
 40
1.0
 40
1.0
 40
1.0
 40
1.0
 10
169.3079428513
 20
146.5849983857
 30
0.0
 10
169.0417585984
 20
145.8885289998
 30
0.0
 10
168.1914648011
 20
144.4241254615
 30
0.0
 10
166.3719730272
 20
142.2956998863
 30
0.0
 10
163.8959247438
 20
140.0243222944
 30
0.0
 10
161.9706441295
 20
138.5455492555
 30
0.0
 10
160.9108481736
 20
137.7828038976
 30
0.0
  0
SPLINE
  5
4D9
100
AcDbEntity
  8
0
100
AcDbSpline
 62
7
  6
CONTINUOUS
 70
0
 71
3
 72
9
 73
5
 74
0
 42
0.0000001
 43
0.0000001
 44
0.0000000001
 40
0.0
 40
0.0
 40
0.0
 40
0.0
 40
0.2365569584
 40
1.0
 40
1.0
 40
1.0
 40
1.0
 10
108.8305324244
 20
137.6264383141
 30
0.0
 10
108.7813487714
 20
137.5980422883
 30
0.0
 10
108.5687289245
 20
137.4861915357
 30
0.0
 10
108.3404768044
 20
137.4054044674
 30
0.0
 10
108.1633007724
 20
137.3584727612
 30
0.0
  0
SPLINE
  5
4DA
100
AcDbEntity
  8
0
100
AcDbSpline
 62
7
  6
CONTINUOUS
 70
0
 71
3
 72
9
 73
5
 74
0
 42
0.0000001
 43
0.0000001
 44
0.0000000001
 40
0.0
 40
0.0
 40
0.0
 40
0.0
 40
0.5000008499
 40
1.0
 40
1.0
 40
1.0
 40
1.0
 10
113.1438705594
 20
139.4635408546
 30
0.0
 10
112.9759656405
 20
139.5604777027
 30
0.0
 10
112.5781839115
 20
139.637139633
 30
0.0
 10
112.18040225
 20
139.560475015
 30
0.0
 10
112.0124989945
 20
139.4635366039
 30
0.0
  0
SPLINE
  5
4DB
100
AcDbEntity
  8
0
100
AcDbSpline
 62
7
  6
CONTINUOUS
 70
0
 71
3
 72
9
 73
5
 74
0
 42
0.0000001
 43
0.0000001
 44
0.0000000001
 40
0.0
 40
0.0
 40
0.0
 40
0.0
 40
0.5179503974
 40
1.0
 40
1.0
 40
1.0
 40
1.0
 10
108.1633007724
 20
137.350301897
 30
0.0
 10
107.7221308508
 20
137.2334415245
 30
0.0
 10
106.8253210452
 20
137.1741854918
 30
0.0
 10
105.9459658608
 20
137.4063406658
 30
0.0
 10
105.5778538707
 20
137.6182542805
 30
0.0
  0
SPLINE
  5
4DC
100
AcDbEntity
  8
0
100
AcDbSpline
 62
7
  6
CONTINUOUS
 70
0
 71
3
 72
9
 73
5
 74
0
 42
0.0000001
 43
0.0000001
 44
0.0000000001
 40
0.0
 40
0.0
 40
0.0
 40
0.0
 40
0.5508636696
 40
1.0
 40
1.0
 40
1.0
 40
1.0
 10
178.127288211
 20
95.732766616
 30
0.0
 10
177.9371819466
 20
95.8428548281
 30
0.0
 10
177.6100795363
 20
96.0927084537
 30
0.0
 10
177.453724883
 20
96.4926065298
 30
0.0
 10
177.4536751775
 20
96.6717194132
 30
0.0
  0
SPLINE
  5
4DD
100
AcDbEntity
  8
0
100
AcDbSpline
 62
7
  6
CONTINUOUS
 70
0
 71
3
 72
11
 73
7
 74
0
 42
0.0000001
 43
0.0000001
 44
0.0000000001
 40
0.0
 40
0.0
 40
0.0
 40
0.0
 40
0.2493096096
 40
0.5242511358
 40
0.785343928
 40
1.0
 40
1.0
 40
1.0
 40
1.0
 10
132.4479745867
 20
195.6370604222
 30
0.0
 10
132.4492670994
 20
195.3511624907
 30
0.0
 10
132.5760053567
 20
194.7500829378
 30
0.0
 10
133.0018139566
 20
193.9454515396
 30
0.0
 10
133.5894404613
 20
193.3052261295
 30
0.0
 10
134.0897977037
 20
193.0353892954
 30
0.0
 10
134.3318770227
 20
192.990746911
 30
0.0
  0
SPLINE
  5
4DE
100
AcDbEntity
  8
0
100
AcDbSpline
 62
7
  6
CONTINUOUS
 70
0
 71
3
 72
9
 73
5
 74
0
 42
0.0000001
 43
0.0000001
 44
0.0000000001
 40
0.0
 40
0.0
 40
0.0
 40
0.0
 40
0.2645518024
 40
1.0
 40
1.0
 40
1.0
 40
1.0
 10
134.3318770227
 20
192.990746911
 30
0.0
 10
134.3624425557
 20
192.9851102532
 30
0.0
 10
134.4787249096
 20
192.9686339707
 30
0.0
 10
134.5986713769
 20
192.9730684483
 30
0.0
 10
134.6830750703
 20
192.9915540162
 30
0.0
  0
SPLINE
  5
4DF
100
AcDbEntity
  8
0
100
AcDbSpline
 62
7
  6
CONTINUOUS
 70
0
 71
3
 72
9
 73
5
 74
0
 42
0.0000001
 43
0.0000001
 44
0.0000000001
 40
0.0
 40
0.0
 40
0.0
 40
0.0
 40
0.2446451513
 40
1.0
 40
1.0
 40
1.0
 40
1.0
 10
121.1990142013
 20
184.714525798
 30
0.0
 10
121.6773704767
 20
185.1046659972
 30
0.0
 10
123.6097835796
 20
186.7273305826
 30
0.0
 10
125.452139877
 20
188.4565945973
 30
0.0
 10
126.7923723121
 20
189.8116475914
 30
0.0
  0
SPLINE
  5
4E0
100
AcDbEntity
  8
0
100
AcDbSpline
 62
7
  6
CONTINUOUS
 70
0
 71
3
 72
10
 73
6
 74
0
 42
0.0000001
 43
0.0000001
 44
0.0000000001
 40
0.0
 40
0.0
 40
0.0
 40
0.0
 40
0.2297848216
 40
0.4827899943
 40
1.0
 40
1.0
 40
1.0
 40
1.0
 10
166.2466523505
 20
61.7659827651
 30
0.0
 10
166.6239238852
 20
61.5481699957
 30
0.0
 10
167.3558231108
 20
60.9820205305
 30
0.0
 10
168.6032566507
 20
59.5475572471
 30
0.0
 10
169.2753143917
 20
58.205383091
 30
0.0
 10
169.5415381199
 20
57.2616730057
 30
0.0
  0
SPLINE
  5
4E1
100
AcDbEntity
  8
0
100
AcDbSpline
 62
7
  6
CONTINUOUS
 70
0
 71
3
 72
9
 73
5
 74
0
 42
0.0000001
 43
0.0000001
 44
0.0000000001
 40
0.0
 40
0.0
 40
0.0
 40
0.0
 40
0.2635290892
 40
1.0
 40
1.0
 40
1.0
 40
1.0
 10
106.5915578121
 20
285.3165282639
 30
0.0
 10
106.6744460102
 20
285.2871080006
 30
0.0
 10
106.9922869681
 20
285.1854934674
 30
0.0
 10
107.3248106486
 20
285.126050847
 30
0.0
 10
107.5703810196
 20
285.1153823404
 30
0.0
  0
SPLINE
  5
4E2
100
AcDbEntity
  8
0
100
AcDbSpline
 62
7
  6
CONTINUOUS
 70
0
 71
3
 72
9
 73
5
 74
0
 42
0.0000001
 43
0.0000001
 44
0.0000000001
 40
0.0
 40
0.0
 40
0.0
 40
0.0
 40
0.2622878507
 40
1.0
 40
1.0
 40
1.0
 40
1.0
 10
107.6311129853
 20
285.1134233273
 30
0.0
 10
107.7360522207
 20
285.1112203818
 30
0.0
 10
108.1360113095
 20
285.1255735
 30
0.0
 10
108.5343011999
 20
285.2462550002
 30
0.0
 10
108.7899089163
 20
285.3939647178
 30
0.0
  0
SPLINE
  5
4E3
100
AcDbEntity
  8
0
100
AcDbSpline
 62
7
  6
CONTINUOUS
 70
0
 71
3
 72
9
 73
5
 74
0
 42
0.0000001
 43
0.0000001
 44
0.0000000001
 40
0.0
 40
0.0
 40
0.0
 40
0.0
 40
0.2635290892
 40
1.0
 40
1.0
 40
1.0
 40
1.0
 10
106.5915578121
 20
81.1909239815
 30
0.0
 10
106.6744460102
 20
81.1615037182
 30
0.0
 10
106.9922869681
 20
81.059889185
 30
0.0
 10
107.3248106486
 20
81.0004465646
 30
0.0
 10
107.5703810196
 20
80.989778058
 30
0.0
  0
SPLINE
  5
4E4
100
AcDbEntity
  8
0
100
AcDbSpline
 62
7
  6
CONTINUOUS
 70
0
 71
3
 72
9
 73
5
 74
0
 42
0.0000001
 43
0.0000001
 44
0.0000000001
 40
0.0
 40
0.0
 40
0.0
 40
0.0
 40
0.2622878507
 40
1.0
 40
1.0
 40
1.0
 40
1.0
 10
107.6311129853
 20
80.9878190449
 30
0.0
 10
107.7360522207
 20
80.9856160994
 30
0.0
 10
108.1360113095
 20
80.9999692176
 30
0.0
 10
108.5343011999
 20
81.1206507178
 30
0.0
 10
108.7899089163
 20
81.2683604354
 30
0.0
  0
SPLINE
  5
4E5
100
AcDbEntity
  8
0
100
AcDbSpline
 62
7
  6
CONTINUOUS
 70
0
 71
3
 72
11
 73
7
 74
0
 42
0.0000001
 43
0.0000001
 44
0.0000000001
 40
0.0
 40
0.0
 40
0.0
 40
0.0
 40
0.2301966912
 40
0.4841006042
 40
0.7463924858
 40
1.0
 40
1.0
 40
1.0
 40
1.0
 10
126.7911138698
 20
179.8316798425
 30
0.0
 10
126.7911138698
 20
177.4889097848
 30
0.0
 10
127.4945130343
 20
172.5567809752
 30
0.0
 10
130.0822259642
 20
165.3720993935
 30
0.0
 10
134.0295958229
 20
158.5589574595
 30
0.0
 10
137.4590138996
 20
154.5317057564
 30
0.0
 10
139.3336786769
 20
152.7576321449
 30
0.0
  0
SPLINE
  5
4E6
100
AcDbEntity
  8
0
100
AcDbSpline
 62
7
  6
CONTINUOUS
 70
0
 71
3
 72
9
 73
5
 74
0
 42
0.0000001
 43
0.0000001
 44
0.0000000001
 40
0.0
 40
0.0
 40
0.0
 40
0.0
 40
0.5162215178
 40
1.0
 40
1.0
 40
1.0
 40
1.0
 10
139.3336786769
 20
152.7576321449
 30
0.0
 10
139.6314815098
 20
152.475810027
 30
0.0
 10
140.0940022734
 20
151.8088993304
 30
0.0
 10
140.3174094421
 20
151.0184263252
 30
0.0
 10
140.3174094421
 20
150.6341819491
 30
0.0
  0
SPLINE
  5
4E7
100
AcDbEntity
  8
0
100
AcDbSpline
 62
7
  6
CONTINUOUS
 70
0
 71
3
 72
9
 73
5
 74
0
 42
0.0000001
 43
0.0000001
 44
0.0000000001
 40
0.0
 40
0.0
 40
0.0
 40
0.0
 40
0.5507355488
 40
1.0
 40
1.0
 40
1.0
 40
1.0
 10
140.3174094421
 20
150.6341819491
 30
0.0
 10
140.3174094421
 20
150.4432012053
 30
0.0
 10
140.2711166245
 20
150.0883316752
 30
0.0
 10
140.0381226144
 20
149.7964837074
 30
0.0
 10
139.9031086929
 20
149.7187484817
 30
0.0
  0
SPLINE
  5
4E8
100
AcDbEntity
  8
0
100
AcDbSpline
 62
7
  6
CONTINUOUS
 70
0
 71
3
 72
9
 73
5
 74
0
 42
0.0000001
 43
0.0000001
 44
0.0000000001
 40
0.0
 40
0.0
 40
0.0
 40
0.0
 40
0.2563867157
 40
1.0
 40
1.0
 40
1.0
 40
1.0
 10
153.838060337
 20
146.1851093709
 30
0.0
 10
154.101029167
 20
146.2086007858
 30
0.0
 10
155.1225995533
 20
146.3396740567
 30
0.0
 10
156.1242831283
 20
146.6375758753
 30
0.0
 10
156.8220710923
 20
146.9529346842
 30
0.0
  0
SPLINE
  5
4E9
100
AcDbEntity
  8
0
100
AcDbSpline
 62
7
  6
CONTINUOUS
 70
0
 71
3
 72
9
 73
5
 74
0
 42
0.0000001
 43
0.0000001
 44
0.0000000001
 40
0.0
 40
0.0
 40
0.0
 40
0.0
 40
0.2546362996
 40
1.0
 40
1.0
 40
1.0
 40
1.0
 10
145.5389736785
 20
253.8662642959
 30
0.0
 10
145.5241476007
 20
253.8241262831
 30
0.0
 10
145.4724945907
 20
253.6564163888
 30
0.0
 10
145.4491066515
 20
253.4799044861
 30
0.0
 10
145.449104268
 20
253.3491472909
 30
0.0
  0
SPLINE
  5
4EA
100
AcDbEntity
  8
0
100
AcDbSpline
 62
7
  6
CONTINUOUS
 70
0
 71
3
 72
9
 73
5
 74
0
 42
0.0000001
 43
0.0000001
 44
0.0000000001
 40
0.0
 40
0.0
 40
0.0
 40
0.0
 40
0.2583391257
 40
1.0
 40
1.0
 40
1.0
 40
1.0
 10
186.4004302187
 20
253.0319031819
 30
0.0
 10
186.4004302187
 20
252.9965587172
 30
0.0
 10
186.3978118887
 20
252.8597688831
 30
0.0
 10
186.3845123433
 20
252.7230918184
 30
0.0
 10
186.3676324922
 20
252.6230359297
 30
0.0
  0
SPLINE
  5
4EB
100
AcDbEntity
  8
0
100
AcDbSpline
 62
7
  6
CONTINUOUS
 70
0
 71
3
 72
9
 73
5
 74
0
 42
0.0000001
 43
0.0000001
 44
0.0000000001
 40
0.0
 40
0.0
 40
0.0
 40
0.0
 40
0.5444922204
 40
1.0
 40
1.0
 40
1.0
 40
1.0
 10
115.689457704
 20
293.8559786339
 30
0.0
 10
115.689457704
 20
293.615899602
 30
0.0
 10
115.6370506501
 20
293.1701904085
 30
0.0
 10
115.409553191
 20
292.770033542
 30
0.0
 10
115.2647694685
 20
292.6308362323
 30
0.0
  0
SPLINE
  5
4EC
100
AcDbEntity
  8
0
100
AcDbSpline
 62
7
  6
CONTINUOUS
 70
0
 71
3
 72
9
 73
5
 74
0
 42
0.0000001
 43
0.0000001
 44
0.0000000001
 40
0.0
 40
0.0
 40
0.0
 40
0.0
 40
0.2635290892
 40
1.0
 40
1.0
 40
1.0
 40
1.0
 10
177.3025303268
 20
244.4924528119
 30
0.0
 10
177.3854185249
 20
244.4630325485
 30
0.0
 10
177.7032594828
 20
244.3614180154
 30
0.0
 10
178.0357831633
 20
244.3019753949
 30
0.0
 10
178.2813535343
 20
244.2913068884
 30
0.0
  0
SPLINE
  5
4ED
100
AcDbEntity
  8
0
100
AcDbSpline
 62
7
  6
CONTINUOUS
 70
0
 71
3
 72
9
 73
5
 74
0
 42
0.0000001
 43
0.0000001
 44
0.0000000001
 40
0.0
 40
0.0
 40
0.0
 40
0.0
 40
0.2622878507
 40
1.0
 40
1.0
 40
1.0
 40
1.0
 10
178.3420855
 20
244.2893478753
 30
0.0
 10
178.4470247354
 20
244.2871449297
 30
0.0
 10
178.8469838242
 20
244.301498048
 30
0.0
 10
179.2452737146
 20
244.4221795482
 30
0.0
 10
179.500881431
 20
244.5698892657
 30
0.0
  0
SPLINE
  5
4EE
100
AcDbEntity
  8
0
100
AcDbSpline
 62
7
  6
CONTINUOUS
 70
0
 71
3
 72
9
 73
5
 74
0
 42
0.0000001
 43
0.0000001
 44
0.0000000001
 40
0.0
 40
0.0
 40
0.0
 40
0.0
 40
0.2635290892
 40
1.0
 40
1.0
 40
1.0
 40
1.0
 10
177.3025303268
 20
40.3668485295
 30
0.0
 10
177.3854185249
 20
40.3374282661
 30
0.0
 10
177.7032594828
 20
40.235813733
 30
0.0
 10
178.0357831633
 20
40.1763711125
 30
0.0
 10
178.2813535343
 20
40.165702606
 30
0.0
  0
SPLINE
  5
4EF
100
AcDbEntity
  8
0
100
AcDbSpline
 62
7
  6
CONTINUOUS
 70
0
 71
3
 72
9
 73
5
 74
0
 42
0.0000001
 43
0.0000001
 44
0.0000000001
 40
0.0
 40
0.0
 40
0.0
 40
0.0
 40
0.2622878507
 40
1.0
 40
1.0
 40
1.0
 40
1.0
 10
178.3420855
 20
40.1637435929
 30
0.0
 10
178.4470247354
 20
40.1615406474
 30
0.0
 10
178.8469838242
 20
40.1758937656
 30
0.0
 10
179.2452737146
 20
40.2965752658
 30
0.0
 10
179.500881431
 20
40.4442849833
 30
0.0
  0
SPLINE
  5
4F0
100
AcDbEntity
  8
0
100
AcDbSpline
 62
7
  6
CONTINUOUS
 70
0
 71
3
 72
9
 73
5
 74
0
 42
0.0000001
 43
0.0000001
 44
0.0000000001
 40
0.0
 40
0.0
 40
0.0
 40
0.0
 40
0.2575544297
 40
1.0
 40
1.0
 40
1.0
 40
1.0
 10
108.1633000335
 20
239.4049446584
 30
0.0
 10
108.2028104188
 20
239.4154104536
 30
0.0
 10
108.3554366246
 20
239.4588858054
 30
0.0
 10
108.5048807274
 20
239.5138970938
 30
0.0
 10
108.6124420087
 20
239.5619904493
 30
0.0
  0
SPLINE
  5
4F1
100
AcDbEntity
  8
0
100
AcDbSpline
 62
7
  6
CONTINUOUS
 70
0
 71
3
 72
11
 73
7
 74
0
 42
0.0000001
 43
0.0000001
 44
0.0000000001
 40
0.0
 40
0.0
 40
0.0
 40
0.0
 40
0.2162281072
 40
0.4533157859
 40
0.7180833398
 40
1.0
 40
1.0
 40
1.0
 40
1.0
 10
148.0848854446
 20
214.1695272255
 30
0.0
 10
148.0333806734
 20
214.1285989555
 30
0.0
 10
147.8995737776
 20
214.0726387476
 30
0.0
 10
147.6754951176
 20
214.0911961034
 30
0.0
 10
147.4575232452
 20
214.1976195588
 30
0.0
 10
147.3333802571
 20
214.3122126099
 30
0.0
 10
147.2792800297
 20
214.3787708394
 30
0.0
  0
SPLINE
  5
4F2
100
AcDbEntity
  8
0
100
AcDbSpline
 62
7
  6
CONTINUOUS
 70
0
 71
3
 72
11
 73
7
 74
0
 42
0.0000001
 43
0.0000001
 44
0.0000000001
 40
0.0
 40
0.0
 40
0.0
 40
0.0
 40
0.2177187713
 40
0.4508507558
 40
0.7103871571
 40
1.0
 40
1.0
 40
1.0
 40
1.0
 10
169.8472209
 20
250.3130940837
 30
0.0
 10
169.682318435
 20
250.2179435931
 30
0.0
 10
169.3035066399
 20
250.0802572696
 30
0.0
 10
168.6739548197
 20
250.0643816885
 30
0.0
 10
168.0031335245
 20
250.2265286136
 30
0.0
 10
167.5665848047
 20
250.4340431777
 30
0.0
 10
167.3472600327
 20
250.5606675473
 30
0.0
  0
SPLINE
  5
4F3
100
AcDbEntity
  8
0
100
AcDbSpline
 62
7
  6
CONTINUOUS
 70
0
 71
3
 72
9
 73
5
 74
0
 42
0.0000001
 43
0.0000001
 44
0.0000000001
 40
0.0
 40
0.0
 40
0.0
 40
0.0
 40
0.2434873788
 40
1.0
 40
1.0
 40
1.0
 40
1.0
 10
145.2435915115
 20
255.3974212052
 30
0.0
 10
145.2486349783
 20
255.4438302432
 30
0.0
 10
145.2792885242
 20
255.6333155612
 30
0.0
 10
145.3495060573
 20
255.8156107423
 30
0.0
 10
145.4186333625
 20
255.9431191925
 30
0.0
  0
SPLINE
  5
4F4
100
AcDbEntity
  8
0
100
AcDbSpline
 62
7
  6
CONTINUOUS
 70
0
 71
3
 72
9
 73
5
 74
0
 42
0.0000001
 43
0.0000001
 44
0.0000000001
 40
0.0
 40
0.0
 40
0.0
 40
0.0
 40
0.2421047474
 40
1.0
 40
1.0
 40
1.0
 40
1.0
 10
145.4186333625
 20
255.9431191925
 30
0.0
 10
145.4351268808
 20
255.9735422351
 30
0.0
 10
145.5070862894
 20
256.0971116883
 30
0.0
 10
145.5936129422
 20
256.2119856539
 30
0.0
 10
145.6649245153
 20
256.2935376609
 30
0.0
  0
SPLINE
  5
4F5
100
AcDbEntity
  8
0
100
AcDbSpline
 62
7
  6
CONTINUOUS
 70
0
 71
3
 72
9
 73
5
 74
0
 42
0.0000001
 43
0.0000001
 44
0.0000000001
 40
0.0
 40
0.0
 40
0.0
 40
0.0
 40
0.4999979305
 40
1.0
 40
1.0
 40
1.0
 40
1.0
 10
135.6337719066
 20
257.605860998
 30
0.0
 10
135.7387129151
 20
257.6664483558
 30
0.0
 10
135.9873230986
 20
257.7144265863
 30
0.0
 10
136.2359335945
 20
257.6664492068
 30
0.0
 10
136.3408756336
 20
257.6058616278
 30
0.0
  0
SPLINE
  5
4F6
100
AcDbEntity
  8
0
100
AcDbSpline
 62
7
  6
CONTINUOUS
 70
0
 71
3
 72
9
 73
5
 74
0
 42
0.0000001
 43
0.0000001
 44
0.0000000001
 40
0.0
 40
0.0
 40
0.0
 40
0.0
 40
0.4999998778
 40
1.0
 40
1.0
 40
1.0
 40
1.0
 10
124.740289702
 20
292.3042554229
 30
0.0
 10
124.5723859475
 20
292.401194485
 30
0.0
 10
124.1746029788
 20
292.4778586693
 30
0.0
 10
123.7768200004
 20
292.4011948717
 30
0.0
 10
123.6089160066
 20
292.3042560343
 30
0.0
  0
SPLINE
  5
4F7
100
AcDbEntity
  8
0
100
AcDbSpline
 62
7
  6
CONTINUOUS
 70
0
 71
3
 72
9
 73
5
 74
0
 42
0.0000001
 43
0.0000001
 44
0.0000000001
 40
0.0
 40
0.0
 40
0.0
 40
0.0
 40
0.246158825
 40
1.0
 40
1.0
 40
1.0
 40
1.0
 10
173.3438029343
 20
253.6011539007
 30
0.0
 10
173.394002475
 20
253.630142969
 30
0.0
 10
173.6040525239
 20
253.7372034266
 30
0.0
 10
173.8368349013
 20
253.7977564681
 30
0.0
 10
174.0132148506
 20
253.8178791762
 30
0.0
  0
SPLINE
  5
4F8
100
AcDbEntity
  8
0
100
AcDbSpline
 62
7
  6
CONTINUOUS
 70
0
 71
3
 72
12
 73
8
 74
0
 42
0.0000001
 43
0.0000001
 44
0.0000000001
 40
0.0
 40
0.0
 40
0.0
 40
0.0
 40
0.1987599473
 40
0.3222050323
 40
0.457663635
 40
0.7410726542
 40
1.0
 40
1.0
 40
1.0
 40
1.0
 10
174.0132148506
 20
253.8178791762
 30
0.0
 10
174.6067796857
 20
253.8855973721
 30
0.0
 10
175.6027790106
 20
253.5517538724
 30
0.0
 10
176.7047658578
 20
252.7375590894
 30
0.0
 10
177.8343238554
 20
251.5468405906
 30
0.0
 10
178.87037805
 20
249.7631023516
 30
0.0
 10
179.2588128327
 20
248.1355121278
 30
0.0
 10
179.2588128327
 20
247.3572509932
 30
0.0
  0
SPLINE
  5
4F9
100
AcDbEntity
  8
0
100
AcDbSpline
 62
7
  6
CONTINUOUS
 70
0
 71
3
 72
9
 73
5
 74
0
 42
0.0000001
 43
0.0000001
 44
0.0000000001
 40
0.0
 40
0.0
 40
0.0
 40
0.0
 40
0.220658697
 40
1.0
 40
1.0
 40
1.0
 40
1.0
 10
154.5193782393
 20
387.9983809346
 30
0.0
 10
154.5094947007
 20
388.0040833648
 30
0.0
 10
154.459750536
 20
388.0220129251
 30
0.0
 10
154.4042565698
 20
388.003629983
 30
0.0
 10
154.3693548499
 20
387.9834795859
 30
0.0
  0
SPLINE
  5
4FA
100
AcDbEntity
  8
0
100
AcDbSpline
 62
7
  6
CONTINUOUS
 70
0
 71
3
 72
9
 73
5
 74
0
 42
0.0000001
 43
0.0000001
 44
0.0000000001
 40
0.0
 40
0.0
 40
0.0
 40
0.0
 40
0.2453479082
 40
1.0
 40
1.0
 40
1.0
 40
1.0
 10
151.8179153713
 20
252.4847295862
 30
0.0
 10
151.5552134958
 20
252.4155039751
 30
0.0
 10
150.4678888917
 20
252.2006087383
 30
0.0
 10
149.3329652075
 20
252.2264244361
 30
0.0
 10
148.5127116165
 20
252.3859075481
 30
0.0
  0
SPLINE
  5
4FB
100
AcDbEntity
  8
0
100
AcDbSpline
 62
7
  6
CONTINUOUS
 70
0
 71
3
 72
9
 73
5
 74
0
 42
0.0000001
 43
0.0000001
 44
0.0000000001
 40
0.0
 40
0.0
 40
0.0
 40
0.0
 40
0.7231601277
 40
1.0
 40
1.0
 40
1.0
 40
1.0
 10
148.0752192532
 20
380.4171228741
 30
0.0
 10
148.0825182406
 20
380.378320305
 30
0.0
 10
148.1146044636
 20
380.3280099895
 30
0.0
 10
148.1582606842
 20
380.2954759349
 30
0.0
 10
148.1708794874
 20
380.2871557149
 30
0.0
  0
SPLINE
  5
4FC
100
AcDbEntity
  8
0
100
AcDbSpline
 62
7
  6
CONTINUOUS
 70
0
 71
3
 72
8
 73
4
 74
0
 42
0.0000001
 43
0.0000001
 44
0.0000000001
 40
0.0
 40
0.0
 40
0.0
 40
0.0
 40
1.0
 40
1.0
 40
1.0
 40
1.0
 10
178.298295271
 20
245.0303975108
 30
0.0
 10
178.4214940546
 20
245.1020371159
 30
0.0
 10
178.5362392992
 20
245.1902964008
 30
0.0
 10
178.6377478091
 20
245.2903273746
 30
0.0
  0
SPLINE
  5
4FD
100
AcDbEntity
  8
0
100
AcDbSpline
 62
7
  6
CONTINUOUS
 70
0
 71
3
 72
9
 73
5
 74
0
 42
0.0000001
 43
0.0000001
 44
0.0000000001
 40
0.0
 40
0.0
 40
0.0
 40
0.0
 40
0.455848626
 40
1.0
 40
1.0
 40
1.0
 40
1.0
 10
178.6377478091
 20
245.2903273746
 30
0.0
 10
178.8739807954
 20
245.5231218045
 30
0.0
 10
179.243702542
 20
246.185442598
 30
0.0
 10
179.3294050976
 20
246.9205877212
 30
0.0
 10
179.3294050976
 20
247.316495452
 30
0.0
  0
SPLINE
  5
4FE
100
AcDbEntity
  8
0
100
AcDbSpline
 62
7
  6
CONTINUOUS
 70
0
 71
3
 72
10
 73
6
 74
0
 42
0.0000001
 43
0.0000001
 44
0.0000000001
 40
0.0
 40
0.0
 40
0.0
 40
0.0
 40
0.5164447404
 40
0.7699434759
 40
1.0
 40
1.0
 40
1.0
 40
1.0
 10
151.843655875
 20
253.2379980279
 30
0.0
 10
150.9783800055
 20
253.0060529062
 30
0.0
 10
149.6070652263
 20
252.9141247034
 30
0.0
 10
147.8982246856
 20
253.2381650689
 30
0.0
 10
147.112546717
 20
253.5579126123
 30
0.0
 10
146.7669524425
 20
253.7574370458
 30
0.0
  0
SPLINE
  5
4FF
100
AcDbEntity
  8
0
100
AcDbSpline
 62
7
  6
CONTINUOUS
 70
0
 71
3
 72
10
 73
6
 74
0
 42
0.0000001
 43
0.0000001
 44
0.0000000001
 40
0.0
 40
0.0
 40
0.0
 40
0.0
 40
0.5423758954
 40
0.7821648277
 40
1.0
 40
1.0
 40
1.0
 40
1.0
 10
145.0171596521
 20
212.6068139683
 30
0.0
 10
144.9137270528
 20
212.7340290805
 30
0.0
 10
144.8099188438
 20
212.9718408301
 30
0.0
 10
144.8570130044
 20
213.2780541864
 30
0.0
 10
144.9417493636
 20
213.3963071901
 30
0.0
 10
144.993304143
 20
213.4372751991
 30
0.0
  0
SPLINE
  5
500
100
AcDbEntity
  8
0
100
AcDbSpline
 62
7
  6
CONTINUOUS
 70
0
 71
3
 72
13
 73
9
 74
0
 42
0.0000001
 43
0.0000001
 44
0.0000000001
 40
0.0
 40
0.0
 40
0.0
 40
0.0
 40
0.0898385254
 40
0.1852372283
 40
0.2922885343
 40
0.4133456913
 40
0.6927647429
 40
1.0
 40
1.0
 40
1.0
 40
1.0
 10
147.9530401842
 20
379.8468711017
 30
0.0
 10
147.9437270256
 20
379.7635276822
 30
0.0
 10
147.9583747327
 20
379.5862636607
 30
0.0
 10
148.0799308104
 20
379.336491463
 30
0.0
 10
148.2885324033
 20
379.1133402507
 30
0.0
 10
148.6846214425
 20
378.8478428299
 30
0.0
 10
149.3239660396
 20
378.6404855737
 30
0.0
 10
149.8762755281
 20
378.6071251034
 30
0.0
 10
150.1625218612
 20
378.6248872358
 30
0.0
  0
SPLINE
  5
501
100
AcDbEntity
  8
0
100
AcDbSpline
 62
7
  6
CONTINUOUS
 70
0
 71
3
 72
9
 73
5
 74
0
 42
0.0000001
 43
0.0000001
 44
0.0000000001
 40
0.0
 40
0.0
 40
0.0
 40
0.0
 40
0.2648158381
 40
1.0
 40
1.0
 40
1.0
 40
1.0
 10
150.6807728146
 20
378.6983545317
 30
0.0
 10
150.7436912515
 20
378.7126683486
 30
0.0
 10
150.9792996321
 20
378.7745019354
 30
0.0
 10
151.2080050052
 20
378.8668925854
 30
0.0
 10
151.3631432064
 20
378.956461133
 30
0.0
  0
SPLINE
  5
502
100
AcDbEntity
  8
0
100
AcDbSpline
 62
7
  6
CONTINUOUS
 70
0
 71
3
 72
13
 73
9
 74
0
 42
0.0000001
 43
0.0000001
 44
0.0000000001
 40
0.0
 40
0.0
 40
0.0
 40
0.0
 40
0.2888749949
 40
0.5754677768
 40
0.7034778312
 40
0.8158811454
 40
0.9129614472
 40
1.0
 40
1.0
 40
1.0
 40
1.0
 10
150.8981494445
 20
254.9865953732
 30
0.0
 10
150.5790889526
 20
254.8870290939
 30
0.0
 10
149.9069733481
 20
254.801711484
 30
0.0
 10
149.08878741
 20
254.9254364401
 30
0.0
 10
148.5272843617
 20
255.1725986951
 30
0.0
 10
148.2100764006
 20
255.407262754
 30
0.0
 10
148.0003868819
 20
255.6870941063
 30
0.0
 10
147.9488549371
 20
255.9020803029
 30
0.0
 10
147.9488581546
 20
256.0027859091
 30
0.0
  0
SPLINE
  5
503
100
AcDbEntity
  8
0
100
AcDbSpline
 62
7
  6
CONTINUOUS
 70
0
 71
3
 72
10
 73
6
 74
0
 42
0.0000001
 43
0.0000001
 44
0.0000000001
 40
0.0
 40
0.0
 40
0.0
 40
0.0
 40
0.2309956192
 40
0.4859164448
 40
1.0
 40
1.0
 40
1.0
 40
1.0
 10
147.1204983011
 20
254.3698039924
 30
0.0
 10
147.4434364444
 20
254.1833597864
 30
0.0
 10
148.180927913
 20
253.8888938811
 30
0.0
 10
149.7751051477
 20
253.6094649461
 30
0.0
 10
151.0520709129
 20
253.7227028529
 30
0.0
 10
151.8444945046
 20
253.9692157378
 30
0.0
  0
SPLINE
  5
504
100
AcDbEntity
  8
0
100
AcDbSpline
 62
7
  6
CONTINUOUS
 70
0
 71
3
 72
9
 73
5
 74
0
 42
0.0000001
 43
0.0000001
 44
0.0000000001
 40
0.0
 40
0.0
 40
0.0
 40
0.0
 40
0.4492359235
 40
1.0
 40
1.0
 40
1.0
 40
1.0
 10
151.9488925894
 20
314.4527402256
 30
0.0
 10
151.9489469938
 20
314.2969594625
 30
0.0
 10
151.8126581889
 20
313.9493635614
 30
0.0
 10
151.5285434943
 20
313.7317501249
 30
0.0
 10
151.3631432064
 20
313.6362567941
 30
0.0
  0
SPLINE
  5
505
100
AcDbEntity
  8
0
100
AcDbSpline
 62
7
  6
CONTINUOUS
 70
0
 71
3
 72
9
 73
5
 74
0
 42
0.0000001
 43
0.0000001
 44
0.0000000001
 40
0.0
 40
0.0
 40
0.0
 40
0.0
 40
0.2773832416
 40
1.0
 40
1.0
 40
1.0
 40
1.0
 10
146.7375612113
 20
257.3794068887
 30
0.0
 10
146.6450562453
 20
257.3074518655
 30
0.0
 10
146.3273003061
 20
257.0307386815
 30
0.0
 10
146.078810985
 20
256.6585018014
 30
0.0
 10
145.9981548094
 20
256.3640409737
 30
0.0
  0
SPLINE
  5
506
100
AcDbEntity
  8
0
100
AcDbSpline
 62
7
  6
CONTINUOUS
 70
0
 71
3
 72
9
 73
5
 74
0
 42
0.0000001
 43
0.0000001
 44
0.0000000001
 40
0.0
 40
0.0
 40
0.0
 40
0.0
 40
0.4955883397
 40
1.0
 40
1.0
 40
1.0
 40
1.0
 10
145.9981548094
 20
256.3640409737
 30
0.0
 10
145.9568845825
 20
256.2133709835
 30
0.0
 10
145.9246732732
 20
255.8923063526
 30
0.0
 10
146.0075673364
 20
255.5810142413
 30
0.0
 10
146.0714899827
 20
255.4354281945
 30
0.0
  0
SPLINE
  5
507
100
AcDbEntity
  8
0
100
AcDbSpline
 62
7
  6
CONTINUOUS
 70
0
 71
3
 72
9
 73
5
 74
0
 42
0.0000001
 43
0.0000001
 44
0.0000000001
 40
0.0
 40
0.0
 40
0.0
 40
0.0
 40
0.2396301862
 40
1.0
 40
1.0
 40
1.0
 40
1.0
 10
146.0714899827
 20
255.4354281945
 30
0.0
 10
146.090038706
 20
255.3931828332
 30
0.0
 10
146.1751348398
 20
255.2202846186
 30
0.0
 10
146.2892790241
 20
255.062375867
 30
0.0
 10
146.3863057869
 20
254.9527447759
 30
0.0
  0
SPLINE
  5
508
100
AcDbEntity
  8
0
100
AcDbSpline
 62
7
  6
CONTINUOUS
 70
0
 71
3
 72
9
 73
5
 74
0
 42
0.0000001
 43
0.0000001
 44
0.0000000001
 40
0.0
 40
0.0
 40
0.0
 40
0.0
 40
0.2424459001
 40
1.0
 40
1.0
 40
1.0
 40
1.0
 10
146.3863057869
 20
254.9527447759
 30
0.0
 10
146.408103584
 20
254.928115321
 30
0.0
 10
146.5002643632
 20
254.8285303046
 30
0.0
 10
146.6008607537
 20
254.7368687402
 30
0.0
 10
146.6803880301
 20
254.6717770734
 30
0.0
  0
SPLINE
  5
509
100
AcDbEntity
  8
0
100
AcDbSpline
 62
7
  6
CONTINUOUS
 70
0
 71
3
 72
9
 73
5
 74
0
 42
0.0000001
 43
0.0000001
 44
0.0000000001
 40
0.0
 40
0.0
 40
0.0
 40
0.0
 40
0.241904417
 40
1.0
 40
1.0
 40
1.0
 40
1.0
 10
146.6803880301
 20
254.6717770734
 30
0.0
 10
146.7137139845
 20
254.6445003702
 30
0.0
 10
146.8539948425
 20
254.5348309926
 30
0.0
 10
147.0036176004
 20
254.4372835698
 30
0.0
 10
147.1204983011
 20
254.3698039924
 30
0.0
  0
SPLINE
  5
50A
100
AcDbEntity
  8
0
100
AcDbSpline
 62
7
  6
CONTINUOUS
 70
0
 71
3
 72
15
 73
11
 74
0
 42
0.0000001
 43
0.0000001
 44
0.0000000001
 40
0.0
 40
0.0
 40
0.0
 40
0.0
 40
0.0869472959
 40
0.186470978
 40
0.3039061374
 40
0.4377289809
 40
0.5822072921
 40
0.7294751244
 40
0.8712123341
 40
1.0
 40
1.0
 40
1.0
 40
1.0
 10
174.0069283444
 20
254.0962834234
 30
0.0
 10
174.2569110836
 20
254.2395698288
 30
0.0
 10
174.8843125704
 20
254.3989030357
 30
0.0
 10
175.8931282053
 20
254.1949462571
 30
0.0
 10
176.9235721416
 20
253.630742231
 30
0.0
 10
177.9114670318
 20
252.7548647722
 30
0.0
 10
178.7833565448
 20
251.6376059489
 30
0.0
 10
179.4700100484
 20
250.3679522534
 30
0.0
 10
179.9152706728
 20
249.0500882634
 30
0.0
 10
180.0346801388
 20
248.1525824881
 30
0.0
 10
180.0346801388
 20
247.7257910092
 30
0.0
  0
SPLINE
  5
50B
100
AcDbEntity
  8
0
100
AcDbSpline
 62
7
  6
CONTINUOUS
 70
0
 71
3
 72
11
 73
7
 74
0
 42
0.0000001
 43
0.0000001
 44
0.0000000001
 40
0.0
 40
0.0
 40
0.0
 40
0.0
 40
0.2177660095
 40
0.4508968553
 40
0.7103699668
 40
1.0
 40
1.0
 40
1.0
 40
1.0
 10
179.500881431
 20
244.5698892657
 30
0.0
 10
179.6987391401
 20
244.6842266055
 30
0.0
 10
180.0692381131
 20
244.9952312461
 30
0.0
 10
180.4634124469
 20
245.6400164087
 30
0.0
 10
180.697416696
 20
246.4344013284
 30
0.0
 10
180.7436162576
 20
247.0125649162
 30
0.0
 10
180.7436162576
 20
247.3164958097
 30
0.0
  0
SPLINE
  5
50C
100
AcDbEntity
  8
0
100
AcDbSpline
 62
7
  6
CONTINUOUS
 70
0
 71
3
 72
9
 73
5
 74
0
 42
0.0000001
 43
0.0000001
 44
0.0000000001
 40
0.0
 40
0.0
 40
0.0
 40
0.0
 40
0.293909939
 40
1.0
 40
1.0
 40
1.0
 40
1.0
 10
149.4231448043
 20
391.6393796483
 30
0.0
 10
149.4013307066
 20
391.6267853482
 30
0.0
 10
149.3251757219
 20
391.5896591622
 30
0.0
 10
149.2255324472
 20
391.5843195705
 30
0.0
 10
149.1731259641
 20
391.6145757475
 30
0.0
  0
SPLINE
  5
50D
100
AcDbEntity
  8
0
100
AcDbSpline
 62
7
  6
CONTINUOUS
 70
0
 71
3
 72
15
 73
11
 74
0
 42
0.0000001
 43
0.0000001
 44
0.0000000001
 40
0.0
 40
0.0
 40
0.0
 40
0.0
 40
0.0869302739
 40
0.1864000407
 40
0.3037880384
 40
0.4376004407
 40
0.5820992772
 40
0.7294176353
 40
0.8711704087
 40
1.0
 40
1.0
 40
1.0
 40
1.0
 10
174.2081275441
 20
255.3702492614
 30
0.0
 10
174.5077538435
 20
255.5433980863
 30
0.0
 10
175.2608006864
 20
255.7367697472
 30
0.0
 10
176.4727253869
 20
255.4941027102
 30
0.0
 10
177.7109327655
 20
254.8177826495
 30
0.0
 10
178.8982165214
 20
253.7664688142
 30
0.0
 10
179.9464109531
 20
252.4246563627
 30
0.0
 10
180.771739634
 20
250.899329439
 30
0.0
 10
181.3072252349
 20
249.3159780516
 30
0.0
 10
181.450717802
 20
248.2375929504
 30
0.0
 10
181.450717802
 20
247.7247386398
 30
0.0
  0
SPLINE
  5
50E
100
AcDbEntity
  8
0
100
AcDbSpline
 62
7
  6
CONTINUOUS
 70
0
 71
3
 72
9
 73
5
 74
0
 42
0.0000001
 43
0.0000001
 44
0.0000000001
 40
0.0
 40
0.0
 40
0.0
 40
0.0
 40
0.2446788436
 40
1.0
 40
1.0
 40
1.0
 40
1.0
 10
145.4491197125
 20
314.0444765469
 30
0.0
 10
145.4491202449
 20
313.9810174977
 30
0.0
 10
145.4652555721
 20
313.7216887774
 30
0.0
 10
145.5496782589
 20
313.4684403096
 30
0.0
 10
145.6403335138
 20
313.2947813417
 30
0.0
  0
SPLINE
  5
50F
100
AcDbEntity
  8
0
100
AcDbSpline
 62
7
  6
CONTINUOUS
 70
0
 71
3
 72
9
 73
5
 74
0
 42
0.0000001
 43
0.0000001
 44
0.0000000001
 40
0.0
 40
0.0
 40
0.0
 40
0.0
 40
0.2332502025
 40
1.0
 40
1.0
 40
1.0
 40
1.0
 10
145.6403335138
 20
313.2947813417
 30
0.0
 10
145.6772623851
 20
313.224040493
 30
0.0
 10
145.8547540669
 20
312.9307130258
 30
0.0
 10
146.1009154483
 20
312.6828241647
 30
0.0
 10
146.3061227257
 20
312.5194154311
 30
0.0
  0
SPLINE
  5
510
100
AcDbEntity
  8
0
100
AcDbSpline
 62
7
  6
CONTINUOUS
 70
0
 71
3
 72
9
 73
5
 74
0
 42
0.0000001
 43
0.0000001
 44
0.0000000001
 40
0.0
 40
0.0
 40
0.0
 40
0.0
 40
0.2425671633
 40
1.0
 40
1.0
 40
1.0
 40
1.0
 10
146.3061227257
 20
312.5194154311
 30
0.0
 10
146.3413422941
 20
312.4913697149
 30
0.0
 10
146.4888825465
 20
312.3787085899
 30
0.0
 10
146.6451961048
 20
312.2776772346
 30
0.0
 10
146.7669463825
 20
312.2073862692
 30
0.0
  0
SPLINE
  5
511
100
AcDbEntity
  8
0
100
AcDbSpline
 62
7
  6
CONTINUOUS
 70
0
 71
3
 72
15
 73
11
 74
0
 42
0.0000001
 43
0.0000001
 44
0.0000000001
 40
0.0
 40
0.0
 40
0.0
 40
0.0
 40
0.0869274401
 40
0.1863924176
 40
0.3037799021
 40
0.4375872817
 40
0.58208286
 40
0.7293903551
 40
0.8711738772
 40
1.0
 40
1.0
 40
1.0
 40
1.0
 10
168.0310113931
 20
187.4399508146
 30
0.0
 10
168.2307925208
 20
187.5552986988
 30
0.0
 10
168.7327068834
 20
187.6843582586
 30
0.0
 10
169.5406393302
 20
187.5225143152
 30
0.0
 10
170.3660484145
 20
187.0717048656
 30
0.0
 10
171.1575635351
 20
186.3708969976
 30
0.0
 10
171.856266382
 20
185.4764100822
 30
0.0
 10
172.4066061893
 20
184.459586188
 30
0.0
 10
172.7635124508
 20
183.4039853967
 30
0.0
 10
172.859241402
 20
182.6850287312
 30
0.0
 10
172.859241402
 20
182.3431478421
 30
0.0
  0
SPLINE
  5
512
100
AcDbEntity
  8
0
100
AcDbSpline
 62
7
  6
CONTINUOUS
 70
0
 71
3
 72
9
 73
5
 74
0
 42
0.0000001
 43
0.0000001
 44
0.0000000001
 40
0.0
 40
0.0
 40
0.0
 40
0.0
 40
0.237831928
 40
1.0
 40
1.0
 40
1.0
 40
1.0
 10
152.5320941652
 20
310.9185787239
 30
0.0
 10
152.4993757336
 20
310.886628015
 30
0.0
 10
152.3569202939
 20
310.7573106966
 30
0.0
 10
152.1971832953
 20
310.6476501305
 30
0.0
 10
152.0702649013
 20
310.574374199
 30
0.0
  0
SPLINE
  5
513
100
AcDbEntity
  8
0
100
AcDbSpline
 62
7
  6
CONTINUOUS
 70
0
 71
3
 72
11
 73
7
 74
0
 42
0.0000001
 43
0.0000001
 44
0.0000000001
 40
0.0
 40
0.0
 40
0.0
 40
0.0
 40
0.2895453772
 40
0.5491366158
 40
0.7822776227
 40
1.0
 40
1.0
 40
1.0
 40
1.0
 10
172.859241402
 20
182.3431478421
 30
0.0
 10
172.859241402
 20
182.1405934784
 30
0.0
 10
172.8283125648
 20
181.7551627871
 30
0.0
 10
172.6724996467
 20
181.2255064972
 30
0.0
 10
172.4096455407
 20
180.7956256946
 30
0.0
 10
172.1626346146
 20
180.5883482491
 30
0.0
 10
172.0307316011
 20
180.5121912382
 30
0.0
  0
SPLINE
  5
514
100
AcDbEntity
  8
0
100
AcDbSpline
 62
7
  6
CONTINUOUS
 70
0
 71
3
 72
11
 73
7
 74
0
 42
0.0000001
 43
0.0000001
 44
0.0000000001
 40
0.0
 40
0.0
 40
0.0
 40
0.0
 40
0.2895130093
 40
0.5490921552
 40
0.7822543301
 40
1.0
 40
1.0
 40
1.0
 40
1.0
 10
146.7669524425
 20
308.9413786059
 30
0.0
 10
146.5697860192
 20
309.0552101183
 30
0.0
 10
146.2119561462
 20
309.3018900379
 30
0.0
 10
145.7837948013
 20
309.751104357
 30
0.0
 10
145.5126330053
 20
310.2484015171
 30
0.0
 10
145.4493470259
 20
310.6053305817
 30
0.0
 10
145.4491295
 20
310.7765610182
 30
0.0
  0
SPLINE
  5
515
100
AcDbEntity
  8
0
100
AcDbSpline
 62
7
  6
CONTINUOUS
 70
0
 71
3
 72
9
 73
5
 74
0
 42
0.0000001
 43
0.0000001
 44
0.0000000001
 40
0.0
 40
0.0
 40
0.0
 40
0.0
 40
0.7443086602
 40
1.0
 40
1.0
 40
1.0
 40
1.0
 10
154.4487134979
 20
310.7784779797
 30
0.0
 10
154.4487135042
 20
310.6327437189
 30
0.0
 10
154.4194859811
 20
310.4354913628
 30
0.0
 10
154.3557425072
 20
310.250285981
 30
0.0
 10
154.3374305353
 20
310.2036912927
 30
0.0
  0
SPLINE
  5
516
100
AcDbEntity
  8
0
100
AcDbSpline
 62
7
  6
CONTINUOUS
 70
0
 71
3
 72
9
 73
5
 74
0
 42
0.0000001
 43
0.0000001
 44
0.0000000001
 40
0.0
 40
0.0
 40
0.0
 40
0.0
 40
0.2250421522
 40
1.0
 40
1.0
 40
1.0
 40
1.0
 10
154.3374305353
 20
310.2036912927
 30
0.0
 10
154.2928444951
 20
310.0902424162
 30
0.0
 10
154.0406860975
 20
309.6068016907
 30
0.0
 10
153.6094737795
 20
309.2376020055
 30
0.0
 10
153.2535501294
 20
309.0150754343
 30
0.0
  0
SPLINE
  5
517
100
AcDbEntity
  8
0
100
AcDbSpline
 62
7
  6
CONTINUOUS
 70
0
 71
3
 72
9
 73
5
 74
0
 42
0.0000001
 43
0.0000001
 44
0.0000000001
 40
0.0
 40
0.0
 40
0.0
 40
0.0
 40
0.2358091563
 40
1.0
 40
1.0
 40
1.0
 40
1.0
 10
150.4178692672
 20
378.9341716149
 30
0.0
 10
150.4424154507
 20
378.9238769083
 30
0.0
 10
150.5487200753
 20
378.8855869649
 30
0.0
 10
150.661401517
 20
378.8659771155
 30
0.0
 10
150.7474810589
 20
378.8603990034
 30
0.0
  0
SPLINE
  5
518
100
AcDbEntity
  8
0
100
AcDbSpline
 62
7
  6
CONTINUOUS
 70
0
 71
3
 72
8
 73
4
 74
0
 42
0.0000001
 43
0.0000001
 44
0.0000000001
 40
0.0
 40
0.0
 40
0.0
 40
0.0
 40
1.0
 40
1.0
 40
1.0
 40
1.0
 10
150.7474810589
 20
378.8603990034
 30
0.0
 10
150.8624487508
 20
378.8529488862
 30
0.0
 10
150.9801628697
 20
378.8620774107
 30
0.0
 10
151.0917857238
 20
378.8905978045
 30
0.0
  0
SPLINE
  5
519
100
AcDbEntity
  8
0
100
AcDbSpline
 62
7
  6
CONTINUOUS
 70
0
 71
3
 72
9
 73
5
 74
0
 42
0.0000001
 43
0.0000001
 44
0.0000000001
 40
0.0
 40
0.0
 40
0.0
 40
0.0
 40
0.2720132786
 40
1.0
 40
1.0
 40
1.0
 40
1.0
 10
151.0917857238
 20
378.8905978045
 30
0.0
 10
151.1176846079
 20
378.8972151444
 30
0.0
 10
151.2116262049
 20
378.9256072127
 30
0.0
 10
151.3021426261
 20
378.9698661267
 30
0.0
 10
151.3581516067
 20
379.014373667
 30
0.0
  0
SPLINE
  5
51A
100
AcDbEntity
  8
0
100
AcDbSpline
 62
7
  6
CONTINUOUS
 70
0
 71
3
 72
9
 73
5
 74
0
 42
0.0000001
 43
0.0000001
 44
0.0000000001
 40
0.0
 40
0.0
 40
0.0
 40
0.0
 40
0.2745186188
 40
1.0
 40
1.0
 40
1.0
 40
1.0
 10
152.6182986395
 20
386.262269451
 30
0.0
 10
152.6546363553
 20
386.2637395802
 30
0.0
 10
152.7860540011
 20
386.277132406
 30
0.0
 10
152.9176341831
 20
386.3249642796
 30
0.0
 10
152.992879218
 20
386.3847577518
 30
0.0
  0
SPLINE
  5
51B
100
AcDbEntity
  8
0
100
AcDbSpline
 62
7
  6
CONTINUOUS
 70
0
 71
3
 72
9
 73
5
 74
0
 42
0.0000001
 43
0.0000001
 44
0.0000000001
 40
0.0
 40
0.0
 40
0.0
 40
0.0
 40
0.4768551097
 40
1.0
 40
1.0
 40
1.0
 40
1.0
 10
145.449104268
 20
311.7991051383
 30
0.0
 10
145.449100534
 20
311.594252988
 30
0.0
 10
145.5416940363
 20
311.1613486343
 30
0.0
 10
145.7845488224
 20
310.7965560832
 30
0.0
 10
145.932564476
 20
310.6274453704
 30
0.0
  0
SPLINE
  5
51C
100
AcDbEntity
  8
0
100
AcDbSpline
 62
7
  6
CONTINUOUS
 70
0
 71
3
 72
11
 73
7
 74
0
 42
0.0000001
 43
0.0000001
 44
0.0000000001
 40
0.0
 40
0.0
 40
0.0
 40
0.0
 40
0.2153334363
 40
0.4765175765
 40
0.751071325
 40
1.0
 40
1.0
 40
1.0
 40
1.0
 10
145.932564476
 20
310.6274453704
 30
0.0
 10
146.294200172
 20
310.2142696768
 30
0.0
 10
147.3746373562
 20
309.5577031274
 30
0.0
 10
149.2633803531
 20
309.1429155162
 30
0.0
 10
151.2831055143
 20
309.2240226442
 30
0.0
 10
152.5812047984
 20
309.6446470315
 30
0.0
 10
153.1309158334
 20
309.9620209511
 30
0.0
  0
SPLINE
  5
51D
100
AcDbEntity
  8
0
100
AcDbSpline
 62
7
  6
CONTINUOUS
 70
0
 71
3
 72
11
 73
7
 74
0
 42
0.0000001
 43
0.0000001
 44
0.0000000001
 40
0.0
 40
0.0
 40
0.0
 40
0.0
 40
0.2162100332
 40
0.4533225272
 40
0.7181030364
 40
1.0
 40
1.0
 40
1.0
 40
1.0
 10
145.822765067
 20
212.3975703544
 30
0.0
 10
145.7712646084
 20
212.3566455114
 30
0.0
 10
145.6374634356
 20
212.3006575644
 30
0.0
 10
145.4133798374
 20
212.3192675023
 30
0.0
 10
145.1953886917
 20
212.425654449
 30
0.0
 10
145.0712651787
 20
212.5402677857
 30
0.0
 10
145.0171596521
 20
212.6068139683
 30
0.0
  0
SPLINE
  5
51E
100
AcDbEntity
  8
0
100
AcDbSpline
 62
7
  6
CONTINUOUS
 70
0
 71
3
 72
11
 73
7
 74
0
 42
0.0000001
 43
0.0000001
 44
0.0000000001
 40
0.0
 40
0.0
 40
0.0
 40
0.0
 40
0.237685072
 40
0.4991988551
 40
0.7611394527
 40
1.0
 40
1.0
 40
1.0
 40
1.0
 10
153.0510127812
 20
308.8964083313
 30
0.0
 10
152.608828747
 20
308.6536334716
 30
0.0
 10
151.5946244416
 20
308.2972805721
 30
0.0
 10
149.9774645246
 20
308.1225705378
 30
0.0
 10
148.3565639759
 20
308.2856846489
 30
0.0
 10
147.3363621242
 20
308.6342830587
 30
0.0
 10
146.8893423531
 20
308.8733705639
 30
0.0
  0
SPLINE
  5
51F
100
AcDbEntity
  8
0
100
AcDbSpline
 62
7
  6
CONTINUOUS
 70
0
 71
3
 72
11
 73
7
 74
0
 42
0.0000001
 43
0.0000001
 44
0.0000000001
 40
0.0
 40
0.0
 40
0.0
 40
0.0
 40
0.2895453772
 40
0.5491366158
 40
0.7822776227
 40
1.0
 40
1.0
 40
1.0
 40
1.0
 10
122.300896054
 20
153.1524389655
 30
0.0
 10
122.300896054
 20
152.9498846018
 30
0.0
 10
122.2699672168
 20
152.5644539105
 30
0.0
 10
122.1141542987
 20
152.0347976206
 30
0.0
 10
121.8513001927
 20
151.6049168181
 30
0.0
 10
121.6042892666
 20
151.3976393726
 30
0.0
 10
121.4723862531
 20
151.3214823616
 30
0.0
  0
SPLINE
  5
520
100
AcDbEntity
  8
0
100
AcDbSpline
 62
7
  6
CONTINUOUS
 70
0
 71
3
 72
9
 73
5
 74
0
 42
0.0000001
 43
0.0000001
 44
0.0000000001
 40
0.0
 40
0.0
 40
0.0
 40
0.0
 40
0.2655123733
 40
1.0
 40
1.0
 40
1.0
 40
1.0
 10
153.1309158334
 20
309.9620209511
 30
0.0
 10
153.2094391207
 20
310.0073561215
 30
0.0
 10
153.4993585167
 20
310.1875932185
 30
0.0
 10
153.7662899923
 20
310.4077519751
 30
0.0
 10
153.934949198
 20
310.5934025083
 30
0.0
  0
SPLINE
  5
521
100
AcDbEntity
  8
0
100
AcDbSpline
 62
7
  6
CONTINUOUS
 70
0
 71
3
 72
9
 73
5
 74
0
 42
0.0000001
 43
0.0000001
 44
0.0000000001
 40
0.0
 40
0.0
 40
0.0
 40
0.0
 40
0.2603636025
 40
1.0
 40
1.0
 40
1.0
 40
1.0
 10
153.934949198
 20
310.5934025083
 30
0.0
 10
153.967742303
 20
310.6294993072
 30
0.0
 10
154.0896703009
 20
310.771685214
 30
0.0
 10
154.1947119098
 20
310.928778659
 30
0.0
 10
154.258652702
 20
311.0516814782
 30
0.0
  0
SPLINE
  5
522
100
AcDbEntity
  8
0
100
AcDbSpline
 62
7
  6
CONTINUOUS
 70
0
 71
3
 72
9
 73
5
 74
0
 42
0.0000001
 43
0.0000001
 44
0.0000000001
 40
0.0
 40
0.0
 40
0.0
 40
0.0
 40
0.2594914251
 40
1.0
 40
1.0
 40
1.0
 40
1.0
 10
154.258652702
 20
311.0516814782
 30
0.0
 10
154.2896070667
 20
311.1111799387
 30
0.0
 10
154.3968984324
 20
311.3464088708
 30
0.0
 10
154.4487340235
 20
311.6077108957
 30
0.0
 10
154.4487375122
 20
311.7991049172
 30
0.0
  0
SPLINE
  5
523
100
AcDbEntity
  8
0
100
AcDbSpline
 62
7
  6
CONTINUOUS
 70
0
 71
3
 72
11
 73
7
 74
0
 42
0.0000001
 43
0.0000001
 44
0.0000000001
 40
0.0
 40
0.0
 40
0.0
 40
0.0
 40
0.2480972063
 40
0.5218391113
 40
0.7832302925
 40
1.0
 40
1.0
 40
1.0
 40
1.0
 10
152.0702649013
 20
310.574374199
 30
0.0
 10
151.7078396261
 20
310.3651291178
 30
0.0
 10
150.8527258033
 20
310.0860427438
 30
0.0
 10
149.5196029835
 20
310.0271682759
 30
0.0
 10
148.2671295724
 20
310.2933315637
 30
0.0
 10
147.5456604308
 20
310.7185204674
 30
0.0
 10
147.2984251289
 20
310.987915353
 30
0.0
  0
SPLINE
  5
524
100
AcDbEntity
  8
0
100
AcDbSpline
 62
7
  6
CONTINUOUS
 70
0
 71
3
 72
11
 73
7
 74
0
 42
0.0000001
 43
0.0000001
 44
0.0000000001
 40
0.0
 40
0.0
 40
0.0
 40
0.0
 40
0.2898001112
 40
0.5490507031
 40
0.782230163
 40
1.0
 40
1.0
 40
1.0
 40
1.0
 10
118.2350841301
 20
184.6897448826
 30
0.0
 10
118.2350841301
 20
186.5904661774
 30
0.0
 10
118.5221421817
 20
190.2039817744
 30
0.0
 10
119.9871759144
 20
195.1683346827
 30
0.0
 10
122.4497522841
 20
199.1971491556
 30
0.0
 10
124.7648470247
 20
201.1425650973
 30
0.0
 10
126.0018004704
 20
201.8566869275
 30
0.0
  0
SPLINE
  5
525
100
AcDbEntity
  8
0
100
AcDbSpline
 62
7
  6
CONTINUOUS
 70
0
 71
3
 72
9
 73
5
 74
0
 42
0.0000001
 43
0.0000001
 44
0.0000000001
 40
0.0
 40
0.0
 40
0.0
 40
0.0
 40
0.2392603793
 40
1.0
 40
1.0
 40
1.0
 40
1.0
 10
143.9503583345
 20
210.0961715429
 30
0.0
 10
143.9992050985
 20
210.0746204067
 30
0.0
 10
144.2124344694
 20
210.0064276443
 30
0.0
 10
144.4474147183
 20
210.009274441
 30
0.0
 10
144.6117156843
 20
210.0519587525
 30
0.0
  0
SPLINE
  5
526
100
AcDbEntity
  8
0
100
AcDbSpline
 62
7
  6
CONTINUOUS
 70
0
 71
3
 72
9
 73
5
 74
0
 42
0.0000001
 43
0.0000001
 44
0.0000000001
 40
0.0
 40
0.0
 40
0.0
 40
0.0
 40
0.2720248349
 40
1.0
 40
1.0
 40
1.0
 40
1.0
 10
144.6117156843
 20
210.0519587525
 30
0.0
 10
144.6377271883
 20
210.0587163704
 30
0.0
 10
144.7320751792
 20
210.087587157
 30
0.0
 10
144.8229236781
 20
210.1322845173
 30
0.0
 10
144.879231216
 20
210.1770293062
 30
0.0
  0
SPLINE
  5
527
100
AcDbEntity
  8
0
100
AcDbSpline
 62
7
  6
CONTINUOUS
 70
0
 71
3
 72
9
 73
5
 74
0
 42
0.0000001
 43
0.0000001
 44
0.0000000001
 40
0.0
 40
0.0
 40
0.0
 40
0.0
 40
0.2575014477
 40
1.0
 40
1.0
 40
1.0
 40
1.0
 10
153.1309218935
 20
312.2074015663
 30
0.0
 10
153.1723100724
 20
312.2312968999
 30
0.0
 10
153.3314235972
 20
312.3268429947
 30
0.0
 10
153.4839235151
 20
312.4335763666
 30
0.0
 10
153.5917237245
 20
312.5194191469
 30
0.0
  0
SPLINE
  5
528
100
AcDbEntity
  8
0
100
AcDbSpline
 62
7
  6
CONTINUOUS
 70
0
 71
3
 72
9
 73
5
 74
0
 42
0.0000001
 43
0.0000001
 44
0.0000000001
 40
0.0
 40
0.0
 40
0.0
 40
0.0
 40
0.2690023825
 40
1.0
 40
1.0
 40
1.0
 40
1.0
 10
153.5917237245
 20
312.5194191469
 30
0.0
 10
153.6636886243
 20
312.5767257804
 30
0.0
 10
153.9221112724
 20
312.8003226957
 30
0.0
 10
154.1418199342
 20
313.0731695196
 30
0.0
 10
154.257507532
 20
313.2947799352
 30
0.0
  0
SPLINE
  5
529
100
AcDbEntity
  8
0
100
AcDbSpline
 62
7
  6
CONTINUOUS
 70
0
 71
3
 72
9
 73
5
 74
0
 42
0.0000001
 43
0.0000001
 44
0.0000000001
 40
0.0
 40
0.0
 40
0.0
 40
0.0
 40
0.2595274337
 40
1.0
 40
1.0
 40
1.0
 40
1.0
 10
154.257507532
 20
313.2947799352
 30
0.0
 10
154.2886502761
 20
313.3544367745
 30
0.0
 10
154.396595581
 20
313.5902936937
 30
0.0
 10
154.4487204736
 20
313.8524692637
 30
0.0
 10
154.4487220677
 20
314.0444765469
 30
0.0
  0
SPLINE
  5
52A
100
AcDbEntity
  8
0
100
AcDbSpline
 62
7
  6
CONTINUOUS
 70
0
 71
3
 72
9
 73
5
 74
0
 42
0.0000001
 43
0.0000001
 44
0.0000000001
 40
0.0
 40
0.0
 40
0.0
 40
0.0
 40
0.7441821601
 40
1.0
 40
1.0
 40
1.0
 40
1.0
 10
145.4491295
 20
255.592619458
 30
0.0
 10
145.4493163454
 20
255.4455398718
 30
0.0
 10
145.4793613083
 20
255.2464511107
 30
0.0
 10
145.5444658162
 20
255.0597681011
 30
0.0
 10
145.5631628776
 20
255.0127925626
 30
0.0
  0
SPLINE
  5
52B
100
AcDbEntity
  8
0
100
AcDbSpline
 62
7
  6
CONTINUOUS
 70
0
 71
3
 72
9
 73
5
 74
0
 42
0.0000001
 43
0.0000001
 44
0.0000000001
 40
0.0
 40
0.0
 40
0.0
 40
0.0
 40
0.2344781685
 40
1.0
 40
1.0
 40
1.0
 40
1.0
 10
145.5631628776
 20
255.0127925626
 30
0.0
 10
145.5915674171
 20
254.9414274155
 30
0.0
 10
145.7329556002
 20
254.6450844433
 30
0.0
 10
145.9485590514
 20
254.3879800266
 30
0.0
 10
146.1328262292
 20
254.2178897256
 30
0.0
  0
SPLINE
  5
52C
100
AcDbEntity
  8
0
100
AcDbSpline
 62
7
  6
CONTINUOUS
 70
0
 71
3
 72
9
 73
5
 74
0
 42
0.0000001
 43
0.0000001
 44
0.0000000001
 40
0.0
 40
0.0
 40
0.0
 40
0.0
 40
0.2390197316
 40
1.0
 40
1.0
 40
1.0
 40
1.0
 10
146.1328262292
 20
254.2178897256
 30
0.0
 10
146.1787596584
 20
254.1754902549
 30
0.0
 10
146.376570137
 20
254.0042343348
 30
0.0
 10
146.594596007
 20
253.8569448291
 30
0.0
 10
146.7669524425
 20
253.7574370458
 30
0.0
  0
SPLINE
  5
52D
100
AcDbEntity
  8
0
100
AcDbSpline
 62
7
  6
CONTINUOUS
 70
0
 71
3
 72
11
 73
7
 74
0
 42
0.0000001
 43
0.0000001
 44
0.0000000001
 40
0.0
 40
0.0
 40
0.0
 40
0.0
 40
0.2353180266
 40
0.4958772325
 40
0.7586321267
 40
1.0
 40
1.0
 40
1.0
 40
1.0
 10
146.7669463825
 20
312.2073862692
 30
0.0
 10
147.198240553
 20
311.9583840969
 30
0.0
 10
148.197187166
 20
311.5880118472
 30
0.0
 10
149.8016141226
 20
311.3901760499
 30
0.0
 10
151.4252419816
 20
311.5283160301
 30
0.0
 10
152.4549775329
 20
311.8587622489
 30
0.0
 10
152.9110766249
 20
312.0887773225
 30
0.0
  0
SPLINE
  5
52E
100
AcDbEntity
  8
0
100
AcDbSpline
 62
7
  6
CONTINUOUS
 70
0
 71
3
 72
11
 73
7
 74
0
 42
0.0000001
 43
0.0000001
 44
0.0000000001
 40
0.0
 40
0.0
 40
0.0
 40
0.0
 40
0.2372436391
 40
0.5000005261
 40
0.7627571268
 40
1.0
 40
1.0
 40
1.0
 40
1.0
 10
186.1883527451
 20
250.2967915857
 30
0.0
 10
186.4192514191
 20
250.16348519
 30
0.0
 10
186.9562034755
 20
249.9689843827
 30
0.0
 10
187.8147008987
 20
249.8757911487
 30
0.0
 10
188.6731970265
 20
249.9689883004
 30
0.0
 10
189.2101469713
 20
250.1634917738
 30
0.0
 10
189.4410439386
 20
250.2967994042
 30
0.0
  0
SPLINE
  5
52F
100
AcDbEntity
  8
0
100
AcDbSpline
 62
7
  6
CONTINUOUS
 70
0
 71
3
 72
11
 73
7
 74
0
 42
0.0000001
 43
0.0000001
 44
0.0000000001
 40
0.0
 40
0.0
 40
0.0
 40
0.0
 40
0.2900529466
 40
0.53344604
 40
0.7564993099
 40
1.0
 40
1.0
 40
1.0
 40
1.0
 10
147.1204747493
 20
316.0857075484
 30
0.0
 10
146.8491043116
 20
315.9290326884
 30
0.0
 10
146.3793040882
 20
315.5784805536
 30
0.0
 10
145.9353987908
 20
314.8557463192
 30
0.0
 10
145.9352897116
 20
314.0481805137
 30
0.0
 10
146.2118553863
 20
313.5998752252
 30
0.0
 10
146.3861779967
 20
313.4028676485
 30
0.0
  0
SPLINE
  5
530
100
AcDbEntity
  8
0
100
AcDbSpline
 62
7
  6
CONTINUOUS
 70
0
 71
3
 72
9
 73
5
 74
0
 42
0.0000001
 43
0.0000001
 44
0.0000000001
 40
0.0
 40
0.0
 40
0.0
 40
0.0
 40
0.2387147749
 40
1.0
 40
1.0
 40
1.0
 40
1.0
 10
146.3861779967
 20
313.4028676485
 30
0.0
 10
146.4198421526
 20
313.3648227055
 30
0.0
 10
146.5663272304
 20
313.210299757
 30
0.0
 10
146.7323915978
 20
313.0749126759
 30
0.0
 10
146.8651355734
 20
312.9820385285
 30
0.0
  0
SPLINE
  5
531
100
AcDbEntity
  8
0
100
AcDbSpline
 62
7
  6
CONTINUOUS
 70
0
 71
3
 72
9
 73
5
 74
0
 42
0.0000001
 43
0.0000001
 44
0.0000000001
 40
0.0
 40
0.0
 40
0.0
 40
0.0
 40
0.239848742
 40
1.0
 40
1.0
 40
1.0
 40
1.0
 10
152.7773434792
 20
316.0857208842
 30
0.0
 10
152.7215873422
 20
316.117910979
 30
0.0
 10
152.4856381859
 20
316.2460532636
 30
0.0
 10
152.2374293688
 20
316.3510897615
 30
0.0
 10
152.0451825617
 20
316.419462278
 30
0.0
  0
SPLINE
  5
532
100
AcDbEntity
  8
0
100
AcDbSpline
 62
7
  6
CONTINUOUS
 70
0
 71
3
 72
9
 73
5
 74
0
 42
0.0000001
 43
0.0000001
 44
0.0000000001
 40
0.0
 40
0.0
 40
0.0
 40
0.0
 40
0.259898786
 40
1.0
 40
1.0
 40
1.0
 40
1.0
 10
147.8526720028
 20
316.4194671482
 30
0.0
 10
147.7869414485
 20
316.3960903005
 30
0.0
 10
147.535930996
 20
316.3010029773
 30
0.0
 10
147.2925221241
 20
316.1850385537
 30
0.0
 10
147.1204747493
 20
316.0857075484
 30
0.0
  0
SPLINE
  5
533
100
AcDbEntity
  8
0
100
AcDbSpline
 62
7
  6
CONTINUOUS
 70
0
 71
3
 72
13
 73
9
 74
0
 42
0.0000001
 43
0.0000001
 44
0.0000000001
 40
0.0
 40
0.0
 40
0.0
 40
0.0
 40
0.2676446679
 40
0.3842610035
 40
0.495080737
 40
0.606724946
 40
0.725629142
 40
1.0
 40
1.0
 40
1.0
 40
1.0
 10
153.0327076058
 20
312.9820392717
 30
0.0
 10
153.3046611387
 20
313.1723115143
 30
0.0
 10
153.6653935742
 20
313.5129280471
 30
0.0
 10
153.918803852
 20
314.0803104164
 30
0.0
 10
153.9696812532
 20
314.5046809066
 30
0.0
 10
153.8861969556
 20
314.926564548
 30
0.0
 10
153.5900152146
 20
315.4861042636
 30
0.0
 10
153.2061081023
 20
315.8155258213
 30
0.0
 10
152.9196575926
 20
315.9991420401
 30
0.0
  0
SPLINE
  5
534
100
AcDbEntity
  8
0
100
AcDbSpline
 62
7
  6
CONTINUOUS
 70
0
 71
3
 72
11
 73
7
 74
0
 42
0.0000001
 43
0.0000001
 44
0.0000000001
 40
0.0
 40
0.0
 40
0.0
 40
0.0
 40
0.2372531865
 40
0.5000006986
 40
0.7627478322
 40
1.0
 40
1.0
 40
1.0
 40
1.0
 10
147.1204983011
 20
312.8197592931
 30
0.0
 10
147.5220786117
 20
312.5879120168
 30
0.0
 10
148.4558886335
 20
312.2495386583
 30
0.0
 10
149.9489379258
 20
312.0877680102
 30
0.0
 10
151.4419844437
 20
312.2495456588
 30
0.0
 10
152.3757901076
 20
312.587923468
 30
0.0
 10
152.777367031
 20
312.8197726289
 30
0.0
  0
SPLINE
  5
535
100
AcDbEntity
  8
0
100
AcDbSpline
 62
7
  6
CONTINUOUS
 70
0
 71
3
 72
13
 73
9
 74
0
 42
0.0000001
 43
0.0000001
 44
0.0000000001
 40
0.0
 40
0.0
 40
0.0
 40
0.0
 40
0.2699846217
 40
0.5613794456
 40
0.6954975277
 40
0.8131464606
 40
0.9128590713
 40
1.0
 40
1.0
 40
1.0
 40
1.0
 10
151.3631432064
 20
313.6362567941
 30
0.0
 10
151.0536438709
 20
313.4575683361
 30
0.0
 10
150.3139358379
 20
313.2574171871
 30
0.0
 10
149.3787711298
 20
313.3048872713
 30
0.0
 10
148.6921772599
 20
313.5336543907
 30
0.0
 10
148.290779797
 20
313.7785935386
 30
0.0
 10
148.0185450211
 20
314.0877653413
 30
0.0
 10
147.9489078764
 20
314.3373920104
 30
0.0
 10
147.9488991862
 20
314.4527404162
 30
0.0
  0
SPLINE
  5
536
100
AcDbEntity
  8
0
100
AcDbSpline
 62
7
  6
CONTINUOUS
 70
0
 71
3
 72
9
 73
5
 74
0
 42
0.0000001
 43
0.0000001
 44
0.0000000001
 40
0.0
 40
0.0
 40
0.0
 40
0.0
 40
0.2822897635
 40
1.0
 40
1.0
 40
1.0
 40
1.0
 10
144.879231216
 20
210.1770293062
 30
0.0
 10
144.8986433786
 20
210.1924551825
 30
0.0
 10
144.9629350996
 20
210.251605825
 30
0.0
 10
145.0062664505
 20
210.3395520133
 30
0.0
 10
145.0063103947
 20
210.4025921582
 30
0.0
  0
SPLINE
  5
537
100
AcDbEntity
  8
0
100
AcDbSpline
 62
7
  6
CONTINUOUS
 70
0
 71
3
 72
13
 73
9
 74
0
 42
0.0000001
 43
0.0000001
 44
0.0000000001
 40
0.0
 40
0.0
 40
0.0
 40
0.0
 40
0.0871398081
 40
0.1868484731
 40
0.3045123423
 40
0.4386460221
 40
0.7300494215
 40
1.0
 40
1.0
 40
1.0
 40
1.0
 10
171.1058501287
 20
123.7342194475
 30
0.0
 10
170.9984301907
 20
123.6722827383
 30
0.0
 10
170.7286480601
 20
123.6029840133
 30
0.0
 10
170.2944213379
 20
123.6899917044
 30
0.0
 10
169.8506547942
 20
123.932183331
 30
0.0
 10
169.268574658
 20
124.4483998376
 30
0.0
 10
168.7218222897
 20
125.2935622231
 30
0.0
 10
168.510585588
 20
126.0897359919
 30
0.0
 10
168.510585588
 20
126.4738658238
 30
0.0
  0
SPLINE
  5
538
100
AcDbEntity
  8
0
100
AcDbSpline
 62
7
  6
CONTINUOUS
 70
0
 71
3
 72
9
 73
5
 74
0
 42
0.0000001
 43
0.0000001
 44
0.0000000001
 40
0.0
 40
0.0
 40
0.0
 40
0.0
 40
0.2711927338
 40
1.0
 40
1.0
 40
1.0
 40
1.0
 10
151.3631432064
 20
378.956461133
 30
0.0
 10
151.4093481065
 20
378.9831373853
 30
0.0
 10
151.5750887158
 20
379.088694033
 30
0.0
 10
151.7235931027
 20
379.225795115
 30
0.0
 10
151.8054485099
 20
379.343514205
 30
0.0
  0
SPLINE
  5
539
100
AcDbEntity
  8
0
100
AcDbSpline
 62
7
  6
CONTINUOUS
 70
0
 71
3
 72
9
 73
5
 74
0
 42
0.0000001
 43
0.0000001
 44
0.0000000001
 40
0.0
 40
0.0
 40
0.0
 40
0.0
 40
0.2655970789
 40
1.0
 40
1.0
 40
1.0
 40
1.0
 10
151.8054485099
 20
379.343514205
 30
0.0
 10
151.8285291616
 20
379.3767072879
 30
0.0
 10
151.9075741561
 20
379.5067697285
 30
0.0
 10
151.9489316303
 20
379.6611544706
 30
0.0
 10
151.9488925863
 20
379.7729445259
 30
0.0
  0
SPLINE
  5
53A
100
AcDbEntity
  8
0
100
AcDbSpline
 62
7
  6
CONTINUOUS
 70
0
 71
3
 72
8
 73
4
 74
0
 42
0.0000001
 43
0.0000001
 44
0.0000000001
 40
0.0
 40
0.0
 40
0.0
 40
0.0
 40
1.0
 40
1.0
 40
1.0
 40
1.0
 10
148.170184907
 20
380.3008617804
 30
0.0
 10
148.202809616
 20
380.2713254457
 30
0.0
 10
148.2401236613
 20
380.2467767978
 30
0.0
 10
148.2788626222
 20
380.2258947573
 30
0.0
  0
SPLINE
  5
53B
100
AcDbEntity
  8
0
100
AcDbSpline
 62
7
  6
CONTINUOUS
 70
0
 71
3
 72
8
 73
4
 74
0
 42
0.0000001
 43
0.0000001
 44
0.0000000001
 40
0.0
 40
0.0
 40
0.0
 40
0.0
 40
1.0
 40
1.0
 40
1.0
 40
1.0
 10
148.2788626222
 20
380.2258947573
 30
0.0
 10
148.3003610985
 20
380.2143061126
 30
0.0
 10
148.3225052137
 20
380.2038717347
 30
0.0
 10
148.345013965
 20
380.1943934813
 30
0.0
  0
SPLINE
  5
53C
100
AcDbEntity
  8
0
100
AcDbSpline
 62
7
  6
CONTINUOUS
 70
0
 71
3
 72
9
 73
5
 74
0
 42
0.0000001
 43
0.0000001
 44
0.0000000001
 40
0.0
 40
0.0
 40
0.0
 40
0.0
 40
0.5000001222
 40
1.0
 40
1.0
 40
1.0
 40
1.0
 10
123.6089160066
 20
317.2075797568
 30
0.0
 10
123.7768200004
 20
317.3045185941
 30
0.0
 10
124.1746029788
 20
317.3811823918
 30
0.0
 10
124.5723859475
 20
317.3045182075
 30
0.0
 10
124.740289702
 20
317.2075791453
 30
0.0
  0
SPLINE
  5
53D
100
AcDbEntity
  8
0
100
AcDbSpline
 62
7
  6
CONTINUOUS
 70
0
 71
3
 72
9
 73
5
 74
0
 42
0.0000001
 43
0.0000001
 44
0.0000000001
 40
0.0
 40
0.0
 40
0.0
 40
0.0
 40
0.4768551097
 40
1.0
 40
1.0
 40
1.0
 40
1.0
 10
145.449104268
 20
253.3491472909
 30
0.0
 10
145.449100534
 20
253.1442951406
 30
0.0
 10
145.5416940363
 20
252.7113907869
 30
0.0
 10
145.7845488224
 20
252.3465982358
 30
0.0
 10
145.932564476
 20
252.177487523
 30
0.0
  0
SPLINE
  5
53E
100
AcDbEntity
  8
0
100
AcDbSpline
 62
7
  6
CONTINUOUS
 70
0
 71
3
 72
9
 73
5
 74
0
 42
0.0000001
 43
0.0000001
 44
0.0000000001
 40
0.0
 40
0.0
 40
0.0
 40
0.0
 40
0.4568653879
 40
1.0
 40
1.0
 40
1.0
 40
1.0
 10
145.932564476
 20
252.177487523
 30
0.0
 10
146.2087196055
 20
251.8619750102
 30
0.0
 10
146.9804344391
 20
251.3205084196
 30
0.0
 10
147.8595754548
 20
251.0285813326
 30
0.0
 10
148.3464118705
 20
250.921508299
 30
0.0
  0
SPLINE
  5
53F
100
AcDbEntity
  8
0
100
AcDbSpline
 62
7
  6
CONTINUOUS
 70
0
 71
3
 72
9
 73
5
 74
0
 42
0.0000001
 43
0.0000001
 44
0.0000000001
 40
0.0
 40
0.0
 40
0.0
 40
0.0
 40
0.4999996499
 40
1.0
 40
1.0
 40
1.0
 40
1.0
 10
112.0125092907
 20
163.9504480515
 30
0.0
 10
112.1804111358
 20
164.0473856484
 30
0.0
 10
112.5781902385
 20
164.124046055
 30
0.0
 10
112.9759673865
 20
164.0473841844
 30
0.0
 10
113.1438705594
 20
163.9504483443
 30
0.0
  0
SPLINE
  5
540
100
AcDbEntity
  8
0
100
AcDbSpline
 62
7
  6
CONTINUOUS
 70
0
 71
3
 72
9
 73
5
 74
0
 42
0.0000001
 43
0.0000001
 44
0.0000000001
 40
0.0
 40
0.0
 40
0.0
 40
0.0
 40
0.4491363303
 40
1.0
 40
1.0
 40
1.0
 40
1.0
 10
177.4536751776
 20
198.7345332346
 30
0.0
 10
177.453724883
 20
198.5554203512
 30
0.0
 10
177.6100795363
 20
198.1555222751
 30
0.0
 10
177.9371819466
 20
197.9056686494
 30
0.0
 10
178.127288211
 20
197.7955804374
 30
0.0
  0
SPLINE
  5
541
100
AcDbEntity
  8
0
100
AcDbSpline
 62
7
  6
CONTINUOUS
 70
0
 71
3
 72
9
 73
5
 74
0
 42
0.0000001
 43
0.0000001
 44
0.0000000001
 40
0.0
 40
0.0
 40
0.0
 40
0.0
 40
0.228599528
 40
1.0
 40
1.0
 40
1.0
 40
1.0
 10
149.3665710083
 20
387.0342996982
 30
0.0
 10
149.3476245692
 20
387.0233610318
 30
0.0
 10
149.2705539753
 20
386.9658382589
 30
0.0
 10
149.2142086928
 20
386.8827414178
 30
0.0
 10
149.1863222263
 20
386.81438638
 30
0.0
  0
SPLINE
  5
542
100
AcDbEntity
  8
0
100
AcDbSpline
 62
7
  6
CONTINUOUS
 70
0
 71
3
 72
8
 73
4
 74
0
 42
0.0000001
 43
0.0000001
 44
0.0000000001
 40
0.0
 40
0.0
 40
0.0
 40
0.0
 40
1.0
 40
1.0
 40
1.0
 40
1.0
 10
149.1672130583
 20
386.7574422231
 30
0.0
 10
149.1594243874
 20
386.7279689062
 30
0.0
 10
149.1544450632
 20
386.6973676838
 30
0.0
 10
149.1544453462
 20
386.6668826087
 30
0.0
  0
SPLINE
  5
543
100
AcDbEntity
  8
0
100
AcDbSpline
 62
7
  6
CONTINUOUS
 70
0
 71
3
 72
11
 73
7
 74
0
 42
0.0000001
 43
0.0000001
 44
0.0000000001
 40
0.0
 40
0.0
 40
0.0
 40
0.0
 40
0.2177499957
 40
0.4508919044
 40
0.7104630441
 40
1.0
 40
1.0
 40
1.0
 40
1.0
 10
105.0578188968
 20
80.3839369764
 30
0.0
 10
105.2194375119
 20
80.4772354434
 30
0.0
 10
105.5221328559
 20
80.7311084148
 30
0.0
 10
105.8441013961
 20
81.2577985984
 30
0.0
 10
106.0349832948
 20
81.9066349168
 30
0.0
 10
106.0728573237
 20
82.378796788
 30
0.0
 10
106.0728573237
 20
82.6269343657
 30
0.0
  0
SPLINE
  5
544
100
AcDbEntity
  8
0
100
AcDbSpline
 62
7
  6
CONTINUOUS
 70
0
 71
3
 72
11
 73
7
 74
0
 42
0.0000001
 43
0.0000001
 44
0.0000000001
 40
0.0
 40
0.0
 40
0.0
 40
0.0
 40
0.2896413935
 40
0.5491107629
 40
0.7822355947
 40
1.0
 40
1.0
 40
1.0
 40
1.0
 10
181.450717802
 20
247.7247386398
 30
0.0
 10
181.450717802
 20
247.4207953884
 30
0.0
 10
181.4045183137
 20
246.8426233797
 30
0.0
 10
181.1705100919
 20
246.048233621
 30
0.0
 10
180.7763241144
 20
245.4034733606
 30
0.0
 10
180.405848366
 20
245.0924537585
 30
0.0
 10
180.2079923447
 20
244.9781162065
 30
0.0
  0
SPLINE
  5
545
100
AcDbEntity
  8
0
100
AcDbSpline
 62
7
  6
CONTINUOUS
 70
0
 71
3
 72
11
 73
7
 74
0
 42
0.0000001
 43
0.0000001
 44
0.0000000001
 40
0.0
 40
0.0
 40
0.0
 40
0.0
 40
0.2896413935
 40
0.5491107629
 40
0.7822355947
 40
1.0
 40
1.0
 40
1.0
 40
1.0
 10
181.450717802
 20
43.5991343575
 30
0.0
 10
181.450717802
 20
43.2951911061
 30
0.0
 10
181.4045183137
 20
42.7170190973
 30
0.0
 10
181.1705100919
 20
41.9226293386
 30
0.0
 10
180.7763241144
 20
41.2778690782
 30
0.0
 10
180.405848366
 20
40.9668494761
 30
0.0
 10
180.2079923447
 20
40.8525119241
 30
0.0
  0
SPLINE
  5
546
100
AcDbEntity
  8
0
100
AcDbSpline
 62
7
  6
CONTINUOUS
 70
0
 71
3
 72
8
 73
4
 74
0
 42
0.0000001
 43
0.0000001
 44
0.0000000001
 40
0.0
 40
0.0
 40
0.0
 40
0.0
 40
1.0
 40
1.0
 40
1.0
 40
1.0
 10
179.3122204394
 20
257.7972925974
 30
0.0
 10
179.4758506738
 20
257.8917640132
 30
0.0
 10
179.6559865105
 20
257.9614358487
 30
0.0
 10
179.8401538924
 20
258.0036505077
 30
0.0
  0
SPLINE
  5
547
100
AcDbEntity
  8
0
100
AcDbSpline
 62
7
  6
CONTINUOUS
 70
0
 71
3
 72
9
 73
5
 74
0
 42
0.0000001
 43
0.0000001
 44
0.0000000001
 40
0.0
 40
0.0
 40
0.0
 40
0.0
 40
0.4574084966
 40
1.0
 40
1.0
 40
1.0
 40
1.0
 10
179.8401538924
 20
258.0036505077
 30
0.0
 10
180.1875691393
 20
258.0832846756
 30
0.0
 10
180.9954369378
 20
258.0500226858
 30
0.0
 10
181.7209190742
 20
257.7340537013
 30
0.0
 10
182.0870785726
 20
257.5226561988
 30
0.0
  0
SPLINE
  5
548
100
AcDbEntity
  8
0
100
AcDbSpline
 62
7
  6
CONTINUOUS
 70
0
 71
3
 72
10
 73
6
 74
0
 42
0.0000001
 43
0.0000001
 44
0.0000000001
 40
0.0
 40
0.0
 40
0.0
 40
0.0
 40
0.7021427676
 40
0.9008241051
 40
1.0
 40
1.0
 40
1.0
 40
1.0
 10
152.2888623971
 20
212.7071788075
 30
0.0
 10
152.3322544561
 20
212.7416603103
 30
0.0
 10
152.3876243482
 20
212.7900797222
 30
0.0
 10
152.4376479113
 20
212.8464397406
 30
0.0
 10
152.4471769272
 20
212.8730823495
 30
0.0
 10
152.4430696327
 20
212.8797468861
 30
0.0
  0
SPLINE
  5
549
100
AcDbEntity
  8
0
100
AcDbSpline
 62
7
  6
CONTINUOUS
 70
0
 71
3
 72
9
 73
5
 74
0
 42
0.0000001
 43
0.0000001
 44
0.0000000001
 40
0.0
 40
0.0
 40
0.0
 40
0.0
 40
0.2093401471
 40
1.0
 40
1.0
 40
1.0
 40
1.0
 10
151.4832569822
 20
212.2246431356
 30
0.0
 10
151.5244081419
 20
212.2407337936
 30
0.0
 10
151.717034078
 20
212.3275133207
 30
0.0
 10
151.8988121812
 20
212.4365237324
 30
0.0
 10
152.0382099269
 20
212.5282754611
 30
0.0
  0
SPLINE
  5
54A
100
AcDbEntity
  8
0
100
AcDbSpline
 62
7
  6
CONTINUOUS
 70
0
 71
3
 72
9
 73
5
 74
0
 42
0.0000001
 43
0.0000001
 44
0.0000000001
 40
0.0
 40
0.0
 40
0.0
 40
0.0
 40
0.272836978
 40
1.0
 40
1.0
 40
1.0
 40
1.0
 10
152.0382099269
 20
212.5282754611
 30
0.0
 10
152.0616076042
 20
212.5436758345
 30
0.0
 10
152.1468455055
 20
212.6008849665
 30
0.0
 10
152.2304143989
 20
212.6607331018
 30
0.0
 10
152.2888623971
 20
212.7071788075
 30
0.0
  0
SPLINE
  5
54B
100
AcDbEntity
  8
0
100
AcDbSpline
 62
7
  6
CONTINUOUS
 70
0
 71
3
 72
9
 73
5
 74
0
 42
0.0000001
 43
0.0000001
 44
0.0000000001
 40
0.0
 40
0.0
 40
0.0
 40
0.0
 40
0.7003342339
 40
1.0
 40
1.0
 40
1.0
 40
1.0
 10
151.4832569822
 20
212.2246431356
 30
0.0
 10
151.4432005274
 20
212.2089675835
 30
0.0
 10
151.3953982282
 20
212.1934854131
 30
0.0
 10
151.31484668
 20
212.1750820257
 30
0.0
 10
151.3051842344
 20
212.1907471848
 30
0.0
  0
SPLINE
  5
54C
100
AcDbEntity
  8
0
100
AcDbSpline
 62
7
  6
CONTINUOUS
 70
0
 71
3
 72
9
 73
5
 74
0
 42
0.0000001
 43
0.0000001
 44
0.0000000001
 40
0.0
 40
0.0
 40
0.0
 40
0.0
 40
0.2222779898
 40
1.0
 40
1.0
 40
1.0
 40
1.0
 10
154.5509827747
 20
209.0374845656
 30
0.0
 10
154.5331158302
 20
209.0232865968
 30
0.0
 10
154.4516205999
 20
208.9608173025
 30
0.0
 10
154.3670259604
 20
208.9024803223
 30
0.0
 10
154.3003283897
 20
208.8585799635
 30
0.0
  0
SPLINE
  5
54D
100
AcDbEntity
  8
0
100
AcDbSpline
 62
7
  6
CONTINUOUS
 70
0
 71
3
 72
9
 73
5
 74
0
 42
0.0000001
 43
0.0000001
 44
0.0000000001
 40
0.0
 40
0.0
 40
0.0
 40
0.0
 40
0.2734905675
 40
1.0
 40
1.0
 40
1.0
 40
1.0
 10
154.3003283897
 20
208.8585799635
 30
0.0
 10
154.2521210174
 20
208.8268498584
 30
0.0
 10
154.0738064424
 20
208.7143290688
 30
0.0
 10
153.8881601364
 20
208.610778781
 30
0.0
 10
153.7453773598
 20
208.5549488936
 30
0.0
  0
SPLINE
  5
54E
100
AcDbEntity
  8
0
100
AcDbSpline
 62
7
  6
CONTINUOUS
 70
0
 71
3
 72
9
 73
5
 74
0
 42
0.0000001
 43
0.0000001
 44
0.0000000001
 40
0.0
 40
0.0
 40
0.0
 40
0.0
 40
0.7004154793
 40
1.0
 40
1.0
 40
1.0
 40
1.0
 10
153.7453773598
 20
208.5549488936
 30
0.0
 10
153.7053145063
 20
208.539283778
 30
0.0
 10
153.6575245003
 20
208.5237967211
 30
0.0
 10
153.5769689129
 20
208.5053992197
 30
0.0
 10
153.5673149024
 20
208.5210622938
 30
0.0
  0
SPLINE
  5
54F
100
AcDbEntity
  8
0
100
AcDbSpline
 62
7
  6
CONTINUOUS
 70
0
 71
3
 72
9
 73
5
 74
0
 42
0.0000001
 43
0.0000001
 44
0.0000000001
 40
0.0
 40
0.0
 40
0.0
 40
0.0
 40
0.2268992338
 40
1.0
 40
1.0
 40
1.0
 40
1.0
 10
155.7410515589
 20
205.2383686038
 30
0.0
 10
155.7234232259
 20
205.2243602477
 30
0.0
 10
155.6412791067
 20
205.1682663588
 30
0.0
 10
155.5467171624
 20
205.132030295
 30
0.0
 10
155.4723943775
 20
205.1130053282
 30
0.0
  0
SPLINE
  5
550
100
AcDbEntity
  8
0
100
AcDbSpline
 62
7
  6
CONTINUOUS
 70
0
 71
3
 72
8
 73
4
 74
0
 42
0.0000001
 43
0.0000001
 44
0.0000000001
 40
0.0
 40
0.0
 40
0.0
 40
0.0
 40
1.0
 40
1.0
 40
1.0
 40
1.0
 10
155.4723943775
 20
205.1130053282
 30
0.0
 10
155.362959007
 20
205.0849923267
 30
0.0
 10
155.2476997089
 20
205.075807846
 30
0.0
 10
155.1349126762
 20
205.0821255855
 30
0.0
  0
SPLINE
  5
551
100
AcDbEntity
  8
0
100
AcDbSpline
 62
7
  6
CONTINUOUS
 70
0
 71
3
 72
9
 73
5
 74
0
 42
0.0000001
 43
0.0000001
 44
0.0000000001
 40
0.0
 40
0.0
 40
0.0
 40
0.0
 40
0.2623074757
 40
1.0
 40
1.0
 40
1.0
 40
1.0
 10
155.1349126762
 20
205.0821255855
 30
0.0
 10
155.1060688566
 20
205.0837412654
 30
0.0
 10
154.9964497912
 20
205.0939979571
 30
0.0
 10
154.8876667332
 20
205.1193068894
 30
0.0
 10
154.8121786774
 20
205.1493458164
 30
0.0
  0
SPLINE
  5
552
100
AcDbEntity
  8
0
100
AcDbSpline
 62
7
  6
CONTINUOUS
 70
0
 71
3
 72
11
 73
7
 74
0
 42
0.0000001
 43
0.0000001
 44
0.0000000001
 40
0.0
 40
0.0
 40
0.0
 40
0.0
 40
0.2753934761
 40
0.4999979508
 40
0.7246038054
 40
1.0
 40
1.0
 40
1.0
 40
1.0
 10
117.2805072293
 20
155.1527720305
 30
0.0
 10
117.1151000621
 20
155.2482677426
 30
0.0
 10
116.7844482209
 20
155.3854825969
 30
0.0
 10
116.2499647021
 20
155.3047457142
 30
0.0
 10
115.9128127766
 20
154.8822280766
 30
0.0
 10
115.866322242
 20
154.5272651532
 30
0.0
 10
115.866322242
 20
154.336268603
 30
0.0
  0
SPLINE
  5
553
100
AcDbEntity
  8
0
100
AcDbSpline
 62
7
  6
CONTINUOUS
 70
0
 71
3
 72
9
 73
5
 74
0
 42
0.0000001
 43
0.0000001
 44
0.0000000001
 40
0.0
 40
0.0
 40
0.0
 40
0.0
 40
0.2289202566
 40
1.0
 40
1.0
 40
1.0
 40
1.0
 10
115.866322242
 20
154.336268603
 30
0.0
 10
115.866322242
 20
154.2283215191
 30
0.0
 10
115.9072717839
 20
153.7570447067
 30
0.0
 10
116.0789614684
 20
153.3027295711
 30
0.0
 10
116.2562400876
 20
152.9852732183
 30
0.0
  0
SPLINE
  5
554
100
AcDbEntity
  8
0
100
AcDbSpline
 62
7
  6
CONTINUOUS
 70
0
 71
3
 72
9
 73
5
 74
0
 42
0.0000001
 43
0.0000001
 44
0.0000000001
 40
0.0
 40
0.0
 40
0.0
 40
0.0
 40
0.2671846546
 40
1.0
 40
1.0
 40
1.0
 40
1.0
 10
116.3055018938
 20
152.8999516162
 30
0.0
 10
116.3700139872
 20
152.7918211079
 30
0.0
 10
116.6328657326
 20
152.4015094468
 30
0.0
 10
116.9814283175
 20
152.059511335
 30
0.0
 10
117.2805072293
 20
151.886841951
 30
0.0
  0
SPLINE
  5
555
100
AcDbEntity
  8
0
100
AcDbSpline
 62
7
  6
CONTINUOUS
 70
0
 71
3
 72
11
 73
7
 74
0
 42
0.0000001
 43
0.0000001
 44
0.0000000001
 40
0.0
 40
0.0
 40
0.0
 40
0.0
 40
0.2753934761
 40
0.4999979508
 40
0.7246038054
 40
1.0
 40
1.0
 40
1.0
 40
1.0
 10
117.2805072293
 20
151.886841951
 30
0.0
 10
117.4459143965
 20
151.7913462389
 30
0.0
 10
117.7765662377
 20
151.6541313847
 30
0.0
 10
118.3110497565
 20
151.7348682673
 30
0.0
 10
118.648201682
 20
152.1573859049
 30
0.0
 10
118.6946922166
 20
152.5123488283
 30
0.0
 10
118.6946922166
 20
152.7033453785
 30
0.0
  0
SPLINE
  5
556
100
AcDbEntity
  8
0
100
AcDbSpline
 62
7
  6
CONTINUOUS
 70
0
 71
3
 72
9
 73
5
 74
0
 42
0.0000001
 43
0.0000001
 44
0.0000000001
 40
0.0
 40
0.0
 40
0.0
 40
0.0
 40
0.2299775807
 40
1.0
 40
1.0
 40
1.0
 40
1.0
 10
155.8681383401
 20
205.4641404154
 30
0.0
 10
155.868119806
 20
205.4438628398
 30
0.0
 10
155.8555347664
 20
205.3553756265
 30
0.0
 10
155.7942066298
 20
205.2806082846
 30
0.0
 10
155.7410515589
 20
205.2383686038
 30
0.0
  0
SPLINE
  5
557
100
AcDbEntity
  8
0
100
AcDbSpline
 62
7
  6
CONTINUOUS
 70
0
 71
3
 72
11
 73
7
 74
0
 42
0.0000001
 43
0.0000001
 44
0.0000000001
 40
0.0
 40
0.0
 40
0.0
 40
0.0
 40
0.2372444228
 40
0.5000010918
 40
0.7627571666
 40
1.0
 40
1.0
 40
1.0
 40
1.0
 10
118.6946922166
 20
152.7033453785
 30
0.0
 10
118.6946922166
 20
152.9351820437
 30
0.0
 10
118.6077126144
 20
153.4240981778
 30
0.0
 10
118.3046421895
 20
154.1111074931
 30
0.0
 10
117.8612080609
 20
154.7170755705
 30
0.0
 10
117.4812834613
 20
155.0368564413
 30
0.0
 10
117.2805072293
 20
155.1527720305
 30
0.0
  0
SPLINE
  5
558
100
AcDbEntity
  8
0
100
AcDbSpline
 62
7
  6
CONTINUOUS
 70
0
 71
3
 72
11
 73
7
 74
0
 42
0.0000001
 43
0.0000001
 44
0.0000000001
 40
0.0
 40
0.0
 40
0.0
 40
0.0
 40
0.2372480941
 40
0.5000010917
 40
0.7627534955
 40
1.0
 40
1.0
 40
1.0
 40
1.0
 10
121.5234946169
 20
152.7036087158
 30
0.0
 10
121.5234946169
 20
153.1672903611
 30
0.0
 10
121.349660186
 20
154.1451614687
 30
0.0
 10
120.7432584357
 20
155.519054271
 30
0.0
 10
119.8566295984
 20
156.7311534599
 30
0.0
 10
119.0966843767
 20
157.3706265633
 30
0.0
 10
118.6951247121
 20
157.6024618989
 30
0.0
  0
SPLINE
  5
559
100
AcDbEntity
  8
0
100
AcDbSpline
 62
7
  6
CONTINUOUS
 70
0
 71
3
 72
9
 73
5
 74
0
 42
0.0000001
 43
0.0000001
 44
0.0000000001
 40
0.0
 40
0.0
 40
0.0
 40
0.0
 40
0.2775401169
 40
1.0
 40
1.0
 40
1.0
 40
1.0
 10
118.6951247121
 20
157.6024618989
 30
0.0
 10
118.5823116149
 20
157.6675930975
 30
0.0
 10
118.1654526821
 20
157.8805171353
 30
0.0
 10
117.6891535993
 20
158.0018993968
 30
0.0
 10
117.3504326877
 20
157.986092245
 30
0.0
  0
SPLINE
  5
55A
100
AcDbEntity
  8
0
100
AcDbSpline
 62
7
  6
CONTINUOUS
 70
0
 71
3
 72
9
 73
5
 74
0
 42
0.0000001
 43
0.0000001
 44
0.0000000001
 40
0.0
 40
0.0
 40
0.0
 40
0.0
 40
0.2593582902
 40
1.0
 40
1.0
 40
1.0
 40
1.0
 10
117.3504326877
 20
157.986092245
 30
0.0
 10
117.2913143402
 20
157.9833333581
 30
0.0
 10
117.0641523392
 20
157.9609504613
 30
0.0
 10
116.8416815998
 20
157.8849138122
 30
0.0
 10
116.6953148305
 20
157.8004160348
 30
0.0
  0
SPLINE
  5
55B
100
AcDbEntity
  8
0
100
AcDbSpline
 62
7
  6
CONTINUOUS
 70
0
 71
3
 72
11
 73
7
 74
0
 42
0.0000001
 43
0.0000001
 44
0.0000000001
 40
0.0
 40
0.0
 40
0.0
 40
0.0
 40
0.2753934761
 40
0.4999979508
 40
0.7246038054
 40
1.0
 40
1.0
 40
1.0
 40
1.0
 10
167.8388525773
 20
184.3434809071
 30
0.0
 10
167.6734454101
 20
184.4389766191
 30
0.0
 10
167.3427935689
 20
184.5761914734
 30
0.0
 10
166.8083100501
 20
184.4954545908
 30
0.0
 10
166.4711581246
 20
184.0729369532
 30
0.0
 10
166.42466759
 20
183.7179740298
 30
0.0
 10
166.42466759
 20
183.5269774796
 30
0.0
  0
SPLINE
  5
55C
100
AcDbEntity
  8
0
100
AcDbSpline
 62
7
  6
CONTINUOUS
 70
0
 71
3
 72
13
 73
9
 74
0
 42
0.0000001
 43
0.0000001
 44
0.0000000001
 40
0.0
 40
0.0
 40
0.0
 40
0.0
 40
0.0871398081
 40
0.1868484731
 40
0.3045123423
 40
0.4386460221
 40
0.7300494215
 40
1.0
 40
1.0
 40
1.0
 40
1.0
 10
120.5475047807
 20
211.3033562205
 30
0.0
 10
120.4400848427
 20
211.2414195112
 30
0.0
 10
120.1703027121
 20
211.1721207863
 30
0.0
 10
119.7360759899
 20
211.2591284774
 30
0.0
 10
119.2923094462
 20
211.5013201039
 30
0.0
 10
118.71022931
 20
212.0175366105
 30
0.0
 10
118.1634769417
 20
212.8626989961
 30
0.0
 10
117.95224024
 20
213.6588727649
 30
0.0
 10
117.95224024
 20
214.0430025968
 30
0.0
  0
SPLINE
  5
55D
100
AcDbEntity
  8
0
100
AcDbSpline
 62
7
  6
CONTINUOUS
 70
0
 71
3
 72
11
 73
7
 74
0
 42
0.0000001
 43
0.0000001
 44
0.0000000001
 40
0.0
 40
0.0
 40
0.0
 40
0.0
 40
0.2372444228
 40
0.5000010918
 40
0.7627571666
 40
1.0
 40
1.0
 40
1.0
 40
1.0
 10
166.42466759
 20
183.5269774796
 30
0.0
 10
166.42466759
 20
183.2951408144
 30
0.0
 10
166.5116471922
 20
182.8062246802
 30
0.0
 10
166.8147176171
 20
182.119215365
 30
0.0
 10
167.2581517457
 20
181.5132472875
 30
0.0
 10
167.6380763453
 20
181.1934664168
 30
0.0
 10
167.8388525773
 20
181.0775508276
 30
0.0
  0
SPLINE
  5
55E
100
AcDbEntity
  8
0
100
AcDbSpline
 62
7
  6
CONTINUOUS
 70
0
 71
3
 72
11
 73
7
 74
0
 42
0.0000001
 43
0.0000001
 44
0.0000000001
 40
0.0
 40
0.0
 40
0.0
 40
0.0
 40
0.2753934761
 40
0.4999979508
 40
0.7246038054
 40
1.0
 40
1.0
 40
1.0
 40
1.0
 10
167.8388525773
 20
181.0775508276
 30
0.0
 10
168.0042597445
 20
180.9820551155
 30
0.0
 10
168.3349115857
 20
180.8448402612
 30
0.0
 10
168.8693951045
 20
180.9255771438
 30
0.0
 10
169.20654703
 20
181.3480947815
 30
0.0
 10
169.2530375646
 20
181.7030577049
 30
0.0
 10
169.2530375646
 20
181.894054255
 30
0.0
  0
SPLINE
  5
55F
100
AcDbEntity
  8
0
100
AcDbSpline
 62
7
  6
CONTINUOUS
 70
0
 71
3
 72
11
 73
7
 74
0
 42
0.0000001
 43
0.0000001
 44
0.0000000001
 40
0.0
 40
0.0
 40
0.0
 40
0.0
 40
0.2372444228
 40
0.5000010918
 40
0.7627571666
 40
1.0
 40
1.0
 40
1.0
 40
1.0
 10
169.2530375646
 20
181.894054255
 30
0.0
 10
169.2530375646
 20
182.1258909203
 30
0.0
 10
169.1660579624
 20
182.6148070544
 30
0.0
 10
168.8629875375
 20
183.3018163696
 30
0.0
 10
168.4195534089
 20
183.9077844471
 30
0.0
 10
168.0396288093
 20
184.2275653178
 30
0.0
 10
167.8388525773
 20
184.3434809071
 30
0.0
  0
SPLINE
  5
560
100
AcDbEntity
  8
0
100
AcDbSpline
 62
7
  6
CONTINUOUS
 70
0
 71
3
 72
11
 73
7
 74
0
 42
0.0000001
 43
0.0000001
 44
0.0000000001
 40
0.0
 40
0.0
 40
0.0
 40
0.0
 40
0.2372480941
 40
0.5000010917
 40
0.7627534955
 40
1.0
 40
1.0
 40
1.0
 40
1.0
 10
172.0818399649
 20
181.8943175923
 30
0.0
 10
172.0818399649
 20
182.3579992377
 30
0.0
 10
171.908005534
 20
183.3358703453
 30
0.0
 10
171.3016037837
 20
184.7097631476
 30
0.0
 10
170.4149749464
 20
185.9218623364
 30
0.0
 10
169.6550297247
 20
186.5613354398
 30
0.0
 10
169.2534700601
 20
186.7931707755
 30
0.0
  0
SPLINE
  5
561
100
AcDbEntity
  8
0
100
AcDbSpline
 62
7
  6
CONTINUOUS
 70
0
 71
3
 72
9
 73
5
 74
0
 42
0.0000001
 43
0.0000001
 44
0.0000000001
 40
0.0
 40
0.0
 40
0.0
 40
0.0
 40
0.2775401169
 40
1.0
 40
1.0
 40
1.0
 40
1.0
 10
169.2534700601
 20
186.7931707755
 30
0.0
 10
169.1406569629
 20
186.858301974
 30
0.0
 10
168.7237980302
 20
187.0712260119
 30
0.0
 10
168.2474989473
 20
187.1926082734
 30
0.0
 10
167.9087780357
 20
187.1768011216
 30
0.0
  0
SPLINE
  5
562
100
AcDbEntity
  8
0
100
AcDbSpline
 62
7
  6
CONTINUOUS
 70
0
 71
3
 72
9
 73
5
 74
0
 42
0.0000001
 43
0.0000001
 44
0.0000000001
 40
0.0
 40
0.0
 40
0.0
 40
0.0
 40
0.2593582902
 40
1.0
 40
1.0
 40
1.0
 40
1.0
 10
167.9087780357
 20
187.1768011216
 30
0.0
 10
167.8496596882
 20
187.1740422347
 30
0.0
 10
167.6224976872
 20
187.1516593379
 30
0.0
 10
167.4000269478
 20
187.0756226887
 30
0.0
 10
167.2536601785
 20
186.9911249113
 30
0.0
  0
SPLINE
  5
563
100
AcDbEntity
  8
0
100
AcDbSpline
 62
7
  6
CONTINUOUS
 70
0
 71
3
 72
9
 73
5
 74
0
 42
0.0000001
 43
0.0000001
 44
0.0000000001
 40
0.0
 40
0.0
 40
0.0
 40
0.0
 40
0.2461761779
 40
1.0
 40
1.0
 40
1.0
 40
1.0
 10
102.6328328334
 20
90.2996207979
 30
0.0
 10
102.6829266025
 20
90.3285473685
 30
0.0
 10
102.892505666
 20
90.4353906039
 30
0.0
 10
103.1247206802
 20
90.4959544567
 30
0.0
 10
103.3006943218
 20
90.5161728905
 30
0.0
  0
SPLINE
  5
564
100
AcDbEntity
  8
0
100
AcDbSpline
 62
7
  6
CONTINUOUS
 70
0
 71
3
 72
12
 73
8
 74
0
 42
0.0000001
 43
0.0000001
 44
0.0000000001
 40
0.0
 40
0.0
 40
0.0
 40
0.0
 40
0.1987268057
 40
0.3221637399
 40
0.4576185186
 40
0.7410228444
 40
1.0
 40
1.0
 40
1.0
 40
1.0
 10
103.3006943218
 20
90.5161728905
 30
0.0
 10
103.8942040001
 20
90.58436399
 30
0.0
 10
104.890510679
 20
90.2509425929
 30
0.0
 10
105.9927570852
 20
89.4369623893
 30
0.0
 10
107.1226924401
 20
88.2462829034
 30
0.0
 10
108.1591681039
 20
86.462247421
 30
0.0
 10
108.547840318
 20
84.8342615146
 30
0.0
 10
108.547840318
 20
84.0557221628
 30
0.0
  0
SPLINE
  5
565
100
AcDbEntity
  8
0
100
AcDbSpline
 62
7
  6
CONTINUOUS
 70
0
 71
3
 72
9
 73
5
 74
0
 42
0.0000001
 43
0.0000001
 44
0.0000000001
 40
0.0
 40
0.0
 40
0.0
 40
0.0
 40
0.5648728998
 40
1.0
 40
1.0
 40
1.0
 40
1.0
 10
143.9503583345
 20
210.0961715429
 30
0.0
 10
143.8754803032
 20
210.1291929361
 30
0.0
 10
143.7472359961
 20
210.2052339248
 30
0.0
 10
143.6760906174
 20
210.3479272642
 30
0.0
 10
143.6761485775
 20
210.410966311
 30
0.0
  0
SPLINE
  5
566
100
AcDbEntity
  8
0
100
AcDbSpline
 62
7
  6
CONTINUOUS
 70
0
 71
3
 72
8
 73
4
 74
0
 42
0.0000001
 43
0.0000001
 44
0.0000000001
 40
0.0
 40
0.0
 40
0.0
 40
0.0
 40
1.0
 40
1.0
 40
1.0
 40
1.0
 10
108.6012479247
 20
298.6213680495
 30
0.0
 10
108.7648781591
 20
298.7158394652
 30
0.0
 10
108.9450139958
 20
298.7855113007
 30
0.0
 10
109.1291813777
 20
298.8277259598
 30
0.0
  0
SPLINE
  5
567
100
AcDbEntity
  8
0
100
AcDbSpline
 62
7
  6
CONTINUOUS
 70
0
 71
3
 72
9
 73
5
 74
0
 42
0.0000001
 43
0.0000001
 44
0.0000000001
 40
0.0
 40
0.0
 40
0.0
 40
0.0
 40
0.4574084966
 40
1.0
 40
1.0
 40
1.0
 40
1.0
 10
109.1291813777
 20
298.8277259598
 30
0.0
 10
109.4765966246
 20
298.9073601276
 30
0.0
 10
110.2844644231
 20
298.8740981378
 30
0.0
 10
111.0099465595
 20
298.5581291533
 30
0.0
 10
111.3761060579
 20
298.3467316508
 30
0.0
  0
SPLINE
  5
568
100
AcDbEntity
  8
0
100
AcDbSpline
 62
7
  6
CONTINUOUS
 70
0
 71
3
 72
11
 73
7
 74
0
 42
0.0000001
 43
0.0000001
 44
0.0000000001
 40
0.0
 40
0.0
 40
0.0
 40
0.0
 40
0.2896413964
 40
0.5491107671
 40
0.7822355978
 40
1.0
 40
1.0
 40
1.0
 40
1.0
 10
110.7397450091
 20
288.5488139313
 30
0.0
 10
110.7397450091
 20
288.2448706805
 30
0.0
 10
110.6935455226
 20
287.6666986745
 30
0.0
 10
110.4595373089
 20
286.8723089206
 30
0.0
 10
110.0653513444
 20
286.2275486667
 30
0.0
 10
109.6948756055
 20
285.9165290686
 30
0.0
 10
109.4970195895
 20
285.8021915197
 30
0.0
  0
SPLINE
  5
569
100
AcDbEntity
  8
0
100
AcDbSpline
 62
7
  6
CONTINUOUS
 70
0
 71
3
 72
11
 73
7
 74
0
 42
0.0000001
 43
0.0000001
 44
0.0000000001
 40
0.0
 40
0.0
 40
0.0
 40
0.0
 40
0.2896413964
 40
0.5491107671
 40
0.7822355978
 40
1.0
 40
1.0
 40
1.0
 40
1.0
 10
110.7397450091
 20
84.4232096489
 30
0.0
 10
110.7397450091
 20
84.1192663981
 30
0.0
 10
110.6935455226
 20
83.5410943921
 30
0.0
 10
110.4595373089
 20
82.7467046382
 30
0.0
 10
110.0653513444
 20
82.1019443843
 30
0.0
 10
109.6948756055
 20
81.7909247862
 30
0.0
 10
109.4970195895
 20
81.6765872373
 30
0.0
  0
SPLINE
  5
56A
100
AcDbEntity
  8
0
100
AcDbSpline
 62
7
  6
CONTINUOUS
 70
0
 71
3
 72
8
 73
4
 74
0
 42
0.0000001
 43
0.0000001
 44
0.0000000001
 40
0.0
 40
0.0
 40
0.0
 40
0.0
 40
1.0
 40
1.0
 40
1.0
 40
1.0
 10
107.5873227563
 20
81.7288686804
 30
0.0
 10
107.7105215399
 20
81.8005082856
 30
0.0
 10
107.8252667845
 20
81.8887675704
 30
0.0
 10
107.9267752944
 20
81.9887985443
 30
0.0
  0
SPLINE
  5
56B
100
AcDbEntity
  8
0
100
AcDbSpline
 62
7
  6
CONTINUOUS
 70
0
 71
3
 72
9
 73
5
 74
0
 42
0.0000001
 43
0.0000001
 44
0.0000000001
 40
0.0
 40
0.0
 40
0.0
 40
0.0
 40
0.455848626
 40
1.0
 40
1.0
 40
1.0
 40
1.0
 10
107.9267752944
 20
81.9887985443
 30
0.0
 10
108.1630082807
 20
82.2215929741
 30
0.0
 10
108.5327300273
 20
82.8839137677
 30
0.0
 10
108.6184325829
 20
83.6190588909
 30
0.0
 10
108.6184325829
 20
84.0149666217
 30
0.0
  0
SPLINE
  5
56C
100
AcDbEntity
  8
0
100
AcDbSpline
 62
7
  6
CONTINUOUS
 70
0
 71
3
 72
15
 73
11
 74
0
 42
0.0000001
 43
0.0000001
 44
0.0000000001
 40
0.0
 40
0.0
 40
0.0
 40
0.0
 40
0.0869274401
 40
0.1863924176
 40
0.3037799021
 40
0.4375872817
 40
0.58208286
 40
0.7293903551
 40
0.8711738772
 40
1.0
 40
1.0
 40
1.0
 40
1.0
 10
117.4726660451
 20
158.249241938
 30
0.0
 10
117.6724471727
 20
158.3645898222
 30
0.0
 10
118.1743615354
 20
158.493649382
 30
0.0
 10
118.9822939822
 20
158.3318054386
 30
0.0
 10
119.8077030665
 20
157.880995989
 30
0.0
 10
120.5992181871
 20
157.180188121
 30
0.0
 10
121.297921034
 20
156.2857012056
 30
0.0
 10
121.8482608413
 20
155.2688773114
 30
0.0
 10
122.2051671028
 20
154.2132765201
 30
0.0
 10
122.300896054
 20
153.4943198546
 30
0.0
 10
122.300896054
 20
153.1524389655
 30
0.0
  0
SPLINE
  5
56D
100
AcDbEntity
  8
0
100
AcDbSpline
 62
7
  6
CONTINUOUS
 70
0
 71
3
 72
15
 73
11
 74
0
 42
0.0000001
 43
0.0000001
 44
0.0000000001
 40
0.0
 40
0.0
 40
0.0
 40
0.0
 40
0.0869257504
 40
0.1863961276
 40
0.3037898083
 40
0.4375995959
 40
0.5820964428
 40
0.7293801614
 40
0.8712017292
 40
1.0
 40
1.0
 40
1.0
 40
1.0
 10
192.7473141452
 20
267.75787373
 30
0.0
 10
192.5723402209
 20
267.657017902
 30
0.0
 10
192.1330513263
 20
267.5437673462
 30
0.0
 10
191.4256262109
 20
267.6855502366
 30
0.0
 10
190.7030336049
 20
268.0802891905
 30
0.0
 10
190.0100673259
 20
268.6938714813
 30
0.0
 10
189.3984806674
 20
269.4769900238
 30
0.0
 10
188.9165123221
 20
270.3671592347
 30
0.0
 10
188.6042118176
 20
271.2913381069
 30
0.0
 10
188.5202986354
 20
271.9207727454
 30
0.0
 10
188.5202986354
 20
272.2200175207
 30
0.0
  0
SPLINE
  5
56E
100
AcDbEntity
  8
0
100
AcDbSpline
 62
7
  6
CONTINUOUS
 70
0
 71
3
 72
9
 73
5
 74
0
 42
0.0000001
 43
0.0000001
 44
0.0000000001
 40
0.0
 40
0.0
 40
0.0
 40
0.0
 40
0.2434372248
 40
1.0
 40
1.0
 40
1.0
 40
1.0
 10
136.9814522141
 20
193.6999302397
 30
0.0
 10
137.7732280252
 20
194.106976038
 30
0.0
 10
141.0398222649
 20
195.7504894983
 30
0.0
 10
144.3803368535
 20
197.2551377854
 30
0.0
 10
146.9627804094
 20
198.2483028421
 30
0.0
  0
SPLINE
  5
56F
100
AcDbEntity
  8
0
100
AcDbSpline
 62
7
  6
CONTINUOUS
 70
0
 71
3
 72
15
 73
11
 74
0
 42
0.0000001
 43
0.0000001
 44
0.0000000001
 40
0.0
 40
0.0
 40
0.0
 40
0.0
 40
0.0869257521
 40
0.186396129
 40
0.3037898095
 40
0.437599597
 40
0.5820964436
 40
0.7293801619
 40
0.8712017294
 40
1.0
 40
1.0
 40
1.0
 40
1.0
 10
146.7851826886
 20
294.293522623
 30
0.0
 10
146.6102087182
 20
294.1926667621
 30
0.0
 10
146.1709196954
 20
294.0794162055
 30
0.0
 10
145.4634943985
 20
294.2211991214
 30
0.0
 10
144.7409016052
 20
294.6159381838
 30
0.0
 10
144.0479351482
 20
295.2295206325
 30
0.0
 10
143.4363483323
 20
296.0126393786
 30
0.0
 10
142.9543798632
 20
296.9028088193
 30
0.0
 10
142.6420792786
 20
297.8269879301
 30
0.0
 10
142.5581660749
 20
298.4564227309
 30
0.0
 10
142.5581660749
 20
298.7556675834
 30
0.0
  0
SPLINE
  5
570
100
AcDbEntity
  8
0
100
AcDbSpline
 62
7
  6
CONTINUOUS
 70
0
 71
3
 72
11
 73
7
 74
0
 42
0.0000001
 43
0.0000001
 44
0.0000000001
 40
0.0
 40
0.0
 40
0.0
 40
0.0
 40
0.2177499957
 40
0.4508919044
 40
0.7104630441
 40
1.0
 40
1.0
 40
1.0
 40
1.0
 10
175.7687914115
 20
39.5598615243
 30
0.0
 10
175.9304100266
 20
39.6531599914
 30
0.0
 10
176.2331053706
 20
39.9070329628
 30
0.0
 10
176.5550739108
 20
40.4337231463
 30
0.0
 10
176.7459558095
 20
41.0825594648
 30
0.0
 10
176.7838298384
 20
41.554721336
 30
0.0
 10
176.7838298384
 20
41.8028589137
 30
0.0
  0
SPLINE
  5
571
100
AcDbEntity
  8
0
100
AcDbSpline
 62
7
  6
CONTINUOUS
 70
0
 71
3
 72
10
 73
6
 74
0
 42
0.0000001
 43
0.0000001
 44
0.0000000001
 40
0.0
 40
0.0
 40
0.0
 40
0.0
 40
0.2178351482
 40
0.4576240214
 40
1.0
 40
1.0
 40
1.0
 40
1.0
 10
147.2554245206
 20
215.2092320702
 30
0.0
 10
147.2038697467
 20
215.1682640656
 30
0.0
 10
147.1191333922
 20
215.0500110942
 30
0.0
 10
147.0720391938
 20
214.7437977337
 30
0.0
 10
147.1758474504
 20
214.5059860013
 30
0.0
 10
147.2792800297
 20
214.3787708394
 30
0.0
  0
SPLINE
  5
572
100
AcDbEntity
  8
0
100
AcDbSpline
 62
7
  6
CONTINUOUS
 70
0
 71
3
 72
9
 73
5
 74
0
 42
0.0000001
 43
0.0000001
 44
0.0000000001
 40
0.0
 40
0.0
 40
0.0
 40
0.0
 40
0.48204959
 40
1.0
 40
1.0
 40
1.0
 40
1.0
 10
105.5778538707
 20
239.6810681019
 30
0.0
 10
105.9459657467
 20
239.4691545528
 30
0.0
 10
106.8253206533
 20
239.2369993858
 30
0.0
 10
107.7221301994
 20
239.2962552823
 30
0.0
 10
108.1633000335
 20
239.4131155226
 30
0.0
  0
SPLINE
  5
573
100
AcDbEntity
  8
0
100
AcDbSpline
 62
7
  6
CONTINUOUS
 70
0
 71
3
 72
9
 73
5
 74
0
 42
0.0000001
 43
0.0000001
 44
0.0000000001
 40
0.0
 40
0.0
 40
0.0
 40
0.0
 40
0.2073931486
 40
1.0
 40
1.0
 40
1.0
 40
1.0
 10
143.6847283215
 20
206.7392372184
 30
0.0
 10
143.6933868164
 20
206.7082632666
 30
0.0
 10
143.7673604163
 20
206.5677547105
 30
0.0
 10
143.9226417323
 20
206.4924035286
 30
0.0
 10
144.0406250938
 20
206.4579424843
 30
0.0
  0
SPLINE
  5
574
100
AcDbEntity
  8
0
100
AcDbSpline
 62
7
  6
CONTINUOUS
 70
0
 71
3
 72
9
 73
5
 74
0
 42
0.0000001
 43
0.0000001
 44
0.0000000001
 40
0.0
 40
0.0
 40
0.0
 40
0.0
 40
0.5276049583
 40
1.0
 40
1.0
 40
1.0
 40
1.0
 10
144.0406250938
 20
206.4579424843
 30
0.0
 10
144.1870118201
 20
206.4151852734
 30
0.0
 10
144.4822203152
 20
206.3975737339
 30
0.0
 10
144.7723291027
 20
206.4897905543
 30
0.0
 10
144.879231216
 20
206.5747403261
 30
0.0
  0
SPLINE
  5
575
100
AcDbEntity
  8
0
100
AcDbSpline
 62
7
  6
CONTINUOUS
 70
0
 71
3
 72
9
 73
5
 74
0
 42
0.0000001
 43
0.0000001
 44
0.0000000001
 40
0.0
 40
0.0
 40
0.0
 40
0.0
 40
0.2447760143
 40
1.0
 40
1.0
 40
1.0
 40
1.0
 10
120.6950089232
 20
150.872690679
 30
0.0
 10
120.7433899421
 20
150.9006252486
 30
0.0
 10
120.9339893785
 20
151.0269127829
 30
0.0
 10
121.0903239753
 20
151.2021046891
 30
0.0
 10
121.1833741964
 20
151.3471998171
 30
0.0
  0
SPLINE
  5
576
100
AcDbEntity
  8
0
100
AcDbSpline
 62
7
  6
CONTINUOUS
 70
0
 71
3
 72
9
 73
5
 74
0
 42
0.0000001
 43
0.0000001
 44
0.0000000001
 40
0.0
 40
0.0
 40
0.0
 40
0.0
 40
0.2255815202
 40
1.0
 40
1.0
 40
1.0
 40
1.0
 10
121.1833741964
 20
151.3471998171
 30
0.0
 10
121.2405957867
 20
151.4364266225
 30
0.0
 10
121.4566051898
 20
151.8564196827
 30
0.0
 10
121.5234946169
 20
152.3397163891
 30
0.0
 10
121.5234946169
 20
152.7036087158
 30
0.0
  0
SPLINE
  5
577
100
AcDbEntity
  8
0
100
AcDbSpline
 62
7
  6
CONTINUOUS
 70
0
 71
3
 72
9
 73
5
 74
0
 42
0.0000001
 43
0.0000001
 44
0.0000000001
 40
0.0
 40
0.0
 40
0.0
 40
0.0
 40
0.499547308
 40
1.0
 40
1.0
 40
1.0
 40
1.0
 10
151.045961326
 20
386.0647251809
 30
0.0
 10
150.9830531962
 20
386.028405372
 30
0.0
 10
150.8835023614
 20
385.9136661427
 30
0.0
 10
150.8338344772
 20
385.770077322
 30
0.0
 10
150.8338351527
 20
385.6973057258
 30
0.0
  0
SPLINE
  5
578
100
AcDbEntity
  8
0
100
AcDbSpline
 62
7
  6
CONTINUOUS
 70
0
 71
3
 72
9
 73
5
 74
0
 42
0.0000001
 43
0.0000001
 44
0.0000000001
 40
0.0
 40
0.0
 40
0.0
 40
0.0
 40
0.2447760143
 40
1.0
 40
1.0
 40
1.0
 40
1.0
 10
171.2533542712
 20
180.0633995556
 30
0.0
 10
171.3017352902
 20
180.0913341251
 30
0.0
 10
171.4923347265
 20
180.2176216594
 30
0.0
 10
171.6486693233
 20
180.3928135657
 30
0.0
 10
171.7417195444
 20
180.5379086937
 30
0.0
  0
SPLINE
  5
579
100
AcDbEntity
  8
0
100
AcDbSpline
 62
7
  6
CONTINUOUS
 70
0
 71
3
 72
9
 73
5
 74
0
 42
0.0000001
 43
0.0000001
 44
0.0000000001
 40
0.0
 40
0.0
 40
0.0
 40
0.0
 40
0.2255815202
 40
1.0
 40
1.0
 40
1.0
 40
1.0
 10
171.7417195444
 20
180.5379086937
 30
0.0
 10
171.7989411347
 20
180.6271354991
 30
0.0
 10
172.0149505378
 20
181.0471285592
 30
0.0
 10
172.0818399649
 20
181.5304252657
 30
0.0
 10
172.0818399649
 20
181.8943175923
 30
0.0
  0
SPLINE
  5
57A
100
AcDbEntity
  8
0
100
AcDbSpline
 62
7
  6
CONTINUOUS
 70
0
 71
3
 72
9
 73
5
 74
0
 42
0.0000001
 43
0.0000001
 44
0.0000000001
 40
0.0
 40
0.0
 40
0.0
 40
0.0
 40
0.5521985047
 40
1.0
 40
1.0
 40
1.0
 40
1.0
 10
151.102535122
 20
390.669805131
 30
0.0
 10
151.0576966368
 20
390.643917774
 30
0.0
 10
150.967143138
 20
390.6071134485
 30
0.0
 10
150.8670549511
 20
390.631402585
 30
0.0
 10
150.8338351527
 20
390.6570796866
 30
0.0
  0
SPLINE
  5
57B
100
AcDbEntity
  8
0
100
AcDbSpline
 62
7
  6
CONTINUOUS
 70
0
 71
3
 72
9
 73
5
 74
0
 42
0.0000001
 43
0.0000001
 44
0.0000000001
 40
0.0
 40
0.0
 40
0.0
 40
0.0
 40
0.4999998778
 40
1.0
 40
1.0
 40
1.0
 40
1.0
 10
124.7402868545
 20
127.0278353581
 30
0.0
 10
124.5723831001
 20
127.1247744203
 30
0.0
 10
124.1746001314
 20
127.2014386046
 30
0.0
 10
123.776817153
 20
127.1247748069
 30
0.0
 10
123.6089131592
 20
127.0278359696
 30
0.0
  0
SPLINE
  5
57C
100
AcDbEntity
  8
0
100
AcDbSpline
 62
7
  6
CONTINUOUS
 70
0
 71
3
 72
15
 73
11
 74
0
 42
0.0000001
 43
0.0000001
 44
0.0000000001
 40
0.0
 40
0.0
 40
0.0
 40
0.0
 40
0.0869472959
 40
0.186470978
 40
0.3039061374
 40
0.4377289809
 40
0.5822072921
 40
0.7294751244
 40
0.8712123341
 40
1.0
 40
1.0
 40
1.0
 40
1.0
 10
103.2959558297
 20
90.7947545931
 30
0.0
 10
103.5459385689
 20
90.9380409985
 30
0.0
 10
104.1733400557
 20
91.0973742054
 30
0.0
 10
105.1821556906
 20
90.8934174268
 30
0.0
 10
106.2125996269
 20
90.3292134007
 30
0.0
 10
107.2004945171
 20
89.4533359418
 30
0.0
 10
108.0723840301
 20
88.3360771185
 30
0.0
 10
108.7590375337
 20
87.066423423
 30
0.0
 10
109.2042981581
 20
85.748559433
 30
0.0
 10
109.3237076241
 20
84.8510536577
 30
0.0
 10
109.3237076241
 20
84.4242621789
 30
0.0
  0
SPLINE
  5
57D
100
AcDbEntity
  8
0
100
AcDbSpline
 62
7
  6
CONTINUOUS
 70
0
 71
3
 72
9
 73
5
 74
0
 42
0.0000001
 43
0.0000001
 44
0.0000000001
 40
0.0
 40
0.0
 40
0.0
 40
0.0
 40
0.5306762212
 40
1.0
 40
1.0
 40
1.0
 40
1.0
 10
144.3996165817
 20
192.5869252754
 30
0.0
 10
143.1639281806
 20
193.1074852971
 30
0.0
 10
140.722705215
 20
193.8578057541
 30
0.0
 10
138.1448561488
 20
193.8887071727
 30
0.0
 10
136.9769749943
 20
193.6831001954
 30
0.0
  0
SPLINE
  5
57E
100
AcDbEntity
  8
0
100
AcDbSpline
 62
7
  6
CONTINUOUS
 70
0
 71
3
 72
9
 73
5
 74
0
 42
0.0000001
 43
0.0000001
 44
0.0000000001
 40
0.0
 40
0.0
 40
0.0
 40
0.0
 40
0.2461761779
 40
1.0
 40
1.0
 40
1.0
 40
1.0
 10
173.3438053481
 20
49.4755453459
 30
0.0
 10
173.3938991172
 20
49.5044719165
 30
0.0
 10
173.6034781807
 20
49.6113151519
 30
0.0
 10
173.8356931949
 20
49.6718790047
 30
0.0
 10
174.0116668365
 20
49.6920974385
 30
0.0
  0
SPLINE
  5
57F
100
AcDbEntity
  8
0
100
AcDbSpline
 62
7
  6
CONTINUOUS
 70
0
 71
3
 72
12
 73
8
 74
0
 42
0.0000001
 43
0.0000001
 44
0.0000000001
 40
0.0
 40
0.0
 40
0.0
 40
0.0
 40
0.1987268057
 40
0.3221637399
 40
0.4576185186
 40
0.7410228444
 40
1.0
 40
1.0
 40
1.0
 40
1.0
 10
174.0116668365
 20
49.6920974385
 30
0.0
 10
174.6051765148
 20
49.760288538
 30
0.0
 10
175.6014831937
 20
49.4268671409
 30
0.0
 10
176.7037295999
 20
48.6128869373
 30
0.0
 10
177.8336649548
 20
47.4222074514
 30
0.0
 10
178.8701406186
 20
45.6381719689
 30
0.0
 10
179.2588128327
 20
44.0101860626
 30
0.0
 10
179.2588128327
 20
43.2316467108
 30
0.0
  0
SPLINE
  5
580
100
AcDbEntity
  8
0
100
AcDbSpline
 62
7
  6
CONTINUOUS
 70
0
 71
3
 72
9
 73
5
 74
0
 42
0.0000001
 43
0.0000001
 44
0.0000000001
 40
0.0
 40
0.0
 40
0.0
 40
0.0
 40
0.2538756335
 40
1.0
 40
1.0
 40
1.0
 40
1.0
 10
136.8279190791
 20
193.6556365236
 30
0.0
 10
136.6400182977
 20
193.61946511
 30
0.0
 10
135.9043914258
 20
193.4547468004
 30
0.0
 10
135.1890463296
 20
193.1977975981
 30
0.0
 10
134.6813094463
 20
192.9560117589
 30
0.0
  0
SPLINE
  5
581
100
AcDbEntity
  8
0
100
AcDbSpline
 62
7
  6
CONTINUOUS
 70
0
 71
3
 72
12
 73
8
 74
0
 42
0.0000001
 43
0.0000001
 44
0.0000000001
 40
0.0
 40
0.0
 40
0.0
 40
0.0
 40
0.2588733023
 40
0.5536527512
 40
0.6923504102
 40
0.8142021288
 40
1.0
 40
1.0
 40
1.0
 40
1.0
 10
155.7410515589
 20
201.6279145996
 30
0.0
 10
155.6469091766
 20
201.5531043489
 30
0.0
 10
155.3936926484
 20
201.4628599388
 30
0.0
 10
155.0671194178
 20
201.4626295804
 30
0.0
 10
154.8165513624
 20
201.534437009
 30
0.0
 10
154.6345445934
 20
201.6308772287
 30
0.0
 10
154.5380918024
 20
201.7672808048
 30
0.0
 10
154.5380456497
 20
201.8535842175
 30
0.0
  0
SPLINE
  5
582
100
AcDbEntity
  8
0
100
AcDbSpline
 62
7
  6
CONTINUOUS
 70
0
 71
3
 72
8
 73
4
 74
0
 42
0.0000001
 43
0.0000001
 44
0.0000000001
 40
0.0
 40
0.0
 40
0.0
 40
0.0
 40
1.0
 40
1.0
 40
1.0
 40
1.0
 10
178.298295271
 20
40.9047932284
 30
0.0
 10
178.4214940546
 20
40.9764328335
 30
0.0
 10
178.5362392992
 20
41.0646921184
 30
0.0
 10
178.6377478091
 20
41.1647230922
 30
0.0
  0
SPLINE
  5
583
100
AcDbEntity
  8
0
100
AcDbSpline
 62
7
  6
CONTINUOUS
 70
0
 71
3
 72
9
 73
5
 74
0
 42
0.0000001
 43
0.0000001
 44
0.0000000001
 40
0.0
 40
0.0
 40
0.0
 40
0.0
 40
0.455848626
 40
1.0
 40
1.0
 40
1.0
 40
1.0
 10
178.6377478091
 20
41.1647230922
 30
0.0
 10
178.8739807954
 20
41.3975175221
 30
0.0
 10
179.243702542
 20
42.0598383156
 30
0.0
 10
179.3294050976
 20
42.7949834388
 30
0.0
 10
179.3294050976
 20
43.1908911696
 30
0.0
  0
SPLINE
  5
584
100
AcDbEntity
  8
0
100
AcDbSpline
 62
7
  6
CONTINUOUS
 70
0
 71
3
 72
11
 73
7
 74
0
 42
0.0000001
 43
0.0000001
 44
0.0000000001
 40
0.0
 40
0.0
 40
0.0
 40
0.0
 40
0.2177660095
 40
0.4508968553
 40
0.7103699668
 40
1.0
 40
1.0
 40
1.0
 40
1.0
 10
108.7899089163
 20
81.2683604354
 30
0.0
 10
108.9877666254
 20
81.3826977751
 30
0.0
 10
109.3582655984
 20
81.6937024157
 30
0.0
 10
109.7524399322
 20
82.3384875783
 30
0.0
 10
109.9864441813
 20
83.132872498
 30
0.0
 10
110.0326437429
 20
83.7110360859
 30
0.0
 10
110.0326437429
 20
84.0149669794
 30
0.0
  0
SPLINE
  5
585
100
AcDbEntity
  8
0
100
AcDbSpline
 62
7
  6
CONTINUOUS
 70
0
 71
3
 72
11
 73
7
 74
0
 42
0.0000001
 43
0.0000001
 44
0.0000000001
 40
0.0
 40
0.0
 40
0.0
 40
0.0
 40
0.2177599262
 40
0.4509380008
 40
0.7102068002
 40
1.0
 40
1.0
 40
1.0
 40
1.0
 10
157.5723745916
 20
147.3378458081
 30
0.0
 10
158.4134351227
 20
147.8234710297
 30
0.0
 10
159.9875075314
 20
149.1464396244
 30
0.0
 10
161.6623716595
 20
151.8858528505
 30
0.0
 10
162.6584191866
 20
155.2617332662
 30
0.0
 10
162.8537112089
 20
157.7189390091
 30
0.0
 10
162.8537112089
 20
159.0113942249
 30
0.0
  0
SPLINE
  5
586
100
AcDbEntity
  8
0
100
AcDbSpline
 62
7
  6
CONTINUOUS
 70
0
 71
3
 72
15
 73
11
 74
0
 42
0.0000001
 43
0.0000001
 44
0.0000000001
 40
0.0
 40
0.0
 40
0.0
 40
0.0
 40
0.0869302718
 40
0.1864000368
 40
0.3037880336
 40
0.4376004358
 40
0.582099273
 40
0.7294176325
 40
0.8711704074
 40
1.0
 40
1.0
 40
1.0
 40
1.0
 10
103.4971549704
 20
92.068720397
 30
0.0
 10
103.79678126
 20
92.2418692162
 30
0.0
 10
104.5498280849
 20
92.4352408651
 30
0.0
 10
105.7617527511
 20
92.1925738036
 30
0.0
 10
106.9999600906
 20
91.5162537204
 30
0.0
 10
108.1872438089
 20
90.4649398644
 30
0.0
 10
109.2354382075
 20
89.1231273954
 30
0.0
 10
110.0607668623
 20
87.5978004585
 30
0.0
 10
110.5962524462
 20
86.0144490635
 30
0.0
 10
110.7397450091
 20
84.9360639603
 30
0.0
 10
110.7397450091
 20
84.4232096489
 30
0.0
  0
SPLINE
  5
587
100
AcDbEntity
  8
0
100
AcDbSpline
 62
7
  6
CONTINUOUS
 70
0
 71
3
 72
9
 73
5
 74
0
 42
0.0000001
 43
0.0000001
 44
0.0000000001
 40
0.0
 40
0.0
 40
0.0
 40
0.0
 40
0.5180432139
 40
1.0
 40
1.0
 40
1.0
 40
1.0
 10
116.2849242991
 20
88.0086976158
 30
0.0
 10
116.3631570648
 20
88.1956833995
 30
0.0
 10
116.5588733448
 20
88.5409462133
 30
0.0
 10
116.8522138141
 20
88.8118957659
 30
0.0
 10
117.010787368
 20
88.9139451486
 30
0.0
  0
SPLINE
  5
588
100
AcDbEntity
  8
0
100
AcDbSpline
 62
7
  6
CONTINUOUS
 70
0
 71
3
 72
15
 73
11
 74
0
 42
0.0000001
 43
0.0000001
 44
0.0000000001
 40
0.0
 40
0.0
 40
0.0
 40
0.0
 40
0.0869472959
 40
0.186470978
 40
0.3039061374
 40
0.4377289809
 40
0.5822072921
 40
0.7294751244
 40
0.8712123341
 40
1.0
 40
1.0
 40
1.0
 40
1.0
 10
174.0069283444
 20
49.9706791411
 30
0.0
 10
174.2569110836
 20
50.1139655464
 30
0.0
 10
174.8843125704
 20
50.2732987533
 30
0.0
 10
175.8931282053
 20
50.0693419747
 30
0.0
 10
176.9235721416
 20
49.5051379486
 30
0.0
 10
177.9114670318
 20
48.6292604898
 30
0.0
 10
178.7833565448
 20
47.5120016665
 30
0.0
 10
179.4700100484
 20
46.242347971
 30
0.0
 10
179.9152706728
 20
44.924483981
 30
0.0
 10
180.0346801388
 20
44.0269782057
 30
0.0
 10
180.0346801388
 20
43.6001867268
 30
0.0
  0
SPLINE
  5
589
100
AcDbEntity
  8
0
100
AcDbSpline
 62
7
  6
CONTINUOUS
 70
0
 71
3
 72
10
 73
6
 74
0
 42
0.0000001
 43
0.0000001
 44
0.0000000001
 40
0.0
 40
0.0
 40
0.0
 40
0.0
 40
0.0992051719
 40
0.2979066519
 40
1.0
 40
1.0
 40
1.0
 40
1.0
 10
154.7051960758
 20
209.2100427719
 30
0.0
 10
154.7092979045
 20
209.203372536
 30
0.0
 10
154.6997567492
 20
209.1767366519
 30
0.0
 10
154.6497392136
 20
209.1203733741
 30
0.0
 10
154.5943699904
 20
209.0719622196
 30
0.0
 10
154.5509827747
 20
209.0374845656
 30
0.0
  0
SPLINE
  5
58A
100
AcDbEntity
  8
0
100
AcDbSpline
 62
7
  6
CONTINUOUS
 70
0
 71
3
 72
11
 73
7
 74
0
 42
0.0000001
 43
0.0000001
 44
0.0000000001
 40
0.0
 40
0.0
 40
0.0
 40
0.0
 40
0.2177660095
 40
0.4508968553
 40
0.7103699668
 40
1.0
 40
1.0
 40
1.0
 40
1.0
 10
179.500881431
 20
40.4442849833
 30
0.0
 10
179.6987391401
 20
40.5586223231
 30
0.0
 10
180.0692381131
 20
40.8696269637
 30
0.0
 10
180.4634124469
 20
41.5144121263
 30
0.0
 10
180.697416696
 20
42.308797046
 30
0.0
 10
180.7436162576
 20
42.8869606338
 30
0.0
 10
180.7436162576
 20
43.1908915273
 30
0.0
  0
SPLINE
  5
58B
100
AcDbEntity
  8
0
100
AcDbSpline
 62
7
  6
CONTINUOUS
 70
0
 71
3
 72
11
 73
7
 74
0
 42
0.0000001
 43
0.0000001
 44
0.0000000001
 40
0.0
 40
0.0
 40
0.0
 40
0.0
 40
0.2177499957
 40
0.4508919044
 40
0.7104630441
 40
1.0
 40
1.0
 40
1.0
 40
1.0
 10
105.0578188968
 20
284.5095412587
 30
0.0
 10
105.2194375119
 20
284.6028397258
 30
0.0
 10
105.5221328559
 20
284.8567126972
 30
0.0
 10
105.8441013961
 20
285.3834028807
 30
0.0
 10
106.0349832948
 20
286.0322391992
 30
0.0
 10
106.0728573237
 20
286.5044010704
 30
0.0
 10
106.0728573237
 20
286.7525386481
 30
0.0
  0
SPLINE
  5
58C
100
AcDbEntity
  8
0
100
AcDbSpline
 62
7
  6
CONTINUOUS
 70
0
 71
3
 72
15
 73
11
 74
0
 42
0.0000001
 43
0.0000001
 44
0.0000000001
 40
0.0
 40
0.0
 40
0.0
 40
0.0
 40
0.1288285297
 40
0.2705731043
 40
0.4178848725
 40
0.5623830488
 40
0.6962002801
 40
0.8135916328
 40
0.9130641676
 40
1.0
 40
1.0
 40
1.0
 40
1.0
 10
110.0326437429
 20
288.1405712618
 30
0.0
 10
110.0326437429
 20
288.6534206489
 30
0.0
 10
109.8891608586
 20
289.7317680766
 30
0.0
 10
109.353703431
 20
291.3150585156
 30
0.0
 10
108.5284334952
 20
292.8403436417
 30
0.0
 10
107.480267385
 20
294.1821626216
 30
0.0
 10
106.2929869658
 20
295.2335225869
 30
0.0
 10
105.0547568109
 20
295.9098878524
 30
0.0
 10
103.8427936816
 20
296.1525961197
 30
0.0
 10
103.0897089407
 20
295.9592244548
 30
0.0
 10
102.790063111
 20
295.7860661422
 30
0.0
  0
SPLINE
  5
58D
100
AcDbEntity
  8
0
100
AcDbSpline
 62
7
  6
CONTINUOUS
 70
0
 71
3
 72
11
 73
7
 74
0
 42
0.0000001
 43
0.0000001
 44
0.0000000001
 40
0.0
 40
0.0
 40
0.0
 40
0.0
 40
0.2894836687
 40
0.5490925387
 40
0.7822836059
 40
1.0
 40
1.0
 40
1.0
 40
1.0
 10
109.3237076241
 20
288.5498664613
 30
0.0
 10
109.3237076241
 20
288.2973544176
 30
0.0
 10
109.2852254221
 20
287.8168074369
 30
0.0
 10
109.0914466726
 20
287.156261185
 30
0.0
 10
108.7645711645
 20
286.6197156339
 30
0.0
 10
108.4573025303
 20
286.3604122424
 30
0.0
 10
108.2931361099
 20
286.2649375597
 30
0.0
  0
SPLINE
  5
58E
100
AcDbEntity
  8
0
100
AcDbSpline
 62
7
  6
CONTINUOUS
 70
0
 71
3
 72
15
 73
11
 74
0
 42
0.0000001
 43
0.0000001
 44
0.0000000001
 40
0.0
 40
0.0
 40
0.0
 40
0.0
 40
0.1285595545
 40
0.2700128372
 40
0.4170385419
 40
0.5614128145
 40
0.6953294325
 40
0.8130474709
 40
0.9129216152
 40
1.0
 40
1.0
 40
1.0
 40
1.0
 10
108.6184325829
 20
288.1405709041
 30
0.0
 10
108.6184325829
 20
288.5655227779
 30
0.0
 10
108.5001048473
 20
289.4590523762
 30
0.0
 10
108.0584776672
 20
290.7717186704
 30
0.0
 10
107.3770197049
 20
292.0375596227
 30
0.0
 10
106.5109401513
 20
293.1536121757
 30
0.0
 10
105.528502049
 20
294.0317033346
 30
0.0
 10
104.5022904486
 20
294.6019017151
 30
0.0
 10
103.4964715534
 20
294.816228255
 30
0.0
 10
102.8669607908
 20
294.6679895092
 30
0.0
 10
102.6146234939
 20
294.5295131676
 30
0.0
  0
SPLINE
  5
58F
100
AcDbEntity
  8
0
100
AcDbSpline
 62
7
  6
CONTINUOUS
 70
0
 71
3
 72
9
 73
5
 74
0
 42
0.0000001
 43
0.0000001
 44
0.0000000001
 40
0.0
 40
0.0
 40
0.0
 40
0.0
 40
0.2827564804
 40
1.0
 40
1.0
 40
1.0
 40
1.0
 10
108.547840318
 20
288.1813264452
 30
0.0
 10
108.547840318
 20
287.9964185315
 30
0.0
 10
108.5101794936
 20
287.346616692
 30
0.0
 10
108.2874274926
 20
286.6821955014
 30
0.0
 10
107.9866173789
 20
286.3223184724
 30
0.0
  0
SPLINE
  5
590
100
AcDbEntity
  8
0
100
AcDbSpline
 62
7
  6
CONTINUOUS
 70
0
 71
3
 72
8
 73
4
 74
0
 42
0.0000001
 43
0.0000001
 44
0.0000000001
 40
0.0
 40
0.0
 40
0.0
 40
0.0
 40
1.0
 40
1.0
 40
1.0
 40
1.0
 10
107.8794390116
 20
286.2049915284
 30
0.0
 10
107.7763677501
 20
286.1018592187
 30
0.0
 10
107.6590510336
 20
286.0111255082
 30
0.0
 10
107.5327745725
 20
285.938226855
 30
0.0
  0
SPLINE
  5
591
100
AcDbEntity
  8
0
100
AcDbSpline
 62
7
  6
CONTINUOUS
 70
0
 71
3
 72
11
 73
7
 74
0
 42
0.0000001
 43
0.0000001
 44
0.0000000001
 40
0.0
 40
0.0
 40
0.0
 40
0.0
 40
0.2895359456
 40
0.5491067338
 40
0.7822490569
 40
1.0
 40
1.0
 40
1.0
 40
1.0
 10
102.6080206007
 20
292.7537785781
 30
0.0
 10
102.3931324848
 20
292.877841483
 30
0.0
 10
101.9653019877
 20
293.0811124657
 30
0.0
 10
101.3079696383
 20
293.2402122411
 30
0.0
 10
100.6908744082
 20
293.2247216781
 30
0.0
 10
100.3196753244
 20
293.0895202306
 30
0.0
 10
100.1580703291
 20
292.9962066151
 30
0.0
  0
SPLINE
  5
592
100
AcDbEntity
  8
0
100
AcDbSpline
 62
7
  6
CONTINUOUS
 70
0
 71
3
 72
11
 73
7
 74
0
 42
0.0000001
 43
0.0000001
 44
0.0000000001
 40
0.0
 40
0.0
 40
0.0
 40
0.0
 40
0.2372480941
 40
0.5000010917
 40
0.7627534955
 40
1.0
 40
1.0
 40
1.0
 40
1.0
 10
106.0728573237
 20
286.7525386481
 30
0.0
 10
106.0728573237
 20
287.3205623673
 30
0.0
 10
105.8599050084
 20
288.5184833741
 30
0.0
 10
105.1170449426
 20
290.2015426609
 30
0.0
 10
104.0308984135
 20
291.6863999896
 30
0.0
 10
103.0999430575
 20
292.4697734403
 30
0.0
 10
102.6080206007
 20
292.7537785781
 30
0.0
  0
SPLINE
  5
593
100
AcDbEntity
  8
0
100
AcDbSpline
 62
7
  6
CONTINUOUS
 70
0
 71
3
 72
11
 73
7
 74
0
 42
0.0000001
 43
0.0000001
 44
0.0000000001
 40
0.0
 40
0.0
 40
0.0
 40
0.0
 40
0.2372539654
 40
0.5000012591
 40
0.7627478695
 40
1.0
 40
1.0
 40
1.0
 40
1.0
 10
105.3657505425
 20
286.7525369484
 30
0.0
 10
105.3657505425
 20
287.2626106817
 30
0.0
 10
105.1745078309
 20
288.338291668
 30
0.0
 10
104.5074427073
 20
289.8495869295
 30
0.0
 10
103.5321511511
 20
291.1829220482
 30
0.0
 10
102.6962045748
 20
291.8863747256
 30
0.0
 10
102.2544686821
 20
292.1414052926
 30
0.0
  0
SPLINE
  5
594
100
AcDbEntity
  8
0
100
AcDbSpline
 62
7
  6
CONTINUOUS
 70
0
 71
3
 72
9
 73
5
 74
0
 42
0.0000001
 43
0.0000001
 44
0.0000000001
 40
0.0
 40
0.0
 40
0.0
 40
0.0
 40
0.5403796847
 40
1.0
 40
1.0
 40
1.0
 40
1.0
 10
102.4004115923
 20
284.8759326255
 30
0.0
 10
102.6778516013
 20
284.7309604007
 30
0.0
 10
103.2268292468
 20
284.5189840813
 30
0.0
 10
103.8270511404
 20
284.5191696124
 30
0.0
 10
104.0845474018
 20
284.5868833262
 30
0.0
  0
SPLINE
  5
595
100
AcDbEntity
  8
0
100
AcDbSpline
 62
7
  6
CONTINUOUS
 70
0
 71
3
 72
9
 73
5
 74
0
 42
0.0000001
 43
0.0000001
 44
0.0000000001
 40
0.0
 40
0.0
 40
0.0
 40
0.0
 40
0.2526026187
 40
1.0
 40
1.0
 40
1.0
 40
1.0
 10
104.0845474018
 20
284.5868833262
 30
0.0
 10
104.1495061085
 20
284.6039654977
 30
0.0
 10
104.4022377979
 20
284.6877735366
 30
0.0
 10
104.6308122683
 20
284.841876856
 30
0.0
 10
104.7706659699
 20
284.9830715364
 30
0.0
  0
SPLINE
  5
596
100
AcDbEntity
  8
0
100
AcDbSpline
 62
7
  6
CONTINUOUS
 70
0
 71
3
 72
9
 73
5
 74
0
 42
0.0000001
 43
0.0000001
 44
0.0000000001
 40
0.0
 40
0.0
 40
0.0
 40
0.0
 40
0.4562611328
 40
1.0
 40
1.0
 40
1.0
 40
1.0
 10
104.7706659699
 20
284.9830715364
 30
0.0
 10
104.9742425468
 20
285.1886000952
 30
0.0
 10
105.2916418474
 20
285.7674237026
 30
0.0
 10
105.3657505425
 20
286.4077889281
 30
0.0
 10
105.3657505425
 20
286.7525369484
 30
0.0
  0
SPLINE
  5
597
100
AcDbEntity
  8
0
100
AcDbSpline
 62
7
  6
CONTINUOUS
 70
0
 71
3
 72
9
 73
5
 74
0
 42
0.0000001
 43
0.0000001
 44
0.0000000001
 40
0.0
 40
0.0
 40
0.0
 40
0.0
 40
0.2317160865
 40
1.0
 40
1.0
 40
1.0
 40
1.0
 10
99.1435275318
 20
290.2921011574
 30
0.0
 10
99.14585168
 20
290.1107054644
 30
0.0
 10
99.2063805313
 20
289.328695097
 30
0.0
 10
99.4393178019
 20
288.5656386881
 30
0.0
 10
99.6812637724
 20
288.0149555069
 30
0.0
  0
SPLINE
  5
598
100
AcDbEntity
  8
0
100
AcDbSpline
 62
7
  6
CONTINUOUS
 70
0
 71
3
 72
9
 73
5
 74
0
 42
0.0000001
 43
0.0000001
 44
0.0000000001
 40
0.0
 40
0.0
 40
0.0
 40
0.0
 40
0.5253544891
 40
1.0
 40
1.0
 40
1.0
 40
1.0
 10
99.9226029798
 20
287.5169368311
 30
0.0
 10
100.2095747931
 20
286.9763224344
 30
0.0
 10
100.8782138571
 20
286.0085650898
 30
0.0
 10
101.7755700323
 20
285.2326721794
 30
0.0
 10
102.2544686821
 20
284.95618617
 30
0.0
  0
SPLINE
  5
599
100
AcDbEntity
  8
0
100
AcDbSpline
 62
7
  6
CONTINUOUS
 70
0
 71
3
 72
9
 73
5
 74
0
 42
0.0000001
 43
0.0000001
 44
0.0000000001
 40
0.0
 40
0.0
 40
0.0
 40
0.0
 40
0.2617087631
 40
1.0
 40
1.0
 40
1.0
 40
1.0
 10
102.2544686821
 20
292.1414052926
 30
0.0
 10
102.1942416721
 20
292.1761765864
 30
0.0
 10
101.9608076647
 20
292.3030971574
 30
0.0
 10
101.7135961395
 20
292.4057324427
 30
0.0
 10
101.5256679259
 20
292.4620518112
 30
0.0
  0
SPLINE
  5
59A
100
AcDbEntity
  8
0
100
AcDbSpline
 62
7
  6
CONTINUOUS
 70
0
 71
3
 72
12
 73
8
 74
0
 42
0.0000001
 43
0.0000001
 44
0.0000000001
 40
0.0
 40
0.0
 40
0.0
 40
0.0
 40
0.2506035327
 40
0.363658844
 40
0.4749739549
 40
0.7134088806
 40
1.0
 40
1.0
 40
1.0
 40
1.0
 10
101.5256679259
 20
292.4620518112
 30
0.0
 10
101.2210838075
 20
292.5533312676
 30
0.0
 10
100.7411129927
 20
292.6124967829
 30
0.0
 10
100.1571454419
 20
292.4361586887
 30
0.0
 10
99.6598691904
 20
292.1076372861
 30
0.0
 10
99.2243808408
 20
291.3835506602
 30
0.0
 10
99.1431868216
 20
290.7086834816
 30
0.0
 10
99.1431868216
 20
290.3450545142
 30
0.0
  0
SPLINE
  5
59B
100
AcDbEntity
  8
0
100
AcDbSpline
 62
7
  6
CONTINUOUS
 70
0
 71
3
 72
15
 73
11
 74
0
 42
0.0000001
 43
0.0000001
 44
0.0000000001
 40
0.0
 40
0.0
 40
0.0
 40
0.0
 40
0.1288285297
 40
0.2705731043
 40
0.4178848725
 40
0.5623830488
 40
0.6962002801
 40
0.8135916328
 40
0.9130641676
 40
1.0
 40
1.0
 40
1.0
 40
1.0
 10
110.0326437429
 20
84.0149669794
 30
0.0
 10
110.0326437429
 20
84.5278163665
 30
0.0
 10
109.8891608586
 20
85.6061637942
 30
0.0
 10
109.353703431
 20
87.1894542332
 30
0.0
 10
108.5284334952
 20
88.7147393593
 30
0.0
 10
107.480267385
 20
90.0565583392
 30
0.0
 10
106.2929869658
 20
91.1079183045
 30
0.0
 10
105.0547568109
 20
91.78428357
 30
0.0
 10
103.8427936816
 20
92.0269918373
 30
0.0
 10
103.0897089407
 20
91.8336201724
 30
0.0
 10
102.790063111
 20
91.6604618598
 30
0.0
  0
SPLINE
  5
59C
100
AcDbEntity
  8
0
100
AcDbSpline
 62
7
  6
CONTINUOUS
 70
0
 71
3
 72
11
 73
7
 74
0
 42
0.0000001
 43
0.0000001
 44
0.0000000001
 40
0.0
 40
0.0
 40
0.0
 40
0.0
 40
0.2894836687
 40
0.5490925387
 40
0.7822836059
 40
1.0
 40
1.0
 40
1.0
 40
1.0
 10
109.3237076241
 20
84.4242621789
 30
0.0
 10
109.3237076241
 20
84.1717501352
 30
0.0
 10
109.2852254221
 20
83.6912031545
 30
0.0
 10
109.0914466726
 20
83.0306569026
 30
0.0
 10
108.7645711645
 20
82.4941113515
 30
0.0
 10
108.4573025303
 20
82.2348079601
 30
0.0
 10
108.2931361099
 20
82.1393332774
 30
0.0
  0
SPLINE
  5
59D
100
AcDbEntity
  8
0
100
AcDbSpline
 62
7
  6
CONTINUOUS
 70
0
 71
3
 72
15
 73
11
 74
0
 42
0.0000001
 43
0.0000001
 44
0.0000000001
 40
0.0
 40
0.0
 40
0.0
 40
0.0
 40
0.1285595545
 40
0.2700128372
 40
0.4170385419
 40
0.5614128145
 40
0.6953294325
 40
0.8130474709
 40
0.9129216152
 40
1.0
 40
1.0
 40
1.0
 40
1.0
 10
108.6184325829
 20
84.0149666217
 30
0.0
 10
108.6184325829
 20
84.4399184956
 30
0.0
 10
108.5001048473
 20
85.3334480938
 30
0.0
 10
108.0584776672
 20
86.646114388
 30
0.0
 10
107.3770197049
 20
87.9119553403
 30
0.0
 10
106.5109401513
 20
89.0280078933
 30
0.0
 10
105.528502049
 20
89.9060990522
 30
0.0
 10
104.5022904486
 20
90.4762974327
 30
0.0
 10
103.4964715534
 20
90.6906239726
 30
0.0
 10
102.8669607908
 20
90.5423852268
 30
0.0
 10
102.6146234939
 20
90.4039088852
 30
0.0
  0
SPLINE
  5
59E
100
AcDbEntity
  8
0
100
AcDbSpline
 62
7
  6
CONTINUOUS
 70
0
 71
3
 72
13
 73
9
 74
0
 42
0.0000001
 43
0.0000001
 44
0.0000000001
 40
0.0
 40
0.0
 40
0.0
 40
0.0
 40
0.3048742342
 40
0.5753065482
 40
0.6949986562
 40
0.80430526
 40
0.9049656589
 40
1.0
 40
1.0
 40
1.0
 40
1.0
 10
153.827181233
 20
182.2613481125
 30
0.0
 10
152.2517433556
 20
184.2228906591
 30
0.0
 10
148.9344251293
 20
187.6644340216
 30
0.0
 10
144.0924930461
 20
190.871417787
 30
0.0
 10
140.2074475278
 20
192.3005261608
 30
0.0
 10
137.5081438895
 20
192.7644403712
 30
0.0
 10
134.9717783392
 20
192.6413111814
 30
0.0
 10
133.4094759397
 20
192.1501071258
 30
0.0
 10
132.7014187021
 20
191.812928128
 30
0.0
  0
SPLINE
  5
59F
100
AcDbEntity
  8
0
100
AcDbSpline
 62
7
  6
CONTINUOUS
 70
0
 71
3
 72
9
 73
5
 74
0
 42
0.0000001
 43
0.0000001
 44
0.0000000001
 40
0.0
 40
0.0
 40
0.0
 40
0.0
 40
0.2827577405
 40
1.0
 40
1.0
 40
1.0
 40
1.0
 10
108.547840318
 20
84.0557221628
 30
0.0
 10
108.547840318
 20
83.870809354
 30
0.0
 10
108.5101714791
 20
83.2209956597
 30
0.0
 10
108.2874268827
 20
82.5565471115
 30
0.0
 10
107.9865934674
 20
82.196677175
 30
0.0
  0
SPLINE
  5
5A0
100
AcDbEntity
  8
0
100
AcDbSpline
 62
7
  6
CONTINUOUS
 70
0
 71
3
 72
8
 73
4
 74
0
 42
0.0000001
 43
0.0000001
 44
0.0000000001
 40
0.0
 40
0.0
 40
0.0
 40
0.0
 40
1.0
 40
1.0
 40
1.0
 40
1.0
 10
107.8792645324
 20
82.0792127288
 30
0.0
 10
107.7762325373
 20
81.9761580548
 30
0.0
 10
107.6589715346
 20
81.885494904
 30
0.0
 10
107.532765112
 20
81.8126402766
 30
0.0
  0
SPLINE
  5
5A1
100
AcDbEntity
  8
0
100
AcDbSpline
 62
7
  6
CONTINUOUS
 70
0
 71
3
 72
13
 73
9
 74
0
 42
0.0000001
 43
0.0000001
 44
0.0000000001
 40
0.0
 40
0.0
 40
0.0
 40
0.0
 40
0.0878388863
 40
0.1894084107
 40
0.3734742161
 40
0.586124241
 40
0.8035281926
 40
1.0
 40
1.0
 40
1.0
 40
1.0
 10
132.7014187021
 20
191.812928128
 30
0.0
 10
132.5962883406
 20
191.7653311115
 30
0.0
 10
132.3401998643
 20
191.7239661427
 30
0.0
 10
131.8565064233
 20
191.8483310815
 30
0.0
 10
131.307967432
 20
192.2315753475
 30
0.0
 10
130.7931371846
 20
192.8623613616
 30
0.0
 10
130.432120241
 20
193.6102689026
 30
0.0
 10
130.3278300194
 20
194.1542120519
 30
0.0
 10
130.326663075
 20
194.4123348411
 30
0.0
  0
SPLINE
  5
5A2
100
AcDbEntity
  8
0
100
AcDbSpline
 62
7
  6
CONTINUOUS
 70
0
 71
3
 72
11
 73
7
 74
0
 42
0.0000001
 43
0.0000001
 44
0.0000000001
 40
0.0
 40
0.0
 40
0.0
 40
0.0
 40
0.2895359456
 40
0.5491067338
 40
0.7822490569
 40
1.0
 40
1.0
 40
1.0
 40
1.0
 10
102.6080206007
 20
88.6281742957
 30
0.0
 10
102.3931324848
 20
88.7522372006
 30
0.0
 10
101.9653019877
 20
88.9555081833
 30
0.0
 10
101.3079696383
 20
89.1146079587
 30
0.0
 10
100.6908744082
 20
89.0991173957
 30
0.0
 10
100.3196753244
 20
88.9639159482
 30
0.0
 10
100.1580703291
 20
88.8706023327
 30
0.0
  0
SPLINE
  5
5A3
100
AcDbEntity
  8
0
100
AcDbSpline
 62
7
  6
CONTINUOUS
 70
0
 71
3
 72
11
 73
7
 74
0
 42
0.0000001
 43
0.0000001
 44
0.0000000001
 40
0.0
 40
0.0
 40
0.0
 40
0.0
 40
0.2372480941
 40
0.5000010917
 40
0.7627534955
 40
1.0
 40
1.0
 40
1.0
 40
1.0
 10
106.0728573237
 20
82.6269343657
 30
0.0
 10
106.0728573237
 20
83.1949580849
 30
0.0
 10
105.8599050084
 20
84.3928790917
 30
0.0
 10
105.1170449426
 20
86.0759383785
 30
0.0
 10
104.0308984135
 20
87.5607957072
 30
0.0
 10
103.0999430575
 20
88.3441691579
 30
0.0
 10
102.6080206007
 20
88.6281742957
 30
0.0
  0
SPLINE
  5
5A4
100
AcDbEntity
  8
0
100
AcDbSpline
 62
7
  6
CONTINUOUS
 70
0
 71
3
 72
11
 73
7
 74
0
 42
0.0000001
 43
0.0000001
 44
0.0000000001
 40
0.0
 40
0.0
 40
0.0
 40
0.0
 40
0.2372539654
 40
0.5000012591
 40
0.7627478695
 40
1.0
 40
1.0
 40
1.0
 40
1.0
 10
105.3657505425
 20
82.626932666
 30
0.0
 10
105.3657505425
 20
83.1370063993
 30
0.0
 10
105.1745078309
 20
84.2126873856
 30
0.0
 10
104.5074427073
 20
85.7239826471
 30
0.0
 10
103.5321511511
 20
87.0573177658
 30
0.0
 10
102.6962045748
 20
87.7607704432
 30
0.0
 10
102.2544686821
 20
88.0158010102
 30
0.0
  0
SPLINE
  5
5A5
100
AcDbEntity
  8
0
100
AcDbSpline
 62
7
  6
CONTINUOUS
 70
0
 71
3
 72
9
 73
5
 74
0
 42
0.0000001
 43
0.0000001
 44
0.0000000001
 40
0.0
 40
0.0
 40
0.0
 40
0.0
 40
0.5403796847
 40
1.0
 40
1.0
 40
1.0
 40
1.0
 10
102.4004115923
 20
80.7503283431
 30
0.0
 10
102.6778516013
 20
80.6053561184
 30
0.0
 10
103.2268292468
 20
80.3933797989
 30
0.0
 10
103.8270511404
 20
80.39356533
 30
0.0
 10
104.0845474018
 20
80.4612790438
 30
0.0
  0
SPLINE
  5
5A6
100
AcDbEntity
  8
0
100
AcDbSpline
 62
7
  6
CONTINUOUS
 70
0
 71
3
 72
9
 73
5
 74
0
 42
0.0000001
 43
0.0000001
 44
0.0000000001
 40
0.0
 40
0.0
 40
0.0
 40
0.0
 40
0.2526026187
 40
1.0
 40
1.0
 40
1.0
 40
1.0
 10
104.0845474018
 20
80.4612790438
 30
0.0
 10
104.1495061085
 20
80.4783612153
 30
0.0
 10
104.4022377979
 20
80.5621692543
 30
0.0
 10
104.6308122683
 20
80.7162725736
 30
0.0
 10
104.7706659699
 20
80.857467254
 30
0.0
  0
SPLINE
  5
5A7
100
AcDbEntity
  8
0
100
AcDbSpline
 62
7
  6
CONTINUOUS
 70
0
 71
3
 72
9
 73
5
 74
0
 42
0.0000001
 43
0.0000001
 44
0.0000000001
 40
0.0
 40
0.0
 40
0.0
 40
0.0
 40
0.4562611328
 40
1.0
 40
1.0
 40
1.0
 40
1.0
 10
104.7706659699
 20
80.857467254
 30
0.0
 10
104.9742425468
 20
81.0629958129
 30
0.0
 10
105.2916418474
 20
81.6418194202
 30
0.0
 10
105.3657505425
 20
82.2821846458
 30
0.0
 10
105.3657505425
 20
82.626932666
 30
0.0
  0
SPLINE
  5
5A8
100
AcDbEntity
  8
0
100
AcDbSpline
 62
7
  6
CONTINUOUS
 70
0
 71
3
 72
9
 73
5
 74
0
 42
0.0000001
 43
0.0000001
 44
0.0000000001
 40
0.0
 40
0.0
 40
0.0
 40
0.0
 40
0.2317160865
 40
1.0
 40
1.0
 40
1.0
 40
1.0
 10
99.1435275318
 20
86.166496875
 30
0.0
 10
99.14585168
 20
85.985101182
 30
0.0
 10
99.2063805313
 20
85.2030908146
 30
0.0
 10
99.4393178019
 20
84.4400344057
 30
0.0
 10
99.6812637724
 20
83.8893512245
 30
0.0
  0
SPLINE
  5
5A9
100
AcDbEntity
  8
0
100
AcDbSpline
 62
7
  6
CONTINUOUS
 70
0
 71
3
 72
9
 73
5
 74
0
 42
0.0000001
 43
0.0000001
 44
0.0000000001
 40
0.0
 40
0.0
 40
0.0
 40
0.0
 40
0.5253544891
 40
1.0
 40
1.0
 40
1.0
 40
1.0
 10
99.9226029798
 20
83.3913325487
 30
0.0
 10
100.2095747931
 20
82.850718152
 30
0.0
 10
100.8782138571
 20
81.8829608074
 30
0.0
 10
101.7755700323
 20
81.107067897
 30
0.0
 10
102.2544686821
 20
80.8305818876
 30
0.0
  0
SPLINE
  5
5AA
100
AcDbEntity
  8
0
100
AcDbSpline
 62
7
  6
CONTINUOUS
 70
0
 71
3
 72
9
 73
5
 74
0
 42
0.0000001
 43
0.0000001
 44
0.0000000001
 40
0.0
 40
0.0
 40
0.0
 40
0.0
 40
0.2617087631
 40
1.0
 40
1.0
 40
1.0
 40
1.0
 10
102.2544686821
 20
88.0158010102
 30
0.0
 10
102.1942416721
 20
88.050572304
 30
0.0
 10
101.9608076647
 20
88.177492875
 30
0.0
 10
101.7135961395
 20
88.2801281603
 30
0.0
 10
101.5256679259
 20
88.3364475288
 30
0.0
  0
SPLINE
  5
5AB
100
AcDbEntity
  8
0
100
AcDbSpline
 62
7
  6
CONTINUOUS
 70
0
 71
3
 72
12
 73
8
 74
0
 42
0.0000001
 43
0.0000001
 44
0.0000000001
 40
0.0
 40
0.0
 40
0.0
 40
0.0
 40
0.2506035327
 40
0.363658844
 40
0.4749739549
 40
0.7134088806
 40
1.0
 40
1.0
 40
1.0
 40
1.0
 10
101.5256679259
 20
88.3364475288
 30
0.0
 10
101.2210838075
 20
88.4277269852
 30
0.0
 10
100.7411129927
 20
88.4868925005
 30
0.0
 10
100.1571454419
 20
88.3105544063
 30
0.0
 10
99.6598691904
 20
87.9820330037
 30
0.0
 10
99.2243808408
 20
87.2579463778
 30
0.0
 10
99.1431868216
 20
86.5830791992
 30
0.0
 10
99.1431868216
 20
86.2194502318
 30
0.0
  0
SPLINE
  5
5AC
100
AcDbEntity
  8
0
100
AcDbSpline
 62
7
  6
CONTINUOUS
 70
0
 71
3
 72
9
 73
5
 74
0
 42
0.0000001
 43
0.0000001
 44
0.0000000001
 40
0.0
 40
0.0
 40
0.0
 40
0.0
 40
0.2541469331
 40
1.0
 40
1.0
 40
1.0
 40
1.0
 10
132.8413356738
 20
149.0235155459
 30
0.0
 10
133.1736756527
 20
148.637279147
 30
0.0
 10
134.5010379412
 20
147.1346526102
 30
0.0
 10
135.9076145833
 20
145.7015826735
 30
0.0
 10
137.0005402887
 20
144.6809935463
 30
0.0
  0
SPLINE
  5
5AD
100
AcDbEntity
  8
0
100
AcDbSpline
 62
7
  6
CONTINUOUS
 70
0
 71
3
 72
9
 73
5
 74
0
 42
0.0000001
 43
0.0000001
 44
0.0000000001
 40
0.0
 40
0.0
 40
0.0
 40
0.0
 40
0.2411086046
 40
1.0
 40
1.0
 40
1.0
 40
1.0
 10
162.8537112089
 20
159.0113942249
 30
0.0
 10
162.8537112089
 20
159.3880934719
 30
0.0
 10
162.8169703385
 20
160.9503776905
 30
0.0
 10
162.6399795903
 20
162.5082239596
 30
0.0
 10
162.4412926412
 20
163.6771220984
 30
0.0
  0
SPLINE
  5
5AE
100
AcDbEntity
  8
0
100
AcDbSpline
 62
7
  6
CONTINUOUS
 70
0
 71
3
 72
9
 73
5
 74
0
 42
0.0000001
 43
0.0000001
 44
0.0000000001
 40
0.0
 40
0.0
 40
0.0
 40
0.0
 40
0.2588244587
 40
1.0
 40
1.0
 40
1.0
 40
1.0
 10
162.4412926412
 20
163.6771220984
 30
0.0
 10
162.4359781392
 20
163.7083882081
 30
0.0
 10
162.4177461374
 20
163.8295561524
 30
0.0
 10
162.4089467489
 20
163.9522389516
 30
0.0
 10
162.4089467489
 20
164.0430574892
 30
0.0
  0
SPLINE
  5
5AF
100
AcDbEntity
  8
0
100
AcDbSpline
 62
7
  6
CONTINUOUS
 70
0
 71
3
 72
9
 73
5
 74
0
 42
0.0000001
 43
0.0000001
 44
0.0000000001
 40
0.0
 40
0.0
 40
0.0
 40
0.0
 40
0.5508398167
 40
1.0
 40
1.0
 40
1.0
 40
1.0
 10
162.4089467489
 20
164.0430574892
 30
0.0
 10
162.4089467489
 20
164.2340778314
 30
0.0
 10
162.4552788925
 20
164.588973038
 30
0.0
 10
162.688269895
 20
164.8807627085
 30
0.0
 10
162.8232164299
 20
164.9585480941
 30
0.0
  0
SPLINE
  5
5B0
100
AcDbEntity
  8
0
100
AcDbSpline
 62
7
  6
CONTINUOUS
 70
0
 71
3
 72
9
 73
5
 74
0
 42
0.0000001
 43
0.0000001
 44
0.0000000001
 40
0.0
 40
0.0
 40
0.0
 40
0.0
 40
0.246158825
 40
1.0
 40
1.0
 40
1.0
 40
1.0
 10
102.6328304196
 20
294.4252293527
 30
0.0
 10
102.6830299603
 20
294.454218421
 30
0.0
 10
102.8930800092
 20
294.5612788787
 30
0.0
 10
103.1258623866
 20
294.6218319201
 30
0.0
 10
103.3022423359
 20
294.6419546283
 30
0.0
  0
SPLINE
  5
5B1
100
AcDbEntity
  8
0
100
AcDbSpline
 62
7
  6
CONTINUOUS
 70
0
 71
3
 72
12
 73
8
 74
0
 42
0.0000001
 43
0.0000001
 44
0.0000000001
 40
0.0
 40
0.0
 40
0.0
 40
0.0
 40
0.1987599473
 40
0.3222050323
 40
0.457663635
 40
0.7410726542
 40
1.0
 40
1.0
 40
1.0
 40
1.0
 10
103.3022423359
 20
294.6419546283
 30
0.0
 10
103.895807171
 20
294.7096728241
 30
0.0
 10
104.8918064959
 20
294.3758293244
 30
0.0
 10
105.9937933431
 20
293.5616345414
 30
0.0
 10
107.1233513407
 20
292.3709160427
 30
0.0
 10
108.1594055353
 20
290.5871778036
 30
0.0
 10
108.547840318
 20
288.9595875798
 30
0.0
 10
108.547840318
 20
288.1813264452
 30
0.0
  0
SPLINE
  5
5B2
100
AcDbEntity
  8
0
100
AcDbSpline
 62
7
  6
CONTINUOUS
 70
0
 71
3
 72
8
 73
4
 74
0
 42
0.0000001
 43
0.0000001
 44
0.0000000001
 40
0.0
 40
0.0
 40
0.0
 40
0.0
 40
1.0
 40
1.0
 40
1.0
 40
1.0
 10
107.5873227563
 20
285.8544729628
 30
0.0
 10
107.7105215399
 20
285.926112568
 30
0.0
 10
107.8252667845
 20
286.0143718528
 30
0.0
 10
107.9267752944
 20
286.1144028266
 30
0.0
  0
SPLINE
  5
5B3
100
AcDbEntity
  8
0
100
AcDbSpline
 62
7
  6
CONTINUOUS
 70
0
 71
3
 72
9
 73
5
 74
0
 42
0.0000001
 43
0.0000001
 44
0.0000000001
 40
0.0
 40
0.0
 40
0.0
 40
0.0
 40
0.455848626
 40
1.0
 40
1.0
 40
1.0
 40
1.0
 10
107.9267752944
 20
286.1144028266
 30
0.0
 10
108.1630082807
 20
286.3471972565
 30
0.0
 10
108.5327300273
 20
287.0095180501
 30
0.0
 10
108.6184325829
 20
287.7446631733
 30
0.0
 10
108.6184325829
 20
288.1405709041
 30
0.0
  0
SPLINE
  5
5B4
100
AcDbEntity
  8
0
100
AcDbSpline
 62
7
  6
CONTINUOUS
 70
0
 71
3
 72
15
 73
11
 74
0
 42
0.0000001
 43
0.0000001
 44
0.0000000001
 40
0.0
 40
0.0
 40
0.0
 40
0.0
 40
0.0869472959
 40
0.186470978
 40
0.3039061374
 40
0.4377289809
 40
0.5822072921
 40
0.7294751244
 40
0.8712123341
 40
1.0
 40
1.0
 40
1.0
 40
1.0
 10
103.2959558297
 20
294.9203588755
 30
0.0
 10
103.5459385689
 20
295.0636452809
 30
0.0
 10
104.1733400557
 20
295.2229784878
 30
0.0
 10
105.1821556906
 20
295.0190217092
 30
0.0
 10
106.2125996269
 20
294.4548176831
 30
0.0
 10
107.2004945171
 20
293.5789402242
 30
0.0
 10
108.0723840301
 20
292.4616814009
 30
0.0
 10
108.7590375337
 20
291.1920277054
 30
0.0
 10
109.2042981581
 20
289.8741637154
 30
0.0
 10
109.3237076241
 20
288.9766579401
 30
0.0
 10
109.3237076241
 20
288.5498664613
 30
0.0
  0
SPLINE
  5
5B5
100
AcDbEntity
  8
0
100
AcDbSpline
 62
7
  6
CONTINUOUS
 70
0
 71
3
 72
11
 73
7
 74
0
 42
0.0000001
 43
0.0000001
 44
0.0000000001
 40
0.0
 40
0.0
 40
0.0
 40
0.0
 40
0.2177660095
 40
0.4508968553
 40
0.7103699668
 40
1.0
 40
1.0
 40
1.0
 40
1.0
 10
108.7899089163
 20
285.3939647178
 30
0.0
 10
108.9877666254
 20
285.5083020575
 30
0.0
 10
109.3582655984
 20
285.8193066981
 30
0.0
 10
109.7524399322
 20
286.4640918607
 30
0.0
 10
109.9864441813
 20
287.2584767804
 30
0.0
 10
110.0326437429
 20
287.8366403683
 30
0.0
 10
110.0326437429
 20
288.1405712618
 30
0.0
  0
SPLINE
  5
5B6
100
AcDbEntity
  8
0
100
AcDbSpline
 62
7
  6
CONTINUOUS
 70
0
 71
3
 72
9
 73
5
 74
0
 42
0.0000001
 43
0.0000001
 44
0.0000000001
 40
0.0
 40
0.0
 40
0.0
 40
0.0
 40
0.2615974294
 40
1.0
 40
1.0
 40
1.0
 40
1.0
 10
148.0989552029
 20
249.9601532206
 30
0.0
 10
147.9895144166
 20
249.9886497065
 30
0.0
 10
147.5742139552
 20
250.1085672323
 30
0.0
 10
147.1708246689
 20
250.2728624479
 30
0.0
 10
146.8893413332
 20
250.423413262
 30
0.0
  0
SPLINE
  5
5B7
100
AcDbEntity
  8
0
100
AcDbSpline
 62
7
  6
CONTINUOUS
 70
0
 71
3
 72
11
 73
7
 74
0
 42
0.0000001
 43
0.0000001
 44
0.0000000001
 40
0.0
 40
0.0
 40
0.0
 40
0.0
 40
0.2895130093
 40
0.5490921553
 40
0.7822543301
 40
1.0
 40
1.0
 40
1.0
 40
1.0
 10
146.7669524425
 20
250.4914207585
 30
0.0
 10
146.5697860192
 20
250.6052522709
 30
0.0
 10
146.2119561462
 20
250.8519321905
 30
0.0
 10
145.7837948013
 20
251.3011465096
 30
0.0
 10
145.5126330053
 20
251.7984436697
 30
0.0
 10
145.4493470259
 20
252.1553727343
 30
0.0
 10
145.4491295
 20
252.3266031707
 30
0.0
  0
SPLINE
  5
5B8
100
AcDbEntity
  8
0
100
AcDbSpline
 62
7
  6
CONTINUOUS
 70
0
 71
3
 72
10
 73
6
 74
0
 42
0.0000001
 43
0.0000001
 44
0.0000000001
 40
0.0
 40
0.0
 40
0.0
 40
0.0
 40
0.2297848053
 40
0.4827899501
 40
1.0
 40
1.0
 40
1.0
 40
1.0
 10
118.4792043249
 20
278.7740143938
 30
0.0
 10
118.1019327797
 20
278.9918273453
 30
0.0
 10
117.3700332235
 20
279.5579766184
 30
0.0
 10
116.1225989539
 20
280.9924400815
 30
0.0
 10
115.4505403995
 20
282.3346142338
 30
0.0
 10
115.1843158202
 20
283.278324473
 30
0.0
  0
SPLINE
  5
5B9
100
AcDbEntity
  8
0
100
AcDbSpline
 62
7
  6
CONTINUOUS
 70
0
 71
3
 72
9
 73
5
 74
0
 42
0.0000001
 43
0.0000001
 44
0.0000000001
 40
0.0
 40
0.0
 40
0.0
 40
0.0
 40
0.2670584762
 40
1.0
 40
1.0
 40
1.0
 40
1.0
 10
148.290628399
 20
251.9058075917
 30
0.0
 10
148.2150021558
 20
251.9347601763
 30
0.0
 10
147.9357168497
 20
252.0525086678
 30
0.0
 10
147.6710076241
 20
252.2090149225
 30
0.0
 10
147.4988985125
 20
252.349627609
 30
0.0
  0
SPLINE
  5
5BA
100
AcDbEntity
  8
0
100
AcDbSpline
 62
7
  6
CONTINUOUS
 70
0
 71
3
 72
9
 73
5
 74
0
 42
0.0000001
 43
0.0000001
 44
0.0000000001
 40
0.0
 40
0.0
 40
0.0
 40
0.0
 40
0.265319128
 40
1.0
 40
1.0
 40
1.0
 40
1.0
 10
147.4988985125
 20
252.349627609
 30
0.0
 10
147.4601362059
 20
252.3812963104
 30
0.0
 10
147.3183579747
 20
252.5056686309
 30
0.0
 10
147.1944582672
 20
252.6517406513
 30
0.0
 10
147.1218104243
 20
252.7697784093
 30
0.0
  0
SPLINE
  5
5BB
100
AcDbEntity
  8
0
100
AcDbSpline
 62
7
  6
CONTINUOUS
 70
0
 71
3
 72
15
 73
11
 74
0
 42
0.0000001
 43
0.0000001
 44
0.0000000001
 40
0.0
 40
0.0
 40
0.0
 40
0.0
 40
0.0869302718
 40
0.1864000368
 40
0.3037880336
 40
0.4376004358
 40
0.582099273
 40
0.7294176325
 40
0.8711704074
 40
1.0
 40
1.0
 40
1.0
 40
1.0
 10
103.4971549704
 20
296.1943246794
 30
0.0
 10
103.79678126
 20
296.3674734986
 30
0.0
 10
104.5498280849
 20
296.5608451475
 30
0.0
 10
105.7617527511
 20
296.318178086
 30
0.0
 10
106.9999600906
 20
295.6418580027
 30
0.0
 10
108.1872438089
 20
294.5905441468
 30
0.0
 10
109.2354382075
 20
293.2487316778
 30
0.0
 10
110.0607668623
 20
291.7234047409
 30
0.0
 10
110.5962524462
 20
290.1400533458
 30
0.0
 10
110.7397450091
 20
289.0616682427
 30
0.0
 10
110.7397450091
 20
288.5488139313
 30
0.0
  0
SPLINE
  5
5BC
100
AcDbEntity
  8
0
100
AcDbSpline
 62
7
  6
CONTINUOUS
 70
0
 71
3
 72
9
 73
5
 74
0
 42
0.0000001
 43
0.0000001
 44
0.0000000001
 40
0.0
 40
0.0
 40
0.0
 40
0.0
 40
0.479682757
 40
1.0
 40
1.0
 40
1.0
 40
1.0
 10
182.2069204887
 20
257.4513244001
 30
0.0
 10
182.951053028
 20
256.9951307948
 30
0.0
 10
184.2866416326
 20
255.6957536695
 30
0.0
 10
185.189578875
 20
254.0862641907
 30
0.0
 10
185.5219762929
 20
253.1997550311
 30
0.0
  0
SPLINE
  5
5BD
100
AcDbEntity
  8
0
100
AcDbSpline
 62
7
  6
CONTINUOUS
 70
0
 71
3
 72
9
 73
5
 74
0
 42
0.0000001
 43
0.0000001
 44
0.0000000001
 40
0.0
 40
0.0
 40
0.0
 40
0.0
 40
0.2815090782
 40
1.0
 40
1.0
 40
1.0
 40
1.0
 10
115.3005642928
 20
291.5494083293
 30
0.0
 10
115.3005642928
 20
291.3468439205
 30
0.0
 10
115.2601516541
 20
290.6313979447
 30
0.0
 10
115.0254431351
 20
289.9018059738
 30
0.0
 10
114.7063756339
 20
289.4950053481
 30
0.0
  0
SPLINE
  5
5BE
100
AcDbEntity
  8
0
100
AcDbSpline
 62
7
  6
CONTINUOUS
 70
0
 71
3
 72
11
 73
7
 74
0
 42
0.0000001
 43
0.0000001
 44
0.0000000001
 40
0.0
 40
0.0
 40
0.0
 40
0.0
 40
0.2322277772
 40
0.4865956321
 40
0.7480555515
 40
1.0
 40
1.0
 40
1.0
 40
1.0
 10
111.495947974
 20
298.2753998521
 30
0.0
 10
111.9301750297
 20
298.0091951162
 30
0.0
 10
112.7653571324
 20
297.3271247983
 30
0.0
 10
113.8113193578
 20
296.0521607528
 30
0.0
 10
114.6383582988
 20
294.5759162016
 30
0.0
 10
115.0081319994
 20
293.5035109632
 30
0.0
 10
115.1310120096
 20
292.9647726467
 30
0.0
  0
SPLINE
  5
5BF
100
AcDbEntity
  8
0
100
AcDbSpline
 62
7
  6
CONTINUOUS
 70
0
 71
3
 72
9
 73
5
 74
0
 42
0.0000001
 43
0.0000001
 44
0.0000000001
 40
0.0
 40
0.0
 40
0.0
 40
0.0
 40
0.2617480453
 40
1.0
 40
1.0
 40
1.0
 40
1.0
 10
115.1310120096
 20
292.9647726467
 30
0.0
 10
115.158700766
 20
292.8433778489
 30
0.0
 10
115.2528790148
 20
292.3771434981
 30
0.0
 10
115.3005642928
 20
291.9005918532
 30
0.0
 10
115.3005642928
 20
291.5494083293
 30
0.0
  0
SPLINE
  5
5C0
100
AcDbEntity
  8
0
100
AcDbSpline
 62
7
  6
CONTINUOUS
 70
0
 71
3
 72
9
 73
5
 74
0
 42
0.0000001
 43
0.0000001
 44
0.0000000001
 40
0.0
 40
0.0
 40
0.0
 40
0.0
 40
0.4388508798
 40
1.0
 40
1.0
 40
1.0
 40
1.0
 10
154.537976523
 20
205.4557665866
 30
0.0
 10
154.5379329625
 20
205.39290624
 30
0.0
 10
154.6075361403
 20
205.2508414281
 30
0.0
 10
154.7374908537
 20
205.1790507217
 30
0.0
 10
154.8121786774
 20
205.1493458164
 30
0.0
  0
SPLINE
  5
5C1
100
AcDbEntity
  8
0
100
AcDbSpline
 62
7
  6
CONTINUOUS
 70
0
 71
3
 72
15
 73
11
 74
0
 42
0.0000001
 43
0.0000001
 44
0.0000000001
 40
0.0
 40
0.0
 40
0.0
 40
0.0
 40
0.0869302739
 40
0.1864000407
 40
0.3037880384
 40
0.4376004407
 40
0.5820992772
 40
0.7294176353
 40
0.8711704087
 40
1.0
 40
1.0
 40
1.0
 40
1.0
 10
174.2081275441
 20
51.244644979
 30
0.0
 10
174.5077538435
 20
51.4177938039
 30
0.0
 10
175.2608006864
 20
51.6111654648
 30
0.0
 10
176.4727253869
 20
51.3684984278
 30
0.0
 10
177.7109327655
 20
50.6921783671
 30
0.0
 10
178.8982165214
 20
49.6408645318
 30
0.0
 10
179.9464109531
 20
48.2990520803
 30
0.0
 10
180.771739634
 20
46.7737251566
 30
0.0
 10
181.3072252349
 20
45.1903737692
 30
0.0
 10
181.450717802
 20
44.111988668
 30
0.0
 10
181.450717802
 20
43.5991343575
 30
0.0
  0
SPLINE
  5
5C2
100
AcDbEntity
  8
0
100
AcDbSpline
 62
7
  6
CONTINUOUS
 70
0
 71
3
 72
15
 73
11
 74
0
 42
0.0000001
 43
0.0000001
 44
0.0000000001
 40
0.0
 40
0.0
 40
0.0
 40
0.0
 40
0.1288285297
 40
0.2705731043
 40
0.4178848725
 40
0.5623830488
 40
0.6962002801
 40
0.8135916328
 40
0.9130641676
 40
1.0
 40
1.0
 40
1.0
 40
1.0
 10
180.7436162576
 20
247.3164958097
 30
0.0
 10
180.7436162576
 20
247.8293451968
 30
0.0
 10
180.6001333733
 20
248.9076926246
 30
0.0
 10
180.0646759457
 20
250.4909830635
 30
0.0
 10
179.2394060099
 20
252.0162681897
 30
0.0
 10
178.1912398997
 20
253.3580871695
 30
0.0
 10
177.0039594805
 20
254.4094471349
 30
0.0
 10
175.7657293256
 20
255.0858124004
 30
0.0
 10
174.5537661962
 20
255.3285206677
 30
0.0
 10
173.8006814554
 20
255.1351490027
 30
0.0
 10
173.5010356257
 20
254.9619906901
 30
0.0
  0
SPLINE
  5
5C3
100
AcDbEntity
  8
0
100
AcDbSpline
 62
7
  6
CONTINUOUS
 70
0
 71
3
 72
11
 73
7
 74
0
 42
0.0000001
 43
0.0000001
 44
0.0000000001
 40
0.0
 40
0.0
 40
0.0
 40
0.0
 40
0.2894836687
 40
0.5490925387
 40
0.7822836059
 40
1.0
 40
1.0
 40
1.0
 40
1.0
 10
180.0346801388
 20
247.7257910092
 30
0.0
 10
180.0346801388
 20
247.4732789656
 30
0.0
 10
179.9961979368
 20
246.9927319849
 30
0.0
 10
179.8024191873
 20
246.332185733
 30
0.0
 10
179.4755436792
 20
245.7956401819
 30
0.0
 10
179.168275045
 20
245.5363367904
 30
0.0
 10
179.0041086246
 20
245.4408621077
 30
0.0
  0
SPLINE
  5
5C4
100
AcDbEntity
  8
0
100
AcDbSpline
 62
7
  6
CONTINUOUS
 70
0
 71
3
 72
15
 73
11
 74
0
 42
0.0000001
 43
0.0000001
 44
0.0000000001
 40
0.0
 40
0.0
 40
0.0
 40
0.0
 40
0.1285595545
 40
0.2700128372
 40
0.4170385419
 40
0.5614128145
 40
0.6953294325
 40
0.8130474709
 40
0.9129216152
 40
1.0
 40
1.0
 40
1.0
 40
1.0
 10
179.3294050976
 20
247.316495452
 30
0.0
 10
179.3294050976
 20
247.7414473259
 30
0.0
 10
179.211077362
 20
248.6349769241
 30
0.0
 10
178.7694501819
 20
249.9476432183
 30
0.0
 10
178.0879922196
 20
251.2134841706
 30
0.0
 10
177.221912666
 20
252.3295367236
 30
0.0
 10
176.2394745637
 20
253.2076278825
 30
0.0
 10
175.2132629633
 20
253.777826263
 30
0.0
 10
174.2074440681
 20
253.992152803
 30
0.0
 10
173.5779333055
 20
253.8439140572
 30
0.0
 10
173.3255960086
 20
253.7054377156
 30
0.0
  0
SPLINE
  5
5C5
100
AcDbEntity
  8
0
100
AcDbSpline
 62
7
  6
CONTINUOUS
 70
0
 71
3
 72
11
 73
7
 74
0
 42
0.0000001
 43
0.0000001
 44
0.0000000001
 40
0.0
 40
0.0
 40
0.0
 40
0.0
 40
0.2177499957
 40
0.4508919044
 40
0.7104630441
 40
1.0
 40
1.0
 40
1.0
 40
1.0
 10
175.7687914115
 20
243.6854658067
 30
0.0
 10
175.9304100266
 20
243.7787642738
 30
0.0
 10
176.2331053706
 20
244.0326372452
 30
0.0
 10
176.5550739108
 20
244.5593274287
 30
0.0
 10
176.7459558095
 20
245.2081637472
 30
0.0
 10
176.7838298384
 20
245.6803256184
 30
0.0
 10
176.7838298384
 20
245.928463196
 30
0.0
  0
SPLINE
  5
5C6
100
AcDbEntity
  8
0
100
AcDbSpline
 62
7
  6
CONTINUOUS
 70
0
 71
3
 72
9
 73
5
 74
0
 42
0.0000001
 43
0.0000001
 44
0.0000000001
 40
0.0
 40
0.0
 40
0.0
 40
0.0
 40
0.2827564804
 40
1.0
 40
1.0
 40
1.0
 40
1.0
 10
179.2588128327
 20
247.3572509932
 30
0.0
 10
179.2588128327
 20
247.1723430795
 30
0.0
 10
179.2211520082
 20
246.52254124
 30
0.0
 10
178.9984000073
 20
245.8581200494
 30
0.0
 10
178.6975898936
 20
245.4982430203
 30
0.0
  0
SPLINE
  5
5C7
100
AcDbEntity
  8
0
100
AcDbSpline
 62
7
  6
CONTINUOUS
 70
0
 71
3
 72
8
 73
4
 74
0
 42
0.0000001
 43
0.0000001
 44
0.0000000001
 40
0.0
 40
0.0
 40
0.0
 40
0.0
 40
1.0
 40
1.0
 40
1.0
 40
1.0
 10
178.5904115263
 20
245.3809160764
 30
0.0
 10
178.4873402648
 20
245.2777837667
 30
0.0
 10
178.3700235483
 20
245.1870500561
 30
0.0
 10
178.2437470872
 20
245.114151403
 30
0.0
  0
SPLINE
  5
5C8
100
AcDbEntity
  8
0
100
AcDbSpline
 62
7
  6
CONTINUOUS
 70
0
 71
3
 72
11
 73
7
 74
0
 42
0.0000001
 43
0.0000001
 44
0.0000000001
 40
0.0
 40
0.0
 40
0.0
 40
0.0
 40
0.2895359456
 40
0.5491067338
 40
0.7822490569
 40
1.0
 40
1.0
 40
1.0
 40
1.0
 10
173.3189931154
 20
251.9297031261
 30
0.0
 10
173.1041049995
 20
252.0537660309
 30
0.0
 10
172.6762745024
 20
252.2570370137
 30
0.0
 10
172.018942153
 20
252.416136789
 30
0.0
 10
171.4018469229
 20
252.4006462261
 30
0.0
 10
171.0306478391
 20
252.2654447785
 30
0.0
 10
170.8690428438
 20
252.1721311631
 30
0.0
  0
SPLINE
  5
5C9
100
AcDbEntity
  8
0
100
AcDbSpline
 62
7
  6
CONTINUOUS
 70
0
 71
3
 72
11
 73
7
 74
0
 42
0.0000001
 43
0.0000001
 44
0.0000000001
 40
0.0
 40
0.0
 40
0.0
 40
0.0
 40
0.2372480941
 40
0.5000010917
 40
0.7627534955
 40
1.0
 40
1.0
 40
1.0
 40
1.0
 10
176.7838298384
 20
245.928463196
 30
0.0
 10
176.7838298384
 20
246.4964869152
 30
0.0
 10
176.570877523
 20
247.694407922
 30
0.0
 10
175.8280174573
 20
249.3774672089
 30
0.0
 10
174.7418709282
 20
250.8623245376
 30
0.0
 10
173.8109155722
 20
251.6456979882
 30
0.0
 10
173.3189931154
 20
251.9297031261
 30
0.0
  0
SPLINE
  5
5CA
100
AcDbEntity
  8
0
100
AcDbSpline
 62
7
  6
CONTINUOUS
 70
0
 71
3
 72
11
 73
7
 74
0
 42
0.0000001
 43
0.0000001
 44
0.0000000001
 40
0.0
 40
0.0
 40
0.0
 40
0.0
 40
0.2372539654
 40
0.5000012591
 40
0.7627478695
 40
1.0
 40
1.0
 40
1.0
 40
1.0
 10
176.0767230572
 20
245.9284614964
 30
0.0
 10
176.0767230572
 20
246.4385352296
 30
0.0
 10
175.8854803456
 20
247.514216216
 30
0.0
 10
175.218415222
 20
249.0255114774
 30
0.0
 10
174.2431236658
 20
250.3588465962
 30
0.0
 10
173.4071770895
 20
251.0622992735
 30
0.0
 10
172.9654411968
 20
251.3173298406
 30
0.0
  0
SPLINE
  5
5CB
100
AcDbEntity
  8
0
100
AcDbSpline
 62
7
  6
CONTINUOUS
 70
0
 71
3
 72
9
 73
5
 74
0
 42
0.0000001
 43
0.0000001
 44
0.0000000001
 40
0.0
 40
0.0
 40
0.0
 40
0.0
 40
0.5403796847
 40
1.0
 40
1.0
 40
1.0
 40
1.0
 10
173.111384107
 20
244.0518571734
 30
0.0
 10
173.388824116
 20
243.9068849487
 30
0.0
 10
173.9378017615
 20
243.6949086293
 30
0.0
 10
174.5380236551
 20
243.6950941604
 30
0.0
 10
174.7955199165
 20
243.7628078742
 30
0.0
  0
SPLINE
  5
5CC
100
AcDbEntity
  8
0
100
AcDbSpline
 62
7
  6
CONTINUOUS
 70
0
 71
3
 72
9
 73
5
 74
0
 42
0.0000001
 43
0.0000001
 44
0.0000000001
 40
0.0
 40
0.0
 40
0.0
 40
0.0
 40
0.2526026187
 40
1.0
 40
1.0
 40
1.0
 40
1.0
 10
174.7955199165
 20
243.7628078742
 30
0.0
 10
174.8604786232
 20
243.7798900456
 30
0.0
 10
175.1132103126
 20
243.8636980846
 30
0.0
 10
175.341784783
 20
244.017801404
 30
0.0
 10
175.4816384846
 20
244.1589960844
 30
0.0
  0
SPLINE
  5
5CD
100
AcDbEntity
  8
0
100
AcDbSpline
 62
7
  6
CONTINUOUS
 70
0
 71
3
 72
9
 73
5
 74
0
 42
0.0000001
 43
0.0000001
 44
0.0000000001
 40
0.0
 40
0.0
 40
0.0
 40
0.0
 40
0.4562611328
 40
1.0
 40
1.0
 40
1.0
 40
1.0
 10
175.4816384846
 20
244.1589960844
 30
0.0
 10
175.6852150615
 20
244.3645246432
 30
0.0
 10
176.0026143621
 20
244.9433482506
 30
0.0
 10
176.0767230572
 20
245.5837134761
 30
0.0
 10
176.0767230572
 20
245.9284614964
 30
0.0
  0
SPLINE
  5
5CE
100
AcDbEntity
  8
0
100
AcDbSpline
 62
7
  6
CONTINUOUS
 70
0
 71
3
 72
9
 73
5
 74
0
 42
0.0000001
 43
0.0000001
 44
0.0000000001
 40
0.0
 40
0.0
 40
0.0
 40
0.0
 40
0.2317160865
 40
1.0
 40
1.0
 40
1.0
 40
1.0
 10
169.8545000465
 20
249.4680257054
 30
0.0
 10
169.8568241947
 20
249.2866300123
 30
0.0
 10
169.917353046
 20
248.504619645
 30
0.0
 10
170.1502903166
 20
247.7415632361
 30
0.0
 10
170.3922362871
 20
247.1908800549
 30
0.0
  0
SPLINE
  5
5CF
100
AcDbEntity
  8
0
100
AcDbSpline
 62
7
  6
CONTINUOUS
 70
0
 71
3
 72
9
 73
5
 74
0
 42
0.0000001
 43
0.0000001
 44
0.0000000001
 40
0.0
 40
0.0
 40
0.0
 40
0.0
 40
0.5253544891
 40
1.0
 40
1.0
 40
1.0
 40
1.0
 10
170.6335754945
 20
246.6928613791
 30
0.0
 10
170.9205473078
 20
246.1522469823
 30
0.0
 10
171.5891863718
 20
245.1844896377
 30
0.0
 10
172.486542547
 20
244.4085967273
 30
0.0
 10
172.9654411968
 20
244.1321107179
 30
0.0
  0
SPLINE
  5
5D0
100
AcDbEntity
  8
0
100
AcDbSpline
 62
7
  6
CONTINUOUS
 70
0
 71
3
 72
9
 73
5
 74
0
 42
0.0000001
 43
0.0000001
 44
0.0000000001
 40
0.0
 40
0.0
 40
0.0
 40
0.0
 40
0.2617087631
 40
1.0
 40
1.0
 40
1.0
 40
1.0
 10
172.9654411968
 20
251.3173298406
 30
0.0
 10
172.9052141868
 20
251.3521011343
 30
0.0
 10
172.6717801794
 20
251.4790217054
 30
0.0
 10
172.4245686542
 20
251.5816569907
 30
0.0
 10
172.2366404406
 20
251.6379763591
 30
0.0
  0
SPLINE
  5
5D1
100
AcDbEntity
  8
0
100
AcDbSpline
 62
7
  6
CONTINUOUS
 70
0
 71
3
 72
12
 73
8
 74
0
 42
0.0000001
 43
0.0000001
 44
0.0000000001
 40
0.0
 40
0.0
 40
0.0
 40
0.0
 40
0.2506035327
 40
0.363658844
 40
0.4749739549
 40
0.7134088806
 40
1.0
 40
1.0
 40
1.0
 40
1.0
 10
172.2366404406
 20
251.6379763591
 30
0.0
 10
171.9320563222
 20
251.7292558155
 30
0.0
 10
171.4520855074
 20
251.7884213309
 30
0.0
 10
170.8681179566
 20
251.6120832367
 30
0.0
 10
170.3708417051
 20
251.283561834
 30
0.0
 10
169.9353533555
 20
250.5594752082
 30
0.0
 10
169.8541593363
 20
249.8846080296
 30
0.0
 10
169.8541593363
 20
249.5209790621
 30
0.0
  0
SPLINE
  5
5D2
100
AcDbEntity
  8
0
100
AcDbSpline
 62
7
  6
CONTINUOUS
 70
0
 71
3
 72
15
 73
11
 74
0
 42
0.0000001
 43
0.0000001
 44
0.0000000001
 40
0.0
 40
0.0
 40
0.0
 40
0.0
 40
0.1288285297
 40
0.2705731043
 40
0.4178848725
 40
0.5623830488
 40
0.6962002801
 40
0.8135916328
 40
0.9130641676
 40
1.0
 40
1.0
 40
1.0
 40
1.0
 10
180.7436162576
 20
43.1908915273
 30
0.0
 10
180.7436162576
 20
43.7037409144
 30
0.0
 10
180.6001333733
 20
44.7820883422
 30
0.0
 10
180.0646759457
 20
46.3653787811
 30
0.0
 10
179.2394060099
 20
47.8906639073
 30
0.0
 10
178.1912398997
 20
49.2324828871
 30
0.0
 10
177.0039594805
 20
50.2838428525
 30
0.0
 10
175.7657293256
 20
50.960208118
 30
0.0
 10
174.5537661962
 20
51.2029163853
 30
0.0
 10
173.8006814554
 20
51.0095447203
 30
0.0
 10
173.5010356257
 20
50.8363864078
 30
0.0
  0
SPLINE
  5
5D3
100
AcDbEntity
  8
0
100
AcDbSpline
 62
7
  6
CONTINUOUS
 70
0
 71
3
 72
11
 73
7
 74
0
 42
0.0000001
 43
0.0000001
 44
0.0000000001
 40
0.0
 40
0.0
 40
0.0
 40
0.0
 40
0.2894836687
 40
0.5490925387
 40
0.7822836059
 40
1.0
 40
1.0
 40
1.0
 40
1.0
 10
180.0346801388
 20
43.6001867268
 30
0.0
 10
180.0346801388
 20
43.3476746832
 30
0.0
 10
179.9961979368
 20
42.8671277025
 30
0.0
 10
179.8024191873
 20
42.2065814506
 30
0.0
 10
179.4755436792
 20
41.6700358995
 30
0.0
 10
179.168275045
 20
41.410732508
 30
0.0
 10
179.0041086246
 20
41.3152578253
 30
0.0
  0
SPLINE
  5
5D4
100
AcDbEntity
  8
0
100
AcDbSpline
 62
7
  6
CONTINUOUS
 70
0
 71
3
 72
15
 73
11
 74
0
 42
0.0000001
 43
0.0000001
 44
0.0000000001
 40
0.0
 40
0.0
 40
0.0
 40
0.0
 40
0.1285595545
 40
0.2700128372
 40
0.4170385419
 40
0.5614128145
 40
0.6953294325
 40
0.8130474709
 40
0.9129216152
 40
1.0
 40
1.0
 40
1.0
 40
1.0
 10
179.3294050976
 20
43.1908911696
 30
0.0
 10
179.3294050976
 20
43.6158430435
 30
0.0
 10
179.211077362
 20
44.5093726417
 30
0.0
 10
178.7694501819
 20
45.822038936
 30
0.0
 10
178.0879922196
 20
47.0878798882
 30
0.0
 10
177.221912666
 20
48.2039324412
 30
0.0
 10
176.2394745637
 20
49.0820236002
 30
0.0
 10
175.2132629633
 20
49.6522219806
 30
0.0
 10
174.2074440681
 20
49.8665485206
 30
0.0
 10
173.5779333055
 20
49.7183097748
 30
0.0
 10
173.3255960086
 20
49.5798334332
 30
0.0
  0
SPLINE
  5
5D5
100
AcDbEntity
  8
0
100
AcDbSpline
 62
7
  6
CONTINUOUS
 70
0
 71
3
 72
9
 73
5
 74
0
 42
0.0000001
 43
0.0000001
 44
0.0000000001
 40
0.0
 40
0.0
 40
0.0
 40
0.0
 40
0.2827577405
 40
1.0
 40
1.0
 40
1.0
 40
1.0
 10
179.2588128327
 20
43.2316467108
 30
0.0
 10
179.2588128327
 20
43.0467339019
 30
0.0
 10
179.2211439938
 20
42.3969202077
 30
0.0
 10
178.9983993974
 20
41.7324716595
 30
0.0
 10
178.6975659821
 20
41.3726017229
 30
0.0
  0
SPLINE
  5
5D6
100
AcDbEntity
  8
0
100
AcDbSpline
 62
7
  6
CONTINUOUS
 70
0
 71
3
 72
8
 73
4
 74
0
 42
0.0000001
 43
0.0000001
 44
0.0000000001
 40
0.0
 40
0.0
 40
0.0
 40
0.0
 40
1.0
 40
1.0
 40
1.0
 40
1.0
 10
178.5902370471
 20
41.2551372768
 30
0.0
 10
178.487205052
 20
41.1520826028
 30
0.0
 10
178.3699440493
 20
41.061419452
 30
0.0
 10
178.2437376267
 20
40.9885648246
 30
0.0
  0
SPLINE
  5
5D7
100
AcDbEntity
  8
0
100
AcDbSpline
 62
7
  6
CONTINUOUS
 70
0
 71
3
 72
11
 73
7
 74
0
 42
0.0000001
 43
0.0000001
 44
0.0000000001
 40
0.0
 40
0.0
 40
0.0
 40
0.0
 40
0.2895359456
 40
0.5491067338
 40
0.7822490569
 40
1.0
 40
1.0
 40
1.0
 40
1.0
 10
173.3189931154
 20
47.8040988437
 30
0.0
 10
173.1041049995
 20
47.9281617486
 30
0.0
 10
172.6762745024
 20
48.1314327313
 30
0.0
 10
172.018942153
 20
48.2905325066
 30
0.0
 10
171.4018469229
 20
48.2750419437
 30
0.0
 10
171.0306478391
 20
48.1398404961
 30
0.0
 10
170.8690428438
 20
48.0465268807
 30
0.0
  0
SPLINE
  5
5D8
100
AcDbEntity
  8
0
100
AcDbSpline
 62
7
  6
CONTINUOUS
 70
0
 71
3
 72
11
 73
7
 74
0
 42
0.0000001
 43
0.0000001
 44
0.0000000001
 40
0.0
 40
0.0
 40
0.0
 40
0.0
 40
0.2372480941
 40
0.5000010917
 40
0.7627534955
 40
1.0
 40
1.0
 40
1.0
 40
1.0
 10
176.7838298384
 20
41.8028589137
 30
0.0
 10
176.7838298384
 20
42.3708826329
 30
0.0
 10
176.570877523
 20
43.5688036396
 30
0.0
 10
175.8280174573
 20
45.2518629265
 30
0.0
 10
174.7418709282
 20
46.7367202552
 30
0.0
 10
173.8109155722
 20
47.5200937058
 30
0.0
 10
173.3189931154
 20
47.8040988437
 30
0.0
  0
SPLINE
  5
5D9
100
AcDbEntity
  8
0
100
AcDbSpline
 62
7
  6
CONTINUOUS
 70
0
 71
3
 72
11
 73
7
 74
0
 42
0.0000001
 43
0.0000001
 44
0.0000000001
 40
0.0
 40
0.0
 40
0.0
 40
0.0
 40
0.2372539654
 40
0.5000012591
 40
0.7627478695
 40
1.0
 40
1.0
 40
1.0
 40
1.0
 10
176.0767230572
 20
41.802857214
 30
0.0
 10
176.0767230572
 20
42.3129309473
 30
0.0
 10
175.8854803456
 20
43.3886119336
 30
0.0
 10
175.218415222
 20
44.899907195
 30
0.0
 10
174.2431236658
 20
46.2332423138
 30
0.0
 10
173.4071770895
 20
46.9366949911
 30
0.0
 10
172.9654411968
 20
47.1917255582
 30
0.0
  0
SPLINE
  5
5DA
100
AcDbEntity
  8
0
100
AcDbSpline
 62
7
  6
CONTINUOUS
 70
0
 71
3
 72
9
 73
5
 74
0
 42
0.0000001
 43
0.0000001
 44
0.0000000001
 40
0.0
 40
0.0
 40
0.0
 40
0.0
 40
0.5403796847
 40
1.0
 40
1.0
 40
1.0
 40
1.0
 10
173.111384107
 20
39.926252891
 30
0.0
 10
173.388824116
 20
39.7812806663
 30
0.0
 10
173.9378017615
 20
39.5693043469
 30
0.0
 10
174.5380236551
 20
39.569489878
 30
0.0
 10
174.7955199165
 20
39.6372035918
 30
0.0
  0
SPLINE
  5
5DB
100
AcDbEntity
  8
0
100
AcDbSpline
 62
7
  6
CONTINUOUS
 70
0
 71
3
 72
9
 73
5
 74
0
 42
0.0000001
 43
0.0000001
 44
0.0000000001
 40
0.0
 40
0.0
 40
0.0
 40
0.0
 40
0.2526026187
 40
1.0
 40
1.0
 40
1.0
 40
1.0
 10
174.7955199165
 20
39.6372035918
 30
0.0
 10
174.8604786232
 20
39.6542857632
 30
0.0
 10
175.1132103126
 20
39.7380938022
 30
0.0
 10
175.341784783
 20
39.8921971216
 30
0.0
 10
175.4816384846
 20
40.033391802
 30
0.0
  0
SPLINE
  5
5DC
100
AcDbEntity
  8
0
100
AcDbSpline
 62
7
  6
CONTINUOUS
 70
0
 71
3
 72
9
 73
5
 74
0
 42
0.0000001
 43
0.0000001
 44
0.0000000001
 40
0.0
 40
0.0
 40
0.0
 40
0.0
 40
0.4562611328
 40
1.0
 40
1.0
 40
1.0
 40
1.0
 10
175.4816384846
 20
40.033391802
 30
0.0
 10
175.6852150615
 20
40.2389203608
 30
0.0
 10
176.0026143621
 20
40.8177439682
 30
0.0
 10
176.0767230572
 20
41.4581091937
 30
0.0
 10
176.0767230572
 20
41.802857214
 30
0.0
  0
SPLINE
  5
5DD
100
AcDbEntity
  8
0
100
AcDbSpline
 62
7
  6
CONTINUOUS
 70
0
 71
3
 72
9
 73
5
 74
0
 42
0.0000001
 43
0.0000001
 44
0.0000000001
 40
0.0
 40
0.0
 40
0.0
 40
0.0
 40
0.2317160865
 40
1.0
 40
1.0
 40
1.0
 40
1.0
 10
169.8545000465
 20
45.342421423
 30
0.0
 10
169.8568241947
 20
45.1610257299
 30
0.0
 10
169.917353046
 20
44.3790153626
 30
0.0
 10
170.1502903166
 20
43.6159589537
 30
0.0
 10
170.3922362871
 20
43.0652757725
 30
0.0
  0
SPLINE
  5
5DE
100
AcDbEntity
  8
0
100
AcDbSpline
 62
7
  6
CONTINUOUS
 70
0
 71
3
 72
9
 73
5
 74
0
 42
0.0000001
 43
0.0000001
 44
0.0000000001
 40
0.0
 40
0.0
 40
0.0
 40
0.0
 40
0.5253544891
 40
1.0
 40
1.0
 40
1.0
 40
1.0
 10
170.6335754945
 20
42.5672570967
 30
0.0
 10
170.9205473078
 20
42.0266426999
 30
0.0
 10
171.5891863718
 20
41.0588853553
 30
0.0
 10
172.486542547
 20
40.2829924449
 30
0.0
 10
172.9654411968
 20
40.0065064355
 30
0.0
  0
SPLINE
  5
5DF
100
AcDbEntity
  8
0
100
AcDbSpline
 62
7
  6
CONTINUOUS
 70
0
 71
3
 72
9
 73
5
 74
0
 42
0.0000001
 43
0.0000001
 44
0.0000000001
 40
0.0
 40
0.0
 40
0.0
 40
0.0
 40
0.2617087631
 40
1.0
 40
1.0
 40
1.0
 40
1.0
 10
172.9654411968
 20
47.1917255582
 30
0.0
 10
172.9052141868
 20
47.2264968519
 30
0.0
 10
172.6717801794
 20
47.353417423
 30
0.0
 10
172.4245686542
 20
47.4560527083
 30
0.0
 10
172.2366404406
 20
47.5123720767
 30
0.0
  0
SPLINE
  5
5E0
100
AcDbEntity
  8
0
100
AcDbSpline
 62
7
  6
CONTINUOUS
 70
0
 71
3
 72
12
 73
8
 74
0
 42
0.0000001
 43
0.0000001
 44
0.0000000001
 40
0.0
 40
0.0
 40
0.0
 40
0.0
 40
0.2506035327
 40
0.363658844
 40
0.4749739549
 40
0.7134088806
 40
1.0
 40
1.0
 40
1.0
 40
1.0
 10
172.2366404406
 20
47.5123720767
 30
0.0
 10
171.9320563222
 20
47.6036515332
 30
0.0
 10
171.4520855074
 20
47.6628170485
 30
0.0
 10
170.8681179566
 20
47.4864789543
 30
0.0
 10
170.3708417051
 20
47.1579575516
 30
0.0
 10
169.9353533555
 20
46.4338709258
 30
0.0
 10
169.8541593363
 20
45.7590037472
 30
0.0
 10
169.8541593363
 20
45.3953747797
 30
0.0
  0
SPLINE
  5
5E1
100
AcDbEntity
  8
0
100
AcDbSpline
 62
7
  6
CONTINUOUS
 70
0
 71
3
 72
9
 73
5
 74
0
 42
0.0000001
 43
0.0000001
 44
0.0000000001
 40
0.0
 40
0.0
 40
0.0
 40
0.0
 40
0.2661458944
 40
1.0
 40
1.0
 40
1.0
 40
1.0
 10
112.5051264022
 20
241.643341781
 30
0.0
 10
112.563333283
 20
241.6464315692
 30
0.0
 10
112.7819264823
 20
241.6440095418
 30
0.0
 10
113.0046801202
 20
241.5903720135
 30
0.0
 10
113.1438705594
 20
241.5100129474
 30
0.0
  0
ENDSEC
  0
SECTION
  2
OBJECTS
  0
DICTIONARY
  5
C
100
AcDbDictionary
280
0
281
1
  3
ACAD_GROUP
350
D
  3
ACAD_MLINESTYLE
350
17
  3
ACAD_LAYOUT
350
1A
  3
ACAD_PLOTSETTINGS
350
19
  3
ACAD_PLOTSTYLENAME
350
E
  0
DICTIONARY
  5
D
102
{ACAD_REACTORS
330
C
102
}
100
AcDbDictionary
280
0
281
1
  0
ACDBDICTIONARYWDFLT
  5
E
102
{ACAD_REACTORS
330
C
102
}
100
AcDbDictionary
281
1
  3
Normal
350
F
100
AcDbDictionaryWithDefault
340
F
  0
DICTIONARY
  5
17
102
{ACAD_REACTORS
330
C
102
}
100
AcDbDictionary
280
0
281
1
  3
Standard
350
18
  0
DICTIONARY
  5
19
102
{ACAD_REACTORS
330
C
102
}
100
AcDbDictionary
281
1
  0
DICTIONARY
  5
1A
102
{ACAD_REACTORS
330
C
102
}
100
AcDbDictionary
281
1
  3
Model
350
5E2
  3
Layout1
350
5E3
  0
ACDBPLACEHOLDER
  5
F
102
{ACAD_REACTORS
330
E
102
}
  0
MLINESTYLE
  5
18
102
{ACAD_REACTORS
330
17
102
}
100
AcDbMlineStyle
  2
STANDARD
 70
0
  3

 62
256
 51
90.0
 52
90.0
 71
2
 49
0.5
 62
256
  6
BYLAYER
 49
-0.5
 62
256
  6
BYLAYER
  0
LAYOUT
  5
5E2
102
{ACAD_REACTORS
330
1A
102
}
100
AcDbPlotSettings
  1

  2
none_device
  4

  6

 40
0.0
 41
0.0
 42
0.0
 43
0.0
 44
210.0
 45
297.0
 46
0.0
 47
0.0
 48
0.0
 49
0.0
140
0.0
141
0.0
142
1.0
143
1.0
 70
1024
 72
1
 73
0
 74
0
  7

 75
0
147
1.0
148
0.0
149
0.0
100
AcDbLayout
  1
Model
 70
0
 71
0
 10
0.0
 20
0.0
 11
210.0
 21
297.0
 12
0.0
 22
0.0
 32
0.0
 14
0.0
 24
0.0
 34
0.0
 15
0.0
 25
0.0
 35
0.0
146
0.0
 13
0.0
 23
0.0
 33
0.0
 16
1.0
 26
0.0
 36
0.0
 17
0.0
 27
1.0
 37
0.0
 76
0
330
210
345
0
346
0
  0
LAYOUT
  5
5E3
102
{ACAD_REACTORS
330
1A
102
}
100
AcDbPlotSettings
  1

  2
none_device
  4

  6

 40
0.0
 41
0.0
 42
0.0
 43
0.0
 44
210.0
 45
297.0
 46
0.0
 47
0.0
 48
0.0
 49
0.0
140
0.0
141
0.0
142
1.0
143
1.0
 70
0
 72
1
 73
0
 74
0
  7

 75
0
147
1.0
148
0.0
149
0.0
100
AcDbLayout
  1
Layout1
 70
0
 71
1
 10
0.0
 20
0.0
 11
210.0
 21
297.0
 12
0.0
 22
0.0
 32
0.0
 14
0.0
 24
0.0
 34
0.0
 15
0.0
 25
0.0
 35
0.0
146
0.0
 13
0.0
 23
0.0
 33
0.0
 16
1.0
 26
0.0
 36
0.0
 17
0.0
 27
1.0
 37
0.0
 76
0
330
211
345
0
346
0
  0
ENDSEC
  0
EOF
