999
DXF file: Y:\001_SCHNEIDER_PARIS\maxime fuentes - génération CAD 2D\TRAVAIL\ZB4BZ1035_CAD_2023\zb4bz1035_2d-views_5.dxf
999
Pro/ENGINEER 2018260 by Parametric Technology Corporation
  0
SECTION
  2
HEADER
  9
$ACADVER
  1
AC1027
  9
$DWGCODEPAGE
  3
ANSI_1252
  9
$EXTMAX
 10
558.8
 20
431.8
 30
0.0
  9
$EXTMIN
 10
0.0
 20
0.0
 30
0.0
  9
$LIMMIN
 10
0.0
 20
0.0
  9
$LIMMAX
 10
558.8
 20
431.8
  9
$VIEWCTR
 10
279.4
 20
215.9
  9
$VIEWSIZE
 40
431.8
  9
$CLAYER
  8
0
  9
$LTSCALE
 40
30.734
  9
$CELTYPE
  6
BYLAYER
  9
$DIMSCALE
 40
1.0
  9
$DIMASZ
 40
0.1875
  9
$DIMEXO
 40
0.0625
  9
$DIMDLI
 40
21.2344
  9
$DIMEXE
 40
0.125
  9
$DIMCEN
 40
5.0292
  9
$DIMLFAC
 40
1.0
  9
$DIMBLK
  1
_CLOSED
  9
$DIMALT
 70
0
  9
$DIMALTF
 40
0.0393700787
  9
$DIMTXT
 40
0.15625
  9
$DIMTOL
 70
0
  9
$DIMLIM
 70
0
  9
$DIMTFAC
 40
1.0
  9
$DIMGAP
 40
0.625
  9
$DIMDSEP
 70
46
  9
$AUNITS
 70
0
  9
$PDMODE
 70
3
  9
$PDSIZE
 40
0.3125
  9
$HANDSEED
  5
31F
  9
$TILEMODE
 70
1
  9
$MEASUREMENT
 70
1
  9
$INSUNITS
 70
4
  0
ENDSEC
  0
SECTION
  2
CLASSES
  0
CLASS
  1
ACDBDICTIONARYWDFLT
  2
AcDbDictionaryWithDefault
  3
AutoCAD 2000
 90
0
 91
1
280
0
281
0
  0
CLASS
  1
ACDBPLACEHOLDER
  2
AcDbPlaceHolder
  3
AutoCAD 2000
 90
0
 91
1
280
0
281
0
  0
CLASS
  1
LAYOUT
  2
AcDbLayout
  3
AutoCAD 2000
 90
0
 91
0
280
0
281
0
  0
ENDSEC
  0
SECTION
  2
TABLES
  0
TABLE
  2
VPORT
  5
8
100
AcDbSymbolTable
 70
2
  0
VPORT
  5
1F4
100
AcDbSymbolTableRecord
100
AcDbViewportTableRecord
  2
*ACTIVE
 70
0
 10
0.0
 20
0.0
 11
1.0
 21
1.0
 12
279.4
 22
215.9
 13
0.0
 23
0.0
 14
1.0
 24
1.0
 15
0.0
 25
0.0
 16
0.0
 26
0.0
 36
1.0
 17
0.0
 27
0.0
 37
0.0
 40
431.8
 41
1.2941176471
 42
50.0
 43
0.0
 44
0.0
 50
0.0
 51
0.0
 71
0
 72
100
 73
1
 74
1
 75
0
 76
0
 77
0
 78
0
  0
ENDTAB
  0
TABLE
  2
LTYPE
  5
5
100
AcDbSymbolTable
 70
6
  0
LTYPE
  5
14
100
AcDbSymbolTableRecord
100
AcDbLinetypeTableRecord
  2
BYBLOCK
 70
0
  3

 72
65
 73
0
 40
0.0
  0
LTYPE
  5
15
100
AcDbSymbolTableRecord
100
AcDbLinetypeTableRecord
  2
BYLAYER
 70
0
  3

 72
65
 73
0
 40
0.0
  0
LTYPE
  5
16
100
AcDbSymbolTableRecord
100
AcDbLinetypeTableRecord
  2
CONTINUOUS
 70
64
  3
Solid line
 72
65
 73
0
 40
0.0
  0
LTYPE
  5
1F5
100
AcDbSymbolTableRecord
100
AcDbLinetypeTableRecord
  2
CENTER
 70
64
  3
____ _ ____ _ ____ _ ____ _ ____ _ ____ _ ____
 72
65
 73
4
 40
0.6
 49
0.375
 74
0
 49
-0.075
 74
0
 49
0.075
 74
0
 49
-0.075
 74
0
  0
LTYPE
  5
1F6
100
AcDbSymbolTableRecord
100
AcDbLinetypeTableRecord
  2
HIDDEN
 70
64
  3
- - - - - - - - - - - - - - - - - - - -
 72
65
 73
2
 40
0.2
 49
0.1
 74
0
 49
-0.1
 74
0
  0
LTYPE
  5
1F7
100
AcDbSymbolTableRecord
100
AcDbLinetypeTableRecord
  2
PHANTOM
 70
64
  3
_____ _ _ _____ _ _ _____ _ _ _____
 72
65
 73
6
 40
0.8
 49
0.45
 74
0
 49
-0.05
 74
0
 49
0.1
 74
0
 49
-0.05
 74
0
 49
0.1
 74
0
 49
-0.05
 74
0
  0
LTYPE
  5
1F8
100
AcDbSymbolTableRecord
100
AcDbLinetypeTableRecord
  2
DOT
 70
64
  3
. . . . . . . . . . . . . . . . . . . .
 72
65
 73
2
 40
0.2
 49
0.1
 74
0
 49
-0.1
 74
0
  0
LTYPE
  5
1F9
100
AcDbSymbolTableRecord
100
AcDbLinetypeTableRecord
  2
DASHED
 70
64
  3
- - - - - - - - - - - - - - - - - - - -
 72
65
 73
2
 40
0.2
 49
0.1
 74
0
 49
-0.1
 74
0
  0
ENDTAB
  0
TABLE
  2
LAYER
  5
2
100
AcDbSymbolTable
 70
36
  0
LAYER
  5
10
100
AcDbSymbolTableRecord
100
AcDbLayerTableRecord
  2
0
 70
0
 62
7
  6
CONTINUOUS
370
-3
390
F
  0
LAYER
  5
1FA
100
AcDbSymbolTableRecord
100
AcDbLayerTableRecord
  2
DEFAULT_1
 70
0
 62
7
  6
CENTER
370
-3
390
F
  0
LAYER
  5
1FB
100
AcDbSymbolTableRecord
100
AcDbLayerTableRecord
  2
DEFAULT_2
 70
0
 62
8
  6
HIDDEN
370
-3
390
F
  0
LAYER
  5
1FC
100
AcDbSymbolTableRecord
100
AcDbLayerTableRecord
  2
DEFAULT_3
 70
0
 62
7
  6
PHANTOM
370
-3
390
F
  0
LAYER
  5
1FD
100
AcDbSymbolTableRecord
100
AcDbLayerTableRecord
  2
01_ALL_DTM_PLN
 70
0
 62
7
  6
CONTINUOUS
370
-3
390
F
  0
LAYER
  5
1FE
100
AcDbSymbolTableRecord
100
AcDbLayerTableRecord
  2
01__ASM_ALL_DTM_PLN
 70
0
 62
7
  6
CONTINUOUS
370
-3
390
F
  0
LAYER
  5
1FF
100
AcDbSymbolTableRecord
100
AcDbLayerTableRecord
  2
01__ASM_DEF_DTM_PLN
 70
0
 62
7
  6
CONTINUOUS
370
-3
390
F
  0
LAYER
  5
200
100
AcDbSymbolTableRecord
100
AcDbLayerTableRecord
  2
01___PRT_ALL_DTM_PLN
 70
0
 62
7
  6
CONTINUOUS
370
-3
390
F
  0
LAYER
  5
201
100
AcDbSymbolTableRecord
100
AcDbLayerTableRecord
  2
01___PRT_DEF_DTM_PLN
 70
0
 62
7
  6
CONTINUOUS
370
-3
390
F
  0
LAYER
  5
202
100
AcDbSymbolTableRecord
100
AcDbLayerTableRecord
  2
02_ALL_AXES
 70
0
 62
7
  6
CONTINUOUS
370
-3
390
F
  0
LAYER
  5
203
100
AcDbSymbolTableRecord
100
AcDbLayerTableRecord
  2
02__ASM_ALL_AXES
 70
0
 62
7
  6
CONTINUOUS
370
-3
390
F
  0
LAYER
  5
204
100
AcDbSymbolTableRecord
100
AcDbLayerTableRecord
  2
02___PRT_ALL_AXES
 70
0
 62
7
  6
CONTINUOUS
370
-3
390
F
  0
LAYER
  5
205
100
AcDbSymbolTableRecord
100
AcDbLayerTableRecord
  2
03_ALL_CURVES
 70
0
 62
7
  6
CONTINUOUS
370
-3
390
F
  0
LAYER
  5
206
100
AcDbSymbolTableRecord
100
AcDbLayerTableRecord
  2
03__ASM_ALL_CURVES
 70
0
 62
7
  6
CONTINUOUS
370
-3
390
F
  0
LAYER
  5
207
100
AcDbSymbolTableRecord
100
AcDbLayerTableRecord
  2
03___PRT_ALL_CURVES
 70
0
 62
7
  6
CONTINUOUS
370
-3
390
F
  0
LAYER
  5
208
100
AcDbSymbolTableRecord
100
AcDbLayerTableRecord
  2
04_ALL_DTM_PNT
 70
0
 62
7
  6
CONTINUOUS
370
-3
390
F
  0
LAYER
  5
209
100
AcDbSymbolTableRecord
100
AcDbLayerTableRecord
  2
04__ASM_ALL_DTM_PNT
 70
0
 62
7
  6
CONTINUOUS
370
-3
390
F
  0
LAYER
  5
20A
100
AcDbSymbolTableRecord
100
AcDbLayerTableRecord
  2
04___PRT_ALL_DTM_PNT
 70
0
 62
7
  6
CONTINUOUS
370
-3
390
F
  0
LAYER
  5
20B
100
AcDbSymbolTableRecord
100
AcDbLayerTableRecord
  2
05_ALL_DTM_CSYS
 70
0
 62
7
  6
CONTINUOUS
370
-3
390
F
  0
LAYER
  5
20C
100
AcDbSymbolTableRecord
100
AcDbLayerTableRecord
  2
05__ASM_ALL_DTM_CSYS
 70
0
 62
7
  6
CONTINUOUS
370
-3
390
F
  0
LAYER
  5
20D
100
AcDbSymbolTableRecord
100
AcDbLayerTableRecord
  2
05__ASM_DEF_DTM_CSYS
 70
0
 62
7
  6
CONTINUOUS
370
-3
390
F
  0
LAYER
  5
20E
100
AcDbSymbolTableRecord
100
AcDbLayerTableRecord
  2
05___PRT_ALL_DTM_CSYS
 70
0
 62
7
  6
CONTINUOUS
370
-3
390
F
  0
LAYER
  5
20F
100
AcDbSymbolTableRecord
100
AcDbLayerTableRecord
  2
05___PRT_DEF_DTM_CSYS
 70
0
 62
7
  6
CONTINUOUS
370
-3
390
F
  0
LAYER
  5
210
100
AcDbSymbolTableRecord
100
AcDbLayerTableRecord
  2
06_ALL_SURFS
 70
0
 62
7
  6
CONTINUOUS
370
-3
390
F
  0
LAYER
  5
211
100
AcDbSymbolTableRecord
100
AcDbLayerTableRecord
  2
06__ASM_ALL_SURFS
 70
0
 62
7
  6
CONTINUOUS
370
-3
390
F
  0
LAYER
  5
212
100
AcDbSymbolTableRecord
100
AcDbLayerTableRecord
  2
06___PRT_ALL_SURFS
 70
0
 62
7
  6
CONTINUOUS
370
-3
390
F
  0
LAYER
  5
213
100
AcDbSymbolTableRecord
100
AcDbLayerTableRecord
  2
07__ASM_ALL_SKELETONS
 70
0
 62
7
  6
CONTINUOUS
370
-3
390
F
  0
LAYER
  5
214
100
AcDbSymbolTableRecord
100
AcDbLayerTableRecord
  2
CLOSED_SHELL
 70
0
 62
7
  6
CONTINUOUS
370
-3
390
F
  0
LAYER
  5
215
100
AcDbSymbolTableRecord
100
AcDbLayerTableRecord
  2
Colour
 70
0
 62
7
  6
CONTINUOUS
370
-3
390
F
  0
LAYER
  5
216
100
AcDbSymbolTableRecord
100
AcDbLayerTableRecord
  2
ORIENTED_CLOSED_SHE
 70
0
 62
7
  6
CONTINUOUS
370
-3
390
F
  0
ENDTAB
  0
TABLE
  2
STYLE
  5
3
100
AcDbSymbolTable
 70
1
  0
STYLE
  5
11
100
AcDbSymbolTableRecord
100
AcDbTextStyleTableRecord
  2
STANDARD
 70
0
 40
0.0
 41
0.8
 50
0.0
 71
0
 42
0.2
  3
txt
  4

  0
STYLE
  5
217
100
AcDbSymbolTableRecord
100
AcDbTextStyleTableRecord
  2
TEXTSTYLE_1
 70
0
 40
0.0
 41
0.8
 50
0.0
 71
0
 42
0.2
  3
gdt
  4

  0
ENDTAB
  0
TABLE
  2
VIEW
  5
6
100
AcDbSymbolTable
 70
0
  0
ENDTAB
  0
TABLE
  2
UCS
  5
7
100
AcDbSymbolTable
 70
0
  0
ENDTAB
  0
TABLE
  2
APPID
  5
9
100
AcDbSymbolTable
 70
1
  0
APPID
  5
218
100
AcDbSymbolTableRecord
100
AcDbRegAppTableRecord
  2
ACAD
 70
0
  0
ENDTAB
  0
TABLE
  2
BLOCK_RECORD
  5
1
100
AcDbSymbolTable
 70
0
  0
BLOCK_RECORD
  5
219
100
AcDbSymbolTableRecord
100
AcDbBlockTableRecord
  2
*Model_Space
  0
BLOCK_RECORD
  5
21A
100
AcDbSymbolTableRecord
100
AcDbBlockTableRecord
  2
*Paper_Space
  0
BLOCK_RECORD
  5
21B
100
AcDbSymbolTableRecord
100
AcDbBlockTableRecord
  2
_CLOSED
  0
ENDTAB
  0
TABLE
  2
DIMSTYLE
  5
A
100
AcDbSymbolTable
 70
1
100
AcDbDimStyleTable
 71
0
  0
DIMSTYLE
105
21C
100
AcDbSymbolTableRecord
100
AcDbDimStyleTableRecord
  2
STANDARD
 70
0
  3

  4

 40
1.0
 41
0.1875
 42
0.0625
 43
0.38
 44
0.125
 45
0.0
 46
0.0
 47
0.01
 48
0.01
140
0.15625
141
0.09
142
0.0
143
25.4
144
1.0
145
0.0
146
1.0
147
0.625
 71
0.0
 72
0.0
 73
1
 74
1
 75
0
 76
0
 77
0
 78
8
 79
2
170
0
171
1
172
0
173
0
174
0
175
0
176
0
177
0
178
0
270
2
179
2
271
2
272
2
273
2
274
2
275
0
280
0
281
0
282
0
283
1
284
8
285
0
286
0
287
3
288
0
340
11
278
46
341
21B
342
21B
343
21B
344
21B
  0
ENDTAB
  0
ENDSEC
  0
SECTION
  2
BLOCKS
  0
BLOCK
  5
20
100
AcDbEntity
  8
0
100
AcDbBlockBegin
  2
*Model_Space
 70
0
 10
0.0
 20
0.0
 30
0.0
  3
*Model_Space
  1

  0
ENDBLK
  5
21
100
AcDbEntity
  8
0
100
AcDbBlockEnd
  0
BLOCK
  5
1C
100
AcDbEntity
  8
0
100
AcDbBlockBegin
  2
*Paper_Space
 70
0
 10
0.0
 20
0.0
 30
0.0
  3
*Paper_Space
  1

  0
ENDBLK
  5
1D
100
AcDbEntity
  8
0
100
AcDbBlockEnd
  0
BLOCK
  5
21D
100
AcDbEntity
  8
0
100
AcDbBlockBegin
  2
_CLOSED
 70
64
 10
0.0
 20
0.0
  3
_CLOSED
  1

  0
LINE
  5
21E
100
AcDbEntity
  8
0
  6
BYBLOCK
 62
0
100
AcDbLine
 10
0.0
 20
0.0
 11
-1.0
 21
0.1666666667
  0
LINE
  5
21F
100
AcDbEntity
  8
0
  6
BYBLOCK
 62
0
100
AcDbLine
 10
-1.0
 20
0.1666666667
 11
-1.0
 21
-0.1666666667
  0
LINE
  5
220
100
AcDbEntity
  8
0
  6
BYBLOCK
 62
0
100
AcDbLine
 10
-1.0
 20
-0.1666666667
 11
0.0
 21
0.0
  0
LINE
  5
221
100
AcDbEntity
  8
0
  6
BYBLOCK
 62
0
100
AcDbLine
 10
-1.0
 20
0.0
 11
0.0
 21
0.0
  0
ENDBLK
  5
222
100
AcDbEntity
  8
0
  6
BYBLOCK
 62
0
100
AcDbBlockEnd
  0
ENDSEC
  0
SECTION
  2
ENTITIES
  0
LINE
  5
223
100
AcDbEntity
  8
0
100
AcDbLine
 62
7
  6
CONTINUOUS
 10
120.3495869686
 20
193.5701050201
 11
123.7495869685
 21
192.8543155464
  0
LINE
  5
224
100
AcDbEntity
  8
0
100
AcDbLine
 62
7
  6
CONTINUOUS
 10
123.7495869685
 20
192.8543155466
 11
126.2495869685
 21
192.8543155466
  0
LINE
  5
225
100
AcDbEntity
  8
0
100
AcDbLine
 62
7
  6
CONTINUOUS
 10
118.7602058217
 20
200.5038401829
 11
119.31434073
 21
198.8512498416
  0
LINE
  5
226
100
AcDbEntity
  8
0
100
AcDbLine
 62
7
  6
CONTINUOUS
 10
155.7220837682
 20
195.2017334654
 11
155.7439025997
 21
195.2017334654
  0
LINE
  5
227
100
AcDbEntity
  8
0
100
AcDbLine
 62
7
  6
CONTINUOUS
 10
126.2495869685
 20
195.3543155466
 11
125.9495869678
 21
195.3543155466
  0
LWPOLYLINE
  5
228
100
AcDbEntity
  8
0
100
AcDbPolyline
 62
7
  6
CONTINUOUS
 90
3
 70
0
 10
131.462834328
 20
194.9319979827
 10
132.2539647707
 20
194.9219974
 10
132.9767080849
 20
194.8599422252
  0
LINE
  5
229
100
AcDbEntity
  8
0
100
AcDbLine
 62
7
  6
CONTINUOUS
 10
132.9767080934
 20
194.8599422224
 11
133.4610028735
 21
194.8432299318
  0
LINE
  5
22A
100
AcDbEntity
  8
0
100
AcDbLine
 62
7
  6
CONTINUOUS
 10
140.4904471494
 20
193.4431593612
 11
138.7947987225
 21
193.635245909
  0
LINE
  5
22B
100
AcDbEntity
  8
0
100
AcDbLine
 62
7
  6
CONTINUOUS
 10
125.9495869678
 20
197.0053168897
 11
129.6610028735
 21
196.2527142644
  0
LINE
  5
22C
100
AcDbEntity
  8
0
100
AcDbLine
 62
7
  6
CONTINUOUS
 10
133.4610028735
 20
195.4821485157
 11
136.2812420078
 21
194.9102591262
  0
LINE
  5
22D
100
AcDbEntity
  8
0
100
AcDbLine
 62
7
  6
CONTINUOUS
 10
138.8943222961
 20
194.8808121691
 11
136.3787124053
 21
195.3909287004
  0
LINE
  5
22E
100
AcDbEntity
  8
0
100
AcDbLine
 62
7
  6
CONTINUOUS
 10
119.9495869678
 20
198.7224343171
 11
119.3143407301
 21
198.8512498415
  0
LINE
  5
22F
100
AcDbEntity
  8
0
100
AcDbLine
 62
7
  6
CONTINUOUS
 10
123.1145154431
 20
198.2640642752
 11
122.317056629
 21
198.5543155466
  0
LINE
  5
230
100
AcDbEntity
  8
0
100
AcDbLine
 62
7
  6
CONTINUOUS
 10
131.462687971
 20
194.9320557228
 11
129.661002873
 21
195.6428483186
  0
LINE
  5
231
100
AcDbEntity
  8
0
100
AcDbLine
 62
7
  6
CONTINUOUS
 10
133.6110437687
 20
195.8298759802
 11
133.6268511314
 21
195.8298759802
  0
LINE
  5
232
100
AcDbEntity
  8
0
100
AcDbLine
 62
7
  6
CONTINUOUS
 10
119.9495869678
 20
196.3543155466
 11
120.3495869681
 21
196.3543155466
  0
LINE
  5
233
100
AcDbEntity
  8
0
100
AcDbLine
 62
7
  6
CONTINUOUS
 10
125.9495869678
 20
196.6543155466
 11
119.9495869678
 21
196.6543155466
  0
LINE
  5
234
100
AcDbEntity
  8
0
100
AcDbLine
 62
7
  6
CONTINUOUS
 10
134.644620457
 20
197.5928483184
 11
132.0833400287
 21
197.5928483184
  0
LINE
  5
235
100
AcDbEntity
  8
0
100
AcDbLine
 62
7
  6
CONTINUOUS
 10
123.6011003888
 20
198.4267026732
 11
122.0011752221
 21
198.7511362347
  0
LINE
  5
236
100
AcDbEntity
  8
0
100
AcDbLine
 62
7
  6
CONTINUOUS
 10
122.0956880648
 20
199.2172207989
 11
124.0557943395
 21
198.8197495465
  0
LINE
  5
237
100
AcDbEntity
  8
0
100
AcDbLine
 62
7
  6
CONTINUOUS
 10
122.3334061664
 20
200.3895137324
 11
124.29351244
 21
199.9920424802
  0
LINE
  5
238
100
AcDbEntity
  8
0
100
AcDbLine
 62
7
  6
CONTINUOUS
 10
122.1078282831
 20
201.1312862019
 11
123.1435466465
 21
200.7543155466
  0
LINE
  5
239
100
AcDbEntity
  8
0
100
AcDbLine
 62
7
  6
CONTINUOUS
 10
119.9495869678
 20
196.3543155459
 11
119.9495869678
 21
238.554315547
  0
LINE
  5
23A
100
AcDbEntity
  8
0
100
AcDbLine
 62
7
  6
CONTINUOUS
 10
120.3495869678
 20
193.5701050201
 11
120.3495869678
 21
196.3543155466
  0
LINE
  5
23B
100
AcDbEntity
  8
0
100
AcDbLine
 62
7
  6
CONTINUOUS
 10
131.1466435191
 20
230.6660533995
 11
129.5610028741
 21
229.7505833449
  0
LINE
  5
23C
100
AcDbEntity
  8
0
100
AcDbLine
 62
7
  6
CONTINUOUS
 10
122.317056629
 20
198.5543155466
 11
121.6534388281
 21
198.5543155466
  0
LINE
  5
23D
100
AcDbEntity
  8
0
100
AcDbLine
 62
7
  6
CONTINUOUS
 10
130.544201559
 20
199.0928483191
 11
134.4021571471
 21
199.0928483191
  0
LINE
  5
23E
100
AcDbEntity
  8
0
100
AcDbLine
 62
7
  6
CONTINUOUS
 10
124.0791822696
 20
200.4705683667
 11
122.4181442065
 21
200.8073944295
  0
LINE
  5
23F
100
AcDbEntity
  8
0
100
AcDbLine
 62
7
  6
CONTINUOUS
 10
139.4943051513
 20
197.8395925891
 11
136.9786952605
 21
198.3497091204
  0
LINE
  5
240
100
AcDbEntity
  8
0
100
AcDbLine
 62
7
  6
CONTINUOUS
 10
119.9495869678
 20
201.8028795365
 11
119.9143235852
 21
201.8100302614
  0
LINE
  5
241
100
AcDbEntity
  8
0
100
AcDbLine
 62
7
  6
CONTINUOUS
 10
125.9495869678
 20
201.0866314416
 11
129.6610028733
 21
200.3340288163
  0
LINE
  5
242
100
AcDbEntity
  8
0
100
AcDbLine
 62
7
  6
CONTINUOUS
 10
135.5390515447
 20
199.1420754018
 11
137.0761656579
 21
198.8303786946
  0
LINE
  5
243
100
AcDbEntity
  8
0
100
AcDbLine
 62
7
  6
CONTINUOUS
 10
119.3143407298
 20
198.8512498415
 11
119.9143235852
 21
201.8100302614
  0
LINE
  5
244
100
AcDbEntity
  8
0
100
AcDbLine
 62
7
  6
CONTINUOUS
 10
123.1435466465
 20
200.7543155466
 11
123.8156123706
 21
200.7543155466
  0
LINE
  5
245
100
AcDbEntity
  8
0
100
AcDbLine
 62
7
  6
CONTINUOUS
 10
130.3110028735
 20
201.3178483184
 11
130.544201559
 21
201.3178483184
  0
LINE
  5
246
100
AcDbEntity
  8
0
100
AcDbLine
 62
7
  6
CONTINUOUS
 10
129.7371327809
 20
201.6246024814
 11
130.2070898864
 21
201.6246024814
  0
LINE
  5
247
100
AcDbEntity
  8
0
100
AcDbLine
 62
7
  6
CONTINUOUS
 10
140.406978161
 20
198.8721280899
 11
139.887844666
 21
199.0255381613
  0
LINE
  5
248
100
AcDbEntity
  8
0
100
AcDbLine
 62
7
  6
CONTINUOUS
 10
130.4854686188
 20
202.3683825731
 11
130.1610028738
 21
202.692848318
  0
LINE
  5
249
100
AcDbEntity
  8
0
100
AcDbLine
 62
7
  6
CONTINUOUS
 10
128.1609918384
 20
203.8928378525
 11
129.6609748184
 21
202.3111880996
  0
LINE
  5
24A
100
AcDbEntity
  8
0
100
AcDbLine
 62
7
  6
CONTINUOUS
 10
121.4984050091
 20
198.7876595015
 11
121.9507394285
 21
201.0183202809
  0
LINE
  5
24B
100
AcDbEntity
  8
0
100
AcDbLine
 62
7
  6
CONTINUOUS
 10
122.0011752235
 20
198.7511362345
 11
122.0956880659
 21
199.2172207986
  0
LINE
  5
24C
100
AcDbEntity
  8
0
100
AcDbLine
 62
7
  6
CONTINUOUS
 10
122.3334061664
 20
200.3895137324
 11
122.4181442065
 21
200.8073944295
  0
LINE
  5
24D
100
AcDbEntity
  8
0
100
AcDbLine
 62
7
  6
CONTINUOUS
 10
129.722923843
 20
201.544019587
 11
129.6610028735
 21
201.5418032805
  0
LINE
  5
24E
100
AcDbEntity
  8
0
100
AcDbLine
 62
7
  6
CONTINUOUS
 10
119.9495869678
 20
202.6543155466
 11
125.9495869678
 21
202.6543155466
  0
LINE
  5
24F
100
AcDbEntity
  8
0
100
AcDbLine
 62
7
  6
CONTINUOUS
 10
119.9495869678
 20
203.1543155466
 11
125.9495869678
 21
203.1543155466
  0
LINE
  5
250
100
AcDbEntity
  8
0
100
AcDbLine
 62
7
  6
CONTINUOUS
 10
136.5327235183
 20
203.2928483184
 11
135.9610028735
 21
203.2928483184
  0
LINE
  5
251
100
AcDbEntity
  8
0
100
AcDbLine
 62
7
  6
CONTINUOUS
 10
139.2331737262
 20
202.0971292692
 11
140.2464851882
 21
201.7283140591
  0
LINE
  5
252
100
AcDbEntity
  8
0
100
AcDbLine
 62
7
  6
CONTINUOUS
 10
135.9610028735
 20
203.5009376156
 11
140.125932459
 21
201.9850272189
  0
LINE
  5
253
100
AcDbEntity
  8
0
100
AcDbLine
 62
7
  6
CONTINUOUS
 10
129.6610080547
 20
202.3111992203
 11
129.7901449838
 21
201.9252496221
  0
LINE
  5
254
100
AcDbEntity
  8
0
100
AcDbLine
 62
7
  6
CONTINUOUS
 10
125.9495869678
 20
192.8543155459
 11
125.9495869678
 21
233.7390933153
  0
LINE
  5
255
100
AcDbEntity
  8
0
100
AcDbLine
 62
7
  6
CONTINUOUS
 10
126.1610028735
 20
204.5655433151
 11
126.1610028735
 21
204.2606063511
  0
LINE
  5
256
100
AcDbEntity
  8
0
100
AcDbLine
 62
7
  6
CONTINUOUS
 10
126.1610028735
 20
215.2928483184
 11
126.1610028735
 21
233.7928483184
  0
LINE
  5
257
100
AcDbEntity
  8
0
100
AcDbLine
 62
7
  6
CONTINUOUS
 10
126.2495869685
 20
192.8543155466
 11
126.2495869685
 21
195.3543155466
  0
LINE
  5
258
100
AcDbEntity
  8
0
100
AcDbLine
 62
7
  6
CONTINUOUS
 10
126.5610028735
 20
233.7928483184
 11
126.5610028735
 21
238.2928483184
  0
LINE
  5
259
100
AcDbEntity
  8
0
100
AcDbLine
 62
7
  6
CONTINUOUS
 10
127.686494997
 20
229.1284896801
 11
127.686494997
 21
233.7928483184
  0
LINE
  5
25A
100
AcDbEntity
  8
0
100
AcDbLine
 62
7
  6
CONTINUOUS
 10
124.2978930379
 20
200.0136451429
 11
124.0531583605
 21
198.8067503704
  0
LINE
  5
25B
100
AcDbEntity
  8
0
100
AcDbLine
 62
7
  6
CONTINUOUS
 10
131.7905517307
 20
226.2758110991
 11
131.8299292927
 21
226.3468500976
  0
LINE
  5
25C
100
AcDbEntity
  8
0
100
AcDbLine
 62
7
  6
CONTINUOUS
 10
132.9610028735
 20
225.5928483184
 11
132.7134941908
 21
225.4928483195
  0
LINE
  5
25D
100
AcDbEntity
  8
0
100
AcDbLine
 62
7
  6
CONTINUOUS
 10
125.9495869678
 20
203.8928483184
 11
128.1609917905
 21
203.8928483184
  0
LINE
  5
25E
100
AcDbEntity
  8
0
100
AcDbLine
 62
7
  6
CONTINUOUS
 10
126.1610028727
 20
204.2606064113
 11
128.1610028727
 21
204.2606064113
  0
LINE
  5
25F
100
AcDbEntity
  8
0
100
AcDbLine
 62
7
  6
CONTINUOUS
 10
126.1610028727
 20
204.5655432825
 11
129.7503089291
 21
204.5655432825
  0
LINE
  5
260
100
AcDbEntity
  8
0
100
AcDbLine
 62
7
  6
CONTINUOUS
 10
131.3216557391
 20
198.2935162776
 11
131.0542029795
 21
199.0928483184
  0
LINE
  5
261
100
AcDbEntity
  8
0
100
AcDbLine
 62
7
  6
CONTINUOUS
 10
130.544201559
 20
200.6170818949
 11
130.2070898864
 21
201.6246024814
  0
LINE
  5
262
100
AcDbEntity
  8
0
100
AcDbLine
 62
7
  6
CONTINUOUS
 10
126.1610028735
 20
215.2928483162
 11
130.544201559
 21
202.1928483179
  0
LINE
  5
263
100
AcDbEntity
  8
0
100
AcDbLine
 62
7
  6
CONTINUOUS
 10
131.5814470494
 20
199.0928483184
 11
132.7228166892
 21
195.681654039
  0
LINE
  5
264
100
AcDbEntity
  8
0
100
AcDbLine
 62
7
  6
CONTINUOUS
 10
128.0610028735
 20
238.2928483184
 11
128.0610028735
 21
233.7928483184
  0
LINE
  5
265
100
AcDbEntity
  8
0
100
AcDbLine
 62
7
  6
CONTINUOUS
 10
128.1610028735
 20
203.8928378525
 11
128.1610028735
 21
204.2606064113
  0
LINE
  5
266
100
AcDbEntity
  8
0
100
AcDbLine
 62
7
  6
CONTINUOUS
 10
129.4610028728
 20
229.5773782637
 11
129.4610028728
 21
228.4715593401
  0
LINE
  5
267
100
AcDbEntity
  8
0
100
AcDbLine
 62
7
  6
CONTINUOUS
 10
129.6610028735
 20
195.6428483186
 11
129.6610028735
 21
201.5437051783
  0
LINE
  5
268
100
AcDbEntity
  8
0
100
AcDbLine
 62
7
  6
CONTINUOUS
 10
132.1110028739
 20
227.7928483184
 11
131.7611183173
 21
225.9928483177
  0
LINE
  5
269
100
AcDbEntity
  8
0
100
AcDbLine
 62
7
  6
CONTINUOUS
 10
125.9495869678
 20
206.9543155469
 11
119.9495869678
 21
206.9543155469
  0
LINE
  5
26A
100
AcDbEntity
  8
0
100
AcDbLine
 62
7
  6
CONTINUOUS
 10
128.8377654297
 20
207.2928483184
 11
125.9495869678
 21
207.2928483184
  0
LINE
  5
26B
100
AcDbEntity
  8
0
100
AcDbLine
 62
7
  6
CONTINUOUS
 10
130.1610028735
 20
202.6928483177
 11
130.1610028735
 21
203.3381084668
  0
LINE
  5
26C
100
AcDbEntity
  8
0
100
AcDbLine
 62
7
  6
CONTINUOUS
 10
130.3110028735
 20
201.3178870577
 11
130.3110028735
 21
202.5428483184
  0
LINE
  5
26D
100
AcDbEntity
  8
0
100
AcDbLine
 62
7
  6
CONTINUOUS
 10
130.544201559
 20
202.1928483179
 11
130.544201559
 21
199.0928483191
  0
LINE
  5
26E
100
AcDbEntity
  8
0
100
AcDbLine
 62
7
  6
CONTINUOUS
 10
131.4610028735
 20
217.5428483184
 11
131.4610028735
 21
211.7895502574
  0
LINE
  5
26F
100
AcDbEntity
  8
0
100
AcDbLine
 62
7
  6
CONTINUOUS
 10
132.1715648428
 20
227.7928483184
 11
132.2372968379
 21
228.1310101172
  0
LINE
  5
270
100
AcDbEntity
  8
0
100
AcDbLine
 62
7
  6
CONTINUOUS
 10
135.5694344176
 20
208.3930508024
 11
131.6567871033
 21
211.3927470758
  0
LINE
  5
271
100
AcDbEntity
  8
0
100
AcDbLine
 62
7
  6
CONTINUOUS
 10
132.9610028735
 20
210.8928483191
 11
136.3766643487
 21
208.2242411027
  0
LINE
  5
272
100
AcDbEntity
  8
0
100
AcDbLine
 62
7
  6
CONTINUOUS
 10
132.3752164358
 20
211.2926347557
 11
131.4610028735
 21
212.2068483181
  0
LINE
  5
273
100
AcDbEntity
  8
0
100
AcDbLine
 62
7
  6
CONTINUOUS
 10
131.9610028735
 20
225.7928483184
 11
131.9610028735
 21
225.4928483184
  0
LINE
  5
274
100
AcDbEntity
  8
0
100
AcDbLine
 62
7
  6
CONTINUOUS
 10
132.0610028735
 20
217.0928483184
 11
132.0610028735
 21
217.0628908451
  0
LINE
  5
275
100
AcDbEntity
  8
0
100
AcDbLine
 62
7
  6
CONTINUOUS
 10
132.0610028735
 20
213.1228057917
 11
132.0610028735
 21
213.0928483184
  0
LINE
  5
276
100
AcDbEntity
  8
0
100
AcDbLine
 62
7
  6
CONTINUOUS
 10
132.9610028735
 20
233.7928483184
 11
132.9610028735
 21
230.6928483191
  0
LINE
  5
277
100
AcDbEntity
  8
0
100
AcDbLine
 62
7
  6
CONTINUOUS
 10
132.9610028735
 20
210.392848319
 11
132.9610028735
 21
211.2928483184
  0
LINE
  5
278
100
AcDbEntity
  8
0
100
AcDbLine
 62
7
  6
CONTINUOUS
 10
132.9610028735
 20
218.8928483184
 11
132.9610028735
 21
227.8928483184
  0
LINE
  5
279
100
AcDbEntity
  8
0
100
AcDbLine
 62
7
  6
CONTINUOUS
 10
133.4610028735
 20
195.7722156644
 11
133.4610028735
 21
194.8428483177
  0
LINE
  5
27A
100
AcDbEntity
  8
0
100
AcDbLine
 62
7
  6
CONTINUOUS
 10
133.4610028735
 20
211.2928483184
 11
133.4610028735
 21
218.8928483184
  0
LINE
  5
27B
100
AcDbEntity
  8
0
100
AcDbLine
 62
7
  6
CONTINUOUS
 10
129.790144984
 20
201.925249622
 11
129.6610028731
 21
201.1928483187
  0
LINE
  5
27C
100
AcDbEntity
  8
0
100
AcDbLine
 62
7
  6
CONTINUOUS
 10
118.7602058217
 20
200.5038401829
 11
119.9143235852
 21
201.8100302614
  0
LINE
  5
27D
100
AcDbEntity
  8
0
100
AcDbLine
 62
7
  6
CONTINUOUS
 10
132.9610028735
 20
211.2928483184
 11
133.4610028735
 21
211.2928483184
  0
LINE
  5
27E
100
AcDbEntity
  8
0
100
AcDbLine
 62
7
  6
CONTINUOUS
 10
134.2610028735
 20
230.6928483184
 11
134.2610028735
 21
227.8928483184
  0
LINE
  5
27F
100
AcDbEntity
  8
0
100
AcDbLine
 62
7
  6
CONTINUOUS
 10
134.5610028735
 20
227.3928483184
 11
134.5610028735
 21
227.9928483184
  0
LINE
  5
280
100
AcDbEntity
  8
0
100
AcDbLine
 62
7
  6
CONTINUOUS
 10
134.5610028735
 20
230.5428483184
 11
134.5610028735
 21
230.6928483184
  0
LINE
  5
281
100
AcDbEntity
  8
0
100
AcDbLine
 62
7
  6
CONTINUOUS
 10
135.3610028735
 20
227.3928483191
 11
135.3610028735
 21
231.0928483184
  0
LINE
  5
282
100
AcDbEntity
  8
0
100
AcDbLine
 62
7
  6
CONTINUOUS
 10
132.0610028735
 20
213.0928483184
 11
133.4610028735
 21
213.0928483184
  0
LINE
  5
283
100
AcDbEntity
  8
0
100
AcDbLine
 62
7
  6
CONTINUOUS
 10
131.4610028735
 20
213.2286019801
 11
132.0610028735
 21
213.1228057917
  0
LINE
  5
284
100
AcDbEntity
  8
0
100
AcDbLine
 62
7
  6
CONTINUOUS
 10
139.1438786085
 20
202.3424655886
 11
140.7002016857
 21
198.0665030767
  0
LINE
  5
285
100
AcDbEntity
  8
0
100
AcDbLine
 62
7
  6
CONTINUOUS
 10
135.9610028735
 20
199.8729227942
 11
135.9610028735
 21
207.5994444411
  0
LINE
  5
286
100
AcDbEntity
  8
0
100
AcDbLine
 62
7
  6
CONTINUOUS
 10
136.7610028735
 20
203.209761428
 11
136.7610028735
 21
207.4362303491
  0
LINE
  5
287
100
AcDbEntity
  8
0
100
AcDbLine
 62
7
  6
CONTINUOUS
 10
142.9293687532
 20
199.2221898518
 11
144.6771840076
 21
194.4201069067
  0
LINE
  5
288
100
AcDbEntity
  8
0
100
AcDbLine
 62
7
  6
CONTINUOUS
 10
145.2409995799
 20
235.5603776444
 11
143.7394532489
 21
231.4349130045
  0
LINE
  5
289
100
AcDbEntity
  8
0
100
AcDbLine
 62
7
  6
CONTINUOUS
 10
132.0610028735
 20
217.0928483184
 11
133.4610028735
 21
217.0928483184
  0
LINE
  5
28A
100
AcDbEntity
  8
0
100
AcDbLine
 62
7
  6
CONTINUOUS
 10
125.7688188878
 20
234.3125556595
 11
122.7481633266
 21
238.6277778912
  0
LINE
  5
28B
100
AcDbEntity
  8
0
100
AcDbLine
 62
7
  6
CONTINUOUS
 10
137.076165658
 20
198.8303786951
 11
136.2812420078
 21
194.9102591259
  0
LINE
  5
28C
100
AcDbEntity
  8
0
100
AcDbLine
 62
7
  6
CONTINUOUS
 10
132.0610028735
 20
217.0628908451
 11
131.4610028735
 21
216.9570946566
  0
LINE
  5
28D
100
AcDbEntity
  8
0
100
AcDbLine
 62
7
  6
CONTINUOUS
 10
133.4610028735
 20
218.8928483184
 11
132.9610028735
 21
218.8928483184
  0
LINE
  5
28E
100
AcDbEntity
  8
0
100
AcDbLine
 62
7
  6
CONTINUOUS
 10
131.0389309974
 20
225.9928483177
 11
127.686494997
 21
229.1284896801
  0
LINE
  5
28F
100
AcDbEntity
  8
0
100
AcDbLine
 62
7
  6
CONTINUOUS
 10
129.5146482284
 20
228.3352496996
 11
131.4693148876
 21
226.2365386784
  0
LINE
  5
290
100
AcDbEntity
  8
0
100
AcDbLine
 62
7
  6
CONTINUOUS
 10
139.4943051513
 20
197.8395925891
 11
138.8943222961
 21
194.8808121691
  0
LINE
  5
291
100
AcDbEntity
  8
0
100
AcDbLine
 62
7
  6
CONTINUOUS
 10
138.7947987226
 20
193.6352459097
 11
139.8878258334
 21
199.0254452899
  0
LINE
  5
292
100
AcDbEntity
  8
0
100
AcDbLine
 62
7
  6
CONTINUOUS
 10
134.4021571471
 20
199.0928483191
 11
135.9610028735
 21
201.7928483183
  0
LINE
  5
293
100
AcDbEntity
  8
0
100
AcDbLine
 62
7
  6
CONTINUOUS
 10
151.0670938289
 20
196.7458438808
 11
150.7421746927
 21
197.6385518711
  0
LINE
  5
294
100
AcDbEntity
  8
0
100
AcDbLine
 62
7
  6
CONTINUOUS
 10
140.502134687
 20
193.5007957705
 11
140.4904471494
 21
193.4431593612
  0
LINE
  5
295
100
AcDbEntity
  8
0
100
AcDbLine
 62
7
  6
CONTINUOUS
 10
142.070926445
 20
197.2117523712
 11
141.3075096623
 21
193.4470070797
  0
LINE
  5
296
100
AcDbEntity
  8
0
100
AcDbLine
 62
7
  6
CONTINUOUS
 10
150.7421746927
 20
232.5471447657
 11
151.0670938289
 21
233.439852756
  0
LINE
  5
297
100
AcDbEntity
  8
0
100
AcDbLine
 62
7
  6
CONTINUOUS
 10
133.6268496768
 20
195.8298734607
 11
135.9610028735
 21
199.8729227942
  0
LINE
  5
298
100
AcDbEntity
  8
0
100
AcDbLine
 62
7
  6
CONTINUOUS
 10
130.1610028736
 20
202.6928483181
 11
130.3506236171
 21
202.771391802
  0
LINE
  5
299
100
AcDbEntity
  8
0
100
AcDbLine
 62
7
  6
CONTINUOUS
 10
132.9610028735
 20
225.4928483195
 11
131.9610028735
 21
225.4928483195
  0
LINE
  5
29A
100
AcDbEntity
  8
0
100
AcDbLine
 62
7
  6
CONTINUOUS
 10
132.9610028735
 20
225.7928483184
 11
131.9610028735
 21
225.7928483184
  0
LINE
  5
29B
100
AcDbEntity
  8
0
100
AcDbLine
 62
7
  6
CONTINUOUS
 10
140.1321329104
 20
228.6712687581
 11
135.3610028739
 21
227.3928483191
  0
LINE
  5
29C
100
AcDbEntity
  8
0
100
AcDbLine
 62
7
  6
CONTINUOUS
 10
131.7611183173
 20
225.9928483177
 11
131.0389309974
 21
225.9928483177
  0
LINE
  5
29D
100
AcDbEntity
  8
0
100
AcDbLine
 62
7
  6
CONTINUOUS
 10
132.9610028731
 20
227.3928483184
 11
135.3610028739
 21
227.3928483184
  0
LINE
  5
29E
100
AcDbEntity
  8
0
100
AcDbLine
 62
7
  6
CONTINUOUS
 10
132.1110028739
 20
227.7928483184
 11
132.9610028735
 21
227.7928483184
  0
LINE
  5
29F
100
AcDbEntity
  8
0
100
AcDbLine
 62
7
  6
CONTINUOUS
 10
134.2610028728
 20
227.8928483184
 11
132.9836222743
 21
227.8928483184
  0
LINE
  5
2A0
100
AcDbEntity
  8
0
100
AcDbLine
 62
7
  6
CONTINUOUS
 10
135.3610028731
 20
227.9928483184
 11
134.2610028735
 21
227.9928483184
  0
LINE
  5
2A1
100
AcDbEntity
  8
0
100
AcDbLine
 62
7
  6
CONTINUOUS
 10
132.5836223041
 20
228.2928483184
 11
132.4336222743
 21
228.2928483184
  0
LINE
  5
2A2
100
AcDbEntity
  8
0
100
AcDbLine
 62
7
  6
CONTINUOUS
 10
134.2610028735
 20
230.5428483184
 11
135.3610028731
 21
230.5428483184
  0
LINE
  5
2A3
100
AcDbEntity
  8
0
100
AcDbLine
 62
7
  6
CONTINUOUS
 10
135.3610028731
 20
230.6928483184
 11
134.5610028742
 21
230.6928483184
  0
LINE
  5
2A4
100
AcDbEntity
  8
0
100
AcDbLine
 62
7
  6
CONTINUOUS
 10
134.2610028735
 20
230.6928483191
 11
131.2466435204
 21
230.6928483191
  0
LINE
  5
2A5
100
AcDbEntity
  8
0
100
AcDbLine
 62
7
  6
CONTINUOUS
 10
155.7603935211
 20
231.0910018699
 11
155.743962656
 21
231.0910018699
  0
LINE
  5
2A6
100
AcDbEntity
  8
0
100
AcDbLine
 62
7
  6
CONTINUOUS
 10
135.3610028735
 20
231.0928483184
 11
142.7253269506
 21
231.0928483184
  0
LINE
  5
2A7
100
AcDbEntity
  8
0
100
AcDbLine
 62
7
  6
CONTINUOUS
 10
155.7439025997
 20
232.0047590017
 11
155.7439025997
 21
231.0970040745
  0
LINE
  5
2A8
100
AcDbEntity
  8
0
100
AcDbLine
 62
7
  6
CONTINUOUS
 10
155.7439025997
 20
199.0886925618
 11
155.7439025997
 21
195.2017334657
  0
LINE
  5
2A9
100
AcDbEntity
  8
0
100
AcDbLine
 62
7
  6
CONTINUOUS
 10
155.7552483916
 20
234.9839631717
 11
155.7552483916
 21
232.1030760834
  0
LINE
  5
2AA
100
AcDbEntity
  8
0
100
AcDbLine
 62
7
  6
CONTINUOUS
 10
155.7603935212
 20
231.0910018698
 11
155.7603935212
 21
232.0957280768
  0
LINE
  5
2AB
100
AcDbEntity
  8
0
100
AcDbLine
 62
7
  6
CONTINUOUS
 10
155.7770672227
 20
231.0849331391
 11
155.7770672227
 21
234.9839631717
  0
LINE
  5
2AC
100
AcDbEntity
  8
0
100
AcDbLine
 62
7
  6
CONTINUOUS
 10
125.9495869678
 20
233.7928483184
 11
132.9610028735
 21
233.7928483184
  0
LINE
  5
2AD
100
AcDbEntity
  8
0
100
AcDbLine
 62
7
  6
CONTINUOUS
 10
156.4993921838
 20
236.8675724972
 11
156.4993921838
 21
230.0541534279
  0
LINE
  5
2AE
100
AcDbEntity
  8
0
100
AcDbLine
 62
7
  6
CONTINUOUS
 10
156.4993921838
 20
193.3181241394
 11
156.4993921838
 21
200.1315437603
  0
LINE
  5
2AF
100
AcDbEntity
  8
0
100
AcDbLine
 62
7
  6
CONTINUOUS
 10
156.5610028735
 20
229.7290569715
 11
156.5610028735
 21
200.4566396653
  0
LINE
  5
2B0
100
AcDbEntity
  8
0
100
AcDbLine
 62
7
  6
CONTINUOUS
 10
128.0610028735
 20
234.3069499321
 11
126.5610028735
 21
234.3069499321
  0
LINE
  5
2B1
100
AcDbEntity
  8
0
100
AcDbLine
 62
7
  6
CONTINUOUS
 10
155.7552483916
 20
234.9839631717
 11
155.7770672227
 21
234.9839631717
  0
LINE
  5
2B2
100
AcDbEntity
  8
0
100
AcDbLine
 62
7
  6
CONTINUOUS
 10
150.7421746927
 20
197.6385518711
 11
155.9030230167
 21
199.5169470445
  0
LINE
  5
2B3
100
AcDbEntity
  8
0
100
AcDbLine
 62
7
  6
CONTINUOUS
 10
156.0967861417
 20
199.4272105593
 11
155.9413422556
 21
199.3706336126
  0
LINE
  5
2B4
100
AcDbEntity
  8
0
100
AcDbLine
 62
7
  6
CONTINUOUS
 10
154.1019982272
 20
198.7011671351
 11
153.2338330002
 21
198.385180834
  0
LINE
  5
2B5
100
AcDbEntity
  8
0
100
AcDbLine
 62
7
  6
CONTINUOUS
 10
155.9030230167
 20
230.6687495923
 11
150.7421746927
 21
232.5471447657
  0
LINE
  5
2B6
100
AcDbEntity
  8
0
100
AcDbLine
 62
7
  6
CONTINUOUS
 10
153.2338330002
 20
231.8005158027
 11
154.1019982272
 21
231.4845295016
  0
LINE
  5
2B7
100
AcDbEntity
  8
0
100
AcDbLine
 62
7
  6
CONTINUOUS
 10
155.9745068776
 20
230.8029920891
 11
156.0967861426
 21
230.7584860772
  0
LINE
  5
2B8
100
AcDbEntity
  8
0
100
AcDbLine
 62
7
  6
CONTINUOUS
 10
155.7603935212
 20
231.0910018698
 11
155.7770672227
 21
231.0849331391
  0
LINE
  5
2B9
100
AcDbEntity
  8
0
100
AcDbLine
 62
7
  6
CONTINUOUS
 10
152.5666623388
 20
233.1075238362
 11
152.784586882
 21
233.028205791
  0
LINE
  5
2BA
100
AcDbEntity
  8
0
100
AcDbLine
 62
7
  6
CONTINUOUS
 10
150.588955847
 20
234.4652229668
 11
146.2663697914
 21
236.0385156262
  0
LINE
  5
2BB
100
AcDbEntity
  8
0
100
AcDbLine
 62
7
  6
CONTINUOUS
 10
153.2135157122
 20
233.2069041057
 11
153.193132812
 21
233.2146881194
  0
LINE
  5
2BC
100
AcDbEntity
  8
0
100
AcDbLine
 62
7
  6
CONTINUOUS
 10
153.2242981492
 20
196.9823609515
 11
153.2448017044
 21
196.9898295768
  0
LINE
  5
2BD
100
AcDbEntity
  8
0
100
AcDbLine
 62
7
  6
CONTINUOUS
 10
152.815802164
 20
197.1688522811
 11
152.5666623373
 21
197.0781728
  0
LINE
  5
2BE
100
AcDbEntity
  8
0
100
AcDbLine
 62
7
  6
CONTINUOUS
 10
145.7025542188
 20
193.9419689245
 11
150.588955847
 21
195.72047367
  0
LINE
  5
2BF
100
AcDbEntity
  8
0
100
AcDbLine
 62
7
  6
CONTINUOUS
 10
128.0610028735
 20
238.2928483184
 11
126.5610028735
 21
238.2928483184
  0
LINE
  5
2C0
100
AcDbEntity
  8
0
100
AcDbLine
 62
7
  6
CONTINUOUS
 10
121.9289314065
 20
239.0543155466
 11
120.4495869678
 21
239.0543155466
  0
LINE
  5
2C1
100
AcDbEntity
  8
0
100
AcDbLine
 62
7
  6
CONTINUOUS
 10
155.7603935212
 20
232.0957280768
 11
155.7552483916
 21
232.1030760834
  0
LINE
  5
2C2
100
AcDbEntity
  8
0
100
AcDbLine
 62
7
  6
CONTINUOUS
 10
154.2096833646
 20
194.8183341179
 11
154.228937292
 21
194.8285980193
  0
LINE
  5
2C3
100
AcDbEntity
  8
0
100
AcDbLine
 62
7
  6
CONTINUOUS
 10
154.1996668338
 20
235.3726913278
 11
154.1804129013
 21
235.3829552196
  0
ARC
  5
2C4
100
AcDbEntity
  8
0
100
AcDbCircle
 62
7
  6
CONTINUOUS
 10
144.9818961524
 20
204.1086130096
 40
7.5
100
AcDbArc
 50
237.0061004393
 51
261.3145979878
  0
ARC
  5
2C5
100
AcDbEntity
  8
0
100
AcDbCircle
 62
7
  6
CONTINUOUS
 10
144.9818961524
 20
204.1086130096
 40
5.5
100
AcDbArc
 50
204.5197842672
 51
249.1148071072
  0
ARC
  5
2C6
100
AcDbEntity
  8
0
100
AcDbCircle
 62
7
  6
CONTINUOUS
 10
144.9818961524
 20
204.1086130096
 40
5.4118365096
100
AcDbArc
 50
205.4450523428
 51
248.3016720559
  0
ARC
  5
2C7
100
AcDbEntity
  8
0
100
AcDbCircle
 62
7
  6
CONTINUOUS
 10
144.9819159535
 20
204.1086331017
 40
5.3000261927
100
AcDbArc
 50
203.6205938307
 51
247.2151918562
  0
ARC
  5
2C8
100
AcDbEntity
  8
0
100
AcDbCircle
 62
7
  6
CONTINUOUS
 10
130.9610028735
 20
209.8784211936
 40
2.0
100
AcDbArc
 50
17.2569859547
 51
44.9999999954
  0
ARC
  5
2C9
100
AcDbEntity
  8
0
100
AcDbCircle
 62
7
  6
CONTINUOUS
 10
122.9495869678
 20
199.6543155466
 40
1.7
100
AcDbArc
 50
119.6797849304
 51
220.32021507
  0
ARC
  5
2CA
100
AcDbEntity
  8
0
100
AcDbCircle
 62
7
  6
CONTINUOUS
 10
122.9495869678
 20
199.6543155466
 40
1.4
100
AcDbArc
 50
276.7655005653
 51
51.7867893277
  0
ARC
  5
2CB
100
AcDbEntity
  8
0
100
AcDbCircle
 62
7
  6
CONTINUOUS
 10
135.760993162
 20
207.4362256123
 40
1.0000097116
100
AcDbArc
 50
0.0002713971
 51
51.9997286298
  0
ARC
  5
2CC
100
AcDbEntity
  8
0
100
AcDbCircle
 62
7
  6
CONTINUOUS
 10
134.9610028735
 20
207.5994444403
 40
1.0
100
AcDbArc
 50
0.0000000447
 51
52.5238204459
  0
ARC
  5
2CD
100
AcDbEntity
  8
0
100
AcDbCircle
 62
7
  6
CONTINUOUS
 10
145.4289714847
 20
194.6937946057
 40
0.8000558526
100
AcDbArc
 50
200.0039997201
 51
289.9960002513
  0
ARC
  5
2CE
100
AcDbEntity
  8
0
100
AcDbCircle
 62
7
  6
CONTINUOUS
 10
131.9610028735
 20
211.7895502574
 40
0.5
100
AcDbArc
 50
179.9999999986
 51
232.5238206588
  0
ARC
  5
2CF
100
AcDbEntity
  8
0
100
AcDbCircle
 62
7
  6
CONTINUOUS
 10
141.1700479983
 20
198.2375131425
 40
0.5
100
AcDbArc
 50
199.9999992791
 51
237.0061003797
  0
ARC
  5
2D0
100
AcDbEntity
  8
0
100
AcDbCircle
 62
7
  6
CONTINUOUS
 10
138.8645119522
 20
194.7338041986
 40
0.15
100
AcDbArc
 50
348.5371131346
 51
78.5369683749
  0
ARC
  5
2D1
100
AcDbEntity
  8
0
100
AcDbCircle
 62
7
  6
CONTINUOUS
 10
139.5241154952
 20
197.9866005596
 40
0.15
100
AcDbArc
 50
258.5369683749
 51
348.5368236173
  0
ARC
  5
2D2
100
AcDbEntity
  8
0
100
AcDbCircle
 62
7
  6
CONTINUOUS
 10
144.9819241606
 20
226.0770470701
 40
5.5000419396
100
AcDbArc
 50
103.0559293452
 51
151.8570457083
  0
ARC
  5
2D3
100
AcDbEntity
  8
0
100
AcDbCircle
 62
7
  6
CONTINUOUS
 10
132.9610028735
 20
217.5428483184
 40
1.5
100
AcDbArc
 50
90.0
 51
180.0
  0
ARC
  5
2D4
100
AcDbEntity
  8
0
100
AcDbCircle
 62
7
  6
CONTINUOUS
 10
124.9495869678
 20
233.7390933158
 40
1.0
100
AcDbArc
 50
0.0
 51
34.9920201874
  0
ARC
  5
2D5
100
AcDbEntity
  8
0
100
AcDbCircle
 62
7
  6
CONTINUOUS
 10
121.9289314062
 20
238.0543155466
 40
1.0
100
AcDbArc
 50
34.9920202123
 51
89.9999999805
  0
ARC
  5
2D6
100
AcDbEntity
  8
0
100
AcDbCircle
 62
7
  6
CONTINUOUS
 10
120.4495869678
 20
238.5543155466
 40
0.5
100
AcDbArc
 50
90.0
 51
180.0
  0
ARC
  5
2D7
100
AcDbEntity
  8
0
100
AcDbCircle
 62
7
  6
CONTINUOUS
 10
131.2466435196
 20
230.4928483184
 40
0.2
100
AcDbArc
 50
89.9999997708
 51
120.0000000551
  0
ARC
  5
2D8
100
AcDbEntity
  8
0
100
AcDbCircle
 62
7
  6
CONTINUOUS
 10
129.6610028735
 20
229.5773782646
 40
0.2
100
AcDbArc
 50
119.9999999168
 51
180.0000002578
  0
ARC
  5
2D9
100
AcDbEntity
  8
0
100
AcDbCircle
 62
7
  6
CONTINUOUS
 10
129.6610028735
 20
228.4715593403
 40
0.2
100
AcDbArc
 50
180.0000000573
 51
222.964743707
  0
ARC
  5
2DA
100
AcDbEntity
  8
0
100
AcDbCircle
 62
7
  6
CONTINUOUS
 10
131.6156695323
 20
226.3728483184
 40
0.2
100
AcDbArc
 50
222.9647436388
 51
330.9753364384
  0
ARC
  5
2DB
100
AcDbEntity
  8
0
100
AcDbCircle
 62
7
  6
CONTINUOUS
 10
132.4336222743
 20
228.0928483184
 40
0.2
100
AcDbArc
 50
89.9999999198
 51
169.0000000602
  0
ARC
  5
2DC
100
AcDbEntity
  8
0
100
AcDbCircle
 62
7
  6
CONTINUOUS
 10
132.5836222743
 20
228.0928483184
 40
0.2
100
AcDbArc
 50
359.9999934969
 51
89.9999995242
  0
ARC
  5
2DD
100
AcDbEntity
  8
0
100
AcDbCircle
 62
7
  6
CONTINUOUS
 10
132.9836222743
 20
228.0928483184
 40
0.2
100
AcDbArc
 50
180.0000065031
 51
270.0000001432
  0
ARC
  5
2DE
100
AcDbEntity
  8
0
100
AcDbCircle
 62
7
  6
CONTINUOUS
 10
171.0154241726
 20
203.7771539544
 40
19.0445104156
100
AcDbArc
 50
200.903192396
 51
208.0612115807
  0
ARC
  5
2DF
100
AcDbEntity
  8
0
100
AcDbCircle
 62
7
  6
CONTINUOUS
 10
171.0154241726
 20
203.7771539544
 40
19.0226915844
100
AcDbArc
 50
200.9038929594
 51
208.061211581
  0
ARC
  5
2E0
100
AcDbEntity
  8
0
100
AcDbCircle
 62
7
  6
CONTINUOUS
 10
169.6425070323
 20
203.0590872827
 40
18.4606503157
100
AcDbArc
 50
200.3584363439
 51
214.104043223
  0
ARC
  5
2E1
100
AcDbEntity
  8
0
100
AcDbCircle
 62
7
  6
CONTINUOUS
 10
154.1688641771
 20
196.9085171585
 40
1.8
100
AcDbArc
 50
137.8391828666
 51
170.510093651
  0
ARC
  5
2E2
100
AcDbEntity
  8
0
100
AcDbCircle
 62
7
  6
CONTINUOUS
 10
155.3412537395
 20
193.3181241396
 40
1.1581384443
100
AcDbArc
 50
211.7760340134
 51
359.9999999925
  0
ARC
  5
2E3
100
AcDbEntity
  8
0
100
AcDbCircle
 62
7
  6
CONTINUOUS
 10
155.5609735949
 20
200.4566601664
 40
1.0000292788
100
AcDbArc
 50
290.0011745835
 51
359.9988254071
  0
ARC
  5
2E4
100
AcDbEntity
  8
0
100
AcDbCircle
 62
7
  6
CONTINUOUS
 10
153.5758531431
 20
197.4454882131
 40
1.0
100
AcDbArc
 50
109.9999999747
 51
137.8391828696
  0
ARC
  5
2E5
100
AcDbEntity
  8
0
100
AcDbCircle
 62
7
  6
CONTINUOUS
 10
154.9288874884
 20
195.2017334651
 40
0.8150151109
100
AcDbArc
 50
208.0612115478
 51
360.0
  0
ARC
  5
2E6
100
AcDbEntity
  8
0
100
AcDbCircle
 62
7
  6
CONTINUOUS
 10
150.3152681477
 20
196.4722611469
 40
0.8000558525
100
AcDbArc
 50
290.0039997442
 51
19.9960002457
  0
ARC
  5
2E7
100
AcDbEntity
  8
0
100
AcDbCircle
 62
7
  6
CONTINUOUS
 10
154.9288874884
 20
195.2017334651
 40
0.7931962798
100
AcDbArc
 50
208.0612115534
 51
360.0
  0
ARC
  5
2E8
100
AcDbEntity
  8
0
100
AcDbCircle
 62
7
  6
CONTINUOUS
 10
152.9253350527
 20
196.8681314333
 40
0.3200479322
100
AcDbArc
 50
20.8922005816
 51
110.0133657864
  0
ARC
  5
2E9
100
AcDbEntity
  8
0
100
AcDbCircle
 62
7
  6
CONTINUOUS
 10
152.9458655811
 20
196.8756807275
 40
0.3199754588
100
AcDbArc
 50
45.1904467034
 51
110.0106842338
  0
ARC
  5
2EA
100
AcDbEntity
  8
0
100
AcDbCircle
 62
7
  6
CONTINUOUS
 10
152.6692683818
 20
196.7962650134
 40
0.3
100
AcDbArc
 50
110.0000002436
 51
156.3315609722
  0
ARC
  5
2EB
100
AcDbEntity
  8
0
100
AcDbCircle
 62
7
  6
CONTINUOUS
 10
156.1993921838
 20
199.1453027731
 40
0.3
100
AcDbArc
 50
0.0000000955
 51
109.999999836
  0
ARC
  5
2EC
100
AcDbEntity
  8
0
100
AcDbCircle
 62
7
  6
CONTINUOUS
 10
153.9993921838
 20
198.9830749212
 40
0.3
100
AcDbArc
 50
290.0000000951
 51
349.6473095599
  0
ARC
  5
2ED
100
AcDbEntity
  8
0
100
AcDbCircle
 62
7
  6
CONTINUOUS
 10
152.6893921838
 20
197.1558279364
 40
0.3
100
AcDbArc
 50
170.5100936641
 51
197.2617310046
  0
ARC
  5
2EE
100
AcDbEntity
  8
0
100
AcDbCircle
 62
7
  6
CONTINUOUS
 10
152.5693921838
 20
196.7237471751
 40
0.25
100
AcDbArc
 50
143.0898689286
 51
200.3584362856
  0
ARC
  5
2EF
100
AcDbEntity
  8
0
100
AcDbCircle
 62
7
  6
CONTINUOUS
 10
152.1975881912
 20
197.0030083273
 40
0.215
100
AcDbArc
 50
323.0898687727
 51
336.3315611998
  0
ARC
  5
2F0
100
AcDbEntity
  8
0
100
AcDbCircle
 62
7
  6
CONTINUOUS
 10
152.1975881912
 20
197.0030083273
 40
0.215
100
AcDbArc
 50
349.974198611
 51
17.2617311559
  0
ARC
  5
2F1
100
AcDbEntity
  8
0
100
AcDbCircle
 62
7
  6
CONTINUOUS
 10
171.0154241726
 20
226.4085426824
 40
19.077675039
100
AcDbArc
 50
151.938788418
 51
159.0983607616
  0
ARC
  5
2F2
100
AcDbEntity
  8
0
100
AcDbCircle
 62
7
  6
CONTINUOUS
 10
171.0154241726
 20
226.4085426824
 40
19.0558562078
100
AcDbArc
 50
151.9387884189
 51
159.0983560847
  0
ARC
  5
2F3
100
AcDbEntity
  8
0
100
AcDbCircle
 62
7
  6
CONTINUOUS
 10
169.6425070323
 20
227.1266093541
 40
18.4606503157
100
AcDbArc
 50
145.895956777
 51
159.6415636511
  0
ARC
  5
2F4
100
AcDbEntity
  8
0
100
AcDbCircle
 62
7
  6
CONTINUOUS
 10
154.1688641771
 20
233.2771794783
 40
1.8
100
AcDbArc
 50
189.489906349
 51
222.1608171334
  0
ARC
  5
2F5
100
AcDbEntity
  8
0
100
AcDbCircle
 62
7
  6
CONTINUOUS
 10
155.3412537395
 20
236.8675724972
 40
1.1581384443
100
AcDbArc
 50
0.0000000075
 51
148.2239659866
  0
ARC
  5
2F6
100
AcDbEntity
  8
0
100
AcDbCircle
 62
7
  6
CONTINUOUS
 10
155.5609735949
 20
229.7290364704
 40
1.0000292788
100
AcDbArc
 50
0.0011745929
 51
69.9988254165
  0
ARC
  5
2F7
100
AcDbEntity
  8
0
100
AcDbCircle
 62
7
  6
CONTINUOUS
 10
153.5758531431
 20
232.7402084237
 40
1.0
100
AcDbArc
 50
222.1608171304
 51
250.0000000253
  0
ARC
  5
2F8
100
AcDbEntity
  8
0
100
AcDbCircle
 62
7
  6
CONTINUOUS
 10
154.9288874884
 20
234.9839631717
 40
0.8481797343
100
AcDbArc
 50
0.0
 51
151.9387884211
  0
ARC
  5
2F9
100
AcDbEntity
  8
0
100
AcDbCircle
 62
7
  6
CONTINUOUS
 10
154.9288874884
 20
234.9839631717
 40
0.8263609032
100
AcDbArc
 50
0.0
 51
151.9387884417
  0
ARC
  5
2FA
100
AcDbEntity
  8
0
100
AcDbCircle
 62
7
  6
CONTINUOUS
 10
145.9927870572
 20
235.2866899445
 40
0.8000558531
100
AcDbArc
 50
70.0039997444
 51
159.9960002311
  0
ARC
  5
2FB
100
AcDbEntity
  8
0
100
AcDbCircle
 62
7
  6
CONTINUOUS
 10
150.3152681477
 20
233.7134354899
 40
0.8000558525
100
AcDbArc
 50
340.0039997545
 51
69.9960002538
  0
ARC
  5
2FC
100
AcDbEntity
  8
0
100
AcDbCircle
 62
7
  6
CONTINUOUS
 10
152.9146722592
 20
233.321445882
 40
0.3200477909
100
AcDbArc
 50
249.9776882523
 51
339.0476657738
  0
ARC
  5
2FD
100
AcDbEntity
  8
0
100
AcDbCircle
 62
7
  6
CONTINUOUS
 10
152.8941667402
 20
233.328909017
 40
0.3200475455
100
AcDbArc
 50
249.9776536925
 51
339.1089050539
  0
ARC
  5
2FE
100
AcDbEntity
  8
0
100
AcDbCircle
 62
7
  6
CONTINUOUS
 10
156.0462542631
 20
231.0999899479
 40
0.3036953477
100
AcDbArc
 50
232.5644856159
 51
241.8658548505
  0
ARC
  5
2FF
100
AcDbEntity
  8
0
100
AcDbCircle
 62
7
  6
CONTINUOUS
 10
155.454933649
 20
232.1031371845
 40
0.3003226153
100
AcDbArc
 50
344.1951845176
 51
359.9904520402
  0
ARC
  5
300
100
AcDbEntity
  8
0
100
AcDbCircle
 62
7
  6
CONTINUOUS
 10
156.0771162148
 20
231.0849508136
 40
0.3000489934
100
AcDbArc
 50
180.0033752634
 51
250.0027356842
  0
ARC
  5
301
100
AcDbEntity
  8
0
100
AcDbCircle
 62
7
  6
CONTINUOUS
 10
156.1993921838
 20
231.0403938637
 40
0.3
100
AcDbArc
 50
250.0000003405
 51
359.9999999706
  0
ARC
  5
302
100
AcDbEntity
  8
0
100
AcDbCircle
 62
7
  6
CONTINUOUS
 10
152.6692683818
 20
233.3894316234
 40
0.3
100
AcDbArc
 50
203.6684373486
 51
250.0000000746
  0
ARC
  5
303
100
AcDbEntity
  8
0
100
AcDbCircle
 62
7
  6
CONTINUOUS
 10
152.6893921838
 20
233.0298687004
 40
0.3
100
AcDbArc
 50
162.7382689954
 51
189.4899063359
  0
ARC
  5
304
100
AcDbEntity
  8
0
100
AcDbCircle
 62
7
  6
CONTINUOUS
 10
153.9993921838
 20
231.2026217156
 40
0.3
100
AcDbArc
 50
10.3526904401
 51
69.9999999048
  0
ARC
  5
305
100
AcDbEntity
  8
0
100
AcDbCircle
 62
7
  6
CONTINUOUS
 10
156.0438725251
 20
231.0970041029
 40
0.2999699259
100
AcDbArc
 50
180.0000270083
 51
181.1465335015
  0
ARC
  5
306
100
AcDbEntity
  8
0
100
AcDbCircle
 62
7
  6
CONTINUOUS
 10
155.4712482332
 20
232.1011656644
 40
0.2891964123
100
AcDbArc
 50
340.5272187398
 51
358.9226383401
  0
ARC
  5
307
100
AcDbEntity
  8
0
100
AcDbCircle
 62
7
  6
CONTINUOUS
 10
152.5693921838
 20
233.4619494617
 40
0.25
100
AcDbArc
 50
159.6415633438
 51
216.91013115
  0
ARC
  5
308
100
AcDbEntity
  8
0
100
AcDbCircle
 62
7
  6
CONTINUOUS
 10
152.1975881912
 20
233.1826883095
 40
0.215
100
AcDbArc
 50
23.6684411433
 51
36.910131136
  0
ARC
  5
309
100
AcDbEntity
  8
0
100
AcDbCircle
 62
7
  6
CONTINUOUS
 10
152.1975881912
 20
233.1826883095
 40
0.215
100
AcDbArc
 50
342.7382688441
 51
10.025801389
  0
SPLINE
  5
30A
100
AcDbEntity
  8
0
100
AcDbSpline
 62
7
  6
CONTINUOUS
 70
0
 71
3
 72
11
 73
7
 74
0
 42
0.0000001
 43
0.0000001
 44
0.0000000001
 40
0.0
 40
0.0
 40
0.0
 40
0.0
 40
0.3254056709
 40
0.618321101
 40
0.846697149
 40
1.0
 40
1.0
 40
1.0
 40
1.0
 10
133.6110455038
 20
195.829876964
 30
0.0
 10
133.5926035316
 20
195.8297952401
 30
0.0
 10
133.5575338555
 20
195.8270369313
 30
0.0
 10
133.5105358809
 20
195.8160143658
 30
0.0
 10
133.4754544194
 20
195.8006200654
 30
0.0
 10
133.4610037664
 20
195.7806983513
 30
0.0
 10
133.4610025709
 20
195.7720100127
 30
0.0
  0
SPLINE
  5
30B
100
AcDbEntity
  8
0
100
AcDbSpline
 62
7
  6
CONTINUOUS
 70
0
 71
3
 72
8
 73
4
 74
0
 42
0.0000001
 43
0.0000001
 44
0.0000000001
 40
0.0
 40
0.0
 40
0.0
 40
0.0
 40
1.0
 40
1.0
 40
1.0
 40
1.0
 10
131.3216557391
 20
198.2935162776
 30
0.0
 10
130.7681056322
 20
198.2925193627
 30
0.0
 10
130.2145533611
 20
198.2935720189
 30
0.0
 10
129.6610028731
 20
198.292815737
 30
0.0
  0
SPLINE
  5
30C
100
AcDbEntity
  8
0
100
AcDbSpline
 62
7
  6
CONTINUOUS
 70
0
 71
3
 72
9
 73
5
 74
0
 42
0.0000001
 43
0.0000001
 44
0.0000000001
 40
0.0
 40
0.0
 40
0.0
 40
0.0
 40
0.2051641048
 40
1.0
 40
1.0
 40
1.0
 40
1.0
 10
132.86306413
 20
195.1439818421
 30
0.0
 10
132.8494091836
 20
195.1782048868
 30
0.0
 10
132.7791227475
 20
195.3435269081
 30
0.0
 10
132.6969540264
 20
195.5035286699
 30
0.0
 10
132.6292951942
 20
195.6292252764
 30
0.0
  0
SPLINE
  5
30D
100
AcDbEntity
  8
0
100
AcDbSpline
 62
7
  6
CONTINUOUS
 70
0
 71
3
 72
12
 73
8
 74
0
 42
0.0000001
 43
0.0000001
 44
0.0000000001
 40
0.0
 40
0.0
 40
0.0
 40
0.0
 40
0.217586748
 40
0.4642710537
 40
0.7275132673
 40
0.8631224942
 40
1.0
 40
1.0
 40
1.0
 40
1.0
 10
132.6292951942
 20
195.6292252764
 30
0.0
 10
132.5271079502
 20
195.8190687808
 30
0.0
 10
132.3001201273
 20
196.2192436701
 30
0.0
 10
131.9508963892
 20
196.8498997591
 30
0.0
 10
131.6655645846
 20
197.4228614124
 30
0.0
 10
131.4565445777
 20
197.9110489374
 30
0.0
 10
131.3647825003
 20
198.1651252205
 30
0.0
 10
131.3210637677
 20
198.2935126013
 30
0.0
  0
SPLINE
  5
30E
100
AcDbEntity
  8
0
100
AcDbSpline
 62
7
  6
CONTINUOUS
 70
0
 71
3
 72
18
 73
14
 74
0
 42
0.0000001
 43
0.0000001
 44
0.0000000001
 40
0.0
 40
0.0
 40
0.0
 40
0.0
 40
0.0035356511
 40
0.0141574885
 40
0.0318680576
 40
0.0567151736
 40
0.0890279778
 40
0.1292689233
 40
0.2355783259
 40
0.3801291297
 40
0.5623912537
 40
0.7717195628
 40
1.0
 40
1.0
 40
1.0
 40
1.0
 10
132.9702542387
 20
194.8606442485
 30
0.0
 10
132.9706113277
 20
194.8606727829
 30
0.0
 10
132.9691739463
 20
194.8628399483
 30
0.0
 10
132.9693928585
 20
194.865209283
 30
0.0
 10
132.9674198432
 20
194.8708478191
 30
0.0
 10
132.9657348548
 20
194.8779880635
 30
0.0
 10
132.9628869335
 20
194.8875439929
 30
0.0
 10
132.9573615646
 20
194.9047521442
 30
0.0
 10
132.9466961839
 20
194.932324886
 30
0.0
 10
132.927718646
 20
194.9719027122
 30
0.0
 10
132.9026111845
 20
195.0200837149
 30
0.0
 10
132.8779564937
 20
195.0779579454
 30
0.0
 10
132.8665926601
 20
195.1211235234
 30
0.0
 10
132.86306413
 20
195.1439818421
 30
0.0
  0
SPLINE
  5
30F
100
AcDbEntity
  8
0
100
AcDbSpline
 62
7
  6
CONTINUOUS
 70
0
 71
3
 72
8
 73
4
 74
0
 42
0.0000001
 43
0.0000001
 44
0.0000000001
 40
0.0
 40
0.0
 40
0.0
 40
0.0
 40
1.0
 40
1.0
 40
1.0
 40
1.0
 10
130.3114885181
 20
201.6087253507
 30
0.0
 10
130.2776607557
 20
201.6184565362
 30
0.0
 10
130.2422896291
 20
201.6246018862
 30
0.0
 10
130.2070900058
 20
201.6246021247
 30
0.0
  0
SPLINE
  5
310
100
AcDbEntity
  8
0
100
AcDbSpline
 62
7
  6
CONTINUOUS
 70
0
 71
3
 72
21
 73
17
 74
0
 42
0.0000001
 43
0.0000001
 44
0.0000000001
 40
0.0
 40
0.0
 40
0.0
 40
0.0
 40
0.1949143405
 40
0.3827153153
 40
0.555598063
 40
0.7070854565
 40
0.7729988626
 40
0.8314582124
 40
0.8818902589
 40
0.9238553059
 40
0.9569233143
 40
0.9807482652
 40
0.9891389281
 40
0.9951563466
 40
0.9987818714
 40
1.0
 40
1.0
 40
1.0
 40
1.0
 10
131.3216701526
 20
198.2934732003
 30
0.0
 10
131.3525900971
 20
198.3034392132
 30
0.0
 10
131.4132567983
 20
198.3231481847
 30
0.0
 10
131.5010311777
 20
198.3526623866
 30
0.0
 10
131.5816694257
 20
198.3806702498
 30
0.0
 10
131.6433001338
 20
198.4014834633
 30
0.0
 10
131.686960561
 20
198.4158924386
 30
0.0
 10
131.7146488676
 20
198.4249664068
 30
0.0
 10
131.7385371222
 20
198.4327863531
 30
0.0
 10
131.7584380902
 20
198.439277427
 30
0.0
 10
131.7740238095
 20
198.4444466361
 30
0.0
 10
131.7844897258
 20
198.4478282151
 30
0.0
 10
131.7903337449
 20
198.4499446933
 30
0.0
 10
131.7934911855
 20
198.4508083398
 30
0.0
 10
131.7946339391
 20
198.4516268457
 30
0.0
 10
131.7959717763
 20
198.4517014931
 30
0.0
 10
131.7959073553
 20
198.451894027
 30
0.0
  0
SPLINE
  5
311
100
AcDbEntity
  8
0
100
AcDbSpline
 62
7
  6
CONTINUOUS
 70
0
 71
3
 72
13
 73
9
 74
0
 42
0.0000001
 43
0.0000001
 44
0.0000000001
 40
0.0
 40
0.0
 40
0.0
 40
0.0
 40
0.2525083905
 40
0.3788580279
 40
0.5028551659
 40
0.6258837776
 40
0.7496714332
 40
1.0
 40
1.0
 40
1.0
 40
1.0
 10
132.8626474066
 20
195.1447876691
 30
0.0
 10
132.846930086
 20
195.1887675886
 30
0.0
 10
132.8251341833
 20
195.2554412893
 30
0.0
 10
132.8017603159
 20
195.3455003268
 30
0.0
 10
132.7877103598
 20
195.4131297344
 30
0.0
 10
132.7745662372
 20
195.4804433628
 30
0.0
 10
132.7540342298
 20
195.5701003169
 30
0.0
 10
132.7351008996
 20
195.6366792641
 30
0.0
 10
132.7234658278
 20
195.6814943818
 30
0.0
  0
SPLINE
  5
312
100
AcDbEntity
  8
0
100
AcDbSpline
 62
7
  6
CONTINUOUS
 70
0
 71
3
 72
8
 73
4
 74
0
 42
0.0000001
 43
0.0000001
 44
0.0000000001
 40
0.0
 40
0.0
 40
0.0
 40
0.0
 40
1.0
 40
1.0
 40
1.0
 40
1.0
 10
155.8386344669
 20
230.8890650961
 30
0.0
 10
155.8671345192
 20
230.8578876746
 30
0.0
 10
155.9030150433
 20
230.8322244597
 30
0.0
 10
155.9417830826
 20
230.8154517524
 30
0.0
  0
SPLINE
  5
313
100
AcDbEntity
  8
0
100
AcDbSpline
 62
7
  6
CONTINUOUS
 70
0
 71
3
 72
9
 73
5
 74
0
 42
0.0000001
 43
0.0000001
 44
0.0000000001
 40
0.0
 40
0.0
 40
0.0
 40
0.0
 40
0.6694515753
 40
1.0
 40
1.0
 40
1.0
 40
1.0
 10
155.743962656
 20
231.0910018699
 30
0.0
 10
155.7451650319
 20
231.0309236179
 30
0.0
 10
155.7747615909
 20
230.9418469523
 30
0.0
 10
155.8380782714
 20
230.8768821823
 30
0.0
 10
155.8616475384
 20
230.8588443044
 30
0.0
  0
SPLINE
  5
314
100
AcDbEntity
  8
0
100
AcDbSpline
 62
7
  6
CONTINUOUS
 70
0
 71
3
 72
8
 73
4
 74
0
 42
0.0000001
 43
0.0000001
 44
0.0000000001
 40
0.0
 40
0.0
 40
0.0
 40
0.0
 40
1.0
 40
1.0
 40
1.0
 40
1.0
 10
155.7603937619
 20
231.0910019559
 30
0.0
 10
155.7603969313
 20
231.0605864795
 30
0.0
 10
155.7652505769
 20
231.0298435226
 30
0.0
 10
155.7744005883
 20
231.0008369974
 30
0.0
  0
SPLINE
  5
315
100
AcDbEntity
  8
0
100
AcDbSpline
 62
7
  6
CONTINUOUS
 70
0
 71
3
 72
8
 73
4
 74
0
 42
0.0000001
 43
0.0000001
 44
0.0000000001
 40
0.0
 40
0.0
 40
0.0
 40
0.0
 40
1.0
 40
1.0
 40
1.0
 40
1.0
 10
155.7744005883
 20
231.0008369974
 30
0.0
 10
155.7873278796
 20
230.9598560867
 30
0.0
 10
155.8096414027
 20
230.9207818444
 30
0.0
 10
155.8386344669
 20
230.8890650961
 30
0.0
  0
SPLINE
  5
316
100
AcDbEntity
  8
0
100
AcDbSpline
 62
7
  6
CONTINUOUS
 70
0
 71
3
 72
8
 73
4
 74
0
 42
0.0000001
 43
0.0000001
 44
0.0000000001
 40
0.0
 40
0.0
 40
0.0
 40
0.0
 40
1.0
 40
1.0
 40
1.0
 40
1.0
 10
153.2448017043
 20
196.989829577
 30
0.0
 10
153.2287877961
 20
197.0317573521
 30
0.0
 10
153.2032140843
 20
197.0710611514
 30
0.0
 10
153.1713690893
 20
197.102688353
 30
0.0
  0
ELLIPSE
  5
317
100
AcDbEntity
  8
0
100
AcDbEllipse
 62
7
  6
CONTINUOUS
 10
127.4353561955
 20
198.7446891979
 30
0.0
 11
21.192350261
 21
-4.2973945382
 31
0.0
 40
0.153091273
 41
-0.8757482026
 42
-0.8265482521
  0
ELLIPSE
  5
318
100
AcDbEntity
  8
0
100
AcDbEllipse
 62
7
  6
CONTINUOUS
 10
122.3176274425
 20
200.3117018765
 30
0.0
 11
0.100516764
 21
0.4956925531
 31
0.0
 40
0.9885695586
 41
0.0000000011
 42
1.570796328
  0
ELLIPSE
  5
319
100
AcDbEntity
  8
0
100
AcDbEllipse
 62
7
  6
CONTINUOUS
 10
122.2305330365
 20
199.8822008985
 30
0.0
 11
0.1028731299
 21
0.507312834
 31
0.0
 40
0.9659258263
 41
0.0000000028
 42
1.5707963273
  0
ELLIPSE
  5
31A
100
AcDbEntity
  8
0
100
AcDbEllipse
 62
7
  6
CONTINUOUS
 10
122.1985611958
 20
199.7245336326
 30
0.0
 11
0.1028731299
 21
0.507312834
 31
0.0
 40
0.9659258263
 41
-4.71238898
 42
-3.1415926558
  0
ELLIPSE
  5
31B
100
AcDbEntity
  8
0
100
AcDbEllipse
 62
7
  6
CONTINUOUS
 10
122.1065178497
 20
199.2706272451
 30
0.0
 11
0.1053426262
 21
0.5194910107
 31
0.0
 40
0.9432820939
 41
-4.7123889793
 42
-3.1415926564
  0
ELLIPSE
  5
31C
100
AcDbEntity
  8
0
100
AcDbEllipse
 62
7
  6
CONTINUOUS
 10
156.0439482977
 20
199.0887258255
 30
0.0
 11
0.281956417
 21
0.1026237431
 31
0.0
 40
0.9998275239
 41
1.5707963229
 42
2.7925822388
  0
ENDSEC
  0
SECTION
  2
OBJECTS
  0
DICTIONARY
  5
C
100
AcDbDictionary
280
0
281
1
  3
ACAD_GROUP
350
D
  3
ACAD_MLINESTYLE
350
17
  3
ACAD_LAYOUT
350
1A
  3
ACAD_PLOTSETTINGS
350
19
  3
ACAD_PLOTSTYLENAME
350
E
  0
DICTIONARY
  5
D
102
{ACAD_REACTORS
330
C
102
}
100
AcDbDictionary
280
0
281
1
  0
ACDBDICTIONARYWDFLT
  5
E
102
{ACAD_REACTORS
330
C
102
}
100
AcDbDictionary
281
1
  3
Normal
350
F
100
AcDbDictionaryWithDefault
340
F
  0
DICTIONARY
  5
17
102
{ACAD_REACTORS
330
C
102
}
100
AcDbDictionary
280
0
281
1
  3
Standard
350
18
  0
DICTIONARY
  5
19
102
{ACAD_REACTORS
330
C
102
}
100
AcDbDictionary
281
1
  0
DICTIONARY
  5
1A
102
{ACAD_REACTORS
330
C
102
}
100
AcDbDictionary
281
1
  3
Model
350
31D
  3
Layout1
350
31E
  0
ACDBPLACEHOLDER
  5
F
102
{ACAD_REACTORS
330
E
102
}
  0
MLINESTYLE
  5
18
102
{ACAD_REACTORS
330
17
102
}
100
AcDbMlineStyle
  2
STANDARD
 70
0
  3

 62
256
 51
90.0
 52
90.0
 71
2
 49
0.5
 62
256
  6
BYLAYER
 49
-0.5
 62
256
  6
BYLAYER
  0
LAYOUT
  5
31D
102
{ACAD_REACTORS
330
1A
102
}
100
AcDbPlotSettings
  1

  2
none_device
  4
ANSI_C_(22.00_x_17.00_Inches)
  6

 40
0.0
 41
0.0
 42
0.0
 43
0.0
 44
558.8
 45
431.8
 46
0.0
 47
0.0
 48
0.0
 49
0.0
140
0.0
141
0.0
142
1.0
143
1.0
 70
1024
 72
1
 73
0
 74
0
  7

 75
0
147
1.0
148
0.0
149
0.0
100
AcDbLayout
  1
Model
 70
0
 71
0
 10
0.0
 20
0.0
 11
558.8
 21
431.8
 12
0.0
 22
0.0
 32
0.0
 14
0.0
 24
0.0
 34
0.0
 15
0.0
 25
0.0
 35
0.0
146
0.0
 13
0.0
 23
0.0
 33
0.0
 16
1.0
 26
0.0
 36
0.0
 17
0.0
 27
1.0
 37
0.0
 76
0
330
219
345
0
346
0
  0
LAYOUT
  5
31E
102
{ACAD_REACTORS
330
1A
102
}
100
AcDbPlotSettings
  1

  2
none_device
  4
ANSI_C_(22.00_x_17.00_Inches)
  6

 40
0.0
 41
0.0
 42
0.0
 43
0.0
 44
558.8
 45
431.8
 46
0.0
 47
0.0
 48
0.0
 49
0.0
140
0.0
141
0.0
142
1.0
143
1.0
 70
0
 72
1
 73
0
 74
0
  7

 75
0
147
1.0
148
0.0
149
0.0
100
AcDbLayout
  1
Layout1
 70
0
 71
1
 10
0.0
 20
0.0
 11
558.8
 21
431.8
 12
0.0
 22
0.0
 32
0.0
 14
0.0
 24
0.0
 34
0.0
 15
0.0
 25
0.0
 35
0.0
146
0.0
 13
0.0
 23
0.0
 33
0.0
 16
1.0
 26
0.0
 36
0.0
 17
0.0
 27
1.0
 37
0.0
 76
0
330
21A
345
0
346
0
  0
ENDSEC
  0
EOF
