  0
SECTION
  2
HEADER
  9
$ACADVER
  1
AC1012
  9
$DWGCODEPAGE
  3
ANSI_1252
  9
$INSBASE
 10
0.0
 20
0.0
 30
0.0
  9
$EXTMIN
 10
0.4381714151685259
 20
3.314849878329376
 30
-0.0000000349181948
  9
$EXTMAX
 10
5.520263692271271
 20
7.821304340871638
 30
0.0000000814935746
  9
$LIMMIN
 10
0.0
 20
0.0
  9
$LIMMAX
 10
12.0
 20
9.0
  9
$ORTHOMODE
 70
     0
  9
$REGENMODE
 70
     1
  9
$FILLMODE
 70
     1
  9
$QTEXTMODE
 70
     0
  9
$MIRRTEXT
 70
     1
  9
$DRAGMODE
 70
     2
  9
$LTSCALE
 40
1.0
  9
$OSMODE
 70
   547
  9
$ATTMODE
 70
     1
  9
$TEXTSIZE
 40
0.2
  9
$TRACEWID
 40
0.05
  9
$TEXTSTYLE
  7
STANDARD
  9
$CLAYER
  8
0
  9
$CELTYPE
  6
BYLAYER
  9
$CECOLOR
 62
   256
  9
$CELTSCALE
 40
1.0
  9
$DELOBJ
 70
     1
  9
$DISPSILH
 70
     0
  9
$DIMSCALE
 40
1.0
  9
$DIMASZ
 40
0.18
  9
$DIMEXO
 40
0.0625
  9
$DIMDLI
 40
0.38
  9
$DIMRND
 40
0.0
  9
$DIMDLE
 40
0.0
  9
$DIMEXE
 40
0.18
  9
$DIMTP
 40
0.0
  9
$DIMTM
 40
0.0
  9
$DIMTXT
 40
0.18
  9
$DIMCEN
 40
0.09
  9
$DIMTSZ
 40
0.0
  9
$DIMTOL
 70
     0
  9
$DIMLIM
 70
     0
  9
$DIMTIH
 70
     1
  9
$DIMTOH
 70
     1
  9
$DIMSE1
 70
     0
  9
$DIMSE2
 70
     0
  9
$DIMTAD
 70
     0
  9
$DIMZIN
 70
     0
  9
$DIMBLK
  1

  9
$DIMASO
 70
     1
  9
$DIMSHO
 70
     1
  9
$DIMPOST
  1

  9
$DIMAPOST
  1

  9
$DIMALT
 70
     0
  9
$DIMALTD
 70
     2
  9
$DIMALTF
 40
25.4
  9
$DIMLFAC
 40
1.0
  9
$DIMTOFL
 70
     0
  9
$DIMTVP
 40
0.0
  9
$DIMTIX
 70
     0
  9
$DIMSOXD
 70
     0
  9
$DIMSAH
 70
     0
  9
$DIMBLK1
  1

  9
$DIMBLK2
  1

  9
$DIMSTYLE
  2
STANDARD
  9
$DIMCLRD
 70
     0
  9
$DIMCLRE
 70
     0
  9
$DIMCLRT
 70
     0
  9
$DIMTFAC
 40
1.0
  9
$DIMGAP
 40
0.09
  9
$DIMJUST
 70
     0
  9
$DIMSD1
 70
     0
  9
$DIMSD2
 70
     0
  9
$DIMTOLJ
 70
     1
  9
$DIMTZIN
 70
     0
  9
$DIMALTZ
 70
     0
  9
$DIMALTTZ
 70
     0
  9
$DIMFIT
 70
     5
  9
$DIMUPT
 70
     0
  9
$DIMUNIT
 70
     2
  9
$DIMDEC
 70
     4
  9
$DIMTDEC
 70
     4
  9
$DIMALTU
 70
     2
  9
$DIMALTTD
 70
     2
  9
$DIMTXSTY
  7
STANDARD
  9
$DIMAUNIT
 70
     0
  9
$LUNITS
 70
     2
  9
$LUPREC
 70
     4
  9
$SKETCHINC
 40
0.1
  9
$FILLETRAD
 40
0.0
  9
$AUNITS
 70
     0
  9
$AUPREC
 70
     0
  9
$MENU
  1
acad
  9
$ELEVATION
 40
0.0
  9
$PELEVATION
 40
0.0
  9
$THICKNESS
 40
0.0
  9
$LIMCHECK
 70
     0
  9
$BLIPMODE
 70
     0
  9
$CHAMFERA
 40
0.0
  9
$CHAMFERB
 40
0.0
  9
$CHAMFERC
 40
0.0
  9
$CHAMFERD
 40
0.0
  9
$SKPOLY
 70
     0
  9
$TDCREATE
 40
2453529.594548611
  9
$TDUPDATE
 40
2453944.471005104
  9
$TDINDWG
 40
0.0021682407
  9
$TDUSRTIMER
 40
0.0021682407
  9
$USRTIMER
 70
     1
  9
$ANGBASE
 50
0.0
  9
$ANGDIR
 70
     0
  9
$PDMODE
 70
     0
  9
$PDSIZE
 40
0.0
  9
$PLINEWID
 40
0.0
  9
$COORDS
 70
     1
  9
$SPLFRAME
 70
     0
  9
$SPLINETYPE
 70
     6
  9
$SPLINESEGS
 70
     8
  9
$ATTDIA
 70
     0
  9
$ATTREQ
 70
     1
  9
$HANDLING
 70
  4097
  9
$HANDSEED
  5
4FD8
  9
$SURFTAB1
 70
     6
  9
$SURFTAB2
 70
     6
  9
$SURFTYPE
 70
     6
  9
$SURFU
 70
     6
  9
$SURFV
 70
     6
  9
$UCSNAME
  2

  9
$UCSORG
 10
0.0
 20
0.0
 30
0.0
  9
$UCSXDIR
 10
1.0
 20
0.0
 30
0.0
  9
$UCSYDIR
 10
0.0
 20
1.0
 30
0.0
  9
$PUCSNAME
  2

  9
$PUCSORG
 10
0.0
 20
0.0
 30
0.0
  9
$PUCSXDIR
 10
1.0
 20
0.0
 30
0.0
  9
$PUCSYDIR
 10
0.0
 20
1.0
 30
0.0
  9
$USERI1
 70
     0
  9
$USERI2
 70
     0
  9
$USERI3
 70
     0
  9
$USERI4
 70
     0
  9
$USERI5
 70
     0
  9
$USERR1
 40
0.0
  9
$USERR2
 40
0.0
  9
$USERR3
 40
0.0
  9
$USERR4
 40
0.0
  9
$USERR5
 40
0.0
  9
$WORLDVIEW
 70
     1
  9
$SHADEDGE
 70
     3
  9
$SHADEDIF
 70
    70
  9
$TILEMODE
 70
     1
  9
$MAXACTVP
 70
    16
  9
$PINSBASE
 10
0.0
 20
0.0
 30
0.0
  9
$PLIMCHECK
 70
     0
  9
$PEXTMIN
 10
1.000000000000000E+20
 20
1.000000000000000E+20
 30
1.000000000000000E+20
  9
$PEXTMAX
 10
-1.000000000000000E+20
 20
-1.000000000000000E+20
 30
-1.000000000000000E+20
  9
$PLIMMIN
 10
0.0
 20
0.0
  9
$PLIMMAX
 10
12.0
 20
9.0
  9
$UNITMODE
 70
     0
  9
$VISRETAIN
 70
     0
  9
$PLINEGEN
 70
     0
  9
$PSLTSCALE
 70
     1
  9
$TREEDEPTH
 70
  3020
  9
$PICKSTYLE
 70
     1
  9
$CMLSTYLE
  2
STANDARD
  9
$CMLJUST
 70
     0
  9
$CMLSCALE
 40
1.0
  9
$SAVEIMAGES
 70
     1
  0
ENDSEC
  0
SECTION
  2
CLASSES
  0
CLASS
  1
ACDBDICTIONARYWDFLT
  2
AcDbDictionaryWithDefault
  3
AutoCAD 2000
 90
    32768
280
     0
281
     0
  0
CLASS
  1
ACDBPLACEHOLDER
  2
AcDbPlaceHolder
  3
AutoCAD 2000
 90
    32768
280
     0
281
     0
  0
CLASS
  1
LAYOUT
  2
AcDbLayout
  3
AutoCAD 2000
 90
    32768
280
     0
281
     0
  0
CLASS
  1
LONG_TRANSACTION
  2
AcDbLongTransaction
  3
AutoCAD 2000
 90
    32768
280
     0
281
     0
  0
CLASS
  1
LWPOLYLINE
  2
AcDbPolyline
  3
AutoCAD 2000
 90
    32768
280
     0
281
     1
  0
CLASS
  1
HATCH
  2
AcDbHatch
  3
AutoCAD 2000
 90
    32768
280
     0
281
     1
  0
CLASS
  1
XRECORD
  2
AcDbXrecord
  3
AutoCAD 2000
 90
    32768
280
     0
281
     0
  0
CLASS
  1
LONG_TRANSACTION
  2
AcDbLongTransaction
  3
AutoCAD 2000
 90
    32768
280
     0
281
     0
  0
CLASS
  1
LWPOLYLINE
  2
AcDbPolyline
  3
AutoCAD 2000
 90
    32768
280
     0
281
     1
  0
CLASS
  1
HATCH
  2
AcDbHatch
  3
AutoCAD 2000
 90
    32768
280
     0
281
     1
  0
CLASS
  1
XRECORD
  2
AcDbXrecord
  3
AutoCAD 2000
 90
    32768
280
     0
281
     0
  0
ENDSEC
  0
SECTION
  2
TABLES
  0
TABLE
  2
VPORT
  5
8
330
0
100
AcDbSymbolTable
 70
     4
  0
VPORT
  5
4FD5
330
8
100
AcDbSymbolTableRecord
100
AcDbViewportTableRecord
  2
*ACTIVE
 70
     0
 10
0.0
 20
0.0
 11
1.0
 21
1.0
 12
2.979217553719898
 22
5.568077109600507
 13
0.0
 23
0.0
 14
1.0
 24
1.0
 15
0.0
 25
0.0
 16
0.0
 26
0.0
 36
1.0
 17
0.0
 27
0.0
 37
0.0
 40
4.553315340835595
 41
1.647569444444444
 42
50.0
 43
0.0
 44
0.0
 50
0.0
 51
0.0
 71
     0
 72
   100
 73
     1
 74
     1
 75
     0
 76
     0
 77
     0
 78
     0
  0
ENDTAB
  0
TABLE
  2
LTYPE
  5
5
330
0
100
AcDbSymbolTable
 70
    25
  0
LTYPE
  5
13
330
5
100
AcDbSymbolTableRecord
100
AcDbLinetypeTableRecord
  2
BYBLOCK
 70
     0
  3

 72
    65
 73
     0
 40
0.0
  0
LTYPE
  5
14
330
5
100
AcDbSymbolTableRecord
100
AcDbLinetypeTableRecord
  2
BYLAYER
 70
     0
  3

 72
    65
 73
     0
 40
0.0
  0
LTYPE
  5
15
330
5
100
AcDbSymbolTableRecord
100
AcDbLinetypeTableRecord
  2
CONTINUOUS
 70
     0
  3
Solid line
 72
    65
 73
     0
 40
0.0
  0
LTYPE
  5
22
330
5
100
AcDbSymbolTableRecord
100
AcDbLinetypeTableRecord
  2
BORDER
 70
     0
  3
__ __ . __ __ . __ __ . __ __ . __ __ . __ __ .
 72
    65
 73
     6
 40
1.75
 49
0.5
 74
     0
 49
-0.25
 74
     0
 49
0.5
 74
     0
 49
-0.25
 74
     0
 49
0.5
 74
     0
 49
-0.25
 74
     0
  0
LTYPE
  5
23
330
5
100
AcDbSymbolTableRecord
100
AcDbLinetypeTableRecord
  2
BORDER2
 70
     0
  3
__.__.__.__.__.__.__.__.__.__.__.__.__.__.__.__
 72
    65
 73
     6
 40
0.875
 49
0.25
 74
     0
 49
-0.125
 74
     0
 49
0.25
 74
     0
 49
-0.125
 74
     0
 49
0.25
 74
     0
 49
-0.125
 74
     0
  0
LTYPE
  5
24
330
5
100
AcDbSymbolTableRecord
100
AcDbLinetypeTableRecord
  2
BORDERX2
 70
     0
  3
____  ____  .  ____  ____  .  
 72
    65
 73
     6
 40
3.5
 49
1.0
 74
     0
 49
-0.5
 74
     0
 49
1.0
 74
     0
 49
-0.5
 74
     0
 49
1.0
 74
     0
 49
-0.5
 74
     0
  0
LTYPE
  5
25
330
5
100
AcDbSymbolTableRecord
100
AcDbLinetypeTableRecord
  2
CENTER
 70
     0
  3
____ _ ____ _ ____ _ ____ _ ____ _ ____ _ ____
 72
    65
 73
     4
 40
2.0
 49
1.25
 74
     0
 49
-0.25
 74
     0
 49
0.25
 74
     0
 49
-0.25
 74
     0
  0
LTYPE
  5
26
330
5
100
AcDbSymbolTableRecord
100
AcDbLinetypeTableRecord
  2
CENTER2
 70
     0
  3
____ _ ____ _ ____ _ ____ _ ____ _ ____ _ ____
 72
    65
 73
     4
 40
1.125
 49
0.75
 74
     0
 49
-0.125
 74
     0
 49
0.125
 74
     0
 49
-0.125
 74
     0
  0
LTYPE
  5
27
330
5
100
AcDbSymbolTableRecord
100
AcDbLinetypeTableRecord
  2
CENTERX2
 70
     0
  3
________  __  ________  __  ________  __  
 72
    65
 73
     4
 40
4.0
 49
2.5
 74
     0
 49
-0.5
 74
     0
 49
0.5
 74
     0
 49
-0.5
 74
     0
  0
LTYPE
  5
28
330
5
100
AcDbSymbolTableRecord
100
AcDbLinetypeTableRecord
  2
DASHDOT
 70
     0
  3
__ . __ . __ . __ . __ . __ . __ . 
 72
    65
 73
     4
 40
1.0
 49
0.5
 74
     0
 49
-0.25
 74
     0
 49
0.0
 74
     0
 49
-0.25
 74
     0
  0
LTYPE
  5
29
330
5
100
AcDbSymbolTableRecord
100
AcDbLinetypeTableRecord
  2
DASHDOT2
 70
     0
  3
_._._._._._._._._._._._._._._._.
 72
    65
 73
     4
 40
0.5
 49
0.25
 74
     0
 49
-0.125
 74
     0
 49
0.0
 74
     0
 49
-0.125
 74
     0
  0
LTYPE
  5
2A
330
5
100
AcDbSymbolTableRecord
100
AcDbLinetypeTableRecord
  2
DASHDOTX2
 70
     0
  3
____  .  ____  .  ____  .  ____  .  
 72
    65
 73
     4
 40
2.0
 49
1.0
 74
     0
 49
-0.5
 74
     0
 49
0.0
 74
     0
 49
-0.5
 74
     0
  0
LTYPE
  5
2B
330
5
100
AcDbSymbolTableRecord
100
AcDbLinetypeTableRecord
  2
DASHED
 70
     0
  3
__ __ __ __ __ __ __ __ __ __ __ __ 
 72
    65
 73
     2
 40
0.75
 49
0.5
 74
     0
 49
-0.25
 74
     0
  0
LTYPE
  5
2C
330
5
100
AcDbSymbolTableRecord
100
AcDbLinetypeTableRecord
  2
DASHED2
 70
     0
  3
_ _ _ _ _ _ _ _ _ _ _ _ _ _ _ _ _ _ 
 72
    65
 73
     2
 40
0.375
 49
0.25
 74
     0
 49
-0.125
 74
     0
  0
LTYPE
  5
2D
330
5
100
AcDbSymbolTableRecord
100
AcDbLinetypeTableRecord
  2
DASHEDX2
 70
     0
  3
____  ____  ____  ____  ____  ____  
 72
    65
 73
     2
 40
1.5
 49
1.0
 74
     0
 49
-0.5
 74
     0
  0
LTYPE
  5
2E
330
5
100
AcDbSymbolTableRecord
100
AcDbLinetypeTableRecord
  2
DIVIDE
 70
     0
  3
____ . . ____ . . ____ . . ____ . . 
 72
    65
 73
     6
 40
1.25
 49
0.5
 74
     0
 49
-0.25
 74
     0
 49
0.0
 74
     0
 49
-0.25
 74
     0
 49
0.0
 74
     0
 49
-0.25
 74
     0
  0
LTYPE
  5
2F
330
5
100
AcDbSymbolTableRecord
100
AcDbLinetypeTableRecord
  2
DIVIDE2
 70
     0
  3
__..__..__..__..__..__..__..__..__..
 72
    65
 73
     6
 40
0.625
 49
0.25
 74
     0
 49
-0.125
 74
     0
 49
0.0
 74
     0
 49
-0.125
 74
     0
 49
0.0
 74
     0
 49
-0.125
 74
     0
  0
LTYPE
  5
30
330
5
100
AcDbSymbolTableRecord
100
AcDbLinetypeTableRecord
  2
DIVIDEX2
 70
     0
  3
________  .  .  ________  .  .  ________  .  . 
 72
    65
 73
     6
 40
2.5
 49
1.0
 74
     0
 49
-0.5
 74
     0
 49
0.0
 74
     0
 49
-0.5
 74
     0
 49
0.0
 74
     0
 49
-0.5
 74
     0
  0
LTYPE
  5
31
330
5
100
AcDbSymbolTableRecord
100
AcDbLinetypeTableRecord
  2
DOT
 70
     0
  3
. . . . . . . . . . . . . . . . . . 
 72
    65
 73
     2
 40
0.25
 49
0.0
 74
     0
 49
-0.25
 74
     0
  0
LTYPE
  5
32
330
5
100
AcDbSymbolTableRecord
100
AcDbLinetypeTableRecord
  2
DOT2
 70
     0
  3
....................................
 72
    65
 73
     2
 40
0.125
 49
0.0
 74
     0
 49
-0.125
 74
     0
  0
LTYPE
  5
33
330
5
100
AcDbSymbolTableRecord
100
AcDbLinetypeTableRecord
  2
DOTX2
 70
     0
  3
.  .  .  .  .  .  .  .  .  .  .  .  .  
 72
    65
 73
     2
 40
0.5
 49
0.0
 74
     0
 49
-0.5
 74
     0
  0
LTYPE
  5
34
330
5
100
AcDbSymbolTableRecord
100
AcDbLinetypeTableRecord
  2
HIDDEN
 70
     0
  3
__ __ __ __ __ __ __ __ __ __ __ __ 
 72
    65
 73
     2
 40
0.375
 49
0.25
 74
     0
 49
-0.125
 74
     0
  0
LTYPE
  5
35
330
5
100
AcDbSymbolTableRecord
100
AcDbLinetypeTableRecord
  2
HIDDEN2
 70
     0
  3
_ _ _ _ _ _ _ _ _ _ _ _ _ _ _ _ _ _ 
 72
    65
 73
     2
 40
0.1875
 49
0.125
 74
     0
 49
-0.0625
 74
     0
  0
LTYPE
  5
36
330
5
100
AcDbSymbolTableRecord
100
AcDbLinetypeTableRecord
  2
HIDDENX2
 70
     0
  3
____ ____ ____ ____ ____ ____ ____ 
 72
    65
 73
     2
 40
0.75
 49
0.5
 74
     0
 49
-0.25
 74
     0
  0
LTYPE
  5
37
330
5
100
AcDbSymbolTableRecord
100
AcDbLinetypeTableRecord
  2
PHANTOM
 70
     0
  3
______  __  __  ______  __  __  
 72
    65
 73
     6
 40
2.5
 49
1.25
 74
     0
 49
-0.25
 74
     0
 49
0.25
 74
     0
 49
-0.25
 74
     0
 49
0.25
 74
     0
 49
-0.25
 74
     0
  0
LTYPE
  5
38
330
5
100
AcDbSymbolTableRecord
100
AcDbLinetypeTableRecord
  2
PHANTOM2
 70
     0
  3
___ _ _ ___ _ _ ___ _ _ ___ _ _ 
 72
    65
 73
     6
 40
1.25
 49
0.625
 74
     0
 49
-0.125
 74
     0
 49
0.125
 74
     0
 49
-0.125
 74
     0
 49
0.125
 74
     0
 49
-0.125
 74
     0
  0
LTYPE
  5
39
330
5
100
AcDbSymbolTableRecord
100
AcDbLinetypeTableRecord
  2
PHANTOMX2
 70
     0
  3
___ _ _ ___ _ _ ___ _ _ ___ _ _ 
 72
    65
 73
     6
 40
5.0
 49
2.5
 74
     0
 49
-0.5
 74
     0
 49
0.5
 74
     0
 49
-0.5
 74
     0
 49
0.5
 74
     0
 49
-0.5
 74
     0
  0
ENDTAB
  0
TABLE
  2
LAYER
  5
2
330
0
100
AcDbSymbolTable
 70
   257
  0
LAYER
  5
10
330
2
100
AcDbSymbolTableRecord
100
AcDbLayerTableRecord
  2
0
 70
     0
 62
     7
  6
CONTINUOUS
  0
LAYER
  5
3A
330
2
100
AcDbSymbolTableRecord
100
AcDbLayerTableRecord
  2
1
 70
     0
 62
     1
  6
CONTINUOUS
  0
LAYER
  5
3B
330
2
100
AcDbSymbolTableRecord
100
AcDbLayerTableRecord
  2
2
 70
     0
 62
     2
  6
CONTINUOUS
  0
LAYER
  5
3C
330
2
100
AcDbSymbolTableRecord
100
AcDbLayerTableRecord
  2
3
 70
     0
 62
     3
  6
CONTINUOUS
  0
LAYER
  5
3D
330
2
100
AcDbSymbolTableRecord
100
AcDbLayerTableRecord
  2
4
 70
     0
 62
     4
  6
CONTINUOUS
  0
LAYER
  5
3E
330
2
100
AcDbSymbolTableRecord
100
AcDbLayerTableRecord
  2
5
 70
     0
 62
     5
  6
CONTINUOUS
  0
LAYER
  5
3F
330
2
100
AcDbSymbolTableRecord
100
AcDbLayerTableRecord
  2
6
 70
     0
 62
     6
  6
CONTINUOUS
  0
LAYER
  5
40
330
2
100
AcDbSymbolTableRecord
100
AcDbLayerTableRecord
  2
7
 70
     0
 62
     7
  6
CONTINUOUS
  0
LAYER
  5
41
330
2
100
AcDbSymbolTableRecord
100
AcDbLayerTableRecord
  2
8
 70
     0
 62
     8
  6
CONTINUOUS
  0
LAYER
  5
42
330
2
100
AcDbSymbolTableRecord
100
AcDbLayerTableRecord
  2
9
 70
     0
 62
     9
  6
CONTINUOUS
  0
LAYER
  5
43
330
2
100
AcDbSymbolTableRecord
100
AcDbLayerTableRecord
  2
10
 70
     0
 62
    10
  6
CONTINUOUS
  0
LAYER
  5
44
330
2
100
AcDbSymbolTableRecord
100
AcDbLayerTableRecord
  2
11
 70
     0
 62
    11
  6
CONTINUOUS
  0
LAYER
  5
45
330
2
100
AcDbSymbolTableRecord
100
AcDbLayerTableRecord
  2
12
 70
     0
 62
    12
  6
CONTINUOUS
  0
LAYER
  5
46
330
2
100
AcDbSymbolTableRecord
100
AcDbLayerTableRecord
  2
13
 70
     0
 62
    13
  6
CONTINUOUS
  0
LAYER
  5
47
330
2
100
AcDbSymbolTableRecord
100
AcDbLayerTableRecord
  2
14
 70
     0
 62
    14
  6
CONTINUOUS
  0
LAYER
  5
48
330
2
100
AcDbSymbolTableRecord
100
AcDbLayerTableRecord
  2
15
 70
     0
 62
    15
  6
CONTINUOUS
  0
LAYER
  5
49
330
2
100
AcDbSymbolTableRecord
100
AcDbLayerTableRecord
  2
16
 70
     0
 62
    16
  6
CONTINUOUS
  0
LAYER
  5
4A
330
2
100
AcDbSymbolTableRecord
100
AcDbLayerTableRecord
  2
17
 70
     0
 62
    17
  6
CONTINUOUS
  0
LAYER
  5
4B
330
2
100
AcDbSymbolTableRecord
100
AcDbLayerTableRecord
  2
18
 70
     0
 62
    18
  6
CONTINUOUS
  0
LAYER
  5
4C
330
2
100
AcDbSymbolTableRecord
100
AcDbLayerTableRecord
  2
19
 70
     0
 62
    19
  6
CONTINUOUS
  0
LAYER
  5
4D
330
2
100
AcDbSymbolTableRecord
100
AcDbLayerTableRecord
  2
20
 70
     0
 62
    20
  6
CONTINUOUS
  0
LAYER
  5
4E
330
2
100
AcDbSymbolTableRecord
100
AcDbLayerTableRecord
  2
21
 70
     0
 62
    21
  6
CONTINUOUS
  0
LAYER
  5
4F
330
2
100
AcDbSymbolTableRecord
100
AcDbLayerTableRecord
  2
22
 70
     0
 62
    22
  6
CONTINUOUS
  0
LAYER
  5
50
330
2
100
AcDbSymbolTableRecord
100
AcDbLayerTableRecord
  2
23
 70
     0
 62
    23
  6
CONTINUOUS
  0
LAYER
  5
51
330
2
100
AcDbSymbolTableRecord
100
AcDbLayerTableRecord
  2
24
 70
     0
 62
    24
  6
CONTINUOUS
  0
LAYER
  5
52
330
2
100
AcDbSymbolTableRecord
100
AcDbLayerTableRecord
  2
25
 70
     0
 62
    25
  6
CONTINUOUS
  0
LAYER
  5
53
330
2
100
AcDbSymbolTableRecord
100
AcDbLayerTableRecord
  2
26
 70
     0
 62
    26
  6
CONTINUOUS
  0
LAYER
  5
54
330
2
100
AcDbSymbolTableRecord
100
AcDbLayerTableRecord
  2
27
 70
     0
 62
    27
  6
CONTINUOUS
  0
LAYER
  5
55
330
2
100
AcDbSymbolTableRecord
100
AcDbLayerTableRecord
  2
28
 70
     0
 62
    28
  6
CONTINUOUS
  0
LAYER
  5
56
330
2
100
AcDbSymbolTableRecord
100
AcDbLayerTableRecord
  2
29
 70
     0
 62
    29
  6
CONTINUOUS
  0
LAYER
  5
57
330
2
100
AcDbSymbolTableRecord
100
AcDbLayerTableRecord
  2
30
 70
     0
 62
    30
  6
CONTINUOUS
  0
LAYER
  5
58
330
2
100
AcDbSymbolTableRecord
100
AcDbLayerTableRecord
  2
31
 70
     0
 62
    31
  6
CONTINUOUS
  0
LAYER
  5
59
330
2
100
AcDbSymbolTableRecord
100
AcDbLayerTableRecord
  2
32
 70
     0
 62
    32
  6
CONTINUOUS
  0
LAYER
  5
5A
330
2
100
AcDbSymbolTableRecord
100
AcDbLayerTableRecord
  2
33
 70
     0
 62
    33
  6
CONTINUOUS
  0
LAYER
  5
5B
330
2
100
AcDbSymbolTableRecord
100
AcDbLayerTableRecord
  2
34
 70
     0
 62
    34
  6
CONTINUOUS
  0
LAYER
  5
5C
330
2
100
AcDbSymbolTableRecord
100
AcDbLayerTableRecord
  2
35
 70
     0
 62
    35
  6
CONTINUOUS
  0
LAYER
  5
5D
330
2
100
AcDbSymbolTableRecord
100
AcDbLayerTableRecord
  2
36
 70
     0
 62
    36
  6
CONTINUOUS
  0
LAYER
  5
5E
330
2
100
AcDbSymbolTableRecord
100
AcDbLayerTableRecord
  2
37
 70
     0
 62
    37
  6
CONTINUOUS
  0
LAYER
  5
5F
330
2
100
AcDbSymbolTableRecord
100
AcDbLayerTableRecord
  2
38
 70
     0
 62
    38
  6
CONTINUOUS
  0
LAYER
  5
60
330
2
100
AcDbSymbolTableRecord
100
AcDbLayerTableRecord
  2
39
 70
     0
 62
    39
  6
CONTINUOUS
  0
LAYER
  5
61
330
2
100
AcDbSymbolTableRecord
100
AcDbLayerTableRecord
  2
40
 70
     0
 62
    40
  6
CONTINUOUS
  0
LAYER
  5
62
330
2
100
AcDbSymbolTableRecord
100
AcDbLayerTableRecord
  2
41
 70
     0
 62
    41
  6
CONTINUOUS
  0
LAYER
  5
63
330
2
100
AcDbSymbolTableRecord
100
AcDbLayerTableRecord
  2
42
 70
     0
 62
    42
  6
CONTINUOUS
  0
LAYER
  5
64
330
2
100
AcDbSymbolTableRecord
100
AcDbLayerTableRecord
  2
43
 70
     0
 62
    43
  6
CONTINUOUS
  0
LAYER
  5
65
330
2
100
AcDbSymbolTableRecord
100
AcDbLayerTableRecord
  2
44
 70
     0
 62
    44
  6
CONTINUOUS
  0
LAYER
  5
66
330
2
100
AcDbSymbolTableRecord
100
AcDbLayerTableRecord
  2
45
 70
     0
 62
    45
  6
CONTINUOUS
  0
LAYER
  5
67
330
2
100
AcDbSymbolTableRecord
100
AcDbLayerTableRecord
  2
46
 70
     0
 62
    46
  6
CONTINUOUS
  0
LAYER
  5
68
330
2
100
AcDbSymbolTableRecord
100
AcDbLayerTableRecord
  2
47
 70
     0
 62
    47
  6
CONTINUOUS
  0
LAYER
  5
69
330
2
100
AcDbSymbolTableRecord
100
AcDbLayerTableRecord
  2
48
 70
     0
 62
    48
  6
CONTINUOUS
  0
LAYER
  5
6A
330
2
100
AcDbSymbolTableRecord
100
AcDbLayerTableRecord
  2
49
 70
     0
 62
    49
  6
CONTINUOUS
  0
LAYER
  5
6B
330
2
100
AcDbSymbolTableRecord
100
AcDbLayerTableRecord
  2
50
 70
     0
 62
    50
  6
CONTINUOUS
  0
LAYER
  5
6C
330
2
100
AcDbSymbolTableRecord
100
AcDbLayerTableRecord
  2
51
 70
     0
 62
    51
  6
CONTINUOUS
  0
LAYER
  5
6D
330
2
100
AcDbSymbolTableRecord
100
AcDbLayerTableRecord
  2
52
 70
     0
 62
    52
  6
CONTINUOUS
  0
LAYER
  5
6E
330
2
100
AcDbSymbolTableRecord
100
AcDbLayerTableRecord
  2
53
 70
     0
 62
    53
  6
CONTINUOUS
  0
LAYER
  5
6F
330
2
100
AcDbSymbolTableRecord
100
AcDbLayerTableRecord
  2
54
 70
     0
 62
    54
  6
CONTINUOUS
  0
LAYER
  5
70
330
2
100
AcDbSymbolTableRecord
100
AcDbLayerTableRecord
  2
55
 70
     0
 62
    55
  6
CONTINUOUS
  0
LAYER
  5
71
330
2
100
AcDbSymbolTableRecord
100
AcDbLayerTableRecord
  2
56
 70
     0
 62
    56
  6
CONTINUOUS
  0
LAYER
  5
72
330
2
100
AcDbSymbolTableRecord
100
AcDbLayerTableRecord
  2
57
 70
     0
 62
    57
  6
CONTINUOUS
  0
LAYER
  5
73
330
2
100
AcDbSymbolTableRecord
100
AcDbLayerTableRecord
  2
58
 70
     0
 62
    58
  6
CONTINUOUS
  0
LAYER
  5
74
330
2
100
AcDbSymbolTableRecord
100
AcDbLayerTableRecord
  2
59
 70
     0
 62
    59
  6
CONTINUOUS
  0
LAYER
  5
75
330
2
100
AcDbSymbolTableRecord
100
AcDbLayerTableRecord
  2
60
 70
     0
 62
    60
  6
CONTINUOUS
  0
LAYER
  5
76
330
2
100
AcDbSymbolTableRecord
100
AcDbLayerTableRecord
  2
61
 70
     0
 62
    61
  6
CONTINUOUS
  0
LAYER
  5
77
330
2
100
AcDbSymbolTableRecord
100
AcDbLayerTableRecord
  2
62
 70
     0
 62
    62
  6
CONTINUOUS
  0
LAYER
  5
78
330
2
100
AcDbSymbolTableRecord
100
AcDbLayerTableRecord
  2
63
 70
     0
 62
    63
  6
CONTINUOUS
  0
LAYER
  5
79
330
2
100
AcDbSymbolTableRecord
100
AcDbLayerTableRecord
  2
64
 70
     0
 62
    64
  6
CONTINUOUS
  0
LAYER
  5
7A
330
2
100
AcDbSymbolTableRecord
100
AcDbLayerTableRecord
  2
65
 70
     0
 62
    65
  6
CONTINUOUS
  0
LAYER
  5
7B
330
2
100
AcDbSymbolTableRecord
100
AcDbLayerTableRecord
  2
66
 70
     0
 62
    66
  6
CONTINUOUS
  0
LAYER
  5
7C
330
2
100
AcDbSymbolTableRecord
100
AcDbLayerTableRecord
  2
67
 70
     0
 62
    67
  6
CONTINUOUS
  0
LAYER
  5
7D
330
2
100
AcDbSymbolTableRecord
100
AcDbLayerTableRecord
  2
68
 70
     0
 62
    68
  6
CONTINUOUS
  0
LAYER
  5
7E
330
2
100
AcDbSymbolTableRecord
100
AcDbLayerTableRecord
  2
69
 70
     0
 62
    69
  6
CONTINUOUS
  0
LAYER
  5
7F
330
2
100
AcDbSymbolTableRecord
100
AcDbLayerTableRecord
  2
70
 70
     0
 62
    70
  6
CONTINUOUS
  0
LAYER
  5
80
330
2
100
AcDbSymbolTableRecord
100
AcDbLayerTableRecord
  2
71
 70
     0
 62
    71
  6
CONTINUOUS
  0
LAYER
  5
81
330
2
100
AcDbSymbolTableRecord
100
AcDbLayerTableRecord
  2
72
 70
     0
 62
    72
  6
CONTINUOUS
  0
LAYER
  5
82
330
2
100
AcDbSymbolTableRecord
100
AcDbLayerTableRecord
  2
73
 70
     0
 62
    73
  6
CONTINUOUS
  0
LAYER
  5
83
330
2
100
AcDbSymbolTableRecord
100
AcDbLayerTableRecord
  2
74
 70
     0
 62
    74
  6
CONTINUOUS
  0
LAYER
  5
84
330
2
100
AcDbSymbolTableRecord
100
AcDbLayerTableRecord
  2
75
 70
     0
 62
    75
  6
CONTINUOUS
  0
LAYER
  5
85
330
2
100
AcDbSymbolTableRecord
100
AcDbLayerTableRecord
  2
76
 70
     0
 62
    76
  6
CONTINUOUS
  0
LAYER
  5
86
330
2
100
AcDbSymbolTableRecord
100
AcDbLayerTableRecord
  2
77
 70
     0
 62
    77
  6
CONTINUOUS
  0
LAYER
  5
87
330
2
100
AcDbSymbolTableRecord
100
AcDbLayerTableRecord
  2
78
 70
     0
 62
    78
  6
CONTINUOUS
  0
LAYER
  5
88
330
2
100
AcDbSymbolTableRecord
100
AcDbLayerTableRecord
  2
79
 70
     0
 62
    79
  6
CONTINUOUS
  0
LAYER
  5
89
330
2
100
AcDbSymbolTableRecord
100
AcDbLayerTableRecord
  2
80
 70
     0
 62
    80
  6
CONTINUOUS
  0
LAYER
  5
8A
330
2
100
AcDbSymbolTableRecord
100
AcDbLayerTableRecord
  2
81
 70
     0
 62
    81
  6
CONTINUOUS
  0
LAYER
  5
8B
330
2
100
AcDbSymbolTableRecord
100
AcDbLayerTableRecord
  2
82
 70
     0
 62
    82
  6
CONTINUOUS
  0
LAYER
  5
8C
330
2
100
AcDbSymbolTableRecord
100
AcDbLayerTableRecord
  2
83
 70
     0
 62
    83
  6
CONTINUOUS
  0
LAYER
  5
8D
330
2
100
AcDbSymbolTableRecord
100
AcDbLayerTableRecord
  2
84
 70
     0
 62
    84
  6
CONTINUOUS
  0
LAYER
  5
8E
330
2
100
AcDbSymbolTableRecord
100
AcDbLayerTableRecord
  2
85
 70
     0
 62
    85
  6
CONTINUOUS
  0
LAYER
  5
8F
330
2
100
AcDbSymbolTableRecord
100
AcDbLayerTableRecord
  2
86
 70
     0
 62
    86
  6
CONTINUOUS
  0
LAYER
  5
90
330
2
100
AcDbSymbolTableRecord
100
AcDbLayerTableRecord
  2
87
 70
     0
 62
    87
  6
CONTINUOUS
  0
LAYER
  5
91
330
2
100
AcDbSymbolTableRecord
100
AcDbLayerTableRecord
  2
88
 70
     0
 62
    88
  6
CONTINUOUS
  0
LAYER
  5
92
330
2
100
AcDbSymbolTableRecord
100
AcDbLayerTableRecord
  2
89
 70
     0
 62
    89
  6
CONTINUOUS
  0
LAYER
  5
93
330
2
100
AcDbSymbolTableRecord
100
AcDbLayerTableRecord
  2
90
 70
     0
 62
    90
  6
CONTINUOUS
  0
LAYER
  5
94
330
2
100
AcDbSymbolTableRecord
100
AcDbLayerTableRecord
  2
91
 70
     0
 62
    91
  6
CONTINUOUS
  0
LAYER
  5
95
330
2
100
AcDbSymbolTableRecord
100
AcDbLayerTableRecord
  2
92
 70
     0
 62
    92
  6
CONTINUOUS
  0
LAYER
  5
96
330
2
100
AcDbSymbolTableRecord
100
AcDbLayerTableRecord
  2
93
 70
     0
 62
    93
  6
CONTINUOUS
  0
LAYER
  5
97
330
2
100
AcDbSymbolTableRecord
100
AcDbLayerTableRecord
  2
94
 70
     0
 62
    94
  6
CONTINUOUS
  0
LAYER
  5
98
330
2
100
AcDbSymbolTableRecord
100
AcDbLayerTableRecord
  2
95
 70
     0
 62
    95
  6
CONTINUOUS
  0
LAYER
  5
99
330
2
100
AcDbSymbolTableRecord
100
AcDbLayerTableRecord
  2
96
 70
     0
 62
    96
  6
CONTINUOUS
  0
LAYER
  5
9A
330
2
100
AcDbSymbolTableRecord
100
AcDbLayerTableRecord
  2
97
 70
     0
 62
    97
  6
CONTINUOUS
  0
LAYER
  5
9B
330
2
100
AcDbSymbolTableRecord
100
AcDbLayerTableRecord
  2
98
 70
     0
 62
    98
  6
CONTINUOUS
  0
LAYER
  5
9C
330
2
100
AcDbSymbolTableRecord
100
AcDbLayerTableRecord
  2
99
 70
     0
 62
    99
  6
CONTINUOUS
  0
LAYER
  5
9D
330
2
100
AcDbSymbolTableRecord
100
AcDbLayerTableRecord
  2
100
 70
     0
 62
   100
  6
CONTINUOUS
  0
LAYER
  5
9E
330
2
100
AcDbSymbolTableRecord
100
AcDbLayerTableRecord
  2
101
 70
     0
 62
   101
  6
CONTINUOUS
  0
LAYER
  5
9F
330
2
100
AcDbSymbolTableRecord
100
AcDbLayerTableRecord
  2
102
 70
     0
 62
   102
  6
CONTINUOUS
  0
LAYER
  5
A0
330
2
100
AcDbSymbolTableRecord
100
AcDbLayerTableRecord
  2
103
 70
     0
 62
   103
  6
CONTINUOUS
  0
LAYER
  5
A1
330
2
100
AcDbSymbolTableRecord
100
AcDbLayerTableRecord
  2
104
 70
     0
 62
   104
  6
CONTINUOUS
  0
LAYER
  5
A2
330
2
100
AcDbSymbolTableRecord
100
AcDbLayerTableRecord
  2
105
 70
     0
 62
   105
  6
CONTINUOUS
  0
LAYER
  5
A3
330
2
100
AcDbSymbolTableRecord
100
AcDbLayerTableRecord
  2
106
 70
     0
 62
   106
  6
CONTINUOUS
  0
LAYER
  5
A4
330
2
100
AcDbSymbolTableRecord
100
AcDbLayerTableRecord
  2
107
 70
     0
 62
   107
  6
CONTINUOUS
  0
LAYER
  5
A5
330
2
100
AcDbSymbolTableRecord
100
AcDbLayerTableRecord
  2
108
 70
     0
 62
   108
  6
CONTINUOUS
  0
LAYER
  5
A6
330
2
100
AcDbSymbolTableRecord
100
AcDbLayerTableRecord
  2
109
 70
     0
 62
   109
  6
CONTINUOUS
  0
LAYER
  5
A7
330
2
100
AcDbSymbolTableRecord
100
AcDbLayerTableRecord
  2
110
 70
     0
 62
   110
  6
CONTINUOUS
  0
LAYER
  5
A8
330
2
100
AcDbSymbolTableRecord
100
AcDbLayerTableRecord
  2
111
 70
     0
 62
   111
  6
CONTINUOUS
  0
LAYER
  5
A9
330
2
100
AcDbSymbolTableRecord
100
AcDbLayerTableRecord
  2
112
 70
     0
 62
   112
  6
CONTINUOUS
  0
LAYER
  5
AA
330
2
100
AcDbSymbolTableRecord
100
AcDbLayerTableRecord
  2
113
 70
     0
 62
   113
  6
CONTINUOUS
  0
LAYER
  5
AB
330
2
100
AcDbSymbolTableRecord
100
AcDbLayerTableRecord
  2
114
 70
     0
 62
   114
  6
CONTINUOUS
  0
LAYER
  5
AC
330
2
100
AcDbSymbolTableRecord
100
AcDbLayerTableRecord
  2
115
 70
     0
 62
   115
  6
CONTINUOUS
  0
LAYER
  5
AD
330
2
100
AcDbSymbolTableRecord
100
AcDbLayerTableRecord
  2
116
 70
     0
 62
   116
  6
CONTINUOUS
  0
LAYER
  5
AE
330
2
100
AcDbSymbolTableRecord
100
AcDbLayerTableRecord
  2
117
 70
     0
 62
   117
  6
CONTINUOUS
  0
LAYER
  5
AF
330
2
100
AcDbSymbolTableRecord
100
AcDbLayerTableRecord
  2
118
 70
     0
 62
   118
  6
CONTINUOUS
  0
LAYER
  5
B0
330
2
100
AcDbSymbolTableRecord
100
AcDbLayerTableRecord
  2
119
 70
     0
 62
   119
  6
CONTINUOUS
  0
LAYER
  5
B1
330
2
100
AcDbSymbolTableRecord
100
AcDbLayerTableRecord
  2
120
 70
     0
 62
   120
  6
CONTINUOUS
  0
LAYER
  5
B2
330
2
100
AcDbSymbolTableRecord
100
AcDbLayerTableRecord
  2
121
 70
     0
 62
   121
  6
CONTINUOUS
  0
LAYER
  5
B3
330
2
100
AcDbSymbolTableRecord
100
AcDbLayerTableRecord
  2
122
 70
     0
 62
   122
  6
CONTINUOUS
  0
LAYER
  5
B4
330
2
100
AcDbSymbolTableRecord
100
AcDbLayerTableRecord
  2
123
 70
     0
 62
   123
  6
CONTINUOUS
  0
LAYER
  5
B5
330
2
100
AcDbSymbolTableRecord
100
AcDbLayerTableRecord
  2
124
 70
     0
 62
   124
  6
CONTINUOUS
  0
LAYER
  5
B6
330
2
100
AcDbSymbolTableRecord
100
AcDbLayerTableRecord
  2
125
 70
     0
 62
   125
  6
CONTINUOUS
  0
LAYER
  5
B7
330
2
100
AcDbSymbolTableRecord
100
AcDbLayerTableRecord
  2
126
 70
     0
 62
   126
  6
CONTINUOUS
  0
LAYER
  5
B8
330
2
100
AcDbSymbolTableRecord
100
AcDbLayerTableRecord
  2
127
 70
     0
 62
   127
  6
CONTINUOUS
  0
LAYER
  5
B9
330
2
100
AcDbSymbolTableRecord
100
AcDbLayerTableRecord
  2
128
 70
     0
 62
   128
  6
CONTINUOUS
  0
LAYER
  5
BA
330
2
100
AcDbSymbolTableRecord
100
AcDbLayerTableRecord
  2
129
 70
     0
 62
   129
  6
CONTINUOUS
  0
LAYER
  5
BB
330
2
100
AcDbSymbolTableRecord
100
AcDbLayerTableRecord
  2
130
 70
     0
 62
   130
  6
CONTINUOUS
  0
LAYER
  5
BC
330
2
100
AcDbSymbolTableRecord
100
AcDbLayerTableRecord
  2
131
 70
     0
 62
   131
  6
CONTINUOUS
  0
LAYER
  5
BD
330
2
100
AcDbSymbolTableRecord
100
AcDbLayerTableRecord
  2
132
 70
     0
 62
   132
  6
CONTINUOUS
  0
LAYER
  5
BE
330
2
100
AcDbSymbolTableRecord
100
AcDbLayerTableRecord
  2
133
 70
     0
 62
   133
  6
CONTINUOUS
  0
LAYER
  5
BF
330
2
100
AcDbSymbolTableRecord
100
AcDbLayerTableRecord
  2
134
 70
     0
 62
   134
  6
CONTINUOUS
  0
LAYER
  5
C0
330
2
100
AcDbSymbolTableRecord
100
AcDbLayerTableRecord
  2
135
 70
     0
 62
   135
  6
CONTINUOUS
  0
LAYER
  5
C1
330
2
100
AcDbSymbolTableRecord
100
AcDbLayerTableRecord
  2
136
 70
     0
 62
   136
  6
CONTINUOUS
  0
LAYER
  5
C2
330
2
100
AcDbSymbolTableRecord
100
AcDbLayerTableRecord
  2
137
 70
     0
 62
   137
  6
CONTINUOUS
  0
LAYER
  5
C3
330
2
100
AcDbSymbolTableRecord
100
AcDbLayerTableRecord
  2
138
 70
     0
 62
   138
  6
CONTINUOUS
  0
LAYER
  5
C4
330
2
100
AcDbSymbolTableRecord
100
AcDbLayerTableRecord
  2
139
 70
     0
 62
   139
  6
CONTINUOUS
  0
LAYER
  5
C5
330
2
100
AcDbSymbolTableRecord
100
AcDbLayerTableRecord
  2
140
 70
     0
 62
   140
  6
CONTINUOUS
  0
LAYER
  5
C6
330
2
100
AcDbSymbolTableRecord
100
AcDbLayerTableRecord
  2
141
 70
     0
 62
   141
  6
CONTINUOUS
  0
LAYER
  5
C7
330
2
100
AcDbSymbolTableRecord
100
AcDbLayerTableRecord
  2
142
 70
     0
 62
   142
  6
CONTINUOUS
  0
LAYER
  5
C8
330
2
100
AcDbSymbolTableRecord
100
AcDbLayerTableRecord
  2
143
 70
     0
 62
   143
  6
CONTINUOUS
  0
LAYER
  5
C9
330
2
100
AcDbSymbolTableRecord
100
AcDbLayerTableRecord
  2
144
 70
     0
 62
   144
  6
CONTINUOUS
  0
LAYER
  5
CA
330
2
100
AcDbSymbolTableRecord
100
AcDbLayerTableRecord
  2
145
 70
     0
 62
   145
  6
CONTINUOUS
  0
LAYER
  5
CB
330
2
100
AcDbSymbolTableRecord
100
AcDbLayerTableRecord
  2
146
 70
     0
 62
   146
  6
CONTINUOUS
  0
LAYER
  5
CC
330
2
100
AcDbSymbolTableRecord
100
AcDbLayerTableRecord
  2
147
 70
     0
 62
   147
  6
CONTINUOUS
  0
LAYER
  5
CD
330
2
100
AcDbSymbolTableRecord
100
AcDbLayerTableRecord
  2
148
 70
     0
 62
   148
  6
CONTINUOUS
  0
LAYER
  5
CE
330
2
100
AcDbSymbolTableRecord
100
AcDbLayerTableRecord
  2
149
 70
     0
 62
   149
  6
CONTINUOUS
  0
LAYER
  5
CF
330
2
100
AcDbSymbolTableRecord
100
AcDbLayerTableRecord
  2
150
 70
     0
 62
   150
  6
CONTINUOUS
  0
LAYER
  5
D0
330
2
100
AcDbSymbolTableRecord
100
AcDbLayerTableRecord
  2
151
 70
     0
 62
   151
  6
CONTINUOUS
  0
LAYER
  5
D1
330
2
100
AcDbSymbolTableRecord
100
AcDbLayerTableRecord
  2
152
 70
     0
 62
   152
  6
CONTINUOUS
  0
LAYER
  5
D2
330
2
100
AcDbSymbolTableRecord
100
AcDbLayerTableRecord
  2
153
 70
     0
 62
   153
  6
CONTINUOUS
  0
LAYER
  5
D3
330
2
100
AcDbSymbolTableRecord
100
AcDbLayerTableRecord
  2
154
 70
     0
 62
   154
  6
CONTINUOUS
  0
LAYER
  5
D4
330
2
100
AcDbSymbolTableRecord
100
AcDbLayerTableRecord
  2
155
 70
     0
 62
   155
  6
CONTINUOUS
  0
LAYER
  5
D5
330
2
100
AcDbSymbolTableRecord
100
AcDbLayerTableRecord
  2
156
 70
     0
 62
   156
  6
CONTINUOUS
  0
LAYER
  5
D6
330
2
100
AcDbSymbolTableRecord
100
AcDbLayerTableRecord
  2
157
 70
     0
 62
   157
  6
CONTINUOUS
  0
LAYER
  5
D7
330
2
100
AcDbSymbolTableRecord
100
AcDbLayerTableRecord
  2
158
 70
     0
 62
   158
  6
CONTINUOUS
  0
LAYER
  5
D8
330
2
100
AcDbSymbolTableRecord
100
AcDbLayerTableRecord
  2
159
 70
     0
 62
   159
  6
CONTINUOUS
  0
LAYER
  5
D9
330
2
100
AcDbSymbolTableRecord
100
AcDbLayerTableRecord
  2
160
 70
     0
 62
   160
  6
CONTINUOUS
  0
LAYER
  5
DA
330
2
100
AcDbSymbolTableRecord
100
AcDbLayerTableRecord
  2
161
 70
     0
 62
   161
  6
CONTINUOUS
  0
LAYER
  5
DB
330
2
100
AcDbSymbolTableRecord
100
AcDbLayerTableRecord
  2
162
 70
     0
 62
   162
  6
CONTINUOUS
  0
LAYER
  5
DC
330
2
100
AcDbSymbolTableRecord
100
AcDbLayerTableRecord
  2
163
 70
     0
 62
   163
  6
CONTINUOUS
  0
LAYER
  5
DD
330
2
100
AcDbSymbolTableRecord
100
AcDbLayerTableRecord
  2
164
 70
     0
 62
   164
  6
CONTINUOUS
  0
LAYER
  5
DE
330
2
100
AcDbSymbolTableRecord
100
AcDbLayerTableRecord
  2
165
 70
     0
 62
   165
  6
CONTINUOUS
  0
LAYER
  5
DF
330
2
100
AcDbSymbolTableRecord
100
AcDbLayerTableRecord
  2
166
 70
     0
 62
   166
  6
CONTINUOUS
  0
LAYER
  5
E0
330
2
100
AcDbSymbolTableRecord
100
AcDbLayerTableRecord
  2
167
 70
     0
 62
   167
  6
CONTINUOUS
  0
LAYER
  5
E1
330
2
100
AcDbSymbolTableRecord
100
AcDbLayerTableRecord
  2
168
 70
     0
 62
   168
  6
CONTINUOUS
  0
LAYER
  5
E2
330
2
100
AcDbSymbolTableRecord
100
AcDbLayerTableRecord
  2
169
 70
     0
 62
   169
  6
CONTINUOUS
  0
LAYER
  5
E3
330
2
100
AcDbSymbolTableRecord
100
AcDbLayerTableRecord
  2
170
 70
     0
 62
   170
  6
CONTINUOUS
  0
LAYER
  5
E4
330
2
100
AcDbSymbolTableRecord
100
AcDbLayerTableRecord
  2
171
 70
     0
 62
   171
  6
CONTINUOUS
  0
LAYER
  5
E5
330
2
100
AcDbSymbolTableRecord
100
AcDbLayerTableRecord
  2
172
 70
     0
 62
   172
  6
CONTINUOUS
  0
LAYER
  5
E6
330
2
100
AcDbSymbolTableRecord
100
AcDbLayerTableRecord
  2
173
 70
     0
 62
   173
  6
CONTINUOUS
  0
LAYER
  5
E7
330
2
100
AcDbSymbolTableRecord
100
AcDbLayerTableRecord
  2
174
 70
     0
 62
   174
  6
CONTINUOUS
  0
LAYER
  5
E8
330
2
100
AcDbSymbolTableRecord
100
AcDbLayerTableRecord
  2
175
 70
     0
 62
   175
  6
CONTINUOUS
  0
LAYER
  5
E9
330
2
100
AcDbSymbolTableRecord
100
AcDbLayerTableRecord
  2
176
 70
     0
 62
   176
  6
CONTINUOUS
  0
LAYER
  5
EA
330
2
100
AcDbSymbolTableRecord
100
AcDbLayerTableRecord
  2
177
 70
     0
 62
   177
  6
CONTINUOUS
  0
LAYER
  5
EB
330
2
100
AcDbSymbolTableRecord
100
AcDbLayerTableRecord
  2
178
 70
     0
 62
   178
  6
CONTINUOUS
  0
LAYER
  5
EC
330
2
100
AcDbSymbolTableRecord
100
AcDbLayerTableRecord
  2
179
 70
     0
 62
   179
  6
CONTINUOUS
  0
LAYER
  5
ED
330
2
100
AcDbSymbolTableRecord
100
AcDbLayerTableRecord
  2
180
 70
     0
 62
   180
  6
CONTINUOUS
  0
LAYER
  5
EE
330
2
100
AcDbSymbolTableRecord
100
AcDbLayerTableRecord
  2
181
 70
     0
 62
   181
  6
CONTINUOUS
  0
LAYER
  5
EF
330
2
100
AcDbSymbolTableRecord
100
AcDbLayerTableRecord
  2
182
 70
     0
 62
   182
  6
CONTINUOUS
  0
LAYER
  5
F0
330
2
100
AcDbSymbolTableRecord
100
AcDbLayerTableRecord
  2
183
 70
     0
 62
   183
  6
CONTINUOUS
  0
LAYER
  5
F1
330
2
100
AcDbSymbolTableRecord
100
AcDbLayerTableRecord
  2
184
 70
     0
 62
   184
  6
CONTINUOUS
  0
LAYER
  5
F2
330
2
100
AcDbSymbolTableRecord
100
AcDbLayerTableRecord
  2
185
 70
     0
 62
   185
  6
CONTINUOUS
  0
LAYER
  5
F3
330
2
100
AcDbSymbolTableRecord
100
AcDbLayerTableRecord
  2
186
 70
     0
 62
   186
  6
CONTINUOUS
  0
LAYER
  5
F4
330
2
100
AcDbSymbolTableRecord
100
AcDbLayerTableRecord
  2
187
 70
     0
 62
   187
  6
CONTINUOUS
  0
LAYER
  5
F5
330
2
100
AcDbSymbolTableRecord
100
AcDbLayerTableRecord
  2
188
 70
     0
 62
   188
  6
CONTINUOUS
  0
LAYER
  5
F6
330
2
100
AcDbSymbolTableRecord
100
AcDbLayerTableRecord
  2
189
 70
     0
 62
   189
  6
CONTINUOUS
  0
LAYER
  5
F7
330
2
100
AcDbSymbolTableRecord
100
AcDbLayerTableRecord
  2
190
 70
     0
 62
   190
  6
CONTINUOUS
  0
LAYER
  5
F8
330
2
100
AcDbSymbolTableRecord
100
AcDbLayerTableRecord
  2
191
 70
     0
 62
   191
  6
CONTINUOUS
  0
LAYER
  5
F9
330
2
100
AcDbSymbolTableRecord
100
AcDbLayerTableRecord
  2
192
 70
     0
 62
   192
  6
CONTINUOUS
  0
LAYER
  5
FA
330
2
100
AcDbSymbolTableRecord
100
AcDbLayerTableRecord
  2
193
 70
     0
 62
   193
  6
CONTINUOUS
  0
LAYER
  5
FB
330
2
100
AcDbSymbolTableRecord
100
AcDbLayerTableRecord
  2
194
 70
     0
 62
   194
  6
CONTINUOUS
  0
LAYER
  5
FC
330
2
100
AcDbSymbolTableRecord
100
AcDbLayerTableRecord
  2
195
 70
     0
 62
   195
  6
CONTINUOUS
  0
LAYER
  5
FD
330
2
100
AcDbSymbolTableRecord
100
AcDbLayerTableRecord
  2
196
 70
     0
 62
   196
  6
CONTINUOUS
  0
LAYER
  5
FE
330
2
100
AcDbSymbolTableRecord
100
AcDbLayerTableRecord
  2
197
 70
     0
 62
   197
  6
CONTINUOUS
  0
LAYER
  5
FF
330
2
100
AcDbSymbolTableRecord
100
AcDbLayerTableRecord
  2
198
 70
     0
 62
   198
  6
CONTINUOUS
  0
LAYER
  5
100
330
2
100
AcDbSymbolTableRecord
100
AcDbLayerTableRecord
  2
199
 70
     0
 62
   199
  6
CONTINUOUS
  0
LAYER
  5
101
330
2
100
AcDbSymbolTableRecord
100
AcDbLayerTableRecord
  2
200
 70
     0
 62
   200
  6
CONTINUOUS
  0
LAYER
  5
102
330
2
100
AcDbSymbolTableRecord
100
AcDbLayerTableRecord
  2
201
 70
     0
 62
   201
  6
CONTINUOUS
  0
LAYER
  5
103
330
2
100
AcDbSymbolTableRecord
100
AcDbLayerTableRecord
  2
202
 70
     0
 62
   202
  6
CONTINUOUS
  0
LAYER
  5
104
330
2
100
AcDbSymbolTableRecord
100
AcDbLayerTableRecord
  2
203
 70
     0
 62
   203
  6
CONTINUOUS
  0
LAYER
  5
105
330
2
100
AcDbSymbolTableRecord
100
AcDbLayerTableRecord
  2
204
 70
     0
 62
   204
  6
CONTINUOUS
  0
LAYER
  5
106
330
2
100
AcDbSymbolTableRecord
100
AcDbLayerTableRecord
  2
205
 70
     0
 62
   205
  6
CONTINUOUS
  0
LAYER
  5
107
330
2
100
AcDbSymbolTableRecord
100
AcDbLayerTableRecord
  2
206
 70
     0
 62
   206
  6
CONTINUOUS
  0
LAYER
  5
108
330
2
100
AcDbSymbolTableRecord
100
AcDbLayerTableRecord
  2
207
 70
     0
 62
   207
  6
CONTINUOUS
  0
LAYER
  5
109
330
2
100
AcDbSymbolTableRecord
100
AcDbLayerTableRecord
  2
208
 70
     0
 62
   208
  6
CONTINUOUS
  0
LAYER
  5
10A
330
2
100
AcDbSymbolTableRecord
100
AcDbLayerTableRecord
  2
209
 70
     0
 62
   209
  6
CONTINUOUS
  0
LAYER
  5
10B
330
2
100
AcDbSymbolTableRecord
100
AcDbLayerTableRecord
  2
210
 70
     0
 62
   210
  6
CONTINUOUS
  0
LAYER
  5
10C
330
2
100
AcDbSymbolTableRecord
100
AcDbLayerTableRecord
  2
211
 70
     0
 62
   211
  6
CONTINUOUS
  0
LAYER
  5
10D
330
2
100
AcDbSymbolTableRecord
100
AcDbLayerTableRecord
  2
212
 70
     0
 62
   212
  6
CONTINUOUS
  0
LAYER
  5
10E
330
2
100
AcDbSymbolTableRecord
100
AcDbLayerTableRecord
  2
213
 70
     0
 62
   213
  6
CONTINUOUS
  0
LAYER
  5
10F
330
2
100
AcDbSymbolTableRecord
100
AcDbLayerTableRecord
  2
214
 70
     0
 62
   214
  6
CONTINUOUS
  0
LAYER
  5
110
330
2
100
AcDbSymbolTableRecord
100
AcDbLayerTableRecord
  2
215
 70
     0
 62
   215
  6
CONTINUOUS
  0
LAYER
  5
111
330
2
100
AcDbSymbolTableRecord
100
AcDbLayerTableRecord
  2
216
 70
     0
 62
   216
  6
CONTINUOUS
  0
LAYER
  5
112
330
2
100
AcDbSymbolTableRecord
100
AcDbLayerTableRecord
  2
217
 70
     0
 62
   217
  6
CONTINUOUS
  0
LAYER
  5
113
330
2
100
AcDbSymbolTableRecord
100
AcDbLayerTableRecord
  2
218
 70
     0
 62
   218
  6
CONTINUOUS
  0
LAYER
  5
114
330
2
100
AcDbSymbolTableRecord
100
AcDbLayerTableRecord
  2
219
 70
     0
 62
   219
  6
CONTINUOUS
  0
LAYER
  5
115
330
2
100
AcDbSymbolTableRecord
100
AcDbLayerTableRecord
  2
220
 70
     0
 62
   220
  6
CONTINUOUS
  0
LAYER
  5
116
330
2
100
AcDbSymbolTableRecord
100
AcDbLayerTableRecord
  2
221
 70
     0
 62
   221
  6
CONTINUOUS
  0
LAYER
  5
117
330
2
100
AcDbSymbolTableRecord
100
AcDbLayerTableRecord
  2
222
 70
     0
 62
   222
  6
CONTINUOUS
  0
LAYER
  5
118
330
2
100
AcDbSymbolTableRecord
100
AcDbLayerTableRecord
  2
223
 70
     0
 62
   223
  6
CONTINUOUS
  0
LAYER
  5
119
330
2
100
AcDbSymbolTableRecord
100
AcDbLayerTableRecord
  2
224
 70
     0
 62
   224
  6
CONTINUOUS
  0
LAYER
  5
11A
330
2
100
AcDbSymbolTableRecord
100
AcDbLayerTableRecord
  2
225
 70
     0
 62
   225
  6
CONTINUOUS
  0
LAYER
  5
11B
330
2
100
AcDbSymbolTableRecord
100
AcDbLayerTableRecord
  2
226
 70
     0
 62
   226
  6
CONTINUOUS
  0
LAYER
  5
11C
330
2
100
AcDbSymbolTableRecord
100
AcDbLayerTableRecord
  2
227
 70
     0
 62
   227
  6
CONTINUOUS
  0
LAYER
  5
11D
330
2
100
AcDbSymbolTableRecord
100
AcDbLayerTableRecord
  2
228
 70
     0
 62
   228
  6
CONTINUOUS
  0
LAYER
  5
11E
330
2
100
AcDbSymbolTableRecord
100
AcDbLayerTableRecord
  2
229
 70
     0
 62
   229
  6
CONTINUOUS
  0
LAYER
  5
11F
330
2
100
AcDbSymbolTableRecord
100
AcDbLayerTableRecord
  2
230
 70
     0
 62
   230
  6
CONTINUOUS
  0
LAYER
  5
120
330
2
100
AcDbSymbolTableRecord
100
AcDbLayerTableRecord
  2
231
 70
     0
 62
   231
  6
CONTINUOUS
  0
LAYER
  5
121
330
2
100
AcDbSymbolTableRecord
100
AcDbLayerTableRecord
  2
232
 70
     0
 62
   232
  6
CONTINUOUS
  0
LAYER
  5
122
330
2
100
AcDbSymbolTableRecord
100
AcDbLayerTableRecord
  2
233
 70
     0
 62
   233
  6
CONTINUOUS
  0
LAYER
  5
123
330
2
100
AcDbSymbolTableRecord
100
AcDbLayerTableRecord
  2
234
 70
     0
 62
   234
  6
CONTINUOUS
  0
LAYER
  5
124
330
2
100
AcDbSymbolTableRecord
100
AcDbLayerTableRecord
  2
235
 70
     0
 62
   235
  6
CONTINUOUS
  0
LAYER
  5
125
330
2
100
AcDbSymbolTableRecord
100
AcDbLayerTableRecord
  2
236
 70
     0
 62
   236
  6
CONTINUOUS
  0
LAYER
  5
126
330
2
100
AcDbSymbolTableRecord
100
AcDbLayerTableRecord
  2
237
 70
     0
 62
   237
  6
CONTINUOUS
  0
LAYER
  5
127
330
2
100
AcDbSymbolTableRecord
100
AcDbLayerTableRecord
  2
238
 70
     0
 62
   238
  6
CONTINUOUS
  0
LAYER
  5
128
330
2
100
AcDbSymbolTableRecord
100
AcDbLayerTableRecord
  2
239
 70
     0
 62
   239
  6
CONTINUOUS
  0
LAYER
  5
129
330
2
100
AcDbSymbolTableRecord
100
AcDbLayerTableRecord
  2
240
 70
     0
 62
   240
  6
CONTINUOUS
  0
LAYER
  5
12A
330
2
100
AcDbSymbolTableRecord
100
AcDbLayerTableRecord
  2
241
 70
     0
 62
   241
  6
CONTINUOUS
  0
LAYER
  5
12B
330
2
100
AcDbSymbolTableRecord
100
AcDbLayerTableRecord
  2
242
 70
     0
 62
   242
  6
CONTINUOUS
  0
LAYER
  5
12C
330
2
100
AcDbSymbolTableRecord
100
AcDbLayerTableRecord
  2
243
 70
     0
 62
   243
  6
CONTINUOUS
  0
LAYER
  5
12D
330
2
100
AcDbSymbolTableRecord
100
AcDbLayerTableRecord
  2
244
 70
     0
 62
   244
  6
CONTINUOUS
  0
LAYER
  5
12E
330
2
100
AcDbSymbolTableRecord
100
AcDbLayerTableRecord
  2
245
 70
     0
 62
   245
  6
CONTINUOUS
  0
LAYER
  5
12F
330
2
100
AcDbSymbolTableRecord
100
AcDbLayerTableRecord
  2
246
 70
     0
 62
   246
  6
CONTINUOUS
  0
LAYER
  5
130
330
2
100
AcDbSymbolTableRecord
100
AcDbLayerTableRecord
  2
247
 70
     0
 62
   247
  6
CONTINUOUS
  0
LAYER
  5
131
330
2
100
AcDbSymbolTableRecord
100
AcDbLayerTableRecord
  2
248
 70
     0
 62
   248
  6
CONTINUOUS
  0
LAYER
  5
132
330
2
100
AcDbSymbolTableRecord
100
AcDbLayerTableRecord
  2
249
 70
     0
 62
   249
  6
CONTINUOUS
  0
LAYER
  5
133
330
2
100
AcDbSymbolTableRecord
100
AcDbLayerTableRecord
  2
250
 70
     0
 62
   250
  6
CONTINUOUS
  0
LAYER
  5
134
330
2
100
AcDbSymbolTableRecord
100
AcDbLayerTableRecord
  2
251
 70
     0
 62
   251
  6
CONTINUOUS
  0
LAYER
  5
135
330
2
100
AcDbSymbolTableRecord
100
AcDbLayerTableRecord
  2
252
 70
     0
 62
   252
  6
CONTINUOUS
  0
LAYER
  5
136
330
2
100
AcDbSymbolTableRecord
100
AcDbLayerTableRecord
  2
253
 70
     0
 62
   253
  6
CONTINUOUS
  0
LAYER
  5
137
330
2
100
AcDbSymbolTableRecord
100
AcDbLayerTableRecord
  2
254
 70
     0
 62
   254
  6
CONTINUOUS
  0
LAYER
  5
138
330
2
100
AcDbSymbolTableRecord
100
AcDbLayerTableRecord
  2
255
 70
     0
 62
   255
  6
CONTINUOUS
  0
LAYER
  5
4F82
330
2
100
AcDbSymbolTableRecord
100
AcDbLayerTableRecord
  2
DEFPOINTS
 70
     0
 62
     7
  6
CONTINUOUS
  0
ENDTAB
  0
TABLE
  2
STYLE
  5
3
330
0
100
AcDbSymbolTable
 70
     1
  0
STYLE
  5
11
330
3
100
AcDbSymbolTableRecord
100
AcDbTextStyleTableRecord
  2
STANDARD
 70
     0
 40
0.0
 41
1.0
 50
0.0
 71
     0
 42
0.2
  3
monotxt
  4

  0
ENDTAB
  0
TABLE
  2
VIEW
  5
6
330
0
100
AcDbSymbolTable
 70
     0
  0
ENDTAB
  0
TABLE
  2
UCS
  5
7
330
0
100
AcDbSymbolTable
 70
     0
  0
ENDTAB
  0
TABLE
  2
APPID
  5
9
330
0
100
AcDbSymbolTable
 70
     1
  0
APPID
  5
12
330
9
100
AcDbSymbolTableRecord
100
AcDbRegAppTableRecord
  2
ACAD
 70
     0
  0
ENDTAB
  0
TABLE
  2
DIMSTYLE
  5
A
330
0
100
AcDbSymbolTable
 70
     1
  0
DIMSTYLE
105
380D
330
A
100
AcDbSymbolTableRecord
100
AcDbDimStyleTableRecord
  2
STANDARD
 70
     0
  3

  4

  5

  6

  7

 40
1.0
 41
0.18
 42
0.0625
 43
0.38
 44
0.18
 45
0.0
 46
0.0
 47
0.0
 48
0.0
140
0.18
141
0.09
142
0.0
143
25.4
144
1.0
145
0.0
146
1.0
147
0.09
 71
     0
 72
     0
 73
     1
 74
     1
 75
     0
 76
     0
 77
     0
 78
     0
170
     0
171
     2
172
     0
173
     0
174
     0
175
     0
176
     0
177
     0
178
     0
270
     2
271
     4
272
     4
273
     2
274
     2
340
11
275
     0
280
     0
281
     0
282
     0
283
     1
284
     0
285
     0
286
     0
287
     3
288
     0
  0
ENDTAB
  0
TABLE
  2
BLOCK_RECORD
  5
1
330
0
100
AcDbSymbolTable
 70
     1
  0
BLOCK_RECORD
  5
1E
102
{ACAD_XDICTIONARY
360
4F9B
102
}
330
1
100
AcDbSymbolTableRecord
100
AcDbBlockTableRecord
  2
*MODEL_SPACE
  0
BLOCK_RECORD
  5
1A
102
{ACAD_XDICTIONARY
360
4F9D
102
}
330
1
100
AcDbSymbolTableRecord
100
AcDbBlockTableRecord
  2
*PAPER_SPACE
  0
ENDTAB
  0
ENDSEC
  0
SECTION
  2
BLOCKS
  0
BLOCK
  5
13B
330
1E
100
AcDbEntity
  8
0
100
AcDbBlockBegin
  2
*MODEL_SPACE
 70
     0
 10
0.0
 20
0.0
 30
0.0
  3
*MODEL_SPACE
  1

  0
ENDBLK
  5
13C
330
1E
100
AcDbEntity
  8
0
100
AcDbBlockEnd
  0
BLOCK
  5
139
330
1A
100
AcDbEntity
 67
     1
  8
0
100
AcDbBlockBegin
  2
*PAPER_SPACE
 70
     0
 10
0.0
 20
0.0
 30
0.0
  3
*PAPER_SPACE
  1

  0
ENDBLK
  5
13A
330
1A
100
AcDbEntity
 67
     1
  8
0
100
AcDbBlockEnd
  0
ENDSEC
  0
SECTION
  2
ENTITIES
  0
LINE
  5
27B9
330
1E
100
AcDbEntity
  8
7
100
AcDbLine
 10
1.393813669625984
 20
4.184070718238189
 30
0.0
 11
1.669421020944881
 21
4.184070718238189
 31
0.0
  0
LINE
  5
27BA
330
1E
100
AcDbEntity
  8
7
100
AcDbLine
 10
2.664232317610236
 20
4.184070718238189
 30
0.0
 11
2.81647256881496
 21
4.184070718238189
 31
0.0
  0
LINE
  5
27BB
330
1E
100
AcDbEntity
  8
7
100
AcDbLine
 10
0.8163506478149606
 20
4.184070718238189
 30
0.0
 11
0.9685908990196846
 21
4.184070718238189
 31
0.0
  0
LINE
  5
27BC
330
1E
100
AcDbEntity
  8
7
100
AcDbLine
 10
3.191823532992126
 20
7.753842125797244
 30
0.0
 11
3.191823532992126
 21
3.382184567496062
 31
0.0
  0
LINE
  5
27C2
330
1E
100
AcDbEntity
  8
7
100
AcDbLine
 10
3.191823532992126
 20
3.382184567496062
 30
0.0
 11
3.069768848836614
 21
3.502926835692913
 31
0.0
  0
LINE
  5
27DC
330
1E
100
AcDbEntity
  8
7
100
AcDbLine
 10
3.005460466862204
 20
3.438618453718503
 30
0.0
 11
3.127515151017716
 21
3.317876185521653
 31
0.0
  0
LINE
  5
27DD
330
1E
100
AcDbEntity
  8
7
100
AcDbLine
 10
3.191823532992126
 20
7.78796494072244
 30
0.0
 11
3.191823532992126
 21
7.753842125797244
 31
0.0
  0
LINE
  5
27E3
330
1E
100
AcDbEntity
  8
7
100
AcDbLine
 10
3.005460466862204
 20
3.502926835692913
 30
0.0
 11
3.005460466862204
 21
7.633099857600393
 31
0.0
  0
LINE
  5
27E4
330
1E
100
AcDbEntity
  8
7
100
AcDbLine
 10
0.5053080656122049
 20
3.317876185521653
 30
0.0
 11
3.127515151017716
 21
3.317876185521653
 31
0.0
  0
LINE
  5
27E5
330
1E
100
AcDbEntity
  8
7
100
AcDbLine
 10
0.4711852506870083
 20
3.317876185521653
 30
0.0
 11
0.5053080656122049
 21
3.317876185521653
 31
0.0
  0
LINE
  5
27F0
330
1E
100
AcDbEntity
  8
7
100
AcDbLine
 10
1.716667995456693
 20
4.203756957618109
 30
0.0
 11
1.71404316353937
 21
4.203756957618109
 31
0.0
  0
LINE
  5
27F6
330
1E
100
AcDbEntity
  8
7
100
AcDbLine
 10
1.741603898671259
 20
4.188007966114172
 30
0.0
 11
1.889906901999999
 21
4.188007966114172
 31
0.0
  0
LINE
  5
27FC
330
1E
100
AcDbEntity
  8
7
100
AcDbLine
 10
1.916155221173228
 20
4.203756957618109
 30
0.0
 11
1.91746763713189
 21
4.203756957618109
 31
0.0
  0
LINE
  5
2807
330
1E
100
AcDbEntity
  8
7
100
AcDbLine
 10
1.962089779726378
 20
4.184070718238189
 30
0.0
 11
2.239009547003937
 21
4.184070718238189
 31
0.0
  0
LINE
  5
280D
330
1E
100
AcDbEntity
  8
7
100
AcDbLine
 10
2.269195114053149
 20
4.212943869328739
 30
0.0
 11
2.269195114053149
 21
4.247066684253937
 31
0.0
  0
LINE
  5
2816
330
1E
100
AcDbEntity
  8
7
100
AcDbLine
 10
2.573675616462598
 20
4.247066684253937
 30
0.0
 11
2.328253832192913
 21
4.247066684253937
 31
0.0
  0
LINE
  5
281F
330
1E
100
AcDbEntity
  8
7
100
AcDbLine
 10
2.634046750561023
 20
4.212943869328739
 30
0.0
 11
2.634046750561023
 21
4.247066684253937
 31
0.0
  0
LINE
  5
282A
330
1E
100
AcDbEntity
  8
7
100
AcDbLine
 10
2.846658135864172
 20
3.701101645450787
 30
0.0
 11
2.846658135864172
 21
4.153885151188976
 31
0.0
  0
LINE
  5
282B
330
1E
100
AcDbEntity
  8
7
100
AcDbLine
 10
2.81647256881496
 20
3.672228494360236
 30
0.0
 11
2.837471224153543
 21
3.680102990112204
 31
0.0
  0
LINE
  5
282C
330
1E
100
AcDbEntity
  8
7
100
AcDbLine
 10
2.837471224153543
 20
3.680102990112204
 30
0.0
 11
2.845345719905512
 21
3.701101645450787
 31
0.0
  0
LINE
  5
282D
330
1E
100
AcDbEntity
  8
7
100
AcDbLine
 10
0.8163506478149606
 20
3.670916078401574
 30
0.0
 11
2.81647256881496
 21
3.670916078401574
 31
0.0
  0
LINE
  5
2833
330
1E
100
AcDbEntity
  8
7
100
AcDbLine
 10
0.7861650807657484
 20
3.701101645450787
 30
0.0
 11
0.7861650807657484
 21
4.153885151188976
 31
0.0
  0
LINE
  5
283E
330
1E
100
AcDbEntity
  8
7
100
AcDbLine
 10
0.9987764660688975
 20
4.212943869328739
 30
0.0
 11
0.9987764660688975
 21
4.247066684253937
 31
0.0
  0
LINE
  5
284A
330
1E
100
AcDbEntity
  8
7
100
AcDbLine
 10
1.059147600167322
 20
4.247066684253937
 30
0.0
 11
1.303256968478346
 21
4.247066684253937
 31
0.0
  0
LINE
  5
2853
330
1E
100
AcDbEntity
  8
7
100
AcDbLine
 10
1.363628102576771
 20
4.212943869328739
 30
0.0
 11
1.363628102576771
 21
4.247066684253937
 31
0.0
  0
LINE
  5
2863
330
1E
100
AcDbEntity
  8
7
100
AcDbLine
 10
1.47387104310433
 20
6.953268391013779
 30
0.0
 11
1.669421020944881
 21
6.953268391013779
 31
0.0
  0
LINE
  5
2869
330
1E
100
AcDbEntity
  8
7
100
AcDbLine
 10
1.443685476055118
 20
6.923082823964567
 30
0.0
 11
1.443685476055118
 21
6.89027242499803
 31
0.0
  0
LINE
  5
2872
330
1E
100
AcDbEntity
  8
7
100
AcDbLine
 10
1.139204973645669
 20
6.89027242499803
 30
0.0
 11
1.383314341956693
 21
6.89027242499803
 31
0.0
  0
LINE
  5
287E
330
1E
100
AcDbEntity
  8
7
100
AcDbLine
 10
1.078833839547244
 20
6.923082823964567
 30
0.0
 11
1.078833839547244
 21
6.89027242499803
 31
0.0
  0
LINE
  5
2884
330
1E
100
AcDbEntity
  8
7
100
AcDbLine
 10
0.8163506478149606
 20
6.953268391013779
 30
0.0
 11
1.048648272498031
 21
6.953268391013779
 31
0.0
  0
LINE
  5
288A
330
1E
100
AcDbEntity
  8
7
100
AcDbLine
 10
0.7861650807657484
 20
7.434925047842519
 30
0.0
 11
0.7861650807657484
 21
6.982141542104331
 31
0.0
  0
LINE
  5
2890
330
1E
100
AcDbEntity
  8
7
100
AcDbLine
 10
0.8163506478149606
 20
7.465110614891733
 30
0.0
 11
2.81647256881496
 21
7.465110614891733
 31
0.0
  0
LINE
  5
2896
330
1E
100
AcDbEntity
  8
7
100
AcDbLine
 10
2.846658135864172
 20
7.434925047842519
 30
0.0
 11
2.846658135864172
 21
6.982141542104331
 31
0.0
  0
LINE
  5
289C
330
1E
100
AcDbEntity
  8
7
100
AcDbLine
 10
2.584174944131889
 20
6.953268391013779
 30
0.0
 11
2.81647256881496
 21
6.953268391013779
 31
0.0
  0
LINE
  5
28A2
330
1E
100
AcDbEntity
  8
7
100
AcDbLine
 10
2.553989377082677
 20
6.923082823964567
 30
0.0
 11
2.553989377082677
 21
6.89027242499803
 31
0.0
  0
LINE
  5
28AB
330
1E
100
AcDbEntity
  8
7
100
AcDbLine
 10
2.493618242984251
 20
6.89027242499803
 30
0.0
 11
2.248196458714567
 21
6.89027242499803
 31
0.0
  0
LINE
  5
28B4
330
1E
100
AcDbEntity
  8
7
100
AcDbLine
 10
2.189137740574803
 20
6.923082823964567
 30
0.0
 11
2.189137740574803
 21
6.89027242499803
 31
0.0
  0
LINE
  5
28BA
330
1E
100
AcDbEntity
  8
7
100
AcDbLine
 10
1.962089779726378
 20
6.953268391013779
 30
0.0
 11
2.15895217352559
 21
6.953268391013779
 31
0.0
  0
LINE
  5
28C5
330
1E
100
AcDbEntity
  8
7
100
AcDbLine
 10
1.916155221173228
 20
6.932269735675196
 30
0.0
 11
1.91746763713189
 21
6.932269735675196
 31
0.0
  0
LINE
  5
28CB
330
1E
100
AcDbEntity
  8
7
100
AcDbLine
 10
1.741603898671259
 20
6.948018727179134
 30
0.0
 11
1.889906901999999
 21
6.948018727179134
 31
0.0
  0
LINE
  5
28D1
330
1E
100
AcDbEntity
  8
7
100
AcDbLine
 10
1.716667995456693
 20
6.932269735675196
 30
0.0
 11
1.71404316353937
 21
6.932269735675196
 31
0.0
  0
LINE
  5
28D2
330
1E
100
AcDbEntity
  8
7
100
AcDbLine
 10
3.005460466862204
 20
7.633099857600393
 30
0.0
 11
0.6260503338090553
 21
7.633099857600393
 31
0.0
  0
LINE
  5
28D3
330
1E
100
AcDbEntity
  8
7
100
AcDbLine
 10
0.6260503338090553
 20
3.502926835692913
 30
0.0
 11
0.6260503338090553
 21
7.633099857600393
 31
0.0
  0
LINE
  5
28D4
330
1E
100
AcDbEntity
  8
7
100
AcDbLine
 10
3.005460466862204
 20
3.502926835692913
 30
0.0
 11
0.6260503338090553
 21
3.502926835692913
 31
0.0
  0
LINE
  5
28D5
330
1E
100
AcDbEntity
  8
7
100
AcDbLine
 10
0.9357805000531499
 20
5.83377757827559
 30
0.0
 11
0.9357805000531499
 21
5.793092683557087
 31
0.0
  0
LINE
  5
28DB
330
1E
100
AcDbEntity
  8
7
100
AcDbLine
 10
0.8806590297893697
 20
5.845589321903544
 30
0.0
 11
0.9239687564251966
 21
5.845589321903544
 31
0.0
  0
LINE
  5
28E1
330
1E
100
AcDbEntity
  8
7
100
AcDbLine
 10
0.8688472861614169
 20
6.493922805482283
 30
0.0
 11
0.8688472861614169
 21
5.857401065531496
 31
0.0
  0
LINE
  5
28E7
330
1E
100
AcDbEntity
  8
7
100
AcDbLine
 10
1.481745538856299
 20
6.505734549110235
 30
0.0
 11
0.8806590297893697
 21
6.505734549110235
 31
0.0
  0
LINE
  5
28ED
330
1E
100
AcDbEntity
  8
7
100
AcDbLine
 10
1.493557282484252
 20
5.857401065531496
 30
0.0
 11
1.493557282484252
 21
6.493922805482283
 31
0.0
  0
LINE
  5
28F3
330
1E
100
AcDbEntity
  8
7
100
AcDbLine
 10
1.438435812220472
 20
5.845589321903544
 30
0.0
 11
1.481745538856299
 21
5.845589321903544
 31
0.0
  0
LINE
  5
28F9
330
1E
100
AcDbEntity
  8
7
100
AcDbLine
 10
1.426624068592519
 20
5.793092683557087
 30
0.0
 11
1.426624068592519
 21
5.83377757827559
 31
0.0
  0
LINE
  5
28FF
330
1E
100
AcDbEntity
  8
7
100
AcDbLine
 10
0.9475922436811021
 20
5.781280939929133
 30
0.0
 11
1.414812324964567
 21
5.781280939929133
 31
0.0
  0
LINE
  5
2905
330
1E
100
AcDbEntity
  8
7
100
AcDbLine
 10
1.438435812220472
 20
4.695912942116141
 30
0.0
 11
1.481745538856299
 21
4.695912942116141
 31
0.0
  0
LINE
  5
290B
330
1E
100
AcDbEntity
  8
7
100
AcDbLine
 10
1.426624068592519
 20
4.643416303769685
 30
0.0
 11
1.426624068592519
 21
4.684101198488189
 31
0.0
  0
LINE
  5
2911
330
1E
100
AcDbEntity
  8
7
100
AcDbLine
 10
0.9475922436811021
 20
4.63029214418307
 30
0.0
 11
1.414812324964567
 21
4.63029214418307
 31
0.0
  0
LINE
  5
2917
330
1E
100
AcDbEntity
  8
7
100
AcDbLine
 10
0.9357805000531499
 20
4.684101198488189
 30
0.0
 11
0.9357805000531499
 21
4.643416303769685
 31
0.0
  0
LINE
  5
291D
330
1E
100
AcDbEntity
  8
7
100
AcDbLine
 10
0.8806590297893697
 20
4.695912942116141
 30
0.0
 11
0.9239687564251966
 21
4.695912942116141
 31
0.0
  0
LINE
  5
2923
330
1E
100
AcDbEntity
  8
7
100
AcDbLine
 10
0.8688472861614169
 20
5.344246425694881
 30
0.0
 11
0.8688472861614169
 21
4.707724685744094
 31
0.0
  0
LINE
  5
2929
330
1E
100
AcDbEntity
  8
7
100
AcDbLine
 10
1.481745538856299
 20
5.356058169322834
 30
0.0
 11
0.8806590297893697
 21
5.356058169322834
 31
0.0
  0
LINE
  5
292F
330
1E
100
AcDbEntity
  8
7
100
AcDbLine
 10
1.493557282484252
 20
4.707724685744094
 30
0.0
 11
1.493557282484252
 21
5.344246425694881
 31
0.0
  0
LINE
  5
2935
330
1E
100
AcDbEntity
  8
7
100
AcDbLine
 10
2.206199148037401
 20
4.684101198488189
 30
0.0
 11
2.206199148037401
 21
4.643416303769685
 31
0.0
  0
LINE
  5
293B
330
1E
100
AcDbEntity
  8
7
100
AcDbLine
 10
2.151077677773622
 20
4.695912942116141
 30
0.0
 11
2.194387404409448
 21
4.695912942116141
 31
0.0
  0
LINE
  5
2941
330
1E
100
AcDbEntity
  8
7
100
AcDbLine
 10
2.139265934145669
 20
5.344246425694881
 30
0.0
 11
2.139265934145669
 21
4.707724685744094
 31
0.0
  0
LINE
  5
2947
330
1E
100
AcDbEntity
  8
7
100
AcDbLine
 10
2.752164186840551
 20
5.356058169322834
 30
0.0
 11
2.151077677773622
 21
5.356058169322834
 31
0.0
  0
LINE
  5
294D
330
1E
100
AcDbEntity
  8
7
100
AcDbLine
 10
2.763975930468504
 20
4.707724685744094
 30
0.0
 11
2.763975930468504
 21
5.344246425694881
 31
0.0
  0
LINE
  5
2953
330
1E
100
AcDbEntity
  8
7
100
AcDbLine
 10
2.708854460204724
 20
4.695912942116141
 30
0.0
 11
2.752164186840551
 21
4.695912942116141
 31
0.0
  0
LINE
  5
2959
330
1E
100
AcDbEntity
  8
7
100
AcDbLine
 10
2.69573030061811
 20
4.643416303769685
 30
0.0
 11
2.69573030061811
 21
4.684101198488189
 31
0.0
  0
LINE
  5
295F
330
1E
100
AcDbEntity
  8
7
100
AcDbLine
 10
2.218010891665354
 20
4.63029214418307
 30
0.0
 11
2.683918556990157
 21
4.63029214418307
 31
0.0
  0
LINE
  5
2965
330
1E
100
AcDbEntity
  8
7
100
AcDbLine
 10
2.708854460204724
 20
5.845589321903544
 30
0.0
 11
2.752164186840551
 21
5.845589321903544
 31
0.0
  0
LINE
  5
296B
330
1E
100
AcDbEntity
  8
7
100
AcDbLine
 10
2.69573030061811
 20
5.793092683557087
 30
0.0
 11
2.69573030061811
 21
5.83377757827559
 31
0.0
  0
LINE
  5
2971
330
1E
100
AcDbEntity
  8
7
100
AcDbLine
 10
2.218010891665354
 20
5.781280939929133
 30
0.0
 11
2.683918556990157
 21
5.781280939929133
 31
0.0
  0
LINE
  5
2977
330
1E
100
AcDbEntity
  8
7
100
AcDbLine
 10
2.206199148037401
 20
5.83377757827559
 30
0.0
 11
2.206199148037401
 21
5.793092683557087
 31
0.0
  0
LINE
  5
297D
330
1E
100
AcDbEntity
  8
7
100
AcDbLine
 10
2.151077677773622
 20
5.845589321903544
 30
0.0
 11
2.194387404409448
 21
5.845589321903544
 31
0.0
  0
LINE
  5
2983
330
1E
100
AcDbEntity
  8
7
100
AcDbLine
 10
2.139265934145669
 20
6.493922805482283
 30
0.0
 11
2.139265934145669
 21
5.857401065531496
 31
0.0
  0
LINE
  5
2989
330
1E
100
AcDbEntity
  8
7
100
AcDbLine
 10
2.752164186840551
 20
6.505734549110235
 30
0.0
 11
2.151077677773622
 21
6.505734549110235
 31
0.0
  0
LINE
  5
298F
330
1E
100
AcDbEntity
  8
7
100
AcDbLine
 10
2.763975930468504
 20
5.857401065531496
 30
0.0
 11
2.763975930468504
 21
6.493922805482283
 31
0.0
  0
LINE
  5
2995
330
1E
100
AcDbEntity
  8
7
100
AcDbLine
 10
0.6260503338090553
 20
3.502926835692913
 30
0.0
 11
0.6260503338090553
 21
3.468804020767716
 31
0.0
  0
LINE
  5
299B
330
1E
100
AcDbEntity
  8
7
100
AcDbLine
 10
0.5053080656122049
 20
3.317876185521653
 30
0.0
 11
0.6260503338090553
 21
3.438618453718503
 31
0.0
  0
LINE
  5
299C
330
1E
100
AcDbEntity
  8
7
100
AcDbLine
 10
0.5617419518346454
 20
7.633099857600393
 30
0.0
 11
0.5617419518346454
 21
3.502926835692913
 31
0.0
  0
LINE
  5
29A2
330
1E
100
AcDbEntity
  8
7
100
AcDbLine
 10
0.5617419518346454
 20
3.502926835692913
 30
0.0
 11
0.4409996836377959
 21
3.382184567496062
 31
0.0
  0
LINE
  5
29B6
330
1E
100
AcDbEntity
  8
7
100
AcDbLine
 10
0.4409996836377959
 20
7.753842125797244
 30
0.0
 11
0.4409996836377959
 21
7.78796494072244
 31
0.0
  0
LINE
  5
29D9
330
1E
100
AcDbEntity
  8
7
100
AcDbLine
 10
1.885969654124016
 20
4.173571390568898
 30
0.0
 11
1.885969654124016
 21
4.146010655437007
 31
0.0
  0
LINE
  5
29DA
330
1E
100
AcDbEntity
  8
7
100
AcDbLine
 10
1.885969654124016
 20
4.146010655437007
 30
0.0
 11
1.885969654124016
 21
4.134198911809054
 31
0.0
  0
LINE
  5
29E5
330
1E
100
AcDbEntity
  8
7
100
AcDbLine
 10
1.885969654124016
 20
4.134198911809054
 30
0.0
 11
1.746853562505905
 21
4.134198911809054
 31
0.0
  0
LINE
  5
29F7
330
1E
100
AcDbEntity
  8
7
100
AcDbLine
 10
1.885969654124016
 20
4.117137504346456
 30
0.0
 11
1.885969654124016
 21
4.037080130868109
 31
0.0
  0
LINE
  5
29F8
330
1E
100
AcDbEntity
  8
7
100
AcDbLine
 10
1.855784087074803
 20
4.006894563818897
 30
0.0
 11
1.775726713596456
 21
4.006894563818897
 31
0.0
  0
LINE
  5
2A15
330
1E
100
AcDbEntity
  8
7
100
AcDbLine
 10
3.127515151017716
 20
7.818150507771653
 30
0.0
 11
3.161637965942913
 21
7.818150507771653
 31
0.0
  0
LINE
  5
2A16
330
1E
100
AcDbEntity
  8
7
100
AcDbLine
 10
3.005460466862204
 20
7.697408239574802
 30
0.0
 11
3.127515151017716
 21
7.818150507771653
 31
0.0
  0
LINE
  5
2A17
330
1E
100
AcDbEntity
  8
7
100
AcDbLine
 10
0.5053080656122049
 20
7.818150507771653
 30
0.0
 11
3.127515151017716
 21
7.818150507771653
 31
0.0
  0
LINE
  5
2A22
330
1E
100
AcDbEntity
  8
7
100
AcDbLine
 10
0.4711852506870083
 20
7.818150507771653
 30
0.0
 11
0.5053080656122049
 21
7.818150507771653
 31
0.0
  0
LINE
  5
2A23
330
1E
100
AcDbEntity
  8
7
100
AcDbLine
 10
2.248196458714567
 20
6.94408147930315
 30
0.0
 11
2.493618242984251
 21
6.94408147930315
 31
0.0
  0
LINE
  5
2A30
330
1E
100
AcDbEntity
  8
7
100
AcDbLine
 10
1.855784087074803
 20
7.129132129474409
 30
0.0
 11
1.775726713596456
 21
7.129132129474409
 31
0.0
  0
LINE
  5
2A31
330
1E
100
AcDbEntity
  8
7
100
AcDbLine
 10
1.885969654124016
 20
7.020201604905511
 30
0.0
 11
1.885969654124016
 21
7.100258978383859
 31
0.0
  0
LINE
  5
2A32
330
1E
100
AcDbEntity
  8
7
100
AcDbLine
 10
1.746853562505905
 20
7.020201604905511
 30
0.0
 11
1.746853562505905
 21
7.100258978383859
 31
0.0
  0
LINE
  5
2A3D
330
1E
100
AcDbEntity
  8
7
100
AcDbLine
 10
1.885969654124016
 20
7.020201604905511
 30
0.0
 11
1.746853562505905
 21
7.020201604905511
 31
0.0
  0
LINE
  5
2A48
330
1E
100
AcDbEntity
  8
7
100
AcDbLine
 10
1.885969654124016
 20
7.001827781484252
 30
0.0
 11
1.746853562505905
 21
7.001827781484252
 31
0.0
  0
LINE
  5
2A5D
330
1E
100
AcDbEntity
  8
7
100
AcDbLine
 10
1.383314341956693
 20
6.94408147930315
 30
0.0
 11
1.139204973645669
 21
6.94408147930315
 31
0.0
  0
LINE
  5
2A63
330
1E
100
AcDbEntity
  8
7
100
AcDbLine
 10
1.383314341956693
 20
6.936206983551181
 30
0.0
 11
1.383314341956693
 21
6.94408147930315
 31
0.0
  0
LINE
  5
2A76
330
1E
100
AcDbEntity
  8
7
100
AcDbLine
 10
0.4423120995964567
 20
7.795839436474409
 30
0.0
 11
0.4409996836377959
 21
7.78796494072244
 31
0.0
  0
LINE
  5
2A77
330
1E
100
AcDbEntity
  8
7
100
AcDbLine
 10
2.753476602799212
 20
7.404739480793306
 30
0.0
 11
2.753476602799212
 21
7.012327109153543
 31
0.0
  0
LINE
  5
2A78
330
1E
100
AcDbEntity
  8
7
100
AcDbLine
 10
2.753476602799212
 20
7.404739480793306
 30
0.0
 11
2.753476602799212
 21
7.012327109153543
 31
0.0
  0
LINE
  5
2A79
330
1E
100
AcDbEntity
  8
7
100
AcDbLine
 10
2.744289691088582
 20
7.415238808462598
 30
0.0
 11
2.744289691088582
 21
7.413926392503936
 31
0.0
  0
LINE
  5
2A84
330
1E
100
AcDbEntity
  8
7
100
AcDbLine
 10
2.744289691088582
 20
7.003140197442913
 30
0.0
 11
2.703604796370078
 21
7.003140197442913
 31
0.0
  0
LINE
  5
2A8A
330
1E
100
AcDbEntity
  8
7
100
AcDbLine
 10
2.703604796370078
 20
7.413926392503936
 30
0.0
 11
2.744289691088582
 21
7.413926392503936
 31
0.0
  0
LINE
  5
2A90
330
1E
100
AcDbEntity
  8
7
100
AcDbLine
 10
3.191823532992126
 20
3.348061752570866
 30
0.0
 11
3.194448364909448
 21
3.345436920653543
 31
0.0
  0
LINE
  5
2A91
330
1E
100
AcDbEntity
  8
7
100
AcDbLine
 10
3.194448364909448
 20
7.791902188598424
 30
0.0
 11
3.194448364909448
 21
3.345436920653543
 31
0.0
  0
LINE
  5
2A92
330
1E
100
AcDbEntity
  8
7
100
AcDbLine
 10
3.194448364909448
 20
7.791902188598424
 30
0.0
 11
3.191823532992126
 21
7.78796494072244
 31
0.0
  0
LINE
  5
2A93
330
1E
100
AcDbEntity
  8
7
100
AcDbLine
 10
2.837471224153543
 20
7.424425720173228
 30
0.0
 11
2.837471224153543
 21
6.992640869773621
 31
0.0
  0
LINE
  5
2A9F
330
1E
100
AcDbEntity
  8
7
100
AcDbLine
 10
0.9292184202598425
 20
7.413926392503936
 30
0.0
 11
2.703604796370078
 21
7.413926392503936
 31
0.0
  0
LINE
  5
2AA0
330
1E
100
AcDbEntity
  8
7
100
AcDbLine
 10
0.9292184202598425
 20
7.413926392503936
 30
0.0
 11
0.9292184202598425
 21
7.004452613401574
 31
0.0
  0
LINE
  5
2AB7
330
1E
100
AcDbEntity
  8
7
100
AcDbLine
 10
1.876782742413385
 20
7.360117338198818
 30
0.0
 11
1.756040474216535
 21
7.360117338198818
 31
0.0
  0
LINE
  5
2AFB
330
1E
100
AcDbEntity
  8
7
100
AcDbLine
 10
1.893844149875984
 20
4.170946558651574
 30
0.0
 11
1.885969654124016
 21
4.170946558651574
 31
0.0
  0
LINE
  5
2B01
330
1E
100
AcDbEntity
  8
7
100
AcDbLine
 10
1.893844149875984
 20
4.160447230982283
 30
0.0
 11
1.893844149875984
 21
4.170946558651574
 31
0.0
  0
LINE
  5
2B0C
330
1E
100
AcDbEntity
  8
7
100
AcDbLine
 10
1.896468981793307
 20
6.962455302724409
 30
0.0
 11
2.80728565710433
 21
6.962455302724409
 31
0.0
  0
LINE
  5
2B0D
330
1E
100
AcDbEntity
  8
7
100
AcDbLine
 10
1.896468981793307
 20
6.962455302724409
 30
0.0
 11
1.896468981793307
 21
6.940144231427165
 31
0.0
  0
LINE
  5
2B0E
330
1E
100
AcDbEntity
  8
7
100
AcDbLine
 10
1.736354234836614
 20
6.940144231427165
 30
0.0
 11
1.736354234836614
 21
6.962455302724409
 31
0.0
  0
LINE
  5
2B0F
330
1E
100
AcDbEntity
  8
7
100
AcDbLine
 10
0.8255375595255909
 20
6.962455302724409
 30
0.0
 11
1.736354234836614
 21
6.962455302724409
 31
0.0
  0
LINE
  5
2B39
330
1E
100
AcDbEntity
  8
7
100
AcDbLine
 10
1.384626757915354
 20
6.896834504791337
 30
0.0
 11
1.383314341956693
 21
6.896834504791337
 31
0.0
  0
LINE
  5
2B5B
330
1E
100
AcDbEntity
  8
7
100
AcDbLine
 10
0.8255375595255909
 20
3.681415406070865
 30
0.0
 11
2.80728565710433
 21
3.681415406070865
 31
0.0
  0
LINE
  5
2B68
330
1E
100
AcDbEntity
  8
7
100
AcDbLine
 10
2.697042716576771
 20
4.68541361444685
 30
0.0
 11
2.697042716576771
 21
4.695912942116141
 31
0.0
  0
LINE
  5
2B69
330
1E
100
AcDbEntity
  8
7
100
AcDbLine
 10
2.206199148037401
 20
4.695912942116141
 30
0.0
 11
2.206199148037401
 21
4.68541361444685
 31
0.0
  0
LINE
  5
2B6A
330
1E
100
AcDbEntity
  8
7
100
AcDbLine
 10
2.206199148037401
 20
4.695912942116141
 30
0.0
 11
2.197012236326771
 21
4.695912942116141
 31
0.0
  0
LINE
  5
2B6B
330
1E
100
AcDbEntity
  8
7
100
AcDbLine
 10
1.435810980303149
 20
4.695912942116141
 30
0.0
 11
1.426624068592519
 21
4.695912942116141
 31
0.0
  0
LINE
  5
2B6C
330
1E
100
AcDbEntity
  8
7
100
AcDbLine
 10
1.426624068592519
 20
4.68541361444685
 30
0.0
 11
1.426624068592519
 21
4.695912942116141
 31
0.0
  0
LINE
  5
2B6D
330
1E
100
AcDbEntity
  8
7
100
AcDbLine
 10
0.9357805000531499
 20
4.695912942116141
 30
0.0
 11
0.9357805000531499
 21
4.68541361444685
 31
0.0
  0
LINE
  5
2B6E
330
1E
100
AcDbEntity
  8
7
100
AcDbLine
 10
0.9357805000531499
 20
4.695912942116141
 30
0.0
 11
0.9265935883425196
 21
4.695912942116141
 31
0.0
  0
LINE
  5
2B6F
330
1E
100
AcDbEntity
  8
7
100
AcDbLine
 10
2.706229628287401
 20
4.695912942116141
 30
0.0
 11
2.697042716576771
 21
4.695912942116141
 31
0.0
  0
LINE
  5
2B70
330
1E
100
AcDbEntity
  8
7
100
AcDbLine
 10
2.697042716576771
 20
5.836402410192913
 30
0.0
 11
2.697042716576771
 21
5.845589321903544
 31
0.0
  0
LINE
  5
2B71
330
1E
100
AcDbEntity
  8
7
100
AcDbLine
 10
2.206199148037401
 20
5.845589321903544
 30
0.0
 11
2.206199148037401
 21
5.836402410192913
 31
0.0
  0
LINE
  5
2B72
330
1E
100
AcDbEntity
  8
7
100
AcDbLine
 10
2.206199148037401
 20
5.845589321903544
 30
0.0
 11
2.197012236326771
 21
5.845589321903544
 31
0.0
  0
LINE
  5
2B73
330
1E
100
AcDbEntity
  8
7
100
AcDbLine
 10
1.435810980303149
 20
5.845589321903544
 30
0.0
 11
1.426624068592519
 21
5.845589321903544
 31
0.0
  0
LINE
  5
2B74
330
1E
100
AcDbEntity
  8
7
100
AcDbLine
 10
1.426624068592519
 20
5.836402410192913
 30
0.0
 11
1.426624068592519
 21
5.845589321903544
 31
0.0
  0
LINE
  5
2B75
330
1E
100
AcDbEntity
  8
7
100
AcDbLine
 10
0.9357805000531499
 20
5.845589321903544
 30
0.0
 11
0.9357805000531499
 21
5.836402410192913
 31
0.0
  0
LINE
  5
2B76
330
1E
100
AcDbEntity
  8
7
100
AcDbLine
 10
0.9357805000531499
 20
5.845589321903544
 30
0.0
 11
0.9265935883425196
 21
5.845589321903544
 31
0.0
  0
LINE
  5
2B77
330
1E
100
AcDbEntity
  8
7
100
AcDbLine
 10
2.706229628287401
 20
5.845589321903544
 30
0.0
 11
2.697042716576771
 21
5.845589321903544
 31
0.0
  0
LINE
  5
2B9D
330
1E
100
AcDbEntity
  8
7
100
AcDbLine
 10
0.4685604187696848
 20
7.820775339688976
 30
0.0
 11
3.164262797860236
 21
7.820775339688976
 31
0.0
  0
LINE
  5
2B9E
330
1E
100
AcDbEntity
  8
7
100
AcDbLine
 10
0.4685604187696848
 20
7.820775339688976
 30
0.0
 11
0.4711852506870083
 21
7.818150507771653
 31
0.0
  0
LINE
  5
2B9F
330
1E
100
AcDbEntity
  8
7
100
AcDbLine
 10
3.161637965942913
 20
7.818150507771653
 30
0.0
 11
3.164262797860236
 21
7.820775339688976
 31
0.0
  0
LINE
  5
2BA5
330
1E
100
AcDbEntity
  8
7
100
AcDbLine
 10
3.178699373405511
 20
3.319188601480314
 30
0.0
 11
3.164262797860236
 21
3.31525135360433
 31
0.0
  0
LINE
  5
2BA6
330
1E
100
AcDbEntity
  8
7
100
AcDbLine
 10
0.4685604187696848
 20
3.31525135360433
 30
0.0
 11
3.164262797860236
 21
3.31525135360433
 31
0.0
  0
LINE
  5
2BAD
330
1E
100
AcDbEntity
  8
7
100
AcDbLine
 10
0.4383748517204725
 20
7.791902188598424
 30
0.0
 11
0.4383748517204725
 21
3.345436920653543
 31
0.0
  0
LINE
  5
2BB3
330
1E
100
AcDbEntity
  8
7
100
AcDbLine
 10
0.4528114272657478
 20
7.816838091812991
 30
0.0
 11
0.4685604187696848
 21
7.820775339688976
 31
0.0
  0
LINE
  5
2BBF
330
1E
100
AcDbEntity
  8
7
100
AcDbLine
 10
0.8255375595255909
 20
7.454611287222441
 30
0.0
 11
0.8268499754842517
 21
7.454611287222441
 31
0.0
  0
LINE
  5
2BC0
330
1E
100
AcDbEntity
  8
7
100
AcDbLine
 10
2.836158808194881
 20
7.424425720173228
 30
0.0
 11
2.832221560318897
 21
7.438862295718504
 31
0.0
  0
LINE
  5
2BCC
330
1E
100
AcDbEntity
  8
7
100
AcDbLine
 10
0.7966644084350394
 20
6.993953285732283
 30
0.0
 11
0.7966644084350394
 21
7.424425720173228
 31
0.0
  0
LINE
  5
2BD3
330
1E
100
AcDbEntity
  8
7
100
AcDbLine
 10
1.735041818877952
 20
6.963767718683071
 30
0.0
 11
0.8268499754842517
 21
6.963767718683071
 31
0.0
  0
LINE
  5
2BD4
330
1E
100
AcDbEntity
  8
7
100
AcDbLine
 10
1.735041818877952
 20
7.003140197442913
 30
0.0
 11
1.735041818877952
 21
6.963767718683071
 31
0.0
  0
LINE
  5
2BD5
330
1E
100
AcDbEntity
  8
7
100
AcDbLine
 10
0.8885335255413391
 20
7.003140197442913
 30
0.0
 11
1.735041818877952
 21
7.003140197442913
 31
0.0
  0
LINE
  5
2BDB
330
1E
100
AcDbEntity
  8
7
100
AcDbLine
 10
0.8793466138307088
 20
7.404739480793306
 30
0.0
 11
0.8793466138307088
 21
7.012327109153543
 31
0.0
  0
LINE
  5
2BE1
330
1E
100
AcDbEntity
  8
7
100
AcDbLine
 10
0.8885335255413391
 20
7.415238808462598
 30
0.0
 11
2.744289691088582
 21
7.415238808462598
 31
0.0
  0
LINE
  5
2BE2
330
1E
100
AcDbEntity
  8
7
100
AcDbLine
 10
1.897781397751968
 20
7.003140197442913
 30
0.0
 11
1.897781397751968
 21
6.963767718683071
 31
0.0
  0
LINE
  5
2BE3
330
1E
100
AcDbEntity
  8
7
100
AcDbLine
 10
2.805973241145669
 20
6.963767718683071
 30
0.0
 11
1.897781397751968
 21
6.963767718683071
 31
0.0
  0
LINE
  5
2BE4
330
1E
100
AcDbEntity
  8
7
100
AcDbLine
 10
2.805973241145669
 20
6.963767718683071
 30
0.0
 11
2.821722232649606
 21
6.967704966559054
 31
0.0
  0
LINE
  5
2BEA
330
1E
100
AcDbEntity
  8
7
100
AcDbLine
 10
2.80728565710433
 20
6.962455302724409
 30
0.0
 11
2.805973241145669
 21
6.963767718683071
 31
0.0
  0
LINE
  5
2BEB
330
1E
100
AcDbEntity
  8
7
100
AcDbLine
 10
1.896468981793307
 20
6.962455302724409
 30
0.0
 11
1.897781397751968
 21
6.963767718683071
 31
0.0
  0
LINE
  5
2BF1
330
1E
100
AcDbEntity
  8
7
100
AcDbLine
 10
2.241634378921259
 20
6.913895912253937
 30
0.0
 11
2.249508874673228
 21
6.906021416501967
 31
0.0
  0
LINE
  5
2BF2
330
1E
100
AcDbEntity
  8
7
100
AcDbLine
 10
2.433247108885827
 20
6.945393895261811
 30
0.0
 11
2.431934692927165
 21
6.94408147930315
 31
0.0
  0
LINE
  5
2BF3
330
1E
100
AcDbEntity
  8
7
100
AcDbLine
 10
2.308567592812992
 20
6.945393895261811
 30
0.0
 11
2.309880008771653
 21
6.94408147930315
 31
0.0
  0
LINE
  5
2BF4
330
1E
100
AcDbEntity
  8
7
100
AcDbLine
 10
2.493618242984251
 20
6.906021416501967
 30
0.0
 11
2.50149273873622
 21
6.913895912253937
 31
0.0
  0
LINE
  5
2BFA
330
1E
100
AcDbEntity
  8
7
100
AcDbLine
 10
2.494930658942913
 20
6.904709000543307
 30
0.0
 11
2.502805154694881
 21
6.912583496295274
 31
0.0
  0
LINE
  5
2C01
330
1E
100
AcDbEntity
  8
7
100
AcDbLine
 10
2.50149273873622
 20
6.913895912253937
 30
0.0
 11
2.50149273873622
 21
6.937519399509842
 31
0.0
  0
LINE
  5
2C08
330
1E
100
AcDbEntity
  8
7
100
AcDbLine
 10
2.241634378921259
 20
6.937519399509842
 30
0.0
 11
2.241634378921259
 21
6.913895912253937
 31
0.0
  0
LINE
  5
2C09
330
1E
100
AcDbEntity
  8
7
100
AcDbLine
 10
2.240321962962598
 20
6.912583496295274
 30
0.0
 11
2.248196458714567
 21
6.904709000543307
 31
0.0
  0
LINE
  5
2C0A
330
1E
100
AcDbEntity
  8
7
100
AcDbLine
 10
2.248196458714567
 20
6.950643559096457
 30
0.0
 11
2.249508874673228
 21
6.945393895261811
 31
0.0
  0
LINE
  5
2C0B
330
1E
100
AcDbEntity
  8
7
100
AcDbLine
 10
2.248196458714567
 20
6.950643559096457
 30
0.0
 11
2.240321962962598
 21
6.942769063344488
 31
0.0
  0
LINE
  5
2C0C
330
1E
100
AcDbEntity
  8
7
100
AcDbLine
 10
2.300693097061023
 20
6.945393895261811
 30
0.0
 11
2.308567592812992
 21
6.945393895261811
 31
0.0
  0
LINE
  5
2C0D
330
1E
100
AcDbEntity
  8
7
100
AcDbLine
 10
2.433247108885827
 20
6.945393895261811
 30
0.0
 11
2.441121604637795
 21
6.945393895261811
 31
0.0
  0
LINE
  5
2C13
330
1E
100
AcDbEntity
  8
7
100
AcDbLine
 10
2.502805154694881
 20
6.942769063344488
 30
0.0
 11
2.494930658942913
 21
6.950643559096457
 31
0.0
  0
LINE
  5
2C19
330
1E
100
AcDbEntity
  8
7
100
AcDbLine
 10
2.51067965044685
 20
6.912583496295274
 30
0.0
 11
2.505429986612204
 21
6.912583496295274
 31
0.0
  0
LINE
  5
2C1A
330
1E
100
AcDbEntity
  8
7
100
AcDbLine
 10
2.505429986612204
 20
6.912583496295274
 30
0.0
 11
2.502805154694881
 21
6.912583496295274
 31
0.0
  0
LINE
  5
2C2F
330
1E
100
AcDbEntity
  8
7
100
AcDbLine
 10
2.240321962962598
 20
6.912583496295274
 30
0.0
 11
2.237697131045275
 21
6.912583496295274
 31
0.0
  0
LINE
  5
2C30
330
1E
100
AcDbEntity
  8
7
100
AcDbLine
 10
2.237697131045275
 20
6.912583496295274
 30
0.0
 11
2.23244746721063
 21
6.912583496295274
 31
0.0
  0
LINE
  5
2C3B
330
1E
100
AcDbEntity
  8
7
100
AcDbLine
 10
1.735041818877952
 20
7.003140197442913
 30
0.0
 11
1.736354234836614
 21
7.004452613401574
 31
0.0
  0
LINE
  5
2C3C
330
1E
100
AcDbEntity
  8
7
100
AcDbLine
 10
0.8268499754842517
 20
6.963767718683071
 30
0.0
 11
0.8255375595255909
 21
6.962455302724409
 31
0.0
  0
LINE
  5
2C3D
330
1E
100
AcDbEntity
  8
7
100
AcDbLine
 10
1.735041818877952
 20
6.963767718683071
 30
0.0
 11
1.736354234836614
 21
6.962455302724409
 31
0.0
  0
LINE
  5
2C4B
330
1E
100
AcDbEntity
  8
7
100
AcDbLine
 10
1.699606587994094
 20
7.070073411334646
 30
0.0
 11
1.740291482712598
 21
7.060886499624015
 31
0.0
  0
LINE
  5
2C4C
330
1E
100
AcDbEntity
  8
7
100
AcDbLine
 10
1.740291482712598
 20
7.059574083665355
 30
0.0
 11
1.740291482712598
 21
7.133069377350393
 31
0.0
  0
LINE
  5
2C57
330
1E
100
AcDbEntity
  8
7
100
AcDbLine
 10
1.876782742413385
 20
7.286622044513778
 30
0.0
 11
1.756040474216535
 21
7.286622044513778
 31
0.0
  0
LINE
  5
2C62
330
1E
100
AcDbEntity
  8
7
100
AcDbLine
 10
1.892531733917322
 20
7.133069377350393
 30
0.0
 11
1.892531733917322
 21
7.059574083665355
 31
0.0
  0
LINE
  5
2C71
330
1E
100
AcDbEntity
  8
7
100
AcDbLine
 10
1.876782742413385
 20
7.358804922240157
 30
0.0
 11
1.756040474216535
 21
7.358804922240157
 31
0.0
  0
LINE
  5
2C72
330
1E
100
AcDbEntity
  8
7
100
AcDbLine
 10
1.892531733917322
 20
7.059574083665355
 30
0.0
 11
1.896468981793307
 21
7.058261667706692
 31
0.0
  0
LINE
  5
2C73
330
1E
100
AcDbEntity
  8
7
100
AcDbLine
 10
1.876782742413385
 20
7.360117338198818
 30
0.0
 11
1.876782742413385
 21
7.358804922240157
 31
0.0
  0
LINE
  5
2C74
330
1E
100
AcDbEntity
  8
7
100
AcDbLine
 10
1.756040474216535
 20
7.358804922240157
 30
0.0
 11
1.756040474216535
 21
7.360117338198818
 31
0.0
  0
LINE
  5
2C75
330
1E
100
AcDbEntity
  8
7
100
AcDbLine
 10
1.736354234836614
 20
7.058261667706692
 30
0.0
 11
1.740291482712598
 21
7.059574083665355
 31
0.0
  0
LINE
  5
2C7B
330
1E
100
AcDbEntity
  8
7
100
AcDbLine
 10
1.738979066753937
 20
6.986078789980314
 30
0.0
 11
1.741603898671259
 21
6.987391205938976
 31
0.0
  0
LINE
  5
2C7C
330
1E
100
AcDbEntity
  8
7
100
AcDbLine
 10
1.891219317958661
 20
6.987391205938976
 30
0.0
 11
1.892531733917322
 21
6.986078789980314
 31
0.0
  0
LINE
  5
2C91
330
1E
100
AcDbEntity
  8
7
100
AcDbLine
 10
1.710105915663385
 20
7.14881836885433
 30
0.0
 11
1.922717300966535
 21
7.14881836885433
 31
0.0
  0
LINE
  5
2C92
330
1E
100
AcDbEntity
  8
7
100
AcDbLine
 10
1.710105915663385
 20
7.26824822109252
 30
0.0
 11
1.922717300966535
 21
7.26824822109252
 31
0.0
  0
LINE
  5
2C93
330
1E
100
AcDbEntity
  8
7
100
AcDbLine
 10
1.912217973297244
 20
7.140943873102362
 30
0.0
 11
1.720605243332677
 21
7.140943873102362
 31
0.0
  0
LINE
  5
2C94
330
1E
100
AcDbEntity
  8
7
100
AcDbLine
 10
1.922717300966535
 20
7.14881836885433
 30
0.0
 11
1.912217973297244
 21
7.140943873102362
 31
0.0
  0
LINE
  5
2C95
330
1E
100
AcDbEntity
  8
7
100
AcDbLine
 10
1.720605243332677
 20
7.140943873102362
 30
0.0
 11
1.710105915663385
 21
7.14881836885433
 31
0.0
  0
LINE
  5
2C96
330
1E
100
AcDbEntity
  8
7
100
AcDbLine
 10
1.912217973297244
 20
7.276122716844487
 30
0.0
 11
1.720605243332677
 21
7.276122716844487
 31
0.0
  0
LINE
  5
2C9C
330
1E
100
AcDbEntity
  8
7
100
AcDbLine
 10
1.876782742413385
 20
7.285309628555117
 30
0.0
 11
1.756040474216535
 21
7.285309628555117
 31
0.0
  0
LINE
  5
2CA2
330
1E
100
AcDbEntity
  8
7
100
AcDbLine
 10
1.912217973297244
 20
7.276122716844487
 30
0.0
 11
1.922717300966535
 21
7.26824822109252
 31
0.0
  0
LINE
  5
2CA3
330
1E
100
AcDbEntity
  8
7
100
AcDbLine
 10
1.710105915663385
 20
7.26824822109252
 30
0.0
 11
1.720605243332677
 21
7.276122716844487
 31
0.0
  0
LINE
  5
2CA9
330
1E
100
AcDbEntity
  8
7
100
AcDbLine
 10
1.876782742413385
 20
7.131756961391732
 30
0.0
 11
1.756040474216535
 21
7.131756961391732
 31
0.0
  0
LINE
  5
2CC2
330
1E
100
AcDbEntity
  8
7
100
AcDbLine
 10
1.891219317958661
 20
7.134381793309055
 30
0.0
 11
1.892531733917322
 21
7.133069377350393
 31
0.0
  0
LINE
  5
2CC3
330
1E
100
AcDbEntity
  8
7
100
AcDbLine
 10
1.876782742413385
 20
7.286622044513778
 30
0.0
 11
1.876782742413385
 21
7.285309628555117
 31
0.0
  0
LINE
  5
2CC4
330
1E
100
AcDbEntity
  8
7
100
AcDbLine
 10
1.756040474216535
 20
7.286622044513778
 30
0.0
 11
1.756040474216535
 21
7.285309628555117
 31
0.0
  0
LINE
  5
2CC5
330
1E
100
AcDbEntity
  8
7
100
AcDbLine
 10
1.740291482712598
 20
7.133069377350393
 30
0.0
 11
1.741603898671259
 21
7.134381793309055
 31
0.0
  0
LINE
  5
2CCB
330
1E
100
AcDbEntity
  8
7
100
AcDbLine
 10
1.756040474216535
 20
7.131756961391732
 30
0.0
 11
1.876782742413385
 21
7.131756961391732
 31
0.0
  0
LINE
  5
2CCC
330
1E
100
AcDbEntity
  8
7
100
AcDbLine
 10
1.736354234836614
 20
6.963767718683071
 30
0.0
 11
1.738979066753937
 21
6.966392550600394
 31
0.0
  0
LINE
  5
2CCD
330
1E
100
AcDbEntity
  8
7
100
AcDbLine
 10
1.736354234836614
 20
6.963767718683071
 30
0.0
 11
1.746853562505905
 21
6.963767718683071
 31
0.0
  0
LINE
  5
2CD3
330
1E
100
AcDbEntity
  8
7
100
AcDbLine
 10
1.891219317958661
 20
7.134381793309055
 30
0.0
 11
1.891219317958661
 21
6.987391205938976
 31
0.0
  0
LINE
  5
2CDE
330
1E
100
AcDbEntity
  8
7
100
AcDbLine
 10
1.741603898671259
 20
7.134381793309055
 30
0.0
 11
1.741603898671259
 21
6.987391205938976
 31
0.0
  0
LINE
  5
2CDF
330
1E
100
AcDbEntity
  8
7
100
AcDbLine
 10
1.1313304778937
 20
6.913895912253937
 30
0.0
 11
1.139204973645669
 21
6.906021416501967
 31
0.0
  0
LINE
  5
2CE0
330
1E
100
AcDbEntity
  8
7
100
AcDbLine
 10
1.322943207858267
 20
6.945393895261811
 30
0.0
 11
1.322943207858267
 21
6.94408147930315
 31
0.0
  0
LINE
  5
2CE1
330
1E
100
AcDbEntity
  8
7
100
AcDbLine
 10
1.199576107744094
 20
6.945393895261811
 30
0.0
 11
1.199576107744094
 21
6.94408147930315
 31
0.0
  0
LINE
  5
2CE2
330
1E
100
AcDbEntity
  8
7
100
AcDbLine
 10
1.383314341956693
 20
6.906021416501967
 30
0.0
 11
1.391188837708661
 21
6.913895912253937
 31
0.0
  0
LINE
  5
2CE3
330
1E
100
AcDbEntity
  8
7
100
AcDbLine
 10
1.384626757915354
 20
6.904709000543307
 30
0.0
 11
1.383314341956693
 21
6.904709000543307
 31
0.0
  0
LINE
  5
2CE4
330
1E
100
AcDbEntity
  8
7
100
AcDbLine
 10
1.384626757915354
 20
6.904709000543307
 30
0.0
 11
1.392501253667322
 21
6.912583496295274
 31
0.0
  0
LINE
  5
2CE5
330
1E
100
AcDbEntity
  8
7
100
AcDbLine
 10
1.391188837708661
 20
6.913895912253937
 30
0.0
 11
1.392501253667322
 21
6.912583496295274
 31
0.0
  0
LINE
  5
2CEB
330
1E
100
AcDbEntity
  8
7
100
AcDbLine
 10
1.391188837708661
 20
6.913895912253937
 30
0.0
 11
1.391188837708661
 21
6.937519399509842
 31
0.0
  0
LINE
  5
2CF2
330
1E
100
AcDbEntity
  8
7
100
AcDbLine
 10
1.1313304778937
 20
6.937519399509842
 30
0.0
 11
1.1313304778937
 21
6.913895912253937
 31
0.0
  0
LINE
  5
2CF3
330
1E
100
AcDbEntity
  8
7
100
AcDbLine
 10
1.130018061935039
 20
6.912583496295274
 30
0.0
 11
1.137892557687007
 21
6.904709000543307
 31
0.0
  0
LINE
  5
2CF4
330
1E
100
AcDbEntity
  8
7
100
AcDbLine
 10
1.139204973645669
 20
6.904709000543307
 30
0.0
 11
1.137892557687007
 21
6.904709000543307
 31
0.0
  0
LINE
  5
2CF5
330
1E
100
AcDbEntity
  8
7
100
AcDbLine
 10
1.137892557687007
 20
6.904709000543307
 30
0.0
 11
1.139204973645669
 21
6.904709000543307
 31
0.0
  0
LINE
  5
2CF6
330
1E
100
AcDbEntity
  8
7
100
AcDbLine
 10
1.383314341956693
 20
6.904709000543307
 30
0.0
 11
1.384626757915354
 21
6.904709000543307
 31
0.0
  0
LINE
  5
2CF7
330
1E
100
AcDbEntity
  8
7
100
AcDbLine
 10
1.137892557687007
 20
6.950643559096457
 30
0.0
 11
1.139204973645669
 21
6.945393895261811
 31
0.0
  0
LINE
  5
2CF8
330
1E
100
AcDbEntity
  8
7
100
AcDbLine
 10
1.137892557687007
 20
6.950643559096457
 30
0.0
 11
1.130018061935039
 21
6.942769063344488
 31
0.0
  0
LINE
  5
2CF9
330
1E
100
AcDbEntity
  8
7
100
AcDbLine
 10
1.190389196033464
 20
6.945393895261811
 30
0.0
 11
1.199576107744094
 21
6.945393895261811
 31
0.0
  0
LINE
  5
2CFA
330
1E
100
AcDbEntity
  8
7
100
AcDbLine
 10
1.322943207858267
 20
6.945393895261811
 30
0.0
 11
1.332130119568897
 21
6.945393895261811
 31
0.0
  0
LINE
  5
2D00
330
1E
100
AcDbEntity
  8
7
100
AcDbLine
 10
1.392501253667322
 20
6.942769063344488
 30
0.0
 11
1.384626757915354
 21
6.950643559096457
 31
0.0
  0
LINE
  5
2D2E
330
1E
100
AcDbEntity
  8
7
100
AcDbLine
 10
0.8793466138307088
 20
7.012327109153543
 30
0.0
 11
0.8793466138307088
 21
7.404739480793306
 31
0.0
  0
LINE
  5
2D2F
330
1E
100
AcDbEntity
  8
7
100
AcDbLine
 10
0.4383748517204725
 20
3.345436920653543
 30
0.0
 11
0.4409996836377959
 21
3.348061752570866
 31
0.0
  0
LINE
  5
2D30
330
1E
100
AcDbEntity
  8
7
100
AcDbLine
 10
0.4409996836377959
 20
7.78796494072244
 30
0.0
 11
0.4383748517204725
 21
7.791902188598424
 31
0.0
  0
LINE
  5
2D31
330
1E
100
AcDbEntity
  8
7
100
AcDbLine
 10
0.7966644084350394
 20
7.424425720173228
 30
0.0
 11
0.7953519924763777
 21
7.424425720173228
 31
0.0
  0
LINE
  5
2D32
330
1E
100
AcDbEntity
  8
7
100
AcDbLine
 10
0.7953519924763777
 20
6.992640869773621
 30
0.0
 11
0.7966644084350394
 21
6.993953285732283
 31
0.0
  0
LINE
  5
2D38
330
1E
100
AcDbEntity
  8
7
100
AcDbLine
 10
1.710105915663385
 20
3.867778472200787
 30
0.0
 11
1.922717300966535
 21
3.867778472200787
 31
0.0
  0
LINE
  5
2D39
330
1E
100
AcDbEntity
  8
7
100
AcDbLine
 10
1.710105915663385
 20
3.987208324438976
 30
0.0
 11
1.922717300966535
 21
3.987208324438976
 31
0.0
  0
LINE
  5
2D3A
330
1E
100
AcDbEntity
  8
7
100
AcDbLine
 10
2.363689063076771
 20
6.467674486309054
 30
0.0
 11
2.53824038557874
 21
6.467674486309054
 31
0.0
  0
LINE
  5
2D3B
330
1E
100
AcDbEntity
  8
7
100
AcDbLine
 10
1.093270415092519
 20
6.467674486309054
 30
0.0
 11
1.269134153553149
 21
6.467674486309054
 31
0.0
  0
LINE
  5
2D3C
330
1E
100
AcDbEntity
  8
7
100
AcDbLine
 10
1.283570729098424
 20
5.807529259102361
 30
0.0
 11
1.078833839547244
 21
5.807529259102361
 31
0.0
  0
LINE
  5
2D3D
330
1E
100
AcDbEntity
  8
7
100
AcDbLine
 10
1.283570729098424
 20
5.819341002730315
 30
0.0
 11
1.283570729098424
 21
5.807529259102361
 31
0.0
  0
LINE
  5
2D43
330
1E
100
AcDbEntity
  8
7
100
AcDbLine
 10
1.283570729098424
 20
5.819341002730315
 30
0.0
 11
1.283570729098424
 21
5.837714826151574
 31
0.0
  0
LINE
  5
2D44
330
1E
100
AcDbEntity
  8
7
100
AcDbLine
 10
1.283570729098424
 20
5.837714826151574
 30
0.0
 11
1.283570729098424
 21
5.854776233614172
 31
0.0
  0
LINE
  5
2D45
330
1E
100
AcDbEntity
  8
7
100
AcDbLine
 10
1.078833839547244
 20
5.854776233614172
 30
0.0
 11
1.283570729098424
 21
5.854776233614172
 31
0.0
  0
LINE
  5
2D50
330
1E
100
AcDbEntity
  8
7
100
AcDbLine
 10
1.078833839547244
 20
5.854776233614172
 30
0.0
 11
1.077521423588582
 21
5.860025897448818
 31
0.0
  0
LINE
  5
2D56
330
1E
100
AcDbEntity
  8
7
100
AcDbLine
 10
1.284883145057086
 20
5.88889904853937
 30
0.0
 11
1.284883145057086
 21
5.860025897448818
 31
0.0
  0
LINE
  5
2D57
330
1E
100
AcDbEntity
  8
7
100
AcDbLine
 10
2.553989377082677
 20
5.807529259102361
 30
0.0
 11
2.349252487531495
 21
5.807529259102361
 31
0.0
  0
LINE
  5
2D58
330
1E
100
AcDbEntity
  8
7
100
AcDbLine
 10
2.553989377082677
 20
5.819341002730315
 30
0.0
 11
2.553989377082677
 21
5.807529259102361
 31
0.0
  0
LINE
  5
2D63
330
1E
100
AcDbEntity
  8
7
100
AcDbLine
 10
2.347940071572834
 20
5.854776233614172
 30
0.0
 11
2.553989377082677
 21
5.854776233614172
 31
0.0
  0
LINE
  5
2D6E
330
1E
100
AcDbEntity
  8
7
100
AcDbLine
 10
2.347940071572834
 20
5.854776233614172
 30
0.0
 11
2.347940071572834
 21
5.860025897448818
 31
0.0
  0
LINE
  5
2D74
330
1E
100
AcDbEntity
  8
7
100
AcDbLine
 10
2.553989377082677
 20
5.88889904853937
 30
0.0
 11
2.553989377082677
 21
5.860025897448818
 31
0.0
  0
LINE
  5
2D75
330
1E
100
AcDbEntity
  8
7
100
AcDbLine
 10
2.363689063076771
 20
5.316685690562992
 30
0.0
 11
2.53824038557874
 21
5.316685690562992
 31
0.0
  0
LINE
  5
2D76
330
1E
100
AcDbEntity
  8
7
100
AcDbLine
 10
1.093270415092519
 20
5.316685690562992
 30
0.0
 11
1.269134153553149
 21
5.316685690562992
 31
0.0
  0
LINE
  5
2D77
330
1E
100
AcDbEntity
  8
7
100
AcDbLine
 10
1.283570729098424
 20
4.657852879314961
 30
0.0
 11
1.078833839547244
 21
4.657852879314961
 31
0.0
  0
LINE
  5
2D78
330
1E
100
AcDbEntity
  8
7
100
AcDbLine
 10
1.283570729098424
 20
4.668352206984252
 30
0.0
 11
1.283570729098424
 21
4.657852879314961
 31
0.0
  0
LINE
  5
2D83
330
1E
100
AcDbEntity
  8
7
100
AcDbLine
 10
1.078833839547244
 20
4.705099853826771
 30
0.0
 11
1.283570729098424
 21
4.705099853826771
 31
0.0
  0
LINE
  5
2D8E
330
1E
100
AcDbEntity
  8
7
100
AcDbLine
 10
1.078833839547244
 20
4.705099853826771
 30
0.0
 11
1.077521423588582
 21
4.710349517661417
 31
0.0
  0
LINE
  5
2D94
330
1E
100
AcDbEntity
  8
7
100
AcDbLine
 10
1.284883145057086
 20
4.739222668751968
 30
0.0
 11
1.284883145057086
 21
4.710349517661417
 31
0.0
  0
LINE
  5
2D95
330
1E
100
AcDbEntity
  8
7
100
AcDbLine
 10
2.553989377082677
 20
4.657852879314961
 30
0.0
 11
2.349252487531495
 21
4.657852879314961
 31
0.0
  0
LINE
  5
2D96
330
1E
100
AcDbEntity
  8
7
100
AcDbLine
 10
2.553989377082677
 20
4.668352206984252
 30
0.0
 11
2.553989377082677
 21
4.657852879314961
 31
0.0
  0
LINE
  5
2DA1
330
1E
100
AcDbEntity
  8
7
100
AcDbLine
 10
2.347940071572834
 20
4.705099853826771
 30
0.0
 11
2.553989377082677
 21
4.705099853826771
 31
0.0
  0
LINE
  5
2DAC
330
1E
100
AcDbEntity
  8
7
100
AcDbLine
 10
2.347940071572834
 20
4.705099853826771
 30
0.0
 11
2.347940071572834
 21
4.710349517661417
 31
0.0
  0
LINE
  5
2DB2
330
1E
100
AcDbEntity
  8
7
100
AcDbLine
 10
2.553989377082677
 20
4.739222668751968
 30
0.0
 11
2.553989377082677
 21
4.710349517661417
 31
0.0
  0
LINE
  5
2DB3
330
1E
100
AcDbEntity
  8
7
100
AcDbLine
 10
1.710105915663385
 20
3.987208324438976
 30
0.0
 11
1.689107260324803
 21
3.960960005265748
 31
0.0
  0
LINE
  5
2DBF
330
1E
100
AcDbEntity
  8
7
100
AcDbLine
 10
0.8885335255413391
 20
4.134198911809054
 30
0.0
 11
0.8885335255413391
 21
4.132886495850393
 31
0.0
  0
LINE
  5
2DC0
330
1E
100
AcDbEntity
  8
7
100
AcDbLine
 10
0.8885335255413391
 20
4.132886495850393
 30
0.0
 11
0.8819714457480314
 21
4.13026166393307
 31
0.0
  0
LINE
  5
2DC1
330
1E
100
AcDbEntity
  8
7
100
AcDbLine
 10
0.8819714457480314
 20
4.13026166393307
 30
0.0
 11
0.8793466138307088
 21
4.123699584139763
 31
0.0
  0
LINE
  5
2DDB
330
1E
100
AcDbEntity
  8
7
100
AcDbLine
 10
2.753476602799212
 20
4.123699584139763
 30
0.0
 11
2.753476602799212
 21
3.7312872125
 31
0.0
  0
LINE
  5
2DDC
330
1E
100
AcDbEntity
  8
7
100
AcDbLine
 10
2.753476602799212
 20
4.123699584139763
 30
0.0
 11
2.753476602799212
 21
3.7312872125
 31
0.0
  0
LINE
  5
2DDD
330
1E
100
AcDbEntity
  8
7
100
AcDbLine
 10
2.744289691088582
 20
4.134198911809054
 30
0.0
 11
2.744289691088582
 21
4.132886495850393
 31
0.0
  0
LINE
  5
2DE8
330
1E
100
AcDbEntity
  8
7
100
AcDbLine
 10
1.876782742413385
 20
3.777221771053149
 30
0.0
 11
1.876782742413385
 21
3.775909355094488
 31
0.0
  0
LINE
  5
2DE9
330
1E
100
AcDbEntity
  8
7
100
AcDbLine
 10
1.756040474216535
 20
3.777221771053149
 30
0.0
 11
1.876782742413385
 21
3.777221771053149
 31
0.0
  0
LINE
  5
2DEA
330
1E
100
AcDbEntity
  8
7
100
AcDbLine
 10
1.756040474216535
 20
3.775909355094488
 30
0.0
 11
1.756040474216535
 21
3.777221771053149
 31
0.0
  0
LINE
  5
2DEB
330
1E
100
AcDbEntity
  8
7
100
AcDbLine
 10
1.756040474216535
 20
3.775909355094488
 30
0.0
 11
1.876782742413385
 21
3.775909355094488
 31
0.0
  0
LINE
  5
2DEC
330
1E
100
AcDbEntity
  8
7
100
AcDbLine
 10
1.876782742413385
 20
3.850717064738188
 30
0.0
 11
1.876782742413385
 21
3.849404648779527
 31
0.0
  0
LINE
  5
2DF2
330
1E
100
AcDbEntity
  8
7
100
AcDbLine
 10
1.876782742413385
 20
3.849404648779527
 30
0.0
 11
1.756040474216535
 21
3.849404648779527
 31
0.0
  0
LINE
  5
2DFD
330
1E
100
AcDbEntity
  8
7
100
AcDbLine
 10
1.912217973297244
 20
3.859903976448818
 30
0.0
 11
1.720605243332677
 21
3.859903976448818
 31
0.0
  0
LINE
  5
2DFE
330
1E
100
AcDbEntity
  8
7
100
AcDbLine
 10
1.922717300966535
 20
3.867778472200787
 30
0.0
 11
1.912217973297244
 21
3.859903976448818
 31
0.0
  0
LINE
  5
2DFF
330
1E
100
AcDbEntity
  8
7
100
AcDbLine
 10
1.720605243332677
 20
3.859903976448818
 30
0.0
 11
1.710105915663385
 21
3.867778472200787
 31
0.0
  0
LINE
  5
2E07
330
1E
100
AcDbEntity
  8
7
100
AcDbLine
 10
1.912217973297244
 20
3.995082820190944
 30
0.0
 11
1.922717300966535
 21
3.987208324438976
 31
0.0
  0
LINE
  5
2E08
330
1E
100
AcDbEntity
  8
7
100
AcDbLine
 10
1.912217973297244
 20
3.995082820190944
 30
0.0
 11
1.720605243332677
 21
3.995082820190944
 31
0.0
  0
LINE
  5
2E09
330
1E
100
AcDbEntity
  8
7
100
AcDbLine
 10
1.710105915663385
 20
3.987208324438976
 30
0.0
 11
1.720605243332677
 21
3.995082820190944
 31
0.0
  0
LINE
  5
2E0F
330
1E
100
AcDbEntity
  8
7
100
AcDbLine
 10
1.876782742413385
 20
4.004269731901574
 30
0.0
 11
1.756040474216535
 21
4.004269731901574
 31
0.0
  0
LINE
  5
2E15
330
1E
100
AcDbEntity
  8
7
100
AcDbLine
 10
1.876782742413385
 20
4.004269731901574
 30
0.0
 11
1.756040474216535
 21
4.004269731901574
 31
0.0
  0
LINE
  5
2E16
330
1E
100
AcDbEntity
  8
7
100
AcDbLine
 10
1.093270415092519
 20
5.356058169322834
 30
0.0
 11
1.093270415092519
 21
5.316685690562992
 31
0.0
  0
LINE
  5
2E17
330
1E
100
AcDbEntity
  8
7
100
AcDbLine
 10
1.269134153553149
 20
5.356058169322834
 30
0.0
 11
1.269134153553149
 21
5.316685690562992
 31
0.0
  0
LINE
  5
2E18
330
1E
100
AcDbEntity
  8
7
100
AcDbLine
 10
2.363689063076771
 20
5.356058169322834
 30
0.0
 11
2.363689063076771
 21
5.316685690562992
 31
0.0
  0
LINE
  5
2E19
330
1E
100
AcDbEntity
  8
7
100
AcDbLine
 10
2.53824038557874
 20
5.356058169322834
 30
0.0
 11
2.53824038557874
 21
5.316685690562992
 31
0.0
  0
LINE
  5
2E1A
330
1E
100
AcDbEntity
  8
7
100
AcDbLine
 10
1.093270415092519
 20
6.505734549110235
 30
0.0
 11
1.093270415092519
 21
6.467674486309054
 31
0.0
  0
LINE
  5
2E1B
330
1E
100
AcDbEntity
  8
7
100
AcDbLine
 10
1.269134153553149
 20
6.505734549110235
 30
0.0
 11
1.269134153553149
 21
6.467674486309054
 31
0.0
  0
LINE
  5
2E1C
330
1E
100
AcDbEntity
  8
7
100
AcDbLine
 10
2.363689063076771
 20
6.505734549110235
 30
0.0
 11
2.363689063076771
 21
6.467674486309054
 31
0.0
  0
LINE
  5
2E1D
330
1E
100
AcDbEntity
  8
7
100
AcDbLine
 10
2.53824038557874
 20
6.505734549110235
 30
0.0
 11
2.53824038557874
 21
6.467674486309054
 31
0.0
  0
LINE
  5
2E1E
330
1E
100
AcDbEntity
  8
7
100
AcDbLine
 10
1.311131464230315
 20
4.22213078103937
 30
0.0
 11
1.303256968478346
 21
4.230005276791337
 31
0.0
  0
LINE
  5
2E1F
330
1E
100
AcDbEntity
  8
7
100
AcDbLine
 10
1.119518734265747
 20
4.190632798031495
 30
0.0
 11
1.119518734265747
 21
4.191945213990157
 31
0.0
  0
LINE
  5
2E20
330
1E
100
AcDbEntity
  8
7
100
AcDbLine
 10
1.242885834379921
 20
4.190632798031495
 30
0.0
 11
1.242885834379921
 21
4.191945213990157
 31
0.0
  0
LINE
  5
2E21
330
1E
100
AcDbEntity
  8
7
100
AcDbLine
 10
1.059147600167322
 20
4.230005276791337
 30
0.0
 11
1.051273104415354
 21
4.22213078103937
 31
0.0
  0
LINE
  5
2E22
330
1E
100
AcDbEntity
  8
7
100
AcDbLine
 10
0.9292184202598425
 20
3.72210030078937
 30
0.0
 11
0.8885335255413391
 21
3.72210030078937
 31
0.0
  0
LINE
  5
2E23
330
1E
100
AcDbEntity
  8
7
100
AcDbLine
 10
0.8885335255413391
 20
4.132886495850393
 30
0.0
 11
0.9292184202598425
 21
4.132886495850393
 31
0.0
  0
LINE
  5
2E24
330
1E
100
AcDbEntity
  8
7
100
AcDbLine
 10
0.9292184202598425
 20
3.72210030078937
 30
0.0
 11
2.703604796370078
 21
3.72210030078937
 31
0.0
  0
LINE
  5
2E2A
330
1E
100
AcDbEntity
  8
7
100
AcDbLine
 10
2.703604796370078
 20
4.132886495850393
 30
0.0
 11
2.744289691088582
 21
4.132886495850393
 31
0.0
  0
LINE
  5
2E2B
330
1E
100
AcDbEntity
  8
7
100
AcDbLine
 10
2.581550112214567
 20
4.22213078103937
 30
0.0
 11
2.573675616462598
 21
4.230005276791337
 31
0.0
  0
LINE
  5
2E2C
330
1E
100
AcDbEntity
  8
7
100
AcDbLine
 10
2.388624966291339
 20
4.190632798031495
 30
0.0
 11
2.389937382249999
 21
4.191945213990157
 31
0.0
  0
LINE
  5
2E2D
330
1E
100
AcDbEntity
  8
7
100
AcDbLine
 10
2.513304482364173
 20
4.190632798031495
 30
0.0
 11
2.511992066405511
 21
4.191945213990157
 31
0.0
  0
LINE
  5
2E2E
330
1E
100
AcDbEntity
  8
7
100
AcDbLine
 10
2.329566248151575
 20
4.230005276791337
 30
0.0
 11
2.321691752399606
 21
4.22213078103937
 31
0.0
  0
LINE
  5
2E2F
330
1E
100
AcDbEntity
  8
7
100
AcDbLine
 10
2.328253832192913
 20
4.232630108708661
 30
0.0
 11
2.328253832192913
 21
4.23131769275
 31
0.0
  0
LINE
  5
2E30
330
1E
100
AcDbEntity
  8
7
100
AcDbLine
 10
2.328253832192913
 20
4.232630108708661
 30
0.0
 11
2.320379336440944
 21
4.22344319699803
 31
0.0
  0
LINE
  5
2E37
330
1E
100
AcDbEntity
  8
7
100
AcDbLine
 10
2.321691752399606
 20
4.22213078103937
 30
0.0
 11
2.321691752399606
 21
4.198507293783464
 31
0.0
  0
LINE
  5
2E3E
330
1E
100
AcDbEntity
  8
7
100
AcDbLine
 10
2.581550112214567
 20
4.198507293783464
 30
0.0
 11
2.581550112214567
 21
4.22213078103937
 31
0.0
  0
LINE
  5
2E3F
330
1E
100
AcDbEntity
  8
7
100
AcDbLine
 10
2.582862528173228
 20
4.22344319699803
 30
0.0
 11
2.574988032421259
 21
4.232630108708661
 31
0.0
  0
LINE
  5
2E4A
330
1E
100
AcDbEntity
  8
7
100
AcDbLine
 10
1.057835184208661
 20
4.232630108708661
 30
0.0
 11
1.049960688456692
 21
4.22344319699803
 31
0.0
  0
LINE
  5
2E51
330
1E
100
AcDbEntity
  8
7
100
AcDbLine
 10
1.051273104415354
 20
4.22213078103937
 30
0.0
 11
1.051273104415354
 21
4.198507293783464
 31
0.0
  0
LINE
  5
2E58
330
1E
100
AcDbEntity
  8
7
100
AcDbLine
 10
1.311131464230315
 20
4.198507293783464
 30
0.0
 11
1.311131464230315
 21
4.22213078103937
 31
0.0
  0
LINE
  5
2E59
330
1E
100
AcDbEntity
  8
7
100
AcDbLine
 10
1.312443880188976
 20
4.22344319699803
 30
0.0
 11
1.304569384437007
 21
4.232630108708661
 31
0.0
  0
LINE
  5
2E5F
330
1E
100
AcDbEntity
  8
7
100
AcDbLine
 10
2.69573030061811
 20
5.845589321903544
 30
0.0
 11
2.708854460204724
 21
5.845589321903544
 31
0.0
  0
LINE
  5
2E60
330
1E
100
AcDbEntity
  8
7
100
AcDbLine
 10
0.9239687564251966
 20
5.845589321903544
 30
0.0
 11
0.9357805000531499
 21
5.845589321903544
 31
0.0
  0
LINE
  5
2E61
330
1E
100
AcDbEntity
  8
7
100
AcDbLine
 10
0.9357805000531499
 20
5.83377757827559
 30
0.0
 11
0.9357805000531499
 21
5.845589321903544
 31
0.0
  0
LINE
  5
2E6E
330
1E
100
AcDbEntity
  8
7
100
AcDbLine
 10
1.308506632312992
 20
5.781280939929133
 30
0.0
 11
1.284883145057086
 21
5.793092683557087
 31
0.0
  0
LINE
  5
2E6F
330
1E
100
AcDbEntity
  8
7
100
AcDbLine
 10
1.426624068592519
 20
5.845589321903544
 30
0.0
 11
1.426624068592519
 21
5.83377757827559
 31
0.0
  0
LINE
  5
2E70
330
1E
100
AcDbEntity
  8
7
100
AcDbLine
 10
1.426624068592519
 20
5.845589321903544
 30
0.0
 11
1.438435812220472
 21
5.845589321903544
 31
0.0
  0
LINE
  5
2E71
330
1E
100
AcDbEntity
  8
7
100
AcDbLine
 10
2.194387404409448
 20
5.845589321903544
 30
0.0
 11
2.206199148037401
 21
5.845589321903544
 31
0.0
  0
LINE
  5
2E72
330
1E
100
AcDbEntity
  8
7
100
AcDbLine
 10
2.206199148037401
 20
5.83377757827559
 30
0.0
 11
2.206199148037401
 21
5.845589321903544
 31
0.0
  0
LINE
  5
2E7F
330
1E
100
AcDbEntity
  8
7
100
AcDbLine
 10
2.577612864338582
 20
5.781280939929133
 30
0.0
 11
2.553989377082677
 21
5.793092683557087
 31
0.0
  0
LINE
  5
2E80
330
1E
100
AcDbEntity
  8
7
100
AcDbLine
 10
2.69573030061811
 20
5.845589321903544
 30
0.0
 11
2.69573030061811
 21
5.83377757827559
 31
0.0
  0
LINE
  5
2E81
330
1E
100
AcDbEntity
  8
7
100
AcDbLine
 10
2.69573030061811
 20
4.695912942116141
 30
0.0
 11
2.708854460204724
 21
4.695912942116141
 31
0.0
  0
LINE
  5
2E82
330
1E
100
AcDbEntity
  8
7
100
AcDbLine
 10
0.9239687564251966
 20
4.695912942116141
 30
0.0
 11
0.9357805000531499
 21
4.695912942116141
 31
0.0
  0
LINE
  5
2E83
330
1E
100
AcDbEntity
  8
7
100
AcDbLine
 10
0.9357805000531499
 20
4.684101198488189
 30
0.0
 11
0.9357805000531499
 21
4.695912942116141
 31
0.0
  0
LINE
  5
2E90
330
1E
100
AcDbEntity
  8
7
100
AcDbLine
 10
1.308506632312992
 20
4.63029214418307
 30
0.0
 11
1.284883145057086
 21
4.642103887811024
 31
0.0
  0
LINE
  5
2E91
330
1E
100
AcDbEntity
  8
7
100
AcDbLine
 10
1.426624068592519
 20
4.695912942116141
 30
0.0
 11
1.426624068592519
 21
4.684101198488189
 31
0.0
  0
LINE
  5
2E92
330
1E
100
AcDbEntity
  8
7
100
AcDbLine
 10
1.426624068592519
 20
4.695912942116141
 30
0.0
 11
1.438435812220472
 21
4.695912942116141
 31
0.0
  0
LINE
  5
2E93
330
1E
100
AcDbEntity
  8
7
100
AcDbLine
 10
2.194387404409448
 20
4.695912942116141
 30
0.0
 11
2.206199148037401
 21
4.695912942116141
 31
0.0
  0
LINE
  5
2E94
330
1E
100
AcDbEntity
  8
7
100
AcDbLine
 10
2.206199148037401
 20
4.684101198488189
 30
0.0
 11
2.206199148037401
 21
4.695912942116141
 31
0.0
  0
LINE
  5
2EA1
330
1E
100
AcDbEntity
  8
7
100
AcDbLine
 10
2.577612864338582
 20
4.63029214418307
 30
0.0
 11
2.553989377082677
 21
4.642103887811024
 31
0.0
  0
LINE
  5
2EA2
330
1E
100
AcDbEntity
  8
7
100
AcDbLine
 10
2.69573030061811
 20
4.695912942116141
 30
0.0
 11
2.69573030061811
 21
4.684101198488189
 31
0.0
  0
LINE
  5
2EA3
330
1E
100
AcDbEntity
  8
7
100
AcDbLine
 10
1.741603898671259
 20
4.14863548735433
 30
0.0
 11
1.738979066753937
 21
4.149947903312991
 31
0.0
  0
LINE
  5
2EAE
330
1E
100
AcDbEntity
  8
7
100
AcDbLine
 10
1.741603898671259
 20
4.002957315942913
 30
0.0
 11
1.740291482712598
 21
4.002957315942913
 31
0.0
  0
LINE
  5
2ECA
330
1E
100
AcDbEntity
  8
7
100
AcDbLine
 10
1.740291482712598
 20
4.076452609627952
 30
0.0
 11
1.736354234836614
 21
4.077765025586614
 31
0.0
  0
LINE
  5
2EDE
330
1E
100
AcDbEntity
  8
7
100
AcDbLine
 10
0.8885335255413391
 20
4.134198911809054
 30
0.0
 11
1.735041818877952
 21
4.134198911809054
 31
0.0
  0
LINE
  5
2EDF
330
1E
100
AcDbEntity
  8
7
100
AcDbLine
 10
0.8268499754842517
 20
4.172258974610235
 30
0.0
 11
1.735041818877952
 21
4.172258974610235
 31
0.0
  0
LINE
  5
2EE6
330
1E
100
AcDbEntity
  8
7
100
AcDbLine
 10
0.7966644084350394
 20
3.712913389078739
 30
0.0
 11
0.7966644084350394
 21
4.143385823519684
 31
0.0
  0
LINE
  5
2EED
330
1E
100
AcDbEntity
  8
7
100
AcDbLine
 10
2.805973241145669
 20
3.682727822029527
 30
0.0
 11
0.8268499754842517
 21
3.682727822029527
 31
0.0
  0
LINE
  5
2EF4
330
1E
100
AcDbEntity
  8
7
100
AcDbLine
 10
2.836158808194881
 20
4.143385823519684
 30
0.0
 11
2.836158808194881
 21
3.712913389078739
 31
0.0
  0
LINE
  5
2EFB
330
1E
100
AcDbEntity
  8
7
100
AcDbLine
 10
1.897781397751968
 20
4.172258974610235
 30
0.0
 11
2.805973241145669
 21
4.172258974610235
 31
0.0
  0
LINE
  5
2EFC
330
1E
100
AcDbEntity
  8
7
100
AcDbLine
 10
1.897781397751968
 20
4.134198911809054
 30
0.0
 11
1.897781397751968
 21
4.172258974610235
 31
0.0
  0
LINE
  5
2EFD
330
1E
100
AcDbEntity
  8
7
100
AcDbLine
 10
1.897781397751968
 20
4.134198911809054
 30
0.0
 11
2.744289691088582
 21
4.134198911809054
 31
0.0
  0
LINE
  5
2EFE
330
1E
100
AcDbEntity
  8
7
100
AcDbLine
 10
1.735041818877952
 20
4.134198911809054
 30
0.0
 11
1.735041818877952
 21
4.172258974610235
 31
0.0
  0
LINE
  5
2F04
330
1E
100
AcDbEntity
  8
7
100
AcDbLine
 10
1.736354234836614
 20
4.077765025586614
 30
0.0
 11
1.736354234836614
 21
4.132886495850393
 31
0.0
  0
LINE
  5
2F05
330
1E
100
AcDbEntity
  8
7
100
AcDbLine
 10
0.9292184202598425
 20
4.131574079891732
 30
0.0
 11
0.9292184202598425
 21
3.723412716748031
 31
0.0
  0
LINE
  5
2F06
330
1E
100
AcDbEntity
  8
7
100
AcDbLine
 10
2.703604796370078
 20
3.723412716748031
 30
0.0
 11
2.703604796370078
 21
4.131574079891732
 31
0.0
  0
LINE
  5
2F07
330
1E
100
AcDbEntity
  8
7
100
AcDbLine
 10
1.896468981793307
 20
4.132886495850393
 30
0.0
 11
1.896468981793307
 21
4.077765025586614
 31
0.0
  0
LINE
  5
2F15
330
1E
100
AcDbEntity
  8
7
100
AcDbLine
 10
1.935841460553149
 20
4.067265697917322
 30
0.0
 11
1.896468981793307
 21
4.077765025586614
 31
0.0
  0
LINE
  5
2F16
330
1E
100
AcDbEntity
  8
7
100
AcDbLine
 10
1.896468981793307
 20
4.077765025586614
 30
0.0
 11
1.892531733917322
 21
4.076452609627952
 31
0.0
  0
LINE
  5
2F28
330
1E
100
AcDbEntity
  8
7
100
AcDbLine
 10
1.740291482712598
 20
4.002957315942913
 30
0.0
 11
1.740291482712598
 21
4.076452609627952
 31
0.0
  0
LINE
  5
2F29
330
1E
100
AcDbEntity
  8
7
100
AcDbLine
 10
1.892531733917322
 20
4.076452609627952
 30
0.0
 11
1.892531733917322
 21
4.002957315942913
 31
0.0
  0
LINE
  5
2F2A
330
1E
100
AcDbEntity
  8
7
100
AcDbLine
 10
1.876782742413385
 20
3.850717064738188
 30
0.0
 11
1.90828072542126
 21
3.857279144531496
 31
0.0
  0
LINE
  5
2F34
330
1E
100
AcDbEntity
  8
7
100
AcDbLine
 10
1.892531733917322
 20
4.002957315942913
 30
0.0
 11
1.891219317958661
 21
4.002957315942913
 31
0.0
  0
LINE
  5
2F3A
330
1E
100
AcDbEntity
  8
7
100
AcDbLine
 10
1.741603898671259
 20
4.002957315942913
 30
0.0
 11
1.741603898671259
 21
4.14863548735433
 31
0.0
  0
LINE
  5
2F3B
330
1E
100
AcDbEntity
  8
7
100
AcDbLine
 10
1.891219317958661
 20
4.002957315942913
 30
0.0
 11
1.891219317958661
 21
4.14863548735433
 31
0.0
  0
LINE
  5
2F41
330
1E
100
AcDbEntity
  8
7
100
AcDbLine
 10
1.892531733917322
 20
4.149947903312991
 30
0.0
 11
1.891219317958661
 21
4.14863548735433
 31
0.0
  0
LINE
  5
2F42
330
1E
100
AcDbEntity
  8
7
100
AcDbLine
 10
1.304569384437007
 20
4.18538313419685
 30
0.0
 11
1.303256968478346
 21
4.190632798031495
 31
0.0
  0
LINE
  5
2F43
330
1E
100
AcDbEntity
  8
7
100
AcDbLine
 10
1.304569384437007
 20
4.18538313419685
 30
0.0
 11
1.312443880188976
 21
4.194570045907481
 31
0.0
  0
LINE
  5
2F44
330
1E
100
AcDbEntity
  8
7
100
AcDbLine
 10
1.252072746090551
 20
4.190632798031495
 30
0.0
 11
1.242885834379921
 21
4.190632798031495
 31
0.0
  0
LINE
  5
2F45
330
1E
100
AcDbEntity
  8
7
100
AcDbLine
 10
1.119518734265747
 20
4.190632798031495
 30
0.0
 11
1.111644238513779
 21
4.190632798031495
 31
0.0
  0
LINE
  5
2F4B
330
1E
100
AcDbEntity
  8
7
100
AcDbLine
 10
1.049960688456692
 20
4.194570045907481
 30
0.0
 11
1.057835184208661
 21
4.18538313419685
 31
0.0
  0
LINE
  5
2F5B
330
1E
100
AcDbEntity
  8
7
100
AcDbLine
 10
1.895156565834645
 20
4.172258974610235
 30
0.0
 11
1.893844149875984
 21
4.170946558651574
 31
0.0
  0
LINE
  5
2F5C
330
1E
100
AcDbEntity
  8
7
100
AcDbLine
 10
1.895156565834645
 20
4.172258974610235
 30
0.0
 11
1.885969654124016
 21
4.172258974610235
 31
0.0
  0
LINE
  5
2F62
330
1E
100
AcDbEntity
  8
7
100
AcDbLine
 10
2.574988032421259
 20
4.18538313419685
 30
0.0
 11
2.573675616462598
 21
4.190632798031495
 31
0.0
  0
LINE
  5
2F63
330
1E
100
AcDbEntity
  8
7
100
AcDbLine
 10
2.574988032421259
 20
4.18538313419685
 30
0.0
 11
2.582862528173228
 21
4.194570045907481
 31
0.0
  0
LINE
  5
2F64
330
1E
100
AcDbEntity
  8
7
100
AcDbLine
 10
2.521178978116141
 20
4.190632798031495
 30
0.0
 11
2.513304482364173
 21
4.190632798031495
 31
0.0
  0
LINE
  5
2F65
330
1E
100
AcDbEntity
  8
7
100
AcDbLine
 10
2.388624966291339
 20
4.190632798031495
 30
0.0
 11
2.380750470539369
 21
4.190632798031495
 31
0.0
  0
LINE
  5
2F66
330
1E
100
AcDbEntity
  8
7
100
AcDbLine
 10
2.329566248151575
 20
4.190632798031495
 30
0.0
 11
2.328253832192913
 21
4.18538313419685
 31
0.0
  0
LINE
  5
2F67
330
1E
100
AcDbEntity
  8
7
100
AcDbLine
 10
2.328253832192913
 20
4.18538313419685
 30
0.0
 11
2.574988032421259
 21
4.18538313419685
 31
0.0
  0
LINE
  5
2F68
330
1E
100
AcDbEntity
  8
7
100
AcDbLine
 10
2.320379336440944
 20
4.194570045907481
 30
0.0
 11
2.328253832192913
 21
4.18538313419685
 31
0.0
  0
LINE
  5
2F78
330
1E
100
AcDbEntity
  8
7
100
AcDbLine
 10
2.328253832192913
 20
4.177508638444881
 30
0.0
 11
2.328253832192913
 21
4.184070718238189
 31
0.0
  0
LINE
  5
2F79
330
1E
100
AcDbEntity
  8
7
100
AcDbLine
 10
2.328253832192913
 20
4.184070718238189
 30
0.0
 11
2.328253832192913
 21
4.18538313419685
 31
0.0
  0
LINE
  5
2F8E
330
1E
100
AcDbEntity
  8
7
100
AcDbLine
 10
1.057835184208661
 20
4.24050460446063
 30
0.0
 11
1.057835184208661
 21
4.233942524667322
 31
0.0
  0
LINE
  5
2F8F
330
1E
100
AcDbEntity
  8
7
100
AcDbLine
 10
1.057835184208661
 20
4.233942524667322
 30
0.0
 11
1.057835184208661
 21
4.232630108708661
 31
0.0
  0
LINE
  5
2FB3
330
1E
100
AcDbEntity
  8
7
100
AcDbLine
 10
2.697042716576771
 20
5.845589321903544
 30
0.0
 11
2.69573030061811
 21
5.845589321903544
 31
0.0
  0
LINE
  5
2FB4
330
1E
100
AcDbEntity
  8
7
100
AcDbLine
 10
2.697042716576771
 20
4.695912942116141
 30
0.0
 11
2.69573030061811
 21
4.695912942116141
 31
0.0
  0
LINE
  5
2FB5
330
1E
100
AcDbEntity
  8
7
100
AcDbLine
 10
1.736354234836614
 20
4.173571390568898
 30
0.0
 11
1.735041818877952
 21
4.172258974610235
 31
0.0
  0
LINE
  5
2FBB
330
1E
100
AcDbEntity
  8
7
100
AcDbLine
 10
0.8255375595255909
 20
4.173571390568898
 30
0.0
 11
0.8268499754842517
 21
4.172258974610235
 31
0.0
  0
LINE
  5
2FBC
330
1E
100
AcDbEntity
  8
7
100
AcDbLine
 10
0.7966644084350394
 20
4.143385823519684
 30
0.0
 11
0.7953519924763777
 21
4.143385823519684
 31
0.0
  0
LINE
  5
2FBD
330
1E
100
AcDbEntity
  8
7
100
AcDbLine
 10
0.7953519924763777
 20
3.711600973120078
 30
0.0
 11
0.7966644084350394
 21
3.712913389078739
 31
0.0
  0
LINE
  5
2FBE
330
1E
100
AcDbEntity
  8
7
100
AcDbLine
 10
0.8268499754842517
 20
3.682727822029527
 30
0.0
 11
0.8255375595255909
 21
3.681415406070865
 31
0.0
  0
LINE
  5
2FBF
330
1E
100
AcDbEntity
  8
7
100
AcDbLine
 10
2.80728565710433
 20
3.681415406070865
 30
0.0
 11
2.805973241145669
 21
3.682727822029527
 31
0.0
  0
LINE
  5
2FC0
330
1E
100
AcDbEntity
  8
7
100
AcDbLine
 10
2.837471224153543
 20
4.143385823519684
 30
0.0
 11
2.836158808194881
 21
4.143385823519684
 31
0.0
  0
LINE
  5
2FC1
330
1E
100
AcDbEntity
  8
7
100
AcDbLine
 10
2.836158808194881
 20
3.712913389078739
 30
0.0
 11
2.837471224153543
 21
3.711600973120078
 31
0.0
  0
LINE
  5
2FC2
330
1E
100
AcDbEntity
  8
7
100
AcDbLine
 10
2.805973241145669
 20
4.172258974610235
 30
0.0
 11
2.80728565710433
 21
4.173571390568898
 31
0.0
  0
LINE
  5
2FC3
330
1E
100
AcDbEntity
  8
7
100
AcDbLine
 10
1.897781397751968
 20
4.172258974610235
 30
0.0
 11
1.896468981793307
 21
4.173571390568898
 31
0.0
  0
LINE
  5
2FC9
330
1E
100
AcDbEntity
  8
7
100
AcDbLine
 10
3.164262797860236
 20
3.31525135360433
 30
0.0
 11
3.161637965942913
 21
3.317876185521653
 31
0.0
  0
LINE
  5
2FCA
330
1E
100
AcDbEntity
  8
7
100
AcDbLine
 10
0.4711852506870083
 20
3.317876185521653
 30
0.0
 11
0.4685604187696848
 21
3.31525135360433
 31
0.0
  0
LINE
  5
2FCB
330
1E
100
AcDbEntity
  8
7
100
AcDbLine
 10
4.888777367541337
 20
7.753842125797244
 30
0.0
 11
4.888777367541337
 21
3.382184567496062
 31
0.0
  0
LINE
  5
2FD1
330
1E
100
AcDbEntity
  8
7
100
AcDbLine
 10
4.888777367541337
 20
3.382184567496062
 30
0.0
 11
4.786408922765748
 21
3.502926835692913
 31
0.0
  0
LINE
  5
2FD7
330
1E
100
AcDbEntity
  8
7
100
AcDbLine
 10
4.764097851468503
 20
3.502926835692913
 30
0.0
 11
4.77065993126181
 21
3.468804020767716
 31
0.0
  0
LINE
  5
2FD8
330
1E
100
AcDbEntity
  8
7
100
AcDbLine
 10
4.77065993126181
 20
3.468804020767716
 30
0.0
 11
4.787721338724408
 21
3.438618453718503
 31
0.0
  0
LINE
  5
2FE8
330
1E
100
AcDbEntity
  8
7
100
AcDbLine
 10
4.786408922765748
 20
3.438618453718503
 30
0.0
 11
4.888777367541337
 21
3.317876185521653
 31
0.0
  0
LINE
  5
2FF5
330
1E
100
AcDbEntity
  8
7
100
AcDbLine
 10
4.764097851468503
 20
3.502926835692913
 30
0.0
 11
4.764097851468503
 21
7.633099857600393
 31
0.0
  0
LINE
  5
2FF6
330
1E
100
AcDbEntity
  8
7
100
AcDbLine
 10
4.924212598425196
 20
3.317876185521653
 30
0.0
 11
4.892714615417322
 21
3.317876185521653
 31
0.0
  0
LINE
  5
300B
330
1E
100
AcDbEntity
  8
7
100
AcDbLine
 10
5.193257869950786
 20
4.191945213990157
 30
0.0
 11
5.168321966736219
 21
4.191945213990157
 31
0.0
  0
LINE
  5
300C
330
1E
100
AcDbEntity
  8
7
100
AcDbLine
 10
5.218193773165353
 20
4.218193533163385
 30
0.0
 11
5.218193773165353
 21
4.191945213990157
 31
0.0
  0
LINE
  5
301F
330
1E
100
AcDbEntity
  8
7
100
AcDbLine
 10
4.888777367541337
 20
7.818150507771653
 30
0.0
 11
4.892714615417322
 21
7.818150507771653
 31
0.0
  0
LINE
  5
3020
330
1E
100
AcDbEntity
  8
7
100
AcDbLine
 10
4.786408922765748
 20
7.697408239574802
 30
0.0
 11
4.888777367541337
 21
7.818150507771653
 31
0.0
  0
LINE
  5
3021
330
1E
100
AcDbEntity
  8
7
100
AcDbLine
 10
4.892714615417322
 20
7.818150507771653
 30
0.0
 11
4.924212598425196
 21
7.818150507771653
 31
0.0
  0
LINE
  5
3022
330
1E
100
AcDbEntity
  8
7
100
AcDbLine
 10
5.168321966736219
 20
6.932269735675196
 30
0.0
 11
5.168321966736219
 21
6.94408147930315
 31
0.0
  0
LINE
  5
302B
330
1E
100
AcDbEntity
  8
7
100
AcDbLine
 10
4.924212598425196
 20
3.348061752570866
 30
0.0
 11
4.924212598425196
 21
7.78796494072244
 31
0.0
  0
LINE
  5
302C
330
1E
100
AcDbEntity
  8
7
100
AcDbLine
 10
4.924212598425196
 20
3.348061752570866
 30
0.0
 11
5.093514257092519
 21
3.345436920653543
 31
0.0
  0
LINE
  5
302D
330
1E
100
AcDbEntity
  8
7
100
AcDbLine
 10
5.093514257092519
 20
7.791902188598424
 30
0.0
 11
5.093514257092519
 21
3.345436920653543
 31
0.0
  0
LINE
  5
302E
330
1E
100
AcDbEntity
  8
7
100
AcDbLine
 10
5.093514257092519
 20
7.791902188598424
 30
0.0
 11
4.924212598425196
 21
7.78796494072244
 31
0.0
  0
LINE
  5
3048
330
1E
100
AcDbEntity
  8
7
100
AcDbLine
 10
5.218193773165353
 20
6.957205638889764
 30
0.0
 11
5.218193773165353
 21
6.94408147930315
 31
0.0
  0
LINE
  5
3049
330
1E
100
AcDbEntity
  8
7
100
AcDbLine
 10
5.209006861454724
 20
6.966392550600394
 30
0.0
 11
5.218193773165353
 21
6.957205638889764
 31
0.0
  0
LINE
  5
304F
330
1E
100
AcDbEntity
  8
7
100
AcDbLine
 10
5.210319277413385
 20
6.957205638889764
 30
0.0
 11
5.207694445496062
 21
6.958518054848424
 31
0.0
  0
LINE
  5
3055
330
1E
100
AcDbEntity
  8
7
100
AcDbLine
 10
5.210319277413385
 20
6.94408147930315
 30
0.0
 11
5.210319277413385
 21
6.957205638889764
 31
0.0
  0
LINE
  5
3069
330
1E
100
AcDbEntity
  8
7
100
AcDbLine
 10
5.093514257092519
 20
6.983453958062991
 30
0.0
 11
5.209006861454724
 21
6.966392550600394
 31
0.0
  0
LINE
  5
306A
330
1E
100
AcDbEntity
  8
7
100
AcDbLine
 10
5.207694445496062
 20
6.958518054848424
 30
0.0
 11
5.093514257092519
 21
6.975579462311024
 31
0.0
  0
LINE
  5
307A
330
1E
100
AcDbEntity
  8
7
100
AcDbLine
 10
5.207694445496062
 20
6.870586185618109
 30
0.0
 11
5.207694445496062
 21
6.919145576088583
 31
0.0
  0
LINE
  5
3094
330
1E
100
AcDbEntity
  8
7
100
AcDbLine
 10
5.207694445496062
 20
6.841713034527559
 30
0.0
 11
5.207694445496062
 21
6.85089994623819
 31
0.0
  0
LINE
  5
3095
330
1E
100
AcDbEntity
  8
7
100
AcDbLine
 10
5.207694445496062
 20
6.831213706858267
 30
0.0
 11
5.093514257092519
 21
6.828588874940944
 31
0.0
  0
LINE
  5
3096
330
1E
100
AcDbEntity
  8
7
100
AcDbLine
 10
5.093514257092519
 20
6.839088202610236
 30
0.0
 11
5.207694445496062
 21
6.841713034527559
 31
0.0
  0
LINE
  5
3097
330
1E
100
AcDbEntity
  8
7
100
AcDbLine
 10
5.093514257092519
 20
6.938831815468504
 30
0.0
 11
5.209006861454724
 21
6.928332487799213
 31
0.0
  0
LINE
  5
3098
330
1E
100
AcDbEntity
  8
7
100
AcDbLine
 10
5.207694445496062
 20
6.919145576088583
 30
0.0
 11
5.093514257092519
 21
6.928332487799213
 31
0.0
  0
LINE
  5
3099
330
1E
100
AcDbEntity
  8
7
100
AcDbLine
 10
5.093514257092519
 20
6.869273769659448
 30
0.0
 11
5.207694445496062
 21
6.870586185618109
 31
0.0
  0
LINE
  5
309A
330
1E
100
AcDbEntity
  8
7
100
AcDbLine
 10
5.207694445496062
 20
6.86139927390748
 30
0.0
 11
5.093514257092519
 21
6.858774441990156
 31
0.0
  0
LINE
  5
309B
330
1E
100
AcDbEntity
  8
7
100
AcDbLine
 10
5.207694445496062
 20
6.85089994623819
 30
0.0
 11
5.093514257092519
 21
6.849587530279526
 31
0.0
  0
LINE
  5
30A1
330
1E
100
AcDbEntity
  8
7
100
AcDbLine
 10
5.210319277413385
 20
4.178821054403544
 30
0.0
 11
5.210319277413385
 21
4.191945213990157
 31
0.0
  0
LINE
  5
30AC
330
1E
100
AcDbEntity
  8
7
100
AcDbLine
 10
5.207694445496062
 20
4.177508638444881
 30
0.0
 11
5.210319277413385
 21
4.178821054403544
 31
0.0
  0
LINE
  5
30B4
330
1E
100
AcDbEntity
  8
7
100
AcDbLine
 10
5.287751818974409
 20
5.819341002730315
 30
0.0
 11
5.287751818974409
 21
5.807529259102361
 31
0.0
  0
LINE
  5
30BB
330
1E
100
AcDbEntity
  8
7
100
AcDbLine
 10
5.274627659387794
 20
5.88889904853937
 30
0.0
 11
5.274627659387794
 21
5.860025897448818
 31
0.0
  0
LINE
  5
30BC
330
1E
100
AcDbEntity
  8
7
100
AcDbLine
 10
5.274627659387794
 20
5.88889904853937
 30
0.0
 11
5.283814571098425
 21
5.88889904853937
 31
0.0
  0
LINE
  5
30C2
330
1E
100
AcDbEntity
  8
7
100
AcDbLine
 10
5.311375306230313
 20
5.882336968746063
 30
0.0
 11
5.283814571098425
 21
5.88889904853937
 31
0.0
  0
LINE
  5
30C3
330
1E
100
AcDbEntity
  8
7
100
AcDbLine
 10
5.38224576799803
 20
5.808841675061024
 30
0.0
 11
5.357309864783464
 21
5.846901737862205
 31
0.0
  0
LINE
  5
30C9
330
1E
100
AcDbEntity
  8
7
100
AcDbLine
 10
5.430805158468503
 20
5.783905771846456
 30
0.0
 11
5.505612868112204
 21
5.782593355887795
 31
0.0
  0
LINE
  5
30CF
330
1E
100
AcDbEntity
  8
7
100
AcDbLine
 10
5.520049443657478
 20
5.768156780342519
 30
0.0
 11
5.520049443657478
 21
5.747158125003937
 31
0.0
  0
LINE
  5
30D0
330
1E
100
AcDbEntity
  8
7
100
AcDbLine
 10
5.287751818974409
 20
4.668352206984252
 30
0.0
 11
5.287751818974409
 21
4.657852879314961
 31
0.0
  0
LINE
  5
30D7
330
1E
100
AcDbEntity
  8
7
100
AcDbLine
 10
5.274627659387794
 20
4.739222668751968
 30
0.0
 11
5.274627659387794
 21
4.710349517661417
 31
0.0
  0
LINE
  5
30D8
330
1E
100
AcDbEntity
  8
7
100
AcDbLine
 10
5.274627659387794
 20
4.739222668751968
 30
0.0
 11
5.283814571098425
 21
4.737910252793307
 31
0.0
  0
LINE
  5
30DF
330
1E
100
AcDbEntity
  8
7
100
AcDbLine
 10
5.38224576799803
 20
4.659165295273622
 30
0.0
 11
5.357309864783464
 21
4.695912942116141
 31
0.0
  0
LINE
  5
30E5
330
1E
100
AcDbEntity
  8
7
100
AcDbLine
 10
5.430805158468503
 20
4.634229392059054
 30
0.0
 11
5.505612868112204
 21
4.632916976100394
 31
0.0
  0
LINE
  5
30E6
330
1E
100
AcDbEntity
  8
7
100
AcDbLine
 10
5.520049443657478
 20
4.617167984596457
 30
0.0
 11
5.514799779822833
 21
4.627667312265748
 31
0.0
  0
LINE
  5
30E7
330
1E
100
AcDbEntity
  8
7
100
AcDbLine
 10
5.514799779822833
 20
4.627667312265748
 30
0.0
 11
5.505612868112204
 21
4.632916976100394
 31
0.0
  0
LINE
  5
30E8
330
1E
100
AcDbEntity
  8
7
100
AcDbLine
 10
5.520049443657478
 20
4.617167984596457
 30
0.0
 11
5.520049443657478
 21
4.596169329257874
 31
0.0
  0
LINE
  5
30F8
330
1E
100
AcDbEntity
  8
7
100
AcDbLine
 10
5.106638416679133
 20
6.759030829131889
 30
0.0
 11
5.106638416679133
 21
6.718345934413385
 31
0.0
  0
LINE
  5
3103
330
1E
100
AcDbEntity
  8
7
100
AcDbLine
 10
5.106638416679133
 20
4.458365653598424
 30
0.0
 11
5.106638416679133
 21
4.417680758879921
 31
0.0
  0
LINE
  5
310E
330
1E
100
AcDbEntity
  8
7
100
AcDbLine
 10
5.106638416679133
 20
5.609354449344487
 30
0.0
 11
5.106638416679133
 21
5.567357138667322
 31
0.0
  0
LINE
  5
3123
330
1E
100
AcDbEntity
  8
7
100
AcDbLine
 10
5.207694445496062
 20
4.218193533163385
 30
0.0
 11
5.207694445496062
 21
4.265440507675196
 31
0.0
  0
LINE
  5
3133
330
1E
100
AcDbEntity
  8
7
100
AcDbLine
 10
5.093514257092519
 20
4.161759646940944
 30
0.0
 11
5.207694445496062
 21
4.177508638444881
 31
0.0
  0
LINE
  5
3134
330
1E
100
AcDbEntity
  8
7
100
AcDbLine
 10
5.209006861454724
 20
4.169634142692913
 30
0.0
 11
5.093514257092519
 21
4.152572735230315
 31
0.0
  0
LINE
  5
3144
330
1E
100
AcDbEntity
  8
7
100
AcDbLine
 10
5.207694445496062
 20
4.285126747055118
 30
0.0
 11
5.207694445496062
 21
4.295626074724409
 31
0.0
  0
LINE
  5
3154
330
1E
100
AcDbEntity
  8
7
100
AcDbLine
 10
5.093514257092519
 20
5.787843019722441
 30
0.0
 11
5.273315243429133
 21
5.793092683557087
 31
0.0
  0
LINE
  5
3155
330
1E
100
AcDbEntity
  8
7
100
AcDbLine
 10
5.505612868112204
 20
5.7314091335
 30
0.0
 11
5.093514257092519
 21
5.702535982409449
 31
0.0
  0
LINE
  5
315B
330
1E
100
AcDbEntity
  8
7
100
AcDbLine
 10
5.093514257092519
 20
4.638166639935039
 30
0.0
 11
5.273315243429133
 21
4.642103887811024
 31
0.0
  0
LINE
  5
315C
330
1E
100
AcDbEntity
  8
7
100
AcDbLine
 10
5.505612868112204
 20
4.581732753712598
 30
0.0
 11
5.093514257092519
 21
4.552859602622046
 31
0.0
  0
LINE
  5
315D
330
1E
100
AcDbEntity
  8
7
100
AcDbLine
 10
5.106638416679133
 20
6.718345934413385
 30
0.0
 11
5.093514257092519
 21
6.710471438661418
 31
0.0
  0
LINE
  5
315E
330
1E
100
AcDbEntity
  8
7
100
AcDbLine
 10
5.106638416679133
 20
4.417680758879921
 30
0.0
 11
5.093514257092519
 21
4.409806263127952
 31
0.0
  0
LINE
  5
315F
330
1E
100
AcDbEntity
  8
7
100
AcDbLine
 10
5.106638416679133
 20
5.567357138667322
 30
0.0
 11
5.093514257092519
 21
5.560795058874015
 31
0.0
  0
LINE
  5
3160
330
1E
100
AcDbEntity
  8
7
100
AcDbLine
 10
5.207694445496062
 20
4.265440507675196
 30
0.0
 11
5.093514257092519
 21
4.266752923633858
 31
0.0
  0
LINE
  5
3161
330
1E
100
AcDbEntity
  8
7
100
AcDbLine
 10
5.093514257092519
 20
4.277252251303149
 30
0.0
 11
5.207694445496062
 21
4.274627419385826
 31
0.0
  0
LINE
  5
3162
330
1E
100
AcDbEntity
  8
7
100
AcDbLine
 10
5.093514257092519
 20
4.207694205494094
 30
0.0
 11
5.207694445496062
 21
4.218193533163385
 31
0.0
  0
LINE
  5
3163
330
1E
100
AcDbEntity
  8
7
100
AcDbLine
 10
5.209006861454724
 20
4.207694205494094
 30
0.0
 11
5.093514257092519
 21
4.197194877824802
 31
0.0
  0
LINE
  5
3164
330
1E
100
AcDbEntity
  8
7
100
AcDbLine
 10
5.093514257092519
 20
4.307437818352362
 30
0.0
 11
5.207694445496062
 21
4.304812986435039
 31
0.0
  0
LINE
  5
3165
330
1E
100
AcDbEntity
  8
7
100
AcDbLine
 10
5.207694445496062
 20
4.295626074724409
 30
0.0
 11
5.093514257092519
 21
4.29693849068307
 31
0.0
  0
LINE
  5
3166
330
1E
100
AcDbEntity
  8
7
100
AcDbLine
 10
5.093514257092519
 20
4.287751578972441
 30
0.0
 11
5.207694445496062
 21
4.285126747055118
 31
0.0
  0
LINE
  5
3167
330
1E
100
AcDbEntity
  8
7
100
AcDbLine
 10
5.093514257092519
 20
3.31525135360433
 30
0.0
 11
4.924212598425196
 21
3.317876185521653
 31
0.0
  0
LINE
  5
3A52
330
1E
100
AcDbEntity
  8
7
100
AcDbLine
 10
5.273315243429133
 20
4.642103887811024
 30
0.0
 11
5.283814571098425
 21
4.647353551645669
 31
0.0
  0
LINE
  5
3A53
330
1E
100
AcDbEntity
  8
7
100
AcDbLine
 10
5.283814571098425
 20
4.647353551645669
 30
0.0
 11
5.287751818974409
 21
4.657852879314961
 31
0.0
  0
LINE
  5
3A54
330
1E
100
AcDbEntity
  8
7
100
AcDbLine
 10
5.273315243429133
 20
5.793092683557087
 30
0.0
 11
5.283814571098425
 21
5.79702993143307
 31
0.0
  0
LINE
  5
3A55
330
1E
100
AcDbEntity
  8
7
100
AcDbLine
 10
5.283814571098425
 20
5.79702993143307
 30
0.0
 11
5.287751818974409
 21
5.807529259102361
 31
0.0
  0
LINE
  5
3A56
330
1E
100
AcDbEntity
  8
7
100
AcDbLine
 10
5.207694445496062
 20
4.274627419385826
 30
0.0
 11
5.207694445496062
 21
4.278564667261811
 31
0.0
  0
LINE
  5
3A57
330
1E
100
AcDbEntity
  8
7
100
AcDbLine
 10
5.207694445496062
 20
4.278564667261811
 30
0.0
 11
5.207694445496062
 21
4.285126747055118
 31
0.0
  0
LINE
  5
3A58
330
1E
100
AcDbEntity
  8
7
100
AcDbLine
 10
5.207694445496062
 20
4.285126747055118
 30
0.0
 11
5.21425652528937
 21
4.285126747055118
 31
0.0
  0
LINE
  5
3A59
330
1E
100
AcDbEntity
  8
7
100
AcDbLine
 10
5.21425652528937
 20
4.285126747055118
 30
0.0
 11
5.218193773165353
 21
4.285126747055118
 31
0.0
  0
LINE
  5
3A5A
330
1E
100
AcDbEntity
  8
7
100
AcDbLine
 10
5.207694445496062
 20
4.295626074724409
 30
0.0
 11
5.21425652528937
 21
4.295626074724409
 31
0.0
  0
LINE
  5
3A5B
330
1E
100
AcDbEntity
  8
7
100
AcDbLine
 10
5.21425652528937
 20
4.295626074724409
 30
0.0
 11
5.218193773165353
 21
4.295626074724409
 31
0.0
  0
LINE
  5
3A5C
330
1E
100
AcDbEntity
  8
7
100
AcDbLine
 10
5.207694445496062
 20
4.295626074724409
 30
0.0
 11
5.207694445496062
 21
4.302188154517716
 31
0.0
  0
LINE
  5
3A5D
330
1E
100
AcDbEntity
  8
7
100
AcDbLine
 10
5.207694445496062
 20
4.302188154517716
 30
0.0
 11
5.207694445496062
 21
4.304812986435039
 31
0.0
  0
LINE
  5
3A5E
330
1E
100
AcDbEntity
  8
7
100
AcDbLine
 10
5.216881357206692
 20
4.295626074724409
 30
0.0
 11
5.21425652528937
 21
4.302188154517716
 31
0.0
  0
LINE
  5
3A5F
330
1E
100
AcDbEntity
  8
7
100
AcDbLine
 10
5.21425652528937
 20
4.302188154517716
 30
0.0
 11
5.207694445496062
 21
4.304812986435039
 31
0.0
  0
LINE
  5
3A60
330
1E
100
AcDbEntity
  8
7
100
AcDbLine
 10
5.209006861454724
 20
4.209006621452755
 30
0.0
 11
5.21425652528937
 21
4.211631453370078
 31
0.0
  0
LINE
  5
3A61
330
1E
100
AcDbEntity
  8
7
100
AcDbLine
 10
5.21425652528937
 20
4.211631453370078
 30
0.0
 11
5.216881357206692
 21
4.218193533163385
 31
0.0
  0
LINE
  5
3A62
330
1E
100
AcDbEntity
  8
7
100
AcDbLine
 10
5.209006861454724
 20
4.207694205494094
 30
0.0
 11
5.209006861454724
 21
4.210319037411417
 31
0.0
  0
LINE
  5
3A63
330
1E
100
AcDbEntity
  8
7
100
AcDbLine
 10
5.209006861454724
 20
4.210319037411417
 30
0.0
 11
5.207694445496062
 21
4.218193533163385
 31
0.0
  0
LINE
  5
3A64
330
1E
100
AcDbEntity
  8
7
100
AcDbLine
 10
5.207694445496062
 20
4.218193533163385
 30
0.0
 11
5.21425652528937
 21
4.218193533163385
 31
0.0
  0
LINE
  5
3A65
330
1E
100
AcDbEntity
  8
7
100
AcDbLine
 10
5.21425652528937
 20
4.218193533163385
 30
0.0
 11
5.218193773165353
 21
4.218193533163385
 31
0.0
  0
LINE
  5
3A66
330
1E
100
AcDbEntity
  8
7
100
AcDbLine
 10
5.216881357206692
 20
4.265440507675196
 30
0.0
 11
5.21425652528937
 21
4.272002587468504
 31
0.0
  0
LINE
  5
3A67
330
1E
100
AcDbEntity
  8
7
100
AcDbLine
 10
5.21425652528937
 20
4.272002587468504
 30
0.0
 11
5.207694445496062
 21
4.274627419385826
 31
0.0
  0
LINE
  5
3A68
330
1E
100
AcDbEntity
  8
7
100
AcDbLine
 10
5.207694445496062
 20
4.265440507675196
 30
0.0
 11
5.21425652528937
 21
4.265440507675196
 31
0.0
  0
LINE
  5
3A69
330
1E
100
AcDbEntity
  8
7
100
AcDbLine
 10
5.21425652528937
 20
4.265440507675196
 30
0.0
 11
5.218193773165353
 21
4.265440507675196
 31
0.0
  0
LINE
  5
3A6A
330
1E
100
AcDbEntity
  8
7
100
AcDbLine
 10
5.207694445496062
 20
4.265440507675196
 30
0.0
 11
5.207694445496062
 21
4.272002587468504
 31
0.0
  0
LINE
  5
3A6B
330
1E
100
AcDbEntity
  8
7
100
AcDbLine
 10
5.207694445496062
 20
4.272002587468504
 30
0.0
 11
5.207694445496062
 21
4.274627419385826
 31
0.0
  0
LINE
  5
3A6C
330
1E
100
AcDbEntity
  8
7
100
AcDbLine
 10
5.093514257092519
 20
5.609354449344487
 30
0.0
 11
5.10401358476181
 21
5.609354449344487
 31
0.0
  0
LINE
  5
3A6D
330
1E
100
AcDbEntity
  8
7
100
AcDbLine
 10
5.10401358476181
 20
5.609354449344487
 30
0.0
 11
5.106638416679133
 21
5.609354449344487
 31
0.0
  0
LINE
  5
3A6E
330
1E
100
AcDbEntity
  8
7
100
AcDbLine
 10
5.106638416679133
 20
5.567357138667322
 30
0.0
 11
5.10401358476181
 21
5.567357138667322
 31
0.0
  0
LINE
  5
3A6F
330
1E
100
AcDbEntity
  8
7
100
AcDbLine
 10
5.10401358476181
 20
5.567357138667322
 30
0.0
 11
5.093514257092519
 21
5.567357138667322
 31
0.0
  0
LINE
  5
3A70
330
1E
100
AcDbEntity
  8
7
100
AcDbLine
 10
5.093514257092519
 20
4.459678069557087
 30
0.0
 11
5.10401358476181
 21
4.458365653598424
 31
0.0
  0
LINE
  5
3A71
330
1E
100
AcDbEntity
  8
7
100
AcDbLine
 10
5.10401358476181
 20
4.458365653598424
 30
0.0
 11
5.106638416679133
 21
4.458365653598424
 31
0.0
  0
LINE
  5
3A72
330
1E
100
AcDbEntity
  8
7
100
AcDbLine
 10
5.106638416679133
 20
4.417680758879921
 30
0.0
 11
5.10401358476181
 21
4.417680758879921
 31
0.0
  0
LINE
  5
3A73
330
1E
100
AcDbEntity
  8
7
100
AcDbLine
 10
5.10401358476181
 20
4.417680758879921
 30
0.0
 11
5.093514257092519
 21
4.417680758879921
 31
0.0
  0
LINE
  5
3A74
330
1E
100
AcDbEntity
  8
7
100
AcDbLine
 10
5.093514257092519
 20
6.759030829131889
 30
0.0
 11
5.10401358476181
 21
6.759030829131889
 31
0.0
  0
LINE
  5
3A75
330
1E
100
AcDbEntity
  8
7
100
AcDbLine
 10
5.10401358476181
 20
6.759030829131889
 30
0.0
 11
5.106638416679133
 21
6.759030829131889
 31
0.0
  0
LINE
  5
3A76
330
1E
100
AcDbEntity
  8
7
100
AcDbLine
 10
5.106638416679133
 20
6.718345934413385
 30
0.0
 11
5.10401358476181
 21
6.718345934413385
 31
0.0
  0
LINE
  5
3A77
330
1E
100
AcDbEntity
  8
7
100
AcDbLine
 10
5.10401358476181
 20
6.718345934413385
 30
0.0
 11
5.093514257092519
 21
6.717033518454724
 31
0.0
  0
LINE
  5
3A78
330
1E
100
AcDbEntity
  8
7
100
AcDbLine
 10
5.505612868112204
 20
5.7314091335
 30
0.0
 11
5.516112195781495
 21
5.736658797334645
 31
0.0
  0
LINE
  5
3A79
330
1E
100
AcDbEntity
  8
7
100
AcDbLine
 10
5.516112195781495
 20
5.736658797334645
 30
0.0
 11
5.520049443657478
 21
5.747158125003937
 31
0.0
  0
LINE
  5
3A7A
330
1E
100
AcDbEntity
  8
7
100
AcDbLine
 10
5.505612868112204
 20
4.581732753712598
 30
0.0
 11
5.516112195781495
 21
4.586982417547243
 31
0.0
  0
LINE
  5
3A7B
330
1E
100
AcDbEntity
  8
7
100
AcDbLine
 10
5.516112195781495
 20
4.586982417547243
 30
0.0
 11
5.520049443657478
 21
4.596169329257874
 31
0.0
  0
LINE
  5
3A7C
330
1E
100
AcDbEntity
  8
7
100
AcDbLine
 10
5.430805158468503
 20
4.634229392059054
 30
0.0
 11
5.403244423336613
 21
4.640791471852361
 31
0.0
  0
LINE
  5
3A7D
330
1E
100
AcDbEntity
  8
7
100
AcDbLine
 10
5.403244423336613
 20
4.640791471852361
 30
0.0
 11
5.38224576799803
 21
4.659165295273622
 31
0.0
  0
LINE
  5
3A7E
330
1E
100
AcDbEntity
  8
7
100
AcDbLine
 10
5.357309864783464
 20
4.695912942116141
 30
0.0
 11
5.337623625403542
 21
4.716911597454724
 31
0.0
  0
LINE
  5
3A7F
330
1E
100
AcDbEntity
  8
7
100
AcDbLine
 10
5.337623625403542
 20
4.716911597454724
 30
0.0
 11
5.311375306230313
 21
4.731348173
 31
0.0
  0
LINE
  5
3A80
330
1E
100
AcDbEntity
  8
7
100
AcDbLine
 10
5.311375306230313
 20
4.731348173
 30
0.0
 11
5.283814571098425
 21
4.737910252793307
 31
0.0
  0
LINE
  5
3A81
330
1E
100
AcDbEntity
  8
7
100
AcDbLine
 10
5.287751818974409
 20
4.668352206984252
 30
0.0
 11
5.286439403015748
 21
4.688038446364172
 31
0.0
  0
LINE
  5
3A82
330
1E
100
AcDbEntity
  8
7
100
AcDbLine
 10
5.286439403015748
 20
4.688038446364172
 30
0.0
 11
5.277252491305118
 21
4.705099853826771
 31
0.0
  0
LINE
  5
3A83
330
1E
100
AcDbEntity
  8
7
100
AcDbLine
 10
5.277252491305118
 20
4.705099853826771
 30
0.0
 11
5.274627659387794
 21
4.710349517661417
 31
0.0
  0
LINE
  5
3A84
330
1E
100
AcDbEntity
  8
7
100
AcDbLine
 10
5.520049443657478
 20
5.768156780342519
 30
0.0
 11
5.514799779822833
 21
5.77865610801181
 31
0.0
  0
LINE
  5
3A85
330
1E
100
AcDbEntity
  8
7
100
AcDbLine
 10
5.514799779822833
 20
5.77865610801181
 30
0.0
 11
5.505612868112204
 21
5.782593355887795
 31
0.0
  0
LINE
  5
3A86
330
1E
100
AcDbEntity
  8
7
100
AcDbLine
 10
5.430805158468503
 20
5.783905771846456
 30
0.0
 11
5.403244423336613
 21
5.790467851639763
 31
0.0
  0
LINE
  5
3A87
330
1E
100
AcDbEntity
  8
7
100
AcDbLine
 10
5.403244423336613
 20
5.790467851639763
 30
0.0
 11
5.38224576799803
 21
5.808841675061024
 31
0.0
  0
LINE
  5
3A88
330
1E
100
AcDbEntity
  8
7
100
AcDbLine
 10
5.357309864783464
 20
5.846901737862205
 30
0.0
 11
5.337623625403542
 21
5.867900393200788
 31
0.0
  0
LINE
  5
3A89
330
1E
100
AcDbEntity
  8
7
100
AcDbLine
 10
5.337623625403542
 20
5.867900393200788
 30
0.0
 11
5.311375306230313
 21
5.882336968746063
 31
0.0
  0
LINE
  5
3A8A
330
1E
100
AcDbEntity
  8
7
100
AcDbLine
 10
5.287751818974409
 20
5.819341002730315
 30
0.0
 11
5.286439403015748
 21
5.837714826151574
 31
0.0
  0
LINE
  5
3A8B
330
1E
100
AcDbEntity
  8
7
100
AcDbLine
 10
5.286439403015748
 20
5.837714826151574
 30
0.0
 11
5.277252491305118
 21
5.854776233614172
 31
0.0
  0
LINE
  5
3A8C
330
1E
100
AcDbEntity
  8
7
100
AcDbLine
 10
5.277252491305118
 20
5.854776233614172
 30
0.0
 11
5.274627659387794
 21
5.860025897448818
 31
0.0
  0
LINE
  5
3A8D
330
1E
100
AcDbEntity
  8
7
100
AcDbLine
 10
5.218193773165353
 20
4.295626074724409
 30
0.0
 11
5.218193773165353
 21
4.285126747055118
 31
0.0
  0
LINE
  5
3A8E
330
1E
100
AcDbEntity
  8
7
100
AcDbLine
 10
5.218193773165353
 20
4.285126747055118
 30
0.0
 11
5.218193773165353
 21
4.270690171509841
 31
0.0
  0
LINE
  5
3A8F
330
1E
100
AcDbEntity
  8
7
100
AcDbLine
 10
5.218193773165353
 20
4.270690171509841
 30
0.0
 11
5.218193773165353
 21
4.265440507675196
 31
0.0
  0
LINE
  5
3A90
330
1E
100
AcDbEntity
  8
7
100
AcDbLine
 10
5.218193773165353
 20
4.265440507675196
 30
0.0
 11
5.218193773165353
 21
4.218193533163385
 31
0.0
  0
LINE
  5
3A91
330
1E
100
AcDbEntity
  8
7
100
AcDbLine
 10
5.207694445496062
 20
4.177508638444881
 30
0.0
 11
5.209006861454724
 21
4.172258974610235
 31
0.0
  0
LINE
  5
3A92
330
1E
100
AcDbEntity
  8
7
100
AcDbLine
 10
5.209006861454724
 20
4.172258974610235
 30
0.0
 11
5.209006861454724
 21
4.169634142692913
 31
0.0
  0
LINE
  5
3A93
330
1E
100
AcDbEntity
  8
7
100
AcDbLine
 10
5.210319277413385
 20
4.178821054403544
 30
0.0
 11
5.21556894124803
 21
4.178821054403544
 31
0.0
  0
LINE
  5
3A94
330
1E
100
AcDbEntity
  8
7
100
AcDbLine
 10
5.21556894124803
 20
4.178821054403544
 30
0.0
 11
5.218193773165353
 21
4.178821054403544
 31
0.0
  0
LINE
  5
3A95
330
1E
100
AcDbEntity
  8
7
100
AcDbLine
 10
5.218193773165353
 20
4.191945213990157
 30
0.0
 11
5.218193773165353
 21
4.178821054403544
 31
0.0
  0
LINE
  5
3A96
330
1E
100
AcDbEntity
  8
7
100
AcDbLine
 10
5.218193773165353
 20
4.178821054403544
 30
0.0
 11
5.209006861454724
 21
4.169634142692913
 31
0.0
  0
LINE
  5
3A97
330
1E
100
AcDbEntity
  8
7
100
AcDbLine
 10
5.218193773165353
 20
6.85089994623819
 30
0.0
 11
5.21425652528937
 21
6.85089994623819
 31
0.0
  0
LINE
  5
3A98
330
1E
100
AcDbEntity
  8
7
100
AcDbLine
 10
5.21425652528937
 20
6.85089994623819
 30
0.0
 11
5.207694445496062
 21
6.85089994623819
 31
0.0
  0
LINE
  5
3A99
330
1E
100
AcDbEntity
  8
7
100
AcDbLine
 10
5.207694445496062
 20
6.85089994623819
 30
0.0
 11
5.207694445496062
 21
6.858774441990156
 31
0.0
  0
LINE
  5
3A9A
330
1E
100
AcDbEntity
  8
7
100
AcDbLine
 10
5.207694445496062
 20
6.858774441990156
 30
0.0
 11
5.207694445496062
 21
6.86139927390748
 31
0.0
  0
LINE
  5
3A9B
330
1E
100
AcDbEntity
  8
7
100
AcDbLine
 10
5.207694445496062
 20
6.86139927390748
 30
0.0
 11
5.21425652528937
 21
6.864024105824802
 31
0.0
  0
LINE
  5
3A9C
330
1E
100
AcDbEntity
  8
7
100
AcDbLine
 10
5.21425652528937
 20
6.864024105824802
 30
0.0
 11
5.216881357206692
 21
6.870586185618109
 31
0.0
  0
LINE
  5
3A9D
330
1E
100
AcDbEntity
  8
7
100
AcDbLine
 10
5.207694445496062
 20
6.86139927390748
 30
0.0
 11
5.207694445496062
 21
6.864024105824802
 31
0.0
  0
LINE
  5
3A9E
330
1E
100
AcDbEntity
  8
7
100
AcDbLine
 10
5.207694445496062
 20
6.864024105824802
 30
0.0
 11
5.207694445496062
 21
6.870586185618109
 31
0.0
  0
LINE
  5
3A9F
330
1E
100
AcDbEntity
  8
7
100
AcDbLine
 10
5.218193773165353
 20
6.870586185618109
 30
0.0
 11
5.21425652528937
 21
6.870586185618109
 31
0.0
  0
LINE
  5
3AA0
330
1E
100
AcDbEntity
  8
7
100
AcDbLine
 10
5.21425652528937
 20
6.870586185618109
 30
0.0
 11
5.207694445496062
 21
6.870586185618109
 31
0.0
  0
LINE
  5
3AA1
330
1E
100
AcDbEntity
  8
7
100
AcDbLine
 10
5.218193773165353
 20
6.919145576088583
 30
0.0
 11
5.21425652528937
 21
6.919145576088583
 31
0.0
  0
LINE
  5
3AA2
330
1E
100
AcDbEntity
  8
7
100
AcDbLine
 10
5.21425652528937
 20
6.919145576088583
 30
0.0
 11
5.207694445496062
 21
6.919145576088583
 31
0.0
  0
LINE
  5
3AA3
330
1E
100
AcDbEntity
  8
7
100
AcDbLine
 10
5.207694445496062
 20
6.919145576088583
 30
0.0
 11
5.209006861454724
 21
6.92570765588189
 31
0.0
  0
LINE
  5
3AA4
330
1E
100
AcDbEntity
  8
7
100
AcDbLine
 10
5.209006861454724
 20
6.92570765588189
 30
0.0
 11
5.209006861454724
 21
6.928332487799213
 31
0.0
  0
LINE
  5
3AA5
330
1E
100
AcDbEntity
  8
7
100
AcDbLine
 10
5.216881357206692
 20
6.919145576088583
 30
0.0
 11
5.21425652528937
 21
6.92570765588189
 31
0.0
  0
LINE
  5
3AA6
330
1E
100
AcDbEntity
  8
7
100
AcDbLine
 10
5.21425652528937
 20
6.92570765588189
 30
0.0
 11
5.209006861454724
 21
6.928332487799213
 31
0.0
  0
LINE
  5
3AA7
330
1E
100
AcDbEntity
  8
7
100
AcDbLine
 10
5.207694445496062
 20
6.832526122816929
 30
0.0
 11
5.21425652528937
 21
6.835150954734253
 31
0.0
  0
LINE
  5
3AA8
330
1E
100
AcDbEntity
  8
7
100
AcDbLine
 10
5.21425652528937
 20
6.835150954734253
 30
0.0
 11
5.216881357206692
 21
6.841713034527559
 31
0.0
  0
LINE
  5
3AA9
330
1E
100
AcDbEntity
  8
7
100
AcDbLine
 10
5.207694445496062
 20
6.831213706858267
 30
0.0
 11
5.207694445496062
 21
6.833838538775589
 31
0.0
  0
LINE
  5
3AAA
330
1E
100
AcDbEntity
  8
7
100
AcDbLine
 10
5.207694445496062
 20
6.833838538775589
 30
0.0
 11
5.207694445496062
 21
6.841713034527559
 31
0.0
  0
LINE
  5
3AAB
330
1E
100
AcDbEntity
  8
7
100
AcDbLine
 10
5.218193773165353
 20
6.919145576088583
 30
0.0
 11
5.218193773165353
 21
6.870586185618109
 31
0.0
  0
LINE
  5
3AAC
330
1E
100
AcDbEntity
  8
7
100
AcDbLine
 10
5.218193773165353
 20
6.870586185618109
 30
0.0
 11
5.218193773165353
 21
6.865336521783463
 31
0.0
  0
LINE
  5
3AAD
330
1E
100
AcDbEntity
  8
7
100
AcDbLine
 10
5.218193773165353
 20
6.865336521783463
 30
0.0
 11
5.218193773165353
 21
6.85089994623819
 31
0.0
  0
LINE
  5
3AAE
330
1E
100
AcDbEntity
  8
7
100
AcDbLine
 10
5.218193773165353
 20
6.85089994623819
 30
0.0
 11
5.218193773165353
 21
6.841713034527559
 31
0.0
  0
LINE
  5
3AAF
330
1E
100
AcDbEntity
  8
7
100
AcDbLine
 10
5.218193773165353
 20
6.841713034527559
 30
0.0
 11
5.21425652528937
 21
6.841713034527559
 31
0.0
  0
LINE
  5
3AB0
330
1E
100
AcDbEntity
  8
7
100
AcDbLine
 10
5.21425652528937
 20
6.841713034527559
 30
0.0
 11
5.207694445496062
 21
6.841713034527559
 31
0.0
  0
LINE
  5
3AB1
330
1E
100
AcDbEntity
  8
7
100
AcDbLine
 10
5.218193773165353
 20
6.957205638889764
 30
0.0
 11
5.21556894124803
 21
6.957205638889764
 31
0.0
  0
LINE
  5
3AB2
330
1E
100
AcDbEntity
  8
7
100
AcDbLine
 10
5.21556894124803
 20
6.957205638889764
 30
0.0
 11
5.210319277413385
 21
6.957205638889764
 31
0.0
  0
LINE
  5
3AB3
330
1E
100
AcDbEntity
  8
7
100
AcDbLine
 10
5.209006861454724
 20
6.966392550600394
 30
0.0
 11
5.209006861454724
 21
6.965080134641732
 31
0.0
  0
LINE
  5
3AB4
330
1E
100
AcDbEntity
  8
7
100
AcDbLine
 10
5.209006861454724
 20
6.965080134641732
 30
0.0
 11
5.207694445496062
 21
6.958518054848424
 31
0.0
  0
LINE
  5
3AB5
330
1E
100
AcDbEntity
  8
7
100
AcDbLine
 10
5.093514257092519
 20
7.820775339688976
 30
0.0
 11
5.093514257092519
 21
7.816838091812991
 31
0.0
  0
LINE
  5
3AB6
330
1E
100
AcDbEntity
  8
7
100
AcDbLine
 10
5.093514257092519
 20
7.816838091812991
 30
0.0
 11
5.093514257092519
 21
7.806338764143701
 31
0.0
  0
LINE
  5
3AB7
330
1E
100
AcDbEntity
  8
7
100
AcDbLine
 10
5.093514257092519
 20
7.806338764143701
 30
0.0
 11
5.093514257092519
 21
7.791902188598424
 31
0.0
  0
LINE
  5
3AB8
330
1E
100
AcDbEntity
  8
7
100
AcDbLine
 10
5.093514257092519
 20
3.345436920653543
 30
0.0
 11
5.093514257092519
 21
3.329687929149605
 31
0.0
  0
LINE
  5
3AB9
330
1E
100
AcDbEntity
  8
7
100
AcDbLine
 10
5.093514257092519
 20
3.329687929149605
 30
0.0
 11
5.093514257092519
 21
3.319188601480314
 31
0.0
  0
LINE
  5
3ABA
330
1E
100
AcDbEntity
  8
7
100
AcDbLine
 10
5.093514257092519
 20
3.319188601480314
 30
0.0
 11
5.093514257092519
 21
3.31525135360433
 31
0.0
  0
LINE
  5
3ABB
330
1E
100
AcDbEntity
  8
7
100
AcDbLine
 10
4.924212598425196
 20
7.78796494072244
 30
0.0
 11
4.924212598425196
 21
7.803713932226377
 31
0.0
  0
LINE
  5
3ABC
330
1E
100
AcDbEntity
  8
7
100
AcDbLine
 10
4.924212598425196
 20
7.803713932226377
 30
0.0
 11
4.924212598425196
 21
7.814213259895669
 31
0.0
  0
LINE
  5
3ABD
330
1E
100
AcDbEntity
  8
7
100
AcDbLine
 10
4.924212598425196
 20
7.814213259895669
 30
0.0
 11
4.924212598425196
 21
7.818150507771653
 31
0.0
  0
LINE
  5
3ABE
330
1E
100
AcDbEntity
  8
7
100
AcDbLine
 10
4.924212598425196
 20
7.818150507771653
 30
0.0
 11
5.093514257092519
 21
7.820775339688976
 31
0.0
  0
LINE
  5
3ABF
330
1E
100
AcDbEntity
  8
7
100
AcDbLine
 10
4.924212598425196
 20
3.317876185521653
 30
0.0
 11
4.924212598425196
 21
3.321813433397637
 31
0.0
  0
LINE
  5
3AC0
330
1E
100
AcDbEntity
  8
7
100
AcDbLine
 10
4.924212598425196
 20
3.321813433397637
 30
0.0
 11
4.924212598425196
 21
3.33362517702559
 31
0.0
  0
LINE
  5
3AC1
330
1E
100
AcDbEntity
  8
7
100
AcDbLine
 10
4.924212598425196
 20
3.33362517702559
 30
0.0
 11
4.924212598425196
 21
3.348061752570866
 31
0.0
  0
LINE
  5
3AC2
330
1E
100
AcDbEntity
  8
7
100
AcDbLine
 10
5.093514257092519
 20
6.94408147930315
 30
0.0
 11
5.168321966736219
 21
6.94408147930315
 31
0.0
  0
LINE
  5
3AC3
330
1E
100
AcDbEntity
  8
7
100
AcDbLine
 10
5.168321966736219
 20
6.94408147930315
 30
0.0
 11
5.193257869950786
 21
6.94408147930315
 31
0.0
  0
LINE
  5
3AC4
330
1E
100
AcDbEntity
  8
7
100
AcDbLine
 10
5.193257869950786
 20
6.94408147930315
 30
0.0
 11
5.211631693372046
 21
6.94408147930315
 31
0.0
  0
LINE
  5
3AC5
330
1E
100
AcDbEntity
  8
7
100
AcDbLine
 10
5.211631693372046
 20
6.94408147930315
 30
0.0
 11
5.218193773165353
 21
6.94408147930315
 31
0.0
  0
LINE
  5
3AC6
330
1E
100
AcDbEntity
  8
7
100
AcDbLine
 10
5.218193773165353
 20
6.94408147930315
 30
0.0
 11
5.218193773165353
 21
6.919145576088583
 31
0.0
  0
LINE
  5
3AC7
330
1E
100
AcDbEntity
  8
7
100
AcDbLine
 10
4.892714615417322
 20
7.78796494072244
 30
0.0
 11
4.895339447334644
 21
7.798464268391732
 31
0.0
  0
LINE
  5
3AC8
330
1E
100
AcDbEntity
  8
7
100
AcDbLine
 10
4.895339447334644
 20
7.798464268391732
 30
0.0
 11
4.895339447334644
 21
7.806338764143701
 31
0.0
  0
LINE
  5
3AC9
330
1E
100
AcDbEntity
  8
7
100
AcDbLine
 10
4.895339447334644
 20
7.806338764143701
 30
0.0
 11
4.895339447334644
 21
7.812900843937007
 31
0.0
  0
LINE
  5
3ACA
330
1E
100
AcDbEntity
  8
7
100
AcDbLine
 10
4.895339447334644
 20
7.812900843937007
 30
0.0
 11
4.894027031375983
 21
7.816838091812991
 31
0.0
  0
LINE
  5
3ACB
330
1E
100
AcDbEntity
  8
7
100
AcDbLine
 10
4.894027031375983
 20
7.816838091812991
 30
0.0
 11
4.892714615417322
 21
7.818150507771653
 31
0.0
  0
LINE
  5
3ACC
330
1E
100
AcDbEntity
  8
7
100
AcDbLine
 10
4.787721338724408
 20
7.697408239574802
 30
0.0
 11
4.77065993126181
 21
7.667222672525589
 31
0.0
  0
LINE
  5
3ACD
330
1E
100
AcDbEntity
  8
7
100
AcDbLine
 10
4.77065993126181
 20
7.667222672525589
 30
0.0
 11
4.764097851468503
 21
7.633099857600393
 31
0.0
  0
LINE
  5
3ACE
330
1E
100
AcDbEntity
  8
7
100
AcDbLine
 10
4.786408922765748
 20
7.633099857600393
 30
0.0
 11
4.777222011055117
 21
7.668535088484253
 31
0.0
  0
LINE
  5
3ACF
330
1E
100
AcDbEntity
  8
7
100
AcDbLine
 10
4.777222011055117
 20
7.668535088484253
 30
0.0
 11
4.786408922765748
 21
7.697408239574802
 31
0.0
  0
LINE
  5
3AD0
330
1E
100
AcDbEntity
  8
7
100
AcDbLine
 10
5.218193773165353
 20
4.191945213990157
 30
0.0
 11
5.211631693372046
 21
4.191945213990157
 31
0.0
  0
LINE
  5
3AD1
330
1E
100
AcDbEntity
  8
7
100
AcDbLine
 10
5.211631693372046
 20
4.191945213990157
 30
0.0
 11
5.193257869950786
 21
4.191945213990157
 31
0.0
  0
LINE
  5
3AD2
330
1E
100
AcDbEntity
  8
7
100
AcDbLine
 10
5.093514257092519
 20
4.191945213990157
 30
0.0
 11
5.168321966736219
 21
4.191945213990157
 31
0.0
  0
LINE
  5
3AD3
330
1E
100
AcDbEntity
  8
7
100
AcDbLine
 10
5.168321966736219
 20
4.191945213990157
 30
0.0
 11
5.168321966736219
 21
4.203756957618109
 31
0.0
  0
LINE
  5
3AD4
330
1E
100
AcDbEntity
  8
7
100
AcDbLine
 10
4.924212598425196
 20
7.818150507771653
 30
0.0
 11
4.924212598425196
 21
7.808963596061023
 31
0.0
  0
LINE
  5
3AD5
330
1E
100
AcDbEntity
  8
7
100
AcDbLine
 10
4.924212598425196
 20
7.808963596061023
 30
0.0
 11
4.924212598425196
 21
7.78796494072244
 31
0.0
  0
LINE
  5
3AD6
330
1E
100
AcDbEntity
  8
7
100
AcDbLine
 10
4.924212598425196
 20
3.348061752570866
 30
0.0
 11
4.924212598425196
 21
3.327063097232283
 31
0.0
  0
LINE
  5
3AD7
330
1E
100
AcDbEntity
  8
7
100
AcDbLine
 10
4.924212598425196
 20
3.327063097232283
 30
0.0
 11
4.924212598425196
 21
3.317876185521653
 31
0.0
  0
LINE
  5
3AD8
330
1E
100
AcDbEntity
  8
7
100
AcDbLine
 10
4.764097851468503
 20
7.633099857600393
 30
0.0
 11
4.769347515303148
 21
7.633099857600393
 31
0.0
  0
LINE
  5
3AD9
330
1E
100
AcDbEntity
  8
7
100
AcDbLine
 10
4.769347515303148
 20
7.633099857600393
 30
0.0
 11
4.786408922765748
 21
7.633099857600393
 31
0.0
  0
LINE
  5
3ADA
330
1E
100
AcDbEntity
  8
7
100
AcDbLine
 10
4.892714615417322
 20
3.348061752570866
 30
0.0
 11
4.924212598425196
 21
3.348061752570866
 31
0.0
  0
LINE
  5
3ADB
330
1E
100
AcDbEntity
  8
7
100
AcDbLine
 10
4.924212598425196
 20
3.348061752570866
 30
0.0
 11
4.924212598425196
 21
7.78796494072244
 31
0.0
  0
LINE
  5
3ADC
330
1E
100
AcDbEntity
  8
7
100
AcDbLine
 10
4.924212598425196
 20
7.78796494072244
 30
0.0
 11
4.892714615417322
 21
7.78796494072244
 31
0.0
  0
LINE
  5
3ADD
330
1E
100
AcDbEntity
  8
7
100
AcDbLine
 10
4.892714615417322
 20
7.78796494072244
 30
0.0
 11
4.888777367541337
 21
7.753842125797244
 31
0.0
  0
LINE
  5
3ADE
330
1E
100
AcDbEntity
  8
7
100
AcDbLine
 10
4.888777367541337
 20
3.317876185521653
 30
0.0
 11
4.892714615417322
 21
3.317876185521653
 31
0.0
  0
LINE
  5
3ADF
330
1E
100
AcDbEntity
  8
7
100
AcDbLine
 10
4.892714615417322
 20
3.317876185521653
 30
0.0
 11
4.895339447334644
 21
3.319188601480314
 31
0.0
  0
LINE
  5
3AE0
330
1E
100
AcDbEntity
  8
7
100
AcDbLine
 10
4.895339447334644
 20
3.319188601480314
 30
0.0
 11
4.895339447334644
 21
3.32443826531496
 31
0.0
  0
LINE
  5
3AE1
330
1E
100
AcDbEntity
  8
7
100
AcDbLine
 10
4.895339447334644
 20
3.32443826531496
 30
0.0
 11
4.895339447334644
 21
3.331000345108267
 31
0.0
  0
LINE
  5
3AE2
330
1E
100
AcDbEntity
  8
7
100
AcDbLine
 10
4.895339447334644
 20
3.331000345108267
 30
0.0
 11
4.894027031375983
 21
3.340187256818897
 31
0.0
  0
LINE
  5
3AE3
330
1E
100
AcDbEntity
  8
7
100
AcDbLine
 10
4.894027031375983
 20
3.340187256818897
 30
0.0
 11
4.892714615417322
 21
3.348061752570866
 31
0.0
  0
LINE
  5
3AE4
330
1E
100
AcDbEntity
  8
7
100
AcDbLine
 10
4.892714615417322
 20
3.348061752570866
 30
0.0
 11
4.888777367541337
 21
3.382184567496062
 31
0.0
  0
LINE
  5
3AE5
330
1E
100
AcDbEntity
  8
7
100
AcDbLine
 10
4.786408922765748
 20
3.502926835692913
 30
0.0
 11
4.777222011055117
 21
3.467491604809055
 31
0.0
  0
LINE
  5
3AE6
330
1E
100
AcDbEntity
  8
7
100
AcDbLine
 10
4.777222011055117
 20
3.467491604809055
 30
0.0
 11
4.786408922765748
 21
3.438618453718503
 31
0.0
  0
LINE
  5
3AE7
330
1E
100
AcDbEntity
  8
7
100
AcDbLine
 10
4.764097851468503
 20
3.502926835692913
 30
0.0
 11
4.769347515303148
 21
3.502926835692913
 31
0.0
  0
LINE
  5
3AE8
330
1E
100
AcDbEntity
  8
7
100
AcDbLine
 10
4.769347515303148
 20
3.502926835692913
 30
0.0
 11
4.786408922765748
 21
3.502926835692913
 31
0.0
  0
LINE
  5
3AE9
330
1E
100
AcDbEntity
  8
7
100
AcDbLine
 10
4.888777367541337
 20
7.753842125797244
 30
0.0
 11
4.786408922765748
 21
7.633099857600393
 31
0.0
  0
LINE
  5
3AEA
330
1E
100
AcDbEntity
  8
7
100
AcDbLine
 10
4.786408922765748
 20
7.633099857600393
 30
0.0
 11
4.786408922765748
 21
3.502926835692913
 31
0.0
  0
LINE
  5
3AEB
330
1E
100
AcDbEntity
  8
7
100
AcDbLine
 10
1.896468981793307
 20
4.195882461866141
 30
0.0
 11
1.896468981793307
 21
4.180133470362204
 31
0.0
  0
LINE
  5
3AEC
330
1E
100
AcDbEntity
  8
7
100
AcDbLine
 10
1.896468981793307
 20
4.180133470362204
 30
0.0
 11
1.895156565834645
 21
4.172258974610235
 31
0.0
  0
LINE
  5
3AED
330
1E
100
AcDbEntity
  8
7
100
AcDbLine
 10
1.736354234836614
 20
4.172258974610235
 30
0.0
 11
1.736354234836614
 21
4.180133470362204
 31
0.0
  0
LINE
  5
3AEE
330
1E
100
AcDbEntity
  8
7
100
AcDbLine
 10
1.736354234836614
 20
4.180133470362204
 30
0.0
 11
1.736354234836614
 21
4.195882461866141
 31
0.0
  0
LINE
  5
3AEF
330
1E
100
AcDbEntity
  8
7
100
AcDbLine
 10
1.304569384437007
 20
4.232630108708661
 30
0.0
 11
1.304569384437007
 21
4.233942524667322
 31
0.0
  0
LINE
  5
3AF0
330
1E
100
AcDbEntity
  8
7
100
AcDbLine
 10
1.304569384437007
 20
4.233942524667322
 30
0.0
 11
1.304569384437007
 21
4.24050460446063
 31
0.0
  0
LINE
  5
3AF1
330
1E
100
AcDbEntity
  8
7
100
AcDbLine
 10
1.312443880188976
 20
4.22344319699803
 30
0.0
 11
1.315068712106298
 21
4.22344319699803
 31
0.0
  0
LINE
  5
3AF2
330
1E
100
AcDbEntity
  8
7
100
AcDbLine
 10
1.315068712106298
 20
4.22344319699803
 30
0.0
 11
1.320318375940944
 21
4.22344319699803
 31
0.0
  0
LINE
  5
3AF3
330
1E
100
AcDbEntity
  8
7
100
AcDbLine
 10
1.312443880188976
 20
4.194570045907481
 30
0.0
 11
1.315068712106298
 21
4.194570045907481
 31
0.0
  0
LINE
  5
3AF4
330
1E
100
AcDbEntity
  8
7
100
AcDbLine
 10
1.315068712106298
 20
4.194570045907481
 30
0.0
 11
1.320318375940944
 21
4.194570045907481
 31
0.0
  0
LINE
  5
3AF5
330
1E
100
AcDbEntity
  8
7
100
AcDbLine
 10
1.304569384437007
 20
4.18538313419685
 30
0.0
 11
1.304569384437007
 21
4.184070718238189
 31
0.0
  0
LINE
  5
3AF6
330
1E
100
AcDbEntity
  8
7
100
AcDbLine
 10
1.304569384437007
 20
4.184070718238189
 30
0.0
 11
1.304569384437007
 21
4.177508638444881
 31
0.0
  0
LINE
  5
3AF7
330
1E
100
AcDbEntity
  8
7
100
AcDbLine
 10
1.057835184208661
 20
4.18538313419685
 30
0.0
 11
1.057835184208661
 21
4.184070718238189
 31
0.0
  0
LINE
  5
3AF8
330
1E
100
AcDbEntity
  8
7
100
AcDbLine
 10
1.057835184208661
 20
4.184070718238189
 30
0.0
 11
1.057835184208661
 21
4.177508638444881
 31
0.0
  0
LINE
  5
3AF9
330
1E
100
AcDbEntity
  8
7
100
AcDbLine
 10
1.049960688456692
 20
4.194570045907481
 30
0.0
 11
1.04733585653937
 21
4.194570045907481
 31
0.0
  0
LINE
  5
3AFA
330
1E
100
AcDbEntity
  8
7
100
AcDbLine
 10
1.04733585653937
 20
4.194570045907481
 30
0.0
 11
1.042086192704724
 21
4.194570045907481
 31
0.0
  0
LINE
  5
3AFB
330
1E
100
AcDbEntity
  8
7
100
AcDbLine
 10
1.042086192704724
 20
4.22344319699803
 30
0.0
 11
1.04733585653937
 21
4.22344319699803
 31
0.0
  0
LINE
  5
3AFC
330
1E
100
AcDbEntity
  8
7
100
AcDbLine
 10
1.04733585653937
 20
4.22344319699803
 30
0.0
 11
1.049960688456692
 21
4.22344319699803
 31
0.0
  0
LINE
  5
3AFD
330
1E
100
AcDbEntity
  8
7
100
AcDbLine
 10
2.574988032421259
 20
4.232630108708661
 30
0.0
 11
2.574988032421259
 21
4.233942524667322
 31
0.0
  0
LINE
  5
3AFE
330
1E
100
AcDbEntity
  8
7
100
AcDbLine
 10
2.574988032421259
 20
4.233942524667322
 30
0.0
 11
2.574988032421259
 21
4.24050460446063
 31
0.0
  0
LINE
  5
3AFF
330
1E
100
AcDbEntity
  8
7
100
AcDbLine
 10
2.582862528173228
 20
4.22344319699803
 30
0.0
 11
2.585487360090551
 21
4.22344319699803
 31
0.0
  0
LINE
  5
3B00
330
1E
100
AcDbEntity
  8
7
100
AcDbLine
 10
2.585487360090551
 20
4.22344319699803
 30
0.0
 11
2.590737023925196
 21
4.22344319699803
 31
0.0
  0
LINE
  5
3B01
330
1E
100
AcDbEntity
  8
7
100
AcDbLine
 10
2.590737023925196
 20
4.194570045907481
 30
0.0
 11
2.585487360090551
 21
4.194570045907481
 31
0.0
  0
LINE
  5
3B02
330
1E
100
AcDbEntity
  8
7
100
AcDbLine
 10
2.585487360090551
 20
4.194570045907481
 30
0.0
 11
2.582862528173228
 21
4.194570045907481
 31
0.0
  0
LINE
  5
3B03
330
1E
100
AcDbEntity
  8
7
100
AcDbLine
 10
2.574988032421259
 20
4.177508638444881
 30
0.0
 11
2.574988032421259
 21
4.184070718238189
 31
0.0
  0
LINE
  5
3B04
330
1E
100
AcDbEntity
  8
7
100
AcDbLine
 10
2.574988032421259
 20
4.184070718238189
 30
0.0
 11
2.574988032421259
 21
4.18538313419685
 31
0.0
  0
LINE
  5
3B05
330
1E
100
AcDbEntity
  8
7
100
AcDbLine
 10
2.311192424730315
 20
4.194570045907481
 30
0.0
 11
2.317754504523621
 21
4.194570045907481
 31
0.0
  0
LINE
  5
3B06
330
1E
100
AcDbEntity
  8
7
100
AcDbLine
 10
2.317754504523621
 20
4.194570045907481
 30
0.0
 11
2.320379336440944
 21
4.194570045907481
 31
0.0
  0
LINE
  5
3B07
330
1E
100
AcDbEntity
  8
7
100
AcDbLine
 10
2.328253832192913
 20
4.24050460446063
 30
0.0
 11
2.328253832192913
 21
4.233942524667322
 31
0.0
  0
LINE
  5
3B08
330
1E
100
AcDbEntity
  8
7
100
AcDbLine
 10
2.328253832192913
 20
4.233942524667322
 30
0.0
 11
2.328253832192913
 21
4.232630108708661
 31
0.0
  0
LINE
  5
3B09
330
1E
100
AcDbEntity
  8
7
100
AcDbLine
 10
2.311192424730315
 20
4.22344319699803
 30
0.0
 11
2.317754504523621
 21
4.22344319699803
 31
0.0
  0
LINE
  5
3B0A
330
1E
100
AcDbEntity
  8
7
100
AcDbLine
 10
2.317754504523621
 20
4.22344319699803
 30
0.0
 11
2.320379336440944
 21
4.22344319699803
 31
0.0
  0
LINE
  5
3B0B
330
1E
100
AcDbEntity
  8
7
100
AcDbLine
 10
1.746853562505905
 20
4.172258974610235
 30
0.0
 11
1.736354234836614
 21
4.172258974610235
 31
0.0
  0
LINE
  5
3B0C
330
1E
100
AcDbEntity
  8
7
100
AcDbLine
 10
1.736354234836614
 20
4.172258974610235
 30
0.0
 11
1.738979066753937
 21
4.170946558651574
 31
0.0
  0
LINE
  5
3B0D
330
1E
100
AcDbEntity
  8
7
100
AcDbLine
 10
1.738979066753937
 20
4.160447230982283
 30
0.0
 11
1.738979066753937
 21
4.156509983106298
 31
0.0
  0
LINE
  5
3B0E
330
1E
100
AcDbEntity
  8
7
100
AcDbLine
 10
1.738979066753937
 20
4.156509983106298
 30
0.0
 11
1.738979066753937
 21
4.153885151188976
 31
0.0
  0
LINE
  5
3B0F
330
1E
100
AcDbEntity
  8
7
100
AcDbLine
 10
1.738979066753937
 20
4.153885151188976
 30
0.0
 11
1.738979066753937
 21
4.151260319271653
 31
0.0
  0
LINE
  5
3B10
330
1E
100
AcDbEntity
  8
7
100
AcDbLine
 10
1.738979066753937
 20
4.151260319271653
 30
0.0
 11
1.738979066753937
 21
4.149947903312991
 31
0.0
  0
LINE
  5
3B11
330
1E
100
AcDbEntity
  8
7
100
AcDbLine
 10
1.892531733917322
 20
4.149947903312991
 30
0.0
 11
1.893844149875984
 21
4.149947903312991
 31
0.0
  0
LINE
  5
3B12
330
1E
100
AcDbEntity
  8
7
100
AcDbLine
 10
1.893844149875984
 20
4.149947903312991
 30
0.0
 11
1.893844149875984
 21
4.152572735230315
 31
0.0
  0
LINE
  5
3B13
330
1E
100
AcDbEntity
  8
7
100
AcDbLine
 10
1.893844149875984
 20
4.152572735230315
 30
0.0
 11
1.893844149875984
 21
4.155197567147637
 31
0.0
  0
LINE
  5
3B14
330
1E
100
AcDbEntity
  8
7
100
AcDbLine
 10
1.893844149875984
 20
4.155197567147637
 30
0.0
 11
1.893844149875984
 21
4.15782239906496
 31
0.0
  0
LINE
  5
3B15
330
1E
100
AcDbEntity
  8
7
100
AcDbLine
 10
1.893844149875984
 20
4.15782239906496
 30
0.0
 11
1.893844149875984
 21
4.160447230982283
 31
0.0
  0
LINE
  5
3B16
330
1E
100
AcDbEntity
  8
7
100
AcDbLine
 10
1.059147600167322
 20
4.190632798031495
 30
0.0
 11
1.057835184208661
 21
4.18538313419685
 31
0.0
  0
LINE
  5
3B17
330
1E
100
AcDbEntity
  8
7
100
AcDbLine
 10
1.057835184208661
 20
4.18538313419685
 30
0.0
 11
1.304569384437007
 21
4.18538313419685
 31
0.0
  0
LINE
  5
3B18
330
1E
100
AcDbEntity
  8
7
100
AcDbLine
 10
1.891219317958661
 20
4.149947903312991
 30
0.0
 11
1.889906901999999
 21
4.149947903312991
 31
0.0
  0
LINE
  5
3B19
330
1E
100
AcDbEntity
  8
7
100
AcDbLine
 10
1.889906901999999
 20
4.149947903312991
 30
0.0
 11
1.887282070082677
 21
4.149947903312991
 31
0.0
  0
LINE
  5
3B1A
330
1E
100
AcDbEntity
  8
7
100
AcDbLine
 10
1.891219317958661
 20
4.002957315942913
 30
0.0
 11
1.884657238165354
 21
4.004269731901574
 31
0.0
  0
LINE
  5
3B1B
330
1E
100
AcDbEntity
  8
7
100
AcDbLine
 10
1.884657238165354
 20
4.004269731901574
 30
0.0
 11
1.876782742413385
 21
4.004269731901574
 31
0.0
  0
LINE
  5
3B1C
330
1E
100
AcDbEntity
  8
7
100
AcDbLine
 10
1.90828072542126
 20
3.857279144531496
 30
0.0
 11
1.934529044594487
 21
3.876965383911417
 31
0.0
  0
LINE
  5
3B1D
330
1E
100
AcDbEntity
  8
7
100
AcDbLine
 10
1.934529044594487
 20
3.876965383911417
 30
0.0
 11
1.950278036098425
 21
3.904526119043307
 31
0.0
  0
LINE
  5
3B1E
330
1E
100
AcDbEntity
  8
7
100
AcDbLine
 10
1.950278036098425
 20
3.904526119043307
 30
0.0
 11
1.954215283974409
 21
3.936024102051181
 31
0.0
  0
LINE
  5
3B1F
330
1E
100
AcDbEntity
  8
7
100
AcDbLine
 10
1.954215283974409
 20
3.936024102051181
 30
0.0
 11
1.943715956305118
 21
3.966209669100393
 31
0.0
  0
LINE
  5
3B20
330
1E
100
AcDbEntity
  8
7
100
AcDbLine
 10
1.943715956305118
 20
3.966209669100393
 30
0.0
 11
1.922717300966535
 21
3.99114557231496
 31
0.0
  0
LINE
  5
3B21
330
1E
100
AcDbEntity
  8
7
100
AcDbLine
 10
1.922717300966535
 20
3.99114557231496
 30
0.0
 11
1.892531733917322
 21
4.004269731901574
 31
0.0
  0
LINE
  5
3B22
330
1E
100
AcDbEntity
  8
7
100
AcDbLine
 10
2.017211249990157
 20
3.980646244645669
 30
0.0
 11
1.997525010610236
 21
4.017393891488188
 31
0.0
  0
LINE
  5
3B23
330
1E
100
AcDbEntity
  8
7
100
AcDbLine
 10
1.997525010610236
 20
4.017393891488188
 30
0.0
 11
1.968651859519684
 21
4.046267042578739
 31
0.0
  0
LINE
  5
3B24
330
1E
100
AcDbEntity
  8
7
100
AcDbLine
 10
1.968651859519684
 20
4.046267042578739
 30
0.0
 11
1.933216628635826
 21
4.067265697917322
 31
0.0
  0
LINE
  5
3B25
330
1E
100
AcDbEntity
  8
7
100
AcDbLine
 10
1.933216628635826
 20
4.067265697917322
 30
0.0
 11
1.892531733917322
 21
4.076452609627952
 31
0.0
  0
LINE
  5
3B26
330
1E
100
AcDbEntity
  8
7
100
AcDbLine
 10
1.876782742413385
 20
3.77853418701181
 30
0.0
 11
1.91746763713189
 21
3.783783850846456
 31
0.0
  0
LINE
  5
3B27
330
1E
100
AcDbEntity
  8
7
100
AcDbLine
 10
1.91746763713189
 20
3.783783850846456
 30
0.0
 11
1.95552769993307
 21
3.800845258309054
 31
0.0
  0
LINE
  5
3B28
330
1E
100
AcDbEntity
  8
7
100
AcDbLine
 10
1.95552769993307
 20
3.800845258309054
 30
0.0
 11
1.987025682940944
 21
3.827093577482283
 31
0.0
  0
LINE
  5
3B29
330
1E
100
AcDbEntity
  8
7
100
AcDbLine
 10
1.987025682940944
 20
3.827093577482283
 30
0.0
 11
2.01064917019685
 21
3.861216392407479
 31
0.0
  0
LINE
  5
3B2A
330
1E
100
AcDbEntity
  8
7
100
AcDbLine
 10
2.01064917019685
 20
3.861216392407479
 30
0.0
 11
2.023773329783464
 21
3.899276455208661
 31
0.0
  0
LINE
  5
3B2B
330
1E
100
AcDbEntity
  8
7
100
AcDbLine
 10
2.023773329783464
 20
3.899276455208661
 30
0.0
 11
2.026398161700787
 21
3.941273765885826
 31
0.0
  0
LINE
  5
3B2C
330
1E
100
AcDbEntity
  8
7
100
AcDbLine
 10
2.026398161700787
 20
3.941273765885826
 30
0.0
 11
2.017211249990157
 21
3.980646244645669
 31
0.0
  0
LINE
  5
3B2D
330
1E
100
AcDbEntity
  8
7
100
AcDbLine
 10
1.876782742413385
 20
3.777221771053149
 30
0.0
 11
1.91746763713189
 21
3.782471434887795
 31
0.0
  0
LINE
  5
3B2E
330
1E
100
AcDbEntity
  8
7
100
AcDbLine
 10
1.91746763713189
 20
3.782471434887795
 30
0.0
 11
1.95552769993307
 21
3.799532842350394
 31
0.0
  0
LINE
  5
3B2F
330
1E
100
AcDbEntity
  8
7
100
AcDbLine
 10
1.95552769993307
 20
3.799532842350394
 30
0.0
 11
1.987025682940944
 21
3.825781161523622
 31
0.0
  0
LINE
  5
3B30
330
1E
100
AcDbEntity
  8
7
100
AcDbLine
 10
1.987025682940944
 20
3.825781161523622
 30
0.0
 11
2.01064917019685
 21
3.858591560490157
 31
0.0
  0
LINE
  5
3B31
330
1E
100
AcDbEntity
  8
7
100
AcDbLine
 10
2.01064917019685
 20
3.858591560490157
 30
0.0
 11
2.025085745742126
 21
3.89796403925
 31
0.0
  0
LINE
  5
3B32
330
1E
100
AcDbEntity
  8
7
100
AcDbLine
 10
2.025085745742126
 20
3.89796403925
 30
0.0
 11
2.027710577659449
 21
3.938648933968504
 31
0.0
  0
LINE
  5
3B33
330
1E
100
AcDbEntity
  8
7
100
AcDbLine
 10
2.027710577659449
 20
3.938648933968504
 30
0.0
 11
2.018523665948818
 21
3.979333828687007
 31
0.0
  0
LINE
  5
3B34
330
1E
100
AcDbEntity
  8
7
100
AcDbLine
 10
2.018523665948818
 20
3.979333828687007
 30
0.0
 11
2.000149842527558
 21
4.016081475529527
 31
0.0
  0
LINE
  5
3B35
330
1E
100
AcDbEntity
  8
7
100
AcDbLine
 10
2.000149842527558
 20
4.016081475529527
 30
0.0
 11
1.971276691437007
 21
4.046267042578739
 31
0.0
  0
LINE
  5
3B36
330
1E
100
AcDbEntity
  8
7
100
AcDbLine
 10
1.971276691437007
 20
4.046267042578739
 30
0.0
 11
1.935841460553149
 21
4.067265697917322
 31
0.0
  0
LINE
  5
3B37
330
1E
100
AcDbEntity
  8
7
100
AcDbLine
 10
1.897781397751968
 20
4.134198911809054
 30
0.0
 11
1.896468981793307
 21
4.132886495850393
 31
0.0
  0
LINE
  5
3B38
330
1E
100
AcDbEntity
  8
7
100
AcDbLine
 10
1.896468981793307
 20
4.132886495850393
 30
0.0
 11
2.703604796370078
 21
4.132886495850393
 31
0.0
  0
LINE
  5
3B39
330
1E
100
AcDbEntity
  8
7
100
AcDbLine
 10
2.836158808194881
 20
4.143385823519684
 30
0.0
 11
2.832221560318897
 21
4.15782239906496
 31
0.0
  0
LINE
  5
3B3A
330
1E
100
AcDbEntity
  8
7
100
AcDbLine
 10
2.832221560318897
 20
4.15782239906496
 30
0.0
 11
2.821722232649606
 21
4.168321726734252
 31
0.0
  0
LINE
  5
3B3B
330
1E
100
AcDbEntity
  8
7
100
AcDbLine
 10
2.821722232649606
 20
4.168321726734252
 30
0.0
 11
2.805973241145669
 21
4.172258974610235
 31
0.0
  0
LINE
  5
3B3C
330
1E
100
AcDbEntity
  8
7
100
AcDbLine
 10
2.805973241145669
 20
3.682727822029527
 30
0.0
 11
2.821722232649606
 21
3.686665069905511
 31
0.0
  0
LINE
  5
3B3D
330
1E
100
AcDbEntity
  8
7
100
AcDbLine
 10
2.821722232649606
 20
3.686665069905511
 30
0.0
 11
2.832221560318897
 21
3.697164397574802
 31
0.0
  0
LINE
  5
3B3E
330
1E
100
AcDbEntity
  8
7
100
AcDbLine
 10
2.832221560318897
 20
3.697164397574802
 30
0.0
 11
2.836158808194881
 21
3.712913389078739
 31
0.0
  0
LINE
  5
3B3F
330
1E
100
AcDbEntity
  8
7
100
AcDbLine
 10
0.7966644084350394
 20
3.712913389078739
 30
0.0
 11
0.8006016563110236
 21
3.697164397574802
 31
0.0
  0
LINE
  5
3B40
330
1E
100
AcDbEntity
  8
7
100
AcDbLine
 10
0.8006016563110236
 20
3.697164397574802
 30
0.0
 11
0.8111009839803147
 21
3.686665069905511
 31
0.0
  0
LINE
  5
3B41
330
1E
100
AcDbEntity
  8
7
100
AcDbLine
 10
0.8111009839803147
 20
3.686665069905511
 30
0.0
 11
0.8268499754842517
 21
3.682727822029527
 31
0.0
  0
LINE
  5
3B42
330
1E
100
AcDbEntity
  8
7
100
AcDbLine
 10
0.8268499754842517
 20
4.172258974610235
 30
0.0
 11
0.8111009839803147
 21
4.168321726734252
 31
0.0
  0
LINE
  5
3B43
330
1E
100
AcDbEntity
  8
7
100
AcDbLine
 10
0.8111009839803147
 20
4.168321726734252
 30
0.0
 11
0.8006016563110236
 21
4.15782239906496
 31
0.0
  0
LINE
  5
3B44
330
1E
100
AcDbEntity
  8
7
100
AcDbLine
 10
0.8006016563110236
 20
4.15782239906496
 30
0.0
 11
0.7966644084350394
 21
4.143385823519684
 31
0.0
  0
LINE
  5
3B45
330
1E
100
AcDbEntity
  8
7
100
AcDbLine
 10
0.9292184202598425
 20
4.132886495850393
 30
0.0
 11
1.736354234836614
 21
4.132886495850393
 31
0.0
  0
LINE
  5
3B46
330
1E
100
AcDbEntity
  8
7
100
AcDbLine
 10
1.736354234836614
 20
4.132886495850393
 30
0.0
 11
1.735041818877952
 21
4.134198911809054
 31
0.0
  0
LINE
  5
3B47
330
1E
100
AcDbEntity
  8
7
100
AcDbLine
 10
1.736354234836614
 20
4.077765025586614
 30
0.0
 11
1.696981756076771
 21
4.067265697917322
 31
0.0
  0
LINE
  5
3B48
330
1E
100
AcDbEntity
  8
7
100
AcDbLine
 10
1.696981756076771
 20
4.067265697917322
 30
0.0
 11
1.661546525192913
 21
4.046267042578739
 31
0.0
  0
LINE
  5
3B49
330
1E
100
AcDbEntity
  8
7
100
AcDbLine
 10
1.661546525192913
 20
4.046267042578739
 30
0.0
 11
1.632673374102362
 21
4.016081475529527
 31
0.0
  0
LINE
  5
3B4A
330
1E
100
AcDbEntity
  8
7
100
AcDbLine
 10
1.632673374102362
 20
4.016081475529527
 30
0.0
 11
1.614299550681102
 21
3.979333828687007
 31
0.0
  0
LINE
  5
3B4B
330
1E
100
AcDbEntity
  8
7
100
AcDbLine
 10
1.614299550681102
 20
3.979333828687007
 30
0.0
 11
1.605112638970472
 21
3.938648933968504
 31
0.0
  0
LINE
  5
3B4C
330
1E
100
AcDbEntity
  8
7
100
AcDbLine
 10
1.605112638970472
 20
3.938648933968504
 30
0.0
 11
1.607737470887795
 21
3.89796403925
 31
0.0
  0
LINE
  5
3B4D
330
1E
100
AcDbEntity
  8
7
100
AcDbLine
 10
1.607737470887795
 20
3.89796403925
 30
0.0
 11
1.62217404643307
 21
3.858591560490157
 31
0.0
  0
LINE
  5
3B4E
330
1E
100
AcDbEntity
  8
7
100
AcDbLine
 10
1.62217404643307
 20
3.858591560490157
 30
0.0
 11
1.645797533688976
 21
3.825781161523622
 31
0.0
  0
LINE
  5
3B4F
330
1E
100
AcDbEntity
  8
7
100
AcDbLine
 10
1.645797533688976
 20
3.825781161523622
 30
0.0
 11
1.67729551669685
 21
3.799532842350394
 31
0.0
  0
LINE
  5
3B50
330
1E
100
AcDbEntity
  8
7
100
AcDbLine
 10
1.67729551669685
 20
3.799532842350394
 30
0.0
 11
1.715355579498031
 21
3.782471434887795
 31
0.0
  0
LINE
  5
3B51
330
1E
100
AcDbEntity
  8
7
100
AcDbLine
 10
1.715355579498031
 20
3.782471434887795
 30
0.0
 11
1.756040474216535
 21
3.777221771053149
 31
0.0
  0
LINE
  5
3B52
330
1E
100
AcDbEntity
  8
7
100
AcDbLine
 10
1.635298206019685
 20
4.017393891488188
 30
0.0
 11
1.615611966639764
 21
3.980646244645669
 31
0.0
  0
LINE
  5
3B53
330
1E
100
AcDbEntity
  8
7
100
AcDbLine
 10
1.615611966639764
 20
3.980646244645669
 30
0.0
 11
1.606425054929133
 21
3.941273765885826
 31
0.0
  0
LINE
  5
3B54
330
1E
100
AcDbEntity
  8
7
100
AcDbLine
 10
1.606425054929133
 20
3.941273765885826
 30
0.0
 11
1.609049886846456
 21
3.899276455208661
 31
0.0
  0
LINE
  5
3B55
330
1E
100
AcDbEntity
  8
7
100
AcDbLine
 10
1.609049886846456
 20
3.899276455208661
 30
0.0
 11
1.62217404643307
 21
3.861216392407479
 31
0.0
  0
LINE
  5
3B56
330
1E
100
AcDbEntity
  8
7
100
AcDbLine
 10
1.62217404643307
 20
3.861216392407479
 30
0.0
 11
1.645797533688976
 21
3.827093577482283
 31
0.0
  0
LINE
  5
3B57
330
1E
100
AcDbEntity
  8
7
100
AcDbLine
 10
1.645797533688976
 20
3.827093577482283
 30
0.0
 11
1.67729551669685
 21
3.800845258309054
 31
0.0
  0
LINE
  5
3B58
330
1E
100
AcDbEntity
  8
7
100
AcDbLine
 10
1.67729551669685
 20
3.800845258309054
 30
0.0
 11
1.715355579498031
 21
3.783783850846456
 31
0.0
  0
LINE
  5
3B59
330
1E
100
AcDbEntity
  8
7
100
AcDbLine
 10
1.715355579498031
 20
3.783783850846456
 30
0.0
 11
1.756040474216535
 21
3.77853418701181
 31
0.0
  0
LINE
  5
3B5A
330
1E
100
AcDbEntity
  8
7
100
AcDbLine
 10
1.740291482712598
 20
4.076452609627952
 30
0.0
 11
1.699606587994094
 21
4.067265697917322
 31
0.0
  0
LINE
  5
3B5B
330
1E
100
AcDbEntity
  8
7
100
AcDbLine
 10
1.699606587994094
 20
4.067265697917322
 30
0.0
 11
1.664171357110236
 21
4.046267042578739
 31
0.0
  0
LINE
  5
3B5C
330
1E
100
AcDbEntity
  8
7
100
AcDbLine
 10
1.664171357110236
 20
4.046267042578739
 30
0.0
 11
1.635298206019685
 21
4.017393891488188
 31
0.0
  0
LINE
  5
3B5D
330
1E
100
AcDbEntity
  8
7
100
AcDbLine
 10
1.740291482712598
 20
4.004269731901574
 30
0.0
 11
1.710105915663385
 21
3.99114557231496
 31
0.0
  0
LINE
  5
3B5E
330
1E
100
AcDbEntity
  8
7
100
AcDbLine
 10
1.710105915663385
 20
3.99114557231496
 30
0.0
 11
1.689107260324803
 21
3.966209669100393
 31
0.0
  0
LINE
  5
3B5F
330
1E
100
AcDbEntity
  8
7
100
AcDbLine
 10
1.689107260324803
 20
3.966209669100393
 30
0.0
 11
1.678607932655511
 21
3.936024102051181
 31
0.0
  0
LINE
  5
3B60
330
1E
100
AcDbEntity
  8
7
100
AcDbLine
 10
1.678607932655511
 20
3.936024102051181
 30
0.0
 11
1.682545180531495
 21
3.904526119043307
 31
0.0
  0
LINE
  5
3B61
330
1E
100
AcDbEntity
  8
7
100
AcDbLine
 10
1.682545180531495
 20
3.904526119043307
 30
0.0
 11
1.698294172035432
 21
3.876965383911417
 31
0.0
  0
LINE
  5
3B62
330
1E
100
AcDbEntity
  8
7
100
AcDbLine
 10
1.698294172035432
 20
3.876965383911417
 30
0.0
 11
1.724542491208661
 21
3.857279144531496
 31
0.0
  0
LINE
  5
3B63
330
1E
100
AcDbEntity
  8
7
100
AcDbLine
 10
1.724542491208661
 20
3.857279144531496
 30
0.0
 11
1.756040474216535
 21
3.850717064738188
 31
0.0
  0
LINE
  5
3B64
330
1E
100
AcDbEntity
  8
7
100
AcDbLine
 10
1.756040474216535
 20
4.004269731901574
 30
0.0
 11
1.748165978464567
 21
4.004269731901574
 31
0.0
  0
LINE
  5
3B65
330
1E
100
AcDbEntity
  8
7
100
AcDbLine
 10
1.748165978464567
 20
4.004269731901574
 30
0.0
 11
1.741603898671259
 21
4.002957315942913
 31
0.0
  0
LINE
  5
3B66
330
1E
100
AcDbEntity
  8
7
100
AcDbLine
 10
1.745541146547244
 20
4.149947903312991
 30
0.0
 11
1.742916314629921
 21
4.149947903312991
 31
0.0
  0
LINE
  5
3B67
330
1E
100
AcDbEntity
  8
7
100
AcDbLine
 10
1.742916314629921
 20
4.149947903312991
 30
0.0
 11
1.741603898671259
 21
4.149947903312991
 31
0.0
  0
LINE
  5
3B68
330
1E
100
AcDbEntity
  8
7
100
AcDbLine
 10
2.347940071572834
 20
4.642103887811024
 30
0.0
 11
2.553989377082677
 21
4.642103887811024
 31
0.0
  0
LINE
  5
3B69
330
1E
100
AcDbEntity
  8
7
100
AcDbLine
 10
2.553989377082677
 20
4.642103887811024
 30
0.0
 11
2.553989377082677
 21
4.647353551645669
 31
0.0
  0
LINE
  5
3B6A
330
1E
100
AcDbEntity
  8
7
100
AcDbLine
 10
2.553989377082677
 20
4.647353551645669
 30
0.0
 11
2.553989377082677
 21
4.657852879314961
 31
0.0
  0
LINE
  5
3B6B
330
1E
100
AcDbEntity
  8
7
100
AcDbLine
 10
2.324316584316929
 20
4.63029214418307
 30
0.0
 11
2.347940071572834
 21
4.642103887811024
 31
0.0
  0
LINE
  5
3B6C
330
1E
100
AcDbEntity
  8
7
100
AcDbLine
 10
2.347940071572834
 20
4.642103887811024
 30
0.0
 11
2.349252487531495
 21
4.647353551645669
 31
0.0
  0
LINE
  5
3B6D
330
1E
100
AcDbEntity
  8
7
100
AcDbLine
 10
2.349252487531495
 20
4.647353551645669
 30
0.0
 11
2.349252487531495
 21
4.657852879314961
 31
0.0
  0
LINE
  5
3B6E
330
1E
100
AcDbEntity
  8
7
100
AcDbLine
 10
1.077521423588582
 20
4.642103887811024
 30
0.0
 11
1.284883145057086
 21
4.642103887811024
 31
0.0
  0
LINE
  5
3B6F
330
1E
100
AcDbEntity
  8
7
100
AcDbLine
 10
1.284883145057086
 20
4.642103887811024
 30
0.0
 11
1.283570729098424
 21
4.647353551645669
 31
0.0
  0
LINE
  5
3B70
330
1E
100
AcDbEntity
  8
7
100
AcDbLine
 10
1.283570729098424
 20
4.647353551645669
 30
0.0
 11
1.283570729098424
 21
4.657852879314961
 31
0.0
  0
LINE
  5
3B71
330
1E
100
AcDbEntity
  8
7
100
AcDbLine
 10
1.053897936332677
 20
4.63029214418307
 30
0.0
 11
1.077521423588582
 21
4.642103887811024
 31
0.0
  0
LINE
  5
3B72
330
1E
100
AcDbEntity
  8
7
100
AcDbLine
 10
1.077521423588582
 20
4.642103887811024
 30
0.0
 11
1.078833839547244
 21
4.647353551645669
 31
0.0
  0
LINE
  5
3B73
330
1E
100
AcDbEntity
  8
7
100
AcDbLine
 10
1.078833839547244
 20
4.647353551645669
 30
0.0
 11
1.078833839547244
 21
4.657852879314961
 31
0.0
  0
LINE
  5
3B74
330
1E
100
AcDbEntity
  8
7
100
AcDbLine
 10
2.347940071572834
 20
5.793092683557087
 30
0.0
 11
2.553989377082677
 21
5.793092683557087
 31
0.0
  0
LINE
  5
3B75
330
1E
100
AcDbEntity
  8
7
100
AcDbLine
 10
2.553989377082677
 20
5.793092683557087
 30
0.0
 11
2.553989377082677
 21
5.79702993143307
 31
0.0
  0
LINE
  5
3B76
330
1E
100
AcDbEntity
  8
7
100
AcDbLine
 10
2.553989377082677
 20
5.79702993143307
 30
0.0
 11
2.553989377082677
 21
5.807529259102361
 31
0.0
  0
LINE
  5
3B77
330
1E
100
AcDbEntity
  8
7
100
AcDbLine
 10
2.324316584316929
 20
5.781280939929133
 30
0.0
 11
2.347940071572834
 21
5.793092683557087
 31
0.0
  0
LINE
  5
3B78
330
1E
100
AcDbEntity
  8
7
100
AcDbLine
 10
2.347940071572834
 20
5.793092683557087
 30
0.0
 11
2.349252487531495
 21
5.79702993143307
 31
0.0
  0
LINE
  5
3B79
330
1E
100
AcDbEntity
  8
7
100
AcDbLine
 10
2.349252487531495
 20
5.79702993143307
 30
0.0
 11
2.349252487531495
 21
5.807529259102361
 31
0.0
  0
LINE
  5
3B7A
330
1E
100
AcDbEntity
  8
7
100
AcDbLine
 10
1.077521423588582
 20
5.793092683557087
 30
0.0
 11
1.284883145057086
 21
5.793092683557087
 31
0.0
  0
LINE
  5
3B7B
330
1E
100
AcDbEntity
  8
7
100
AcDbLine
 10
1.284883145057086
 20
5.793092683557087
 30
0.0
 11
1.283570729098424
 21
5.79702993143307
 31
0.0
  0
LINE
  5
3B7C
330
1E
100
AcDbEntity
  8
7
100
AcDbLine
 10
1.283570729098424
 20
5.79702993143307
 30
0.0
 11
1.283570729098424
 21
5.807529259102361
 31
0.0
  0
LINE
  5
3B7D
330
1E
100
AcDbEntity
  8
7
100
AcDbLine
 10
1.053897936332677
 20
5.781280939929133
 30
0.0
 11
1.077521423588582
 21
5.793092683557087
 31
0.0
  0
LINE
  5
3B7E
330
1E
100
AcDbEntity
  8
7
100
AcDbLine
 10
1.077521423588582
 20
5.793092683557087
 30
0.0
 11
1.078833839547244
 21
5.79702993143307
 31
0.0
  0
LINE
  5
3B7F
330
1E
100
AcDbEntity
  8
7
100
AcDbLine
 10
1.078833839547244
 20
5.79702993143307
 30
0.0
 11
1.078833839547244
 21
5.807529259102361
 31
0.0
  0
LINE
  5
3B80
330
1E
100
AcDbEntity
  8
7
100
AcDbLine
 10
1.303256968478346
 20
4.23131769275
 30
0.0
 11
1.304569384437007
 21
4.232630108708661
 31
0.0
  0
LINE
  5
3B81
330
1E
100
AcDbEntity
  8
7
100
AcDbLine
 10
1.304569384437007
 20
4.232630108708661
 30
0.0
 11
1.303256968478346
 21
4.232630108708661
 31
0.0
  0
LINE
  5
3B82
330
1E
100
AcDbEntity
  8
7
100
AcDbLine
 10
1.311131464230315
 20
4.198507293783464
 30
0.0
 11
1.312443880188976
 21
4.194570045907481
 31
0.0
  0
LINE
  5
3B83
330
1E
100
AcDbEntity
  8
7
100
AcDbLine
 10
1.312443880188976
 20
4.194570045907481
 30
0.0
 11
1.312443880188976
 21
4.22344319699803
 31
0.0
  0
LINE
  5
3B84
330
1E
100
AcDbEntity
  8
7
100
AcDbLine
 10
1.312443880188976
 20
4.22344319699803
 30
0.0
 11
1.311131464230315
 21
4.22213078103937
 31
0.0
  0
LINE
  5
3B85
330
1E
100
AcDbEntity
  8
7
100
AcDbLine
 10
1.051273104415354
 20
4.22213078103937
 30
0.0
 11
1.049960688456692
 21
4.22344319699803
 31
0.0
  0
LINE
  5
3B86
330
1E
100
AcDbEntity
  8
7
100
AcDbLine
 10
1.049960688456692
 20
4.22344319699803
 30
0.0
 11
1.049960688456692
 21
4.194570045907481
 31
0.0
  0
LINE
  5
3B87
330
1E
100
AcDbEntity
  8
7
100
AcDbLine
 10
1.049960688456692
 20
4.194570045907481
 30
0.0
 11
1.051273104415354
 21
4.198507293783464
 31
0.0
  0
LINE
  5
3B88
330
1E
100
AcDbEntity
  8
7
100
AcDbLine
 10
1.059147600167322
 20
4.232630108708661
 30
0.0
 11
1.057835184208661
 21
4.232630108708661
 31
0.0
  0
LINE
  5
3B89
330
1E
100
AcDbEntity
  8
7
100
AcDbLine
 10
1.057835184208661
 20
4.232630108708661
 30
0.0
 11
1.059147600167322
 21
4.23131769275
 31
0.0
  0
LINE
  5
3B8A
330
1E
100
AcDbEntity
  8
7
100
AcDbLine
 10
2.573675616462598
 20
4.23131769275
 30
0.0
 11
2.574988032421259
 21
4.232630108708661
 31
0.0
  0
LINE
  5
3B8B
330
1E
100
AcDbEntity
  8
7
100
AcDbLine
 10
2.574988032421259
 20
4.232630108708661
 30
0.0
 11
2.573675616462598
 21
4.232630108708661
 31
0.0
  0
LINE
  5
3B8C
330
1E
100
AcDbEntity
  8
7
100
AcDbLine
 10
2.581550112214567
 20
4.198507293783464
 30
0.0
 11
2.582862528173228
 21
4.194570045907481
 31
0.0
  0
LINE
  5
3B8D
330
1E
100
AcDbEntity
  8
7
100
AcDbLine
 10
2.582862528173228
 20
4.194570045907481
 30
0.0
 11
2.582862528173228
 21
4.22344319699803
 31
0.0
  0
LINE
  5
3B8E
330
1E
100
AcDbEntity
  8
7
100
AcDbLine
 10
2.582862528173228
 20
4.22344319699803
 30
0.0
 11
2.581550112214567
 21
4.22213078103937
 31
0.0
  0
LINE
  5
3B8F
330
1E
100
AcDbEntity
  8
7
100
AcDbLine
 10
2.321691752399606
 20
4.22213078103937
 30
0.0
 11
2.320379336440944
 21
4.22344319699803
 31
0.0
  0
LINE
  5
3B90
330
1E
100
AcDbEntity
  8
7
100
AcDbLine
 10
2.320379336440944
 20
4.22344319699803
 30
0.0
 11
2.320379336440944
 21
4.194570045907481
 31
0.0
  0
LINE
  5
3B91
330
1E
100
AcDbEntity
  8
7
100
AcDbLine
 10
2.320379336440944
 20
4.194570045907481
 30
0.0
 11
2.321691752399606
 21
4.198507293783464
 31
0.0
  0
LINE
  5
3B92
330
1E
100
AcDbEntity
  8
7
100
AcDbLine
 10
0.8885335255413391
 20
3.72210030078937
 30
0.0
 11
2.744289691088582
 21
3.72210030078937
 31
0.0
  0
LINE
  5
3B93
330
1E
100
AcDbEntity
  8
7
100
AcDbLine
 10
2.744289691088582
 20
3.72210030078937
 30
0.0
 11
2.703604796370078
 21
3.72210030078937
 31
0.0
  0
LINE
  5
3B94
330
1E
100
AcDbEntity
  8
7
100
AcDbLine
 10
1.756040474216535
 20
4.004269731901574
 30
0.0
 11
1.737666650795275
 21
4.001644899984251
 31
0.0
  0
LINE
  5
3B95
330
1E
100
AcDbEntity
  8
7
100
AcDbLine
 10
1.737666650795275
 20
4.001644899984251
 30
0.0
 11
1.720605243332677
 21
3.995082820190944
 31
0.0
  0
LINE
  5
3B96
330
1E
100
AcDbEntity
  8
7
100
AcDbLine
 10
1.912217973297244
 20
3.995082820190944
 30
0.0
 11
1.895156565834645
 21
4.001644899984251
 31
0.0
  0
LINE
  5
3B97
330
1E
100
AcDbEntity
  8
7
100
AcDbLine
 10
1.895156565834645
 20
4.001644899984251
 30
0.0
 11
1.876782742413385
 21
4.004269731901574
 31
0.0
  0
LINE
  5
3B98
330
1E
100
AcDbEntity
  8
7
100
AcDbLine
 10
1.922717300966535
 20
3.869090888159448
 30
0.0
 11
1.943715956305118
 21
3.895339207332676
 31
0.0
  0
LINE
  5
3B99
330
1E
100
AcDbEntity
  8
7
100
AcDbLine
 10
1.943715956305118
 20
3.895339207332676
 30
0.0
 11
1.951590452057086
 21
3.928149606299212
 31
0.0
  0
LINE
  5
3B9A
330
1E
100
AcDbEntity
  8
7
100
AcDbLine
 10
1.951590452057086
 20
3.928149606299212
 30
0.0
 11
1.943715956305118
 21
3.960960005265748
 31
0.0
  0
LINE
  5
3B9B
330
1E
100
AcDbEntity
  8
7
100
AcDbLine
 10
1.943715956305118
 20
3.960960005265748
 30
0.0
 11
1.922717300966535
 21
3.987208324438976
 31
0.0
  0
LINE
  5
3B9C
330
1E
100
AcDbEntity
  8
7
100
AcDbLine
 10
1.876782742413385
 20
3.85202948069685
 30
0.0
 11
1.895156565834645
 21
3.854654312614173
 31
0.0
  0
LINE
  5
3B9D
330
1E
100
AcDbEntity
  8
7
100
AcDbLine
 10
1.895156565834645
 20
3.854654312614173
 30
0.0
 11
1.912217973297244
 21
3.861216392407479
 31
0.0
  0
LINE
  5
3B9E
330
1E
100
AcDbEntity
  8
7
100
AcDbLine
 10
1.720605243332677
 20
3.861216392407479
 30
0.0
 11
1.737666650795275
 21
3.854654312614173
 31
0.0
  0
LINE
  5
3B9F
330
1E
100
AcDbEntity
  8
7
100
AcDbLine
 10
1.737666650795275
 20
3.854654312614173
 30
0.0
 11
1.756040474216535
 21
3.85202948069685
 31
0.0
  0
LINE
  5
3BA0
330
1E
100
AcDbEntity
  8
7
100
AcDbLine
 10
1.876782742413385
 20
3.850717064738188
 30
0.0
 11
1.756040474216535
 21
3.850717064738188
 31
0.0
  0
LINE
  5
3BA1
330
1E
100
AcDbEntity
  8
7
100
AcDbLine
 10
1.756040474216535
 20
3.850717064738188
 30
0.0
 11
1.756040474216535
 21
3.849404648779527
 31
0.0
  0
LINE
  5
3BA2
330
1E
100
AcDbEntity
  8
7
100
AcDbLine
 10
2.753476602799212
 20
4.123699584139763
 30
0.0
 11
2.75085177088189
 21
4.13026166393307
 31
0.0
  0
LINE
  5
3BA3
330
1E
100
AcDbEntity
  8
7
100
AcDbLine
 10
2.75085177088189
 20
4.13026166393307
 30
0.0
 11
2.744289691088582
 21
4.132886495850393
 31
0.0
  0
LINE
  5
3BA4
330
1E
100
AcDbEntity
  8
7
100
AcDbLine
 10
2.753476602799212
 20
4.123699584139763
 30
0.0
 11
2.75085177088189
 21
4.13026166393307
 31
0.0
  0
LINE
  5
3BA5
330
1E
100
AcDbEntity
  8
7
100
AcDbLine
 10
2.75085177088189
 20
4.13026166393307
 30
0.0
 11
2.744289691088582
 21
4.132886495850393
 31
0.0
  0
LINE
  5
3BA6
330
1E
100
AcDbEntity
  8
7
100
AcDbLine
 10
2.744289691088582
 20
3.72210030078937
 30
0.0
 11
2.75085177088189
 21
3.724725132706693
 31
0.0
  0
LINE
  5
3BA7
330
1E
100
AcDbEntity
  8
7
100
AcDbLine
 10
2.75085177088189
 20
3.724725132706693
 30
0.0
 11
2.753476602799212
 21
3.7312872125
 31
0.0
  0
LINE
  5
3BA8
330
1E
100
AcDbEntity
  8
7
100
AcDbLine
 10
2.744289691088582
 20
3.72210030078937
 30
0.0
 11
2.75085177088189
 21
3.724725132706693
 31
0.0
  0
LINE
  5
3BA9
330
1E
100
AcDbEntity
  8
7
100
AcDbLine
 10
2.75085177088189
 20
3.724725132706693
 30
0.0
 11
2.753476602799212
 21
3.7312872125
 31
0.0
  0
LINE
  5
3BAA
330
1E
100
AcDbEntity
  8
7
100
AcDbLine
 10
0.8793466138307088
 20
3.7312872125
 30
0.0
 11
0.8819714457480314
 21
3.724725132706693
 31
0.0
  0
LINE
  5
3BAB
330
1E
100
AcDbEntity
  8
7
100
AcDbLine
 10
0.8819714457480314
 20
3.724725132706693
 30
0.0
 11
0.8885335255413391
 21
3.72210030078937
 31
0.0
  0
LINE
  5
3BAC
330
1E
100
AcDbEntity
  8
7
100
AcDbLine
 10
0.8793466138307088
 20
3.7312872125
 30
0.0
 11
0.8819714457480314
 21
3.724725132706693
 31
0.0
  0
LINE
  5
3BAD
330
1E
100
AcDbEntity
  8
7
100
AcDbLine
 10
0.8819714457480314
 20
3.724725132706693
 30
0.0
 11
0.8885335255413391
 21
3.72210030078937
 31
0.0
  0
LINE
  5
3BAE
330
1E
100
AcDbEntity
  8
7
100
AcDbLine
 10
0.8793466138307088
 20
3.7312872125
 30
0.0
 11
0.8793466138307088
 21
4.123699584139763
 31
0.0
  0
LINE
  5
3BAF
330
1E
100
AcDbEntity
  8
7
100
AcDbLine
 10
0.8793466138307088
 20
4.123699584139763
 30
0.0
 11
0.8793466138307088
 21
3.7312872125
 31
0.0
  0
LINE
  5
3BB0
330
1E
100
AcDbEntity
  8
7
100
AcDbLine
 10
0.8885335255413391
 20
4.132886495850393
 30
0.0
 11
0.8819714457480314
 21
4.13026166393307
 31
0.0
  0
LINE
  5
3BB1
330
1E
100
AcDbEntity
  8
7
100
AcDbLine
 10
0.8819714457480314
 20
4.13026166393307
 30
0.0
 11
0.8793466138307088
 21
4.123699584139763
 31
0.0
  0
LINE
  5
3BB2
330
1E
100
AcDbEntity
  8
7
100
AcDbLine
 10
1.689107260324803
 20
3.960960005265748
 30
0.0
 11
1.681232764572834
 21
3.928149606299212
 31
0.0
  0
LINE
  5
3BB3
330
1E
100
AcDbEntity
  8
7
100
AcDbLine
 10
1.681232764572834
 20
3.928149606299212
 30
0.0
 11
1.689107260324803
 21
3.895339207332676
 31
0.0
  0
LINE
  5
3BB4
330
1E
100
AcDbEntity
  8
7
100
AcDbLine
 10
1.689107260324803
 20
3.895339207332676
 30
0.0
 11
1.710105915663385
 21
3.869090888159448
 31
0.0
  0
LINE
  5
3BB5
330
1E
100
AcDbEntity
  8
7
100
AcDbLine
 10
2.553989377082677
 20
4.739222668751968
 30
0.0
 11
2.347940071572834
 21
4.739222668751968
 31
0.0
  0
LINE
  5
3BB6
330
1E
100
AcDbEntity
  8
7
100
AcDbLine
 10
2.347940071572834
 20
4.739222668751968
 30
0.0
 11
2.347940071572834
 21
4.710349517661417
 31
0.0
  0
LINE
  5
3BB7
330
1E
100
AcDbEntity
  8
7
100
AcDbLine
 10
2.553989377082677
 20
4.705099853826771
 30
0.0
 11
2.553989377082677
 21
4.710349517661417
 31
0.0
  0
LINE
  5
3BB8
330
1E
100
AcDbEntity
  8
7
100
AcDbLine
 10
2.553989377082677
 20
4.710349517661417
 30
0.0
 11
2.347940071572834
 21
4.710349517661417
 31
0.0
  0
LINE
  5
3BB9
330
1E
100
AcDbEntity
  8
7
100
AcDbLine
 10
2.349252487531495
 20
4.668352206984252
 30
0.0
 11
2.349252487531495
 21
4.688038446364172
 31
0.0
  0
LINE
  5
3BBA
330
1E
100
AcDbEntity
  8
7
100
AcDbLine
 10
2.349252487531495
 20
4.688038446364172
 30
0.0
 11
2.347940071572834
 21
4.705099853826771
 31
0.0
  0
LINE
  5
3BBB
330
1E
100
AcDbEntity
  8
7
100
AcDbLine
 10
2.553989377082677
 20
4.668352206984252
 30
0.0
 11
2.553989377082677
 21
4.688038446364172
 31
0.0
  0
LINE
  5
3BBC
330
1E
100
AcDbEntity
  8
7
100
AcDbLine
 10
2.553989377082677
 20
4.688038446364172
 30
0.0
 11
2.553989377082677
 21
4.705099853826771
 31
0.0
  0
LINE
  5
3BBD
330
1E
100
AcDbEntity
  8
7
100
AcDbLine
 10
2.553989377082677
 20
4.668352206984252
 30
0.0
 11
2.349252487531495
 21
4.668352206984252
 31
0.0
  0
LINE
  5
3BBE
330
1E
100
AcDbEntity
  8
7
100
AcDbLine
 10
2.349252487531495
 20
4.668352206984252
 30
0.0
 11
2.349252487531495
 21
4.657852879314961
 31
0.0
  0
LINE
  5
3BBF
330
1E
100
AcDbEntity
  8
7
100
AcDbLine
 10
1.284883145057086
 20
4.739222668751968
 30
0.0
 11
1.077521423588582
 21
4.739222668751968
 31
0.0
  0
LINE
  5
3BC0
330
1E
100
AcDbEntity
  8
7
100
AcDbLine
 10
1.077521423588582
 20
4.739222668751968
 30
0.0
 11
1.077521423588582
 21
4.710349517661417
 31
0.0
  0
LINE
  5
3BC1
330
1E
100
AcDbEntity
  8
7
100
AcDbLine
 10
1.283570729098424
 20
4.705099853826771
 30
0.0
 11
1.284883145057086
 21
4.710349517661417
 31
0.0
  0
LINE
  5
3BC2
330
1E
100
AcDbEntity
  8
7
100
AcDbLine
 10
1.284883145057086
 20
4.710349517661417
 30
0.0
 11
1.077521423588582
 21
4.710349517661417
 31
0.0
  0
LINE
  5
3BC3
330
1E
100
AcDbEntity
  8
7
100
AcDbLine
 10
1.078833839547244
 20
4.668352206984252
 30
0.0
 11
1.078833839547244
 21
4.688038446364172
 31
0.0
  0
LINE
  5
3BC4
330
1E
100
AcDbEntity
  8
7
100
AcDbLine
 10
1.078833839547244
 20
4.688038446364172
 30
0.0
 11
1.078833839547244
 21
4.705099853826771
 31
0.0
  0
LINE
  5
3BC5
330
1E
100
AcDbEntity
  8
7
100
AcDbLine
 10
1.283570729098424
 20
4.668352206984252
 30
0.0
 11
1.283570729098424
 21
4.688038446364172
 31
0.0
  0
LINE
  5
3BC6
330
1E
100
AcDbEntity
  8
7
100
AcDbLine
 10
1.283570729098424
 20
4.688038446364172
 30
0.0
 11
1.283570729098424
 21
4.705099853826771
 31
0.0
  0
LINE
  5
3BC7
330
1E
100
AcDbEntity
  8
7
100
AcDbLine
 10
1.283570729098424
 20
4.668352206984252
 30
0.0
 11
1.078833839547244
 21
4.668352206984252
 31
0.0
  0
LINE
  5
3BC8
330
1E
100
AcDbEntity
  8
7
100
AcDbLine
 10
1.078833839547244
 20
4.668352206984252
 30
0.0
 11
1.078833839547244
 21
4.657852879314961
 31
0.0
  0
LINE
  5
3BC9
330
1E
100
AcDbEntity
  8
7
100
AcDbLine
 10
2.553989377082677
 20
5.88889904853937
 30
0.0
 11
2.347940071572834
 21
5.88889904853937
 31
0.0
  0
LINE
  5
3BCA
330
1E
100
AcDbEntity
  8
7
100
AcDbLine
 10
2.347940071572834
 20
5.88889904853937
 30
0.0
 11
2.347940071572834
 21
5.860025897448818
 31
0.0
  0
LINE
  5
3BCB
330
1E
100
AcDbEntity
  8
7
100
AcDbLine
 10
2.553989377082677
 20
5.854776233614172
 30
0.0
 11
2.553989377082677
 21
5.860025897448818
 31
0.0
  0
LINE
  5
3BCC
330
1E
100
AcDbEntity
  8
7
100
AcDbLine
 10
2.553989377082677
 20
5.860025897448818
 30
0.0
 11
2.347940071572834
 21
5.860025897448818
 31
0.0
  0
LINE
  5
3BCD
330
1E
100
AcDbEntity
  8
7
100
AcDbLine
 10
2.349252487531495
 20
5.819341002730315
 30
0.0
 11
2.349252487531495
 21
5.837714826151574
 31
0.0
  0
LINE
  5
3BCE
330
1E
100
AcDbEntity
  8
7
100
AcDbLine
 10
2.349252487531495
 20
5.837714826151574
 30
0.0
 11
2.347940071572834
 21
5.854776233614172
 31
0.0
  0
LINE
  5
3BCF
330
1E
100
AcDbEntity
  8
7
100
AcDbLine
 10
2.553989377082677
 20
5.819341002730315
 30
0.0
 11
2.553989377082677
 21
5.837714826151574
 31
0.0
  0
LINE
  5
3BD0
330
1E
100
AcDbEntity
  8
7
100
AcDbLine
 10
2.553989377082677
 20
5.837714826151574
 30
0.0
 11
2.553989377082677
 21
5.854776233614172
 31
0.0
  0
LINE
  5
3BD1
330
1E
100
AcDbEntity
  8
7
100
AcDbLine
 10
2.553989377082677
 20
5.819341002730315
 30
0.0
 11
2.349252487531495
 21
5.819341002730315
 31
0.0
  0
LINE
  5
3BD2
330
1E
100
AcDbEntity
  8
7
100
AcDbLine
 10
2.349252487531495
 20
5.819341002730315
 30
0.0
 11
2.349252487531495
 21
5.807529259102361
 31
0.0
  0
LINE
  5
3BD3
330
1E
100
AcDbEntity
  8
7
100
AcDbLine
 10
1.284883145057086
 20
5.88889904853937
 30
0.0
 11
1.077521423588582
 21
5.88889904853937
 31
0.0
  0
LINE
  5
3BD4
330
1E
100
AcDbEntity
  8
7
100
AcDbLine
 10
1.077521423588582
 20
5.88889904853937
 30
0.0
 11
1.077521423588582
 21
5.860025897448818
 31
0.0
  0
LINE
  5
3BD5
330
1E
100
AcDbEntity
  8
7
100
AcDbLine
 10
1.283570729098424
 20
5.854776233614172
 30
0.0
 11
1.284883145057086
 21
5.860025897448818
 31
0.0
  0
LINE
  5
3BD6
330
1E
100
AcDbEntity
  8
7
100
AcDbLine
 10
1.284883145057086
 20
5.860025897448818
 30
0.0
 11
1.077521423588582
 21
5.860025897448818
 31
0.0
  0
LINE
  5
3BD7
330
1E
100
AcDbEntity
  8
7
100
AcDbLine
 10
1.078833839547244
 20
5.819341002730315
 30
0.0
 11
1.078833839547244
 21
5.837714826151574
 31
0.0
  0
LINE
  5
3BD8
330
1E
100
AcDbEntity
  8
7
100
AcDbLine
 10
1.078833839547244
 20
5.837714826151574
 30
0.0
 11
1.078833839547244
 21
5.854776233614172
 31
0.0
  0
LINE
  5
3BD9
330
1E
100
AcDbEntity
  8
7
100
AcDbLine
 10
1.283570729098424
 20
5.819341002730315
 30
0.0
 11
1.078833839547244
 21
5.819341002730315
 31
0.0
  0
LINE
  5
3BDA
330
1E
100
AcDbEntity
  8
7
100
AcDbLine
 10
1.078833839547244
 20
5.819341002730315
 30
0.0
 11
1.078833839547244
 21
5.807529259102361
 31
0.0
  0
LINE
  5
3BDB
330
1E
100
AcDbEntity
  8
7
100
AcDbLine
 10
0.8793466138307088
 20
7.012327109153543
 30
0.0
 11
0.8819714457480314
 21
7.005765029360235
 31
0.0
  0
LINE
  5
3BDC
330
1E
100
AcDbEntity
  8
7
100
AcDbLine
 10
0.8819714457480314
 20
7.005765029360235
 30
0.0
 11
0.8885335255413391
 21
7.003140197442913
 31
0.0
  0
LINE
  5
3BDD
330
1E
100
AcDbEntity
  8
7
100
AcDbLine
 10
0.8885335255413391
 20
7.413926392503936
 30
0.0
 11
0.8819714457480314
 21
7.411301560586613
 31
0.0
  0
LINE
  5
3BDE
330
1E
100
AcDbEntity
  8
7
100
AcDbLine
 10
0.8819714457480314
 20
7.411301560586613
 30
0.0
 11
0.8793466138307088
 21
7.404739480793306
 31
0.0
  0
LINE
  5
3BDF
330
1E
100
AcDbEntity
  8
7
100
AcDbLine
 10
1.137892557687007
 20
6.904709000543307
 30
0.0
 11
1.137892557687007
 21
6.902084168625983
 31
0.0
  0
LINE
  5
3BE0
330
1E
100
AcDbEntity
  8
7
100
AcDbLine
 10
1.137892557687007
 20
6.902084168625983
 30
0.0
 11
1.137892557687007
 21
6.896834504791337
 31
0.0
  0
LINE
  5
3BE1
330
1E
100
AcDbEntity
  8
7
100
AcDbLine
 10
1.130018061935039
 20
6.912583496295274
 30
0.0
 11
1.127393230017716
 21
6.912583496295274
 31
0.0
  0
LINE
  5
3BE2
330
1E
100
AcDbEntity
  8
7
100
AcDbLine
 10
1.127393230017716
 20
6.912583496295274
 30
0.0
 11
1.12214356618307
 21
6.912583496295274
 31
0.0
  0
LINE
  5
3BE3
330
1E
100
AcDbEntity
  8
7
100
AcDbLine
 10
1.12214356618307
 20
6.942769063344488
 30
0.0
 11
1.127393230017716
 21
6.942769063344488
 31
0.0
  0
LINE
  5
3BE4
330
1E
100
AcDbEntity
  8
7
100
AcDbLine
 10
1.127393230017716
 20
6.942769063344488
 30
0.0
 11
1.130018061935039
 21
6.942769063344488
 31
0.0
  0
LINE
  5
3BE5
330
1E
100
AcDbEntity
  8
7
100
AcDbLine
 10
1.137892557687007
 20
6.958518054848424
 30
0.0
 11
1.137892557687007
 21
6.953268391013779
 31
0.0
  0
LINE
  5
3BE6
330
1E
100
AcDbEntity
  8
7
100
AcDbLine
 10
1.137892557687007
 20
6.953268391013779
 30
0.0
 11
1.137892557687007
 21
6.950643559096457
 31
0.0
  0
LINE
  5
3BE7
330
1E
100
AcDbEntity
  8
7
100
AcDbLine
 10
1.384626757915354
 20
6.958518054848424
 30
0.0
 11
1.384626757915354
 21
6.953268391013779
 31
0.0
  0
LINE
  5
3BE8
330
1E
100
AcDbEntity
  8
7
100
AcDbLine
 10
1.384626757915354
 20
6.953268391013779
 30
0.0
 11
1.384626757915354
 21
6.950643559096457
 31
0.0
  0
LINE
  5
3BE9
330
1E
100
AcDbEntity
  8
7
100
AcDbLine
 10
1.400375749419291
 20
6.942769063344488
 30
0.0
 11
1.395126085584645
 21
6.942769063344488
 31
0.0
  0
LINE
  5
3BEA
330
1E
100
AcDbEntity
  8
7
100
AcDbLine
 10
1.395126085584645
 20
6.942769063344488
 30
0.0
 11
1.392501253667322
 21
6.942769063344488
 31
0.0
  0
LINE
  5
3BEB
330
1E
100
AcDbEntity
  8
7
100
AcDbLine
 10
1.384626757915354
 20
6.896834504791337
 30
0.0
 11
1.384626757915354
 21
6.902084168625983
 31
0.0
  0
LINE
  5
3BEC
330
1E
100
AcDbEntity
  8
7
100
AcDbLine
 10
1.384626757915354
 20
6.902084168625983
 30
0.0
 11
1.384626757915354
 21
6.904709000543307
 31
0.0
  0
LINE
  5
3BED
330
1E
100
AcDbEntity
  8
7
100
AcDbLine
 10
1.400375749419291
 20
6.912583496295274
 30
0.0
 11
1.395126085584645
 21
6.912583496295274
 31
0.0
  0
LINE
  5
3BEE
330
1E
100
AcDbEntity
  8
7
100
AcDbLine
 10
1.395126085584645
 20
6.912583496295274
 30
0.0
 11
1.392501253667322
 21
6.912583496295274
 31
0.0
  0
LINE
  5
3BEF
330
1E
100
AcDbEntity
  8
7
100
AcDbLine
 10
1.383314341956693
 20
6.945393895261811
 30
0.0
 11
1.384626757915354
 21
6.950643559096457
 31
0.0
  0
LINE
  5
3BF0
330
1E
100
AcDbEntity
  8
7
100
AcDbLine
 10
1.384626757915354
 20
6.950643559096457
 30
0.0
 11
1.137892557687007
 21
6.950643559096457
 31
0.0
  0
LINE
  5
3BF1
330
1E
100
AcDbEntity
  8
7
100
AcDbLine
 10
1.1313304778937
 20
6.937519399509842
 30
0.0
 11
1.130018061935039
 21
6.942769063344488
 31
0.0
  0
LINE
  5
3BF2
330
1E
100
AcDbEntity
  8
7
100
AcDbLine
 10
1.130018061935039
 20
6.942769063344488
 30
0.0
 11
1.130018061935039
 21
6.912583496295274
 31
0.0
  0
LINE
  5
3BF3
330
1E
100
AcDbEntity
  8
7
100
AcDbLine
 10
1.130018061935039
 20
6.912583496295274
 30
0.0
 11
1.1313304778937
 21
6.913895912253937
 31
0.0
  0
LINE
  5
3BF4
330
1E
100
AcDbEntity
  8
7
100
AcDbLine
 10
1.392501253667322
 20
6.912583496295274
 30
0.0
 11
1.392501253667322
 21
6.942769063344488
 31
0.0
  0
LINE
  5
3BF5
330
1E
100
AcDbEntity
  8
7
100
AcDbLine
 10
1.392501253667322
 20
6.942769063344488
 30
0.0
 11
1.391188837708661
 21
6.937519399509842
 31
0.0
  0
LINE
  5
3BF6
330
1E
100
AcDbEntity
  8
7
100
AcDbLine
 10
1.736354234836614
 20
6.940144231427165
 30
0.0
 11
1.736354234836614
 21
6.957205638889764
 31
0.0
  0
LINE
  5
3BF7
330
1E
100
AcDbEntity
  8
7
100
AcDbLine
 10
1.736354234836614
 20
6.957205638889764
 30
0.0
 11
1.736354234836614
 21
6.963767718683071
 31
0.0
  0
LINE
  5
3BF8
330
1E
100
AcDbEntity
  8
7
100
AcDbLine
 10
1.895156565834645
 20
6.963767718683071
 30
0.0
 11
1.896468981793307
 21
6.957205638889764
 31
0.0
  0
LINE
  5
3BF9
330
1E
100
AcDbEntity
  8
7
100
AcDbLine
 10
1.896468981793307
 20
6.957205638889764
 30
0.0
 11
1.896468981793307
 21
6.940144231427165
 31
0.0
  0
LINE
  5
3BFA
330
1E
100
AcDbEntity
  8
7
100
AcDbLine
 10
1.885969654124016
 20
6.963767718683071
 30
0.0
 11
1.895156565834645
 21
6.963767718683071
 31
0.0
  0
LINE
  5
3BFB
330
1E
100
AcDbEntity
  8
7
100
AcDbLine
 10
1.895156565834645
 20
6.963767718683071
 30
0.0
 11
1.893844149875984
 21
6.966392550600394
 31
0.0
  0
LINE
  5
3BFC
330
1E
100
AcDbEntity
  8
7
100
AcDbLine
 10
1.741603898671259
 20
7.134381793309055
 30
0.0
 11
1.748165978464567
 21
7.133069377350393
 31
0.0
  0
LINE
  5
3BFD
330
1E
100
AcDbEntity
  8
7
100
AcDbLine
 10
1.748165978464567
 20
7.133069377350393
 30
0.0
 11
1.756040474216535
 21
7.133069377350393
 31
0.0
  0
LINE
  5
3BFE
330
1E
100
AcDbEntity
  8
7
100
AcDbLine
 10
1.876782742413385
 20
7.133069377350393
 30
0.0
 11
1.884657238165354
 21
7.133069377350393
 31
0.0
  0
LINE
  5
3BFF
330
1E
100
AcDbEntity
  8
7
100
AcDbLine
 10
1.884657238165354
 20
7.133069377350393
 30
0.0
 11
1.891219317958661
 21
7.134381793309055
 31
0.0
  0
LINE
  5
3C00
330
1E
100
AcDbEntity
  8
7
100
AcDbLine
 10
1.710105915663385
 20
7.26824822109252
 30
0.0
 11
1.689107260324803
 21
7.241999901919291
 31
0.0
  0
LINE
  5
3C01
330
1E
100
AcDbEntity
  8
7
100
AcDbLine
 10
1.689107260324803
 20
7.241999901919291
 30
0.0
 11
1.681232764572834
 21
7.209189502952755
 31
0.0
  0
LINE
  5
3C02
330
1E
100
AcDbEntity
  8
7
100
AcDbLine
 10
1.681232764572834
 20
7.209189502952755
 30
0.0
 11
1.689107260324803
 21
7.17637910398622
 31
0.0
  0
LINE
  5
3C03
330
1E
100
AcDbEntity
  8
7
100
AcDbLine
 10
1.689107260324803
 20
7.17637910398622
 30
0.0
 11
1.710105915663385
 21
7.150130784812992
 31
0.0
  0
LINE
  5
3C04
330
1E
100
AcDbEntity
  8
7
100
AcDbLine
 10
1.922717300966535
 20
7.150130784812992
 30
0.0
 11
1.943715956305118
 21
7.17637910398622
 31
0.0
  0
LINE
  5
3C05
330
1E
100
AcDbEntity
  8
7
100
AcDbLine
 10
1.943715956305118
 20
7.17637910398622
 30
0.0
 11
1.951590452057086
 21
7.209189502952755
 31
0.0
  0
LINE
  5
3C06
330
1E
100
AcDbEntity
  8
7
100
AcDbLine
 10
1.951590452057086
 20
7.209189502952755
 30
0.0
 11
1.943715956305118
 21
7.241999901919291
 31
0.0
  0
LINE
  5
3C07
330
1E
100
AcDbEntity
  8
7
100
AcDbLine
 10
1.943715956305118
 20
7.241999901919291
 30
0.0
 11
1.922717300966535
 21
7.26824822109252
 31
0.0
  0
LINE
  5
3C08
330
1E
100
AcDbEntity
  8
7
100
AcDbLine
 10
1.876782742413385
 20
7.133069377350393
 30
0.0
 11
1.895156565834645
 21
7.135694209267716
 31
0.0
  0
LINE
  5
3C09
330
1E
100
AcDbEntity
  8
7
100
AcDbLine
 10
1.895156565834645
 20
7.135694209267716
 30
0.0
 11
1.912217973297244
 21
7.142256289061023
 31
0.0
  0
LINE
  5
3C0A
330
1E
100
AcDbEntity
  8
7
100
AcDbLine
 10
1.720605243332677
 20
7.142256289061023
 30
0.0
 11
1.737666650795275
 21
7.135694209267716
 31
0.0
  0
LINE
  5
3C0B
330
1E
100
AcDbEntity
  8
7
100
AcDbLine
 10
1.737666650795275
 20
7.135694209267716
 30
0.0
 11
1.756040474216535
 21
7.133069377350393
 31
0.0
  0
LINE
  5
3C0C
330
1E
100
AcDbEntity
  8
7
100
AcDbLine
 10
1.756040474216535
 20
7.285309628555117
 30
0.0
 11
1.737666650795275
 21
7.282684796637795
 31
0.0
  0
LINE
  5
3C0D
330
1E
100
AcDbEntity
  8
7
100
AcDbLine
 10
1.737666650795275
 20
7.282684796637795
 30
0.0
 11
1.720605243332677
 21
7.276122716844487
 31
0.0
  0
LINE
  5
3C0E
330
1E
100
AcDbEntity
  8
7
100
AcDbLine
 10
1.912217973297244
 20
7.276122716844487
 30
0.0
 11
1.895156565834645
 21
7.282684796637795
 31
0.0
  0
LINE
  5
3C0F
330
1E
100
AcDbEntity
  8
7
100
AcDbLine
 10
1.895156565834645
 20
7.282684796637795
 30
0.0
 11
1.876782742413385
 21
7.285309628555117
 31
0.0
  0
LINE
  5
3C10
330
1E
100
AcDbEntity
  8
7
100
AcDbLine
 10
1.893844149875984
 20
6.976891878269684
 30
0.0
 11
1.893844149875984
 21
6.979516710187008
 31
0.0
  0
LINE
  5
3C11
330
1E
100
AcDbEntity
  8
7
100
AcDbLine
 10
1.893844149875984
 20
6.979516710187008
 30
0.0
 11
1.893844149875984
 21
6.982141542104331
 31
0.0
  0
LINE
  5
3C12
330
1E
100
AcDbEntity
  8
7
100
AcDbLine
 10
1.893844149875984
 20
6.982141542104331
 30
0.0
 11
1.893844149875984
 21
6.984766374021653
 31
0.0
  0
LINE
  5
3C13
330
1E
100
AcDbEntity
  8
7
100
AcDbLine
 10
1.893844149875984
 20
6.984766374021653
 30
0.0
 11
1.893844149875984
 21
6.986078789980314
 31
0.0
  0
LINE
  5
3C14
330
1E
100
AcDbEntity
  8
7
100
AcDbLine
 10
1.893844149875984
 20
6.986078789980314
 30
0.0
 11
1.892531733917322
 21
6.986078789980314
 31
0.0
  0
LINE
  5
3C15
330
1E
100
AcDbEntity
  8
7
100
AcDbLine
 10
1.738979066753937
 20
6.986078789980314
 30
0.0
 11
1.738979066753937
 21
6.984766374021653
 31
0.0
  0
LINE
  5
3C16
330
1E
100
AcDbEntity
  8
7
100
AcDbLine
 10
1.738979066753937
 20
6.984766374021653
 30
0.0
 11
1.738979066753937
 21
6.982141542104331
 31
0.0
  0
LINE
  5
3C17
330
1E
100
AcDbEntity
  8
7
100
AcDbLine
 10
1.738979066753937
 20
6.982141542104331
 30
0.0
 11
1.738979066753937
 21
6.978204294228346
 31
0.0
  0
LINE
  5
3C18
330
1E
100
AcDbEntity
  8
7
100
AcDbLine
 10
1.738979066753937
 20
6.978204294228346
 30
0.0
 11
1.738979066753937
 21
6.976891878269684
 31
0.0
  0
LINE
  5
3C19
330
1E
100
AcDbEntity
  8
7
100
AcDbLine
 10
1.887282070082677
 20
6.987391205938976
 30
0.0
 11
1.889906901999999
 21
6.987391205938976
 31
0.0
  0
LINE
  5
3C1A
330
1E
100
AcDbEntity
  8
7
100
AcDbLine
 10
1.889906901999999
 20
6.987391205938976
 30
0.0
 11
1.891219317958661
 21
6.987391205938976
 31
0.0
  0
LINE
  5
3C1B
330
1E
100
AcDbEntity
  8
7
100
AcDbLine
 10
1.741603898671259
 20
6.987391205938976
 30
0.0
 11
1.742916314629921
 21
6.987391205938976
 31
0.0
  0
LINE
  5
3C1C
330
1E
100
AcDbEntity
  8
7
100
AcDbLine
 10
1.742916314629921
 20
6.987391205938976
 30
0.0
 11
1.745541146547244
 21
6.987391205938976
 31
0.0
  0
LINE
  5
3C1D
330
1E
100
AcDbEntity
  8
7
100
AcDbLine
 10
1.892531733917322
 20
7.060886499624015
 30
0.0
 11
1.933216628635826
 21
7.070073411334646
 31
0.0
  0
LINE
  5
3C1E
330
1E
100
AcDbEntity
  8
7
100
AcDbLine
 10
1.933216628635826
 20
7.070073411334646
 30
0.0
 11
1.968651859519684
 21
7.091072066673229
 31
0.0
  0
LINE
  5
3C1F
330
1E
100
AcDbEntity
  8
7
100
AcDbLine
 10
1.968651859519684
 20
7.091072066673229
 30
0.0
 11
1.997525010610236
 21
7.119945217763779
 31
0.0
  0
LINE
  5
3C20
330
1E
100
AcDbEntity
  8
7
100
AcDbLine
 10
1.997525010610236
 20
7.119945217763779
 30
0.0
 11
2.017211249990157
 21
7.156692864606299
 31
0.0
  0
LINE
  5
3C21
330
1E
100
AcDbEntity
  8
7
100
AcDbLine
 10
2.017211249990157
 20
7.156692864606299
 30
0.0
 11
2.026398161700787
 21
7.196065343366141
 31
0.0
  0
LINE
  5
3C22
330
1E
100
AcDbEntity
  8
7
100
AcDbLine
 10
2.026398161700787
 20
7.196065343366141
 30
0.0
 11
2.023773329783464
 21
7.238062654043307
 31
0.0
  0
LINE
  5
3C23
330
1E
100
AcDbEntity
  8
7
100
AcDbLine
 10
2.023773329783464
 20
7.238062654043307
 30
0.0
 11
2.01064917019685
 21
7.276122716844487
 31
0.0
  0
LINE
  5
3C24
330
1E
100
AcDbEntity
  8
7
100
AcDbLine
 10
2.01064917019685
 20
7.276122716844487
 30
0.0
 11
1.987025682940944
 21
7.310245531769685
 31
0.0
  0
LINE
  5
3C25
330
1E
100
AcDbEntity
  8
7
100
AcDbLine
 10
1.987025682940944
 20
7.310245531769685
 30
0.0
 11
1.95552769993307
 21
7.336493850942913
 31
0.0
  0
LINE
  5
3C26
330
1E
100
AcDbEntity
  8
7
100
AcDbLine
 10
1.95552769993307
 20
7.336493850942913
 30
0.0
 11
1.91746763713189
 21
7.353555258405512
 31
0.0
  0
LINE
  5
3C27
330
1E
100
AcDbEntity
  8
7
100
AcDbLine
 10
1.91746763713189
 20
7.353555258405512
 30
0.0
 11
1.876782742413385
 21
7.358804922240157
 31
0.0
  0
LINE
  5
3C28
330
1E
100
AcDbEntity
  8
7
100
AcDbLine
 10
1.892531733917322
 20
7.133069377350393
 30
0.0
 11
1.922717300966535
 21
7.146193536937007
 31
0.0
  0
LINE
  5
3C29
330
1E
100
AcDbEntity
  8
7
100
AcDbLine
 10
1.922717300966535
 20
7.146193536937007
 30
0.0
 11
1.943715956305118
 21
7.171129440151574
 31
0.0
  0
LINE
  5
3C2A
330
1E
100
AcDbEntity
  8
7
100
AcDbLine
 10
1.943715956305118
 20
7.171129440151574
 30
0.0
 11
1.954215283974409
 21
7.201315007200787
 31
0.0
  0
LINE
  5
3C2B
330
1E
100
AcDbEntity
  8
7
100
AcDbLine
 10
1.954215283974409
 20
7.201315007200787
 30
0.0
 11
1.950278036098425
 21
7.23281299020866
 31
0.0
  0
LINE
  5
3C2C
330
1E
100
AcDbEntity
  8
7
100
AcDbLine
 10
1.950278036098425
 20
7.23281299020866
 30
0.0
 11
1.934529044594487
 21
7.260373725340551
 31
0.0
  0
LINE
  5
3C2D
330
1E
100
AcDbEntity
  8
7
100
AcDbLine
 10
1.934529044594487
 20
7.260373725340551
 30
0.0
 11
1.90828072542126
 21
7.280059964720472
 31
0.0
  0
LINE
  5
3C2E
330
1E
100
AcDbEntity
  8
7
100
AcDbLine
 10
1.90828072542126
 20
7.280059964720472
 30
0.0
 11
1.876782742413385
 21
7.286622044513778
 31
0.0
  0
LINE
  5
3C2F
330
1E
100
AcDbEntity
  8
7
100
AcDbLine
 10
1.756040474216535
 20
7.286622044513778
 30
0.0
 11
1.724542491208661
 21
7.280059964720472
 31
0.0
  0
LINE
  5
3C30
330
1E
100
AcDbEntity
  8
7
100
AcDbLine
 10
1.724542491208661
 20
7.280059964720472
 30
0.0
 11
1.698294172035432
 21
7.260373725340551
 31
0.0
  0
LINE
  5
3C31
330
1E
100
AcDbEntity
  8
7
100
AcDbLine
 10
1.698294172035432
 20
7.260373725340551
 30
0.0
 11
1.682545180531495
 21
7.23281299020866
 31
0.0
  0
LINE
  5
3C32
330
1E
100
AcDbEntity
  8
7
100
AcDbLine
 10
1.682545180531495
 20
7.23281299020866
 30
0.0
 11
1.678607932655511
 21
7.201315007200787
 31
0.0
  0
LINE
  5
3C33
330
1E
100
AcDbEntity
  8
7
100
AcDbLine
 10
1.678607932655511
 20
7.201315007200787
 30
0.0
 11
1.689107260324803
 21
7.171129440151574
 31
0.0
  0
LINE
  5
3C34
330
1E
100
AcDbEntity
  8
7
100
AcDbLine
 10
1.689107260324803
 20
7.171129440151574
 30
0.0
 11
1.710105915663385
 21
7.146193536937007
 31
0.0
  0
LINE
  5
3C35
330
1E
100
AcDbEntity
  8
7
100
AcDbLine
 10
1.710105915663385
 20
7.146193536937007
 30
0.0
 11
1.740291482712598
 21
7.133069377350393
 31
0.0
  0
LINE
  5
3C36
330
1E
100
AcDbEntity
  8
7
100
AcDbLine
 10
1.756040474216535
 20
7.358804922240157
 30
0.0
 11
1.715355579498031
 21
7.353555258405512
 31
0.0
  0
LINE
  5
3C37
330
1E
100
AcDbEntity
  8
7
100
AcDbLine
 10
1.715355579498031
 20
7.353555258405512
 30
0.0
 11
1.67729551669685
 21
7.336493850942913
 31
0.0
  0
LINE
  5
3C38
330
1E
100
AcDbEntity
  8
7
100
AcDbLine
 10
1.67729551669685
 20
7.336493850942913
 30
0.0
 11
1.645797533688976
 21
7.310245531769685
 31
0.0
  0
LINE
  5
3C39
330
1E
100
AcDbEntity
  8
7
100
AcDbLine
 10
1.645797533688976
 20
7.310245531769685
 30
0.0
 11
1.62217404643307
 21
7.276122716844487
 31
0.0
  0
LINE
  5
3C3A
330
1E
100
AcDbEntity
  8
7
100
AcDbLine
 10
1.62217404643307
 20
7.276122716844487
 30
0.0
 11
1.609049886846456
 21
7.238062654043307
 31
0.0
  0
LINE
  5
3C3B
330
1E
100
AcDbEntity
  8
7
100
AcDbLine
 10
1.609049886846456
 20
7.238062654043307
 30
0.0
 11
1.606425054929133
 21
7.196065343366141
 31
0.0
  0
LINE
  5
3C3C
330
1E
100
AcDbEntity
  8
7
100
AcDbLine
 10
1.606425054929133
 20
7.196065343366141
 30
0.0
 11
1.615611966639764
 21
7.156692864606299
 31
0.0
  0
LINE
  5
3C3D
330
1E
100
AcDbEntity
  8
7
100
AcDbLine
 10
1.615611966639764
 20
7.156692864606299
 30
0.0
 11
1.635298206019685
 21
7.119945217763779
 31
0.0
  0
LINE
  5
3C3E
330
1E
100
AcDbEntity
  8
7
100
AcDbLine
 10
1.635298206019685
 20
7.119945217763779
 30
0.0
 11
1.664171357110236
 21
7.091072066673229
 31
0.0
  0
LINE
  5
3C3F
330
1E
100
AcDbEntity
  8
7
100
AcDbLine
 10
1.664171357110236
 20
7.091072066673229
 30
0.0
 11
1.699606587994094
 21
7.070073411334646
 31
0.0
  0
LINE
  5
3C40
330
1E
100
AcDbEntity
  8
7
100
AcDbLine
 10
0.9292184202598425
 20
7.004452613401574
 30
0.0
 11
0.9292184202598425
 21
7.003140197442913
 31
0.0
  0
LINE
  5
3C41
330
1E
100
AcDbEntity
  8
7
100
AcDbLine
 10
0.9292184202598425
 20
7.003140197442913
 30
0.0
 11
0.8885335255413391
 21
7.003140197442913
 31
0.0
  0
LINE
  5
3C42
330
1E
100
AcDbEntity
  8
7
100
AcDbLine
 10
2.248196458714567
 20
6.904709000543307
 30
0.0
 11
2.248196458714567
 21
6.902084168625983
 31
0.0
  0
LINE
  5
3C43
330
1E
100
AcDbEntity
  8
7
100
AcDbLine
 10
2.248196458714567
 20
6.902084168625983
 30
0.0
 11
2.248196458714567
 21
6.896834504791337
 31
0.0
  0
LINE
  5
3C44
330
1E
100
AcDbEntity
  8
7
100
AcDbLine
 10
2.240321962962598
 20
6.942769063344488
 30
0.0
 11
2.237697131045275
 21
6.942769063344488
 31
0.0
  0
LINE
  5
3C45
330
1E
100
AcDbEntity
  8
7
100
AcDbLine
 10
2.237697131045275
 20
6.942769063344488
 30
0.0
 11
2.23244746721063
 21
6.942769063344488
 31
0.0
  0
LINE
  5
3C46
330
1E
100
AcDbEntity
  8
7
100
AcDbLine
 10
2.248196458714567
 20
6.950643559096457
 30
0.0
 11
2.248196458714567
 21
6.953268391013779
 31
0.0
  0
LINE
  5
3C47
330
1E
100
AcDbEntity
  8
7
100
AcDbLine
 10
2.248196458714567
 20
6.953268391013779
 30
0.0
 11
2.248196458714567
 21
6.958518054848424
 31
0.0
  0
LINE
  5
3C48
330
1E
100
AcDbEntity
  8
7
100
AcDbLine
 10
2.494930658942913
 20
6.950643559096457
 30
0.0
 11
2.494930658942913
 21
6.953268391013779
 31
0.0
  0
LINE
  5
3C49
330
1E
100
AcDbEntity
  8
7
100
AcDbLine
 10
2.494930658942913
 20
6.953268391013779
 30
0.0
 11
2.494930658942913
 21
6.958518054848424
 31
0.0
  0
LINE
  5
3C4A
330
1E
100
AcDbEntity
  8
7
100
AcDbLine
 10
2.502805154694881
 20
6.942769063344488
 30
0.0
 11
2.505429986612204
 21
6.942769063344488
 31
0.0
  0
LINE
  5
3C4B
330
1E
100
AcDbEntity
  8
7
100
AcDbLine
 10
2.505429986612204
 20
6.942769063344488
 30
0.0
 11
2.51067965044685
 21
6.942769063344488
 31
0.0
  0
LINE
  5
3C4C
330
1E
100
AcDbEntity
  8
7
100
AcDbLine
 10
2.494930658942913
 20
6.896834504791337
 30
0.0
 11
2.494930658942913
 21
6.902084168625983
 31
0.0
  0
LINE
  5
3C4D
330
1E
100
AcDbEntity
  8
7
100
AcDbLine
 10
2.494930658942913
 20
6.902084168625983
 30
0.0
 11
2.494930658942913
 21
6.904709000543307
 31
0.0
  0
LINE
  5
3C4E
330
1E
100
AcDbEntity
  8
7
100
AcDbLine
 10
2.493618242984251
 20
6.945393895261811
 30
0.0
 11
2.494930658942913
 21
6.950643559096457
 31
0.0
  0
LINE
  5
3C4F
330
1E
100
AcDbEntity
  8
7
100
AcDbLine
 10
2.494930658942913
 20
6.950643559096457
 30
0.0
 11
2.248196458714567
 21
6.950643559096457
 31
0.0
  0
LINE
  5
3C50
330
1E
100
AcDbEntity
  8
7
100
AcDbLine
 10
2.241634378921259
 20
6.937519399509842
 30
0.0
 11
2.240321962962598
 21
6.942769063344488
 31
0.0
  0
LINE
  5
3C51
330
1E
100
AcDbEntity
  8
7
100
AcDbLine
 10
2.240321962962598
 20
6.942769063344488
 30
0.0
 11
2.240321962962598
 21
6.912583496295274
 31
0.0
  0
LINE
  5
3C52
330
1E
100
AcDbEntity
  8
7
100
AcDbLine
 10
2.240321962962598
 20
6.912583496295274
 30
0.0
 11
2.241634378921259
 21
6.913895912253937
 31
0.0
  0
LINE
  5
3C53
330
1E
100
AcDbEntity
  8
7
100
AcDbLine
 10
2.50149273873622
 20
6.913895912253937
 30
0.0
 11
2.502805154694881
 21
6.912583496295274
 31
0.0
  0
LINE
  5
3C54
330
1E
100
AcDbEntity
  8
7
100
AcDbLine
 10
2.502805154694881
 20
6.912583496295274
 30
0.0
 11
2.502805154694881
 21
6.942769063344488
 31
0.0
  0
LINE
  5
3C55
330
1E
100
AcDbEntity
  8
7
100
AcDbLine
 10
2.502805154694881
 20
6.942769063344488
 30
0.0
 11
2.50149273873622
 21
6.937519399509842
 31
0.0
  0
LINE
  5
3C56
330
1E
100
AcDbEntity
  8
7
100
AcDbLine
 10
2.493618242984251
 20
6.904709000543307
 30
0.0
 11
2.494930658942913
 21
6.904709000543307
 31
0.0
  0
LINE
  5
3C57
330
1E
100
AcDbEntity
  8
7
100
AcDbLine
 10
2.494930658942913
 20
6.904709000543307
 30
0.0
 11
2.493618242984251
 21
6.904709000543307
 31
0.0
  0
LINE
  5
3C58
330
1E
100
AcDbEntity
  8
7
100
AcDbLine
 10
0.8885335255413391
 20
7.415238808462598
 30
0.0
 11
0.8885335255413391
 21
7.413926392503936
 31
0.0
  0
LINE
  5
3C59
330
1E
100
AcDbEntity
  8
7
100
AcDbLine
 10
0.8885335255413391
 20
7.413926392503936
 30
0.0
 11
0.9292184202598425
 21
7.413926392503936
 31
0.0
  0
LINE
  5
3C5A
330
1E
100
AcDbEntity
  8
7
100
AcDbLine
 10
2.821722232649606
 20
6.967704966559054
 30
0.0
 11
2.832221560318897
 21
6.978204294228346
 31
0.0
  0
LINE
  5
3C5B
330
1E
100
AcDbEntity
  8
7
100
AcDbLine
 10
2.832221560318897
 20
6.978204294228346
 30
0.0
 11
2.836158808194881
 21
6.993953285732283
 31
0.0
  0
LINE
  5
3C5C
330
1E
100
AcDbEntity
  8
7
100
AcDbLine
 10
0.8885335255413391
 20
7.413926392503936
 30
0.0
 11
0.8819714457480314
 21
7.411301560586613
 31
0.0
  0
LINE
  5
3C5D
330
1E
100
AcDbEntity
  8
7
100
AcDbLine
 10
0.8819714457480314
 20
7.411301560586613
 30
0.0
 11
0.8793466138307088
 21
7.404739480793306
 31
0.0
  0
LINE
  5
3C5E
330
1E
100
AcDbEntity
  8
7
100
AcDbLine
 10
0.8793466138307088
 20
7.012327109153543
 30
0.0
 11
0.8819714457480314
 21
7.005765029360235
 31
0.0
  0
LINE
  5
3C5F
330
1E
100
AcDbEntity
  8
7
100
AcDbLine
 10
0.8819714457480314
 20
7.005765029360235
 30
0.0
 11
0.8885335255413391
 21
7.003140197442913
 31
0.0
  0
LINE
  5
3C60
330
1E
100
AcDbEntity
  8
7
100
AcDbLine
 10
0.7966644084350394
 20
6.993953285732283
 30
0.0
 11
0.8006016563110236
 21
6.978204294228346
 31
0.0
  0
LINE
  5
3C61
330
1E
100
AcDbEntity
  8
7
100
AcDbLine
 10
0.8006016563110236
 20
6.978204294228346
 30
0.0
 11
0.8111009839803147
 21
6.967704966559054
 31
0.0
  0
LINE
  5
3C62
330
1E
100
AcDbEntity
  8
7
100
AcDbLine
 10
0.8111009839803147
 20
6.967704966559054
 30
0.0
 11
0.8268499754842517
 21
6.963767718683071
 31
0.0
  0
LINE
  5
3C63
330
1E
100
AcDbEntity
  8
7
100
AcDbLine
 10
0.8268499754842517
 20
7.454611287222441
 30
0.0
 11
0.8111009839803147
 21
7.450674039346457
 31
0.0
  0
LINE
  5
3C64
330
1E
100
AcDbEntity
  8
7
100
AcDbLine
 10
0.8111009839803147
 20
7.450674039346457
 30
0.0
 11
0.8006016563110236
 21
7.438862295718504
 31
0.0
  0
LINE
  5
3C65
330
1E
100
AcDbEntity
  8
7
100
AcDbLine
 10
0.8006016563110236
 20
7.438862295718504
 30
0.0
 11
0.7966644084350394
 21
7.424425720173228
 31
0.0
  0
LINE
  5
3C66
330
1E
100
AcDbEntity
  8
7
100
AcDbLine
 10
2.832221560318897
 20
7.438862295718504
 30
0.0
 11
2.821722232649606
 21
7.450674039346457
 31
0.0
  0
LINE
  5
3C67
330
1E
100
AcDbEntity
  8
7
100
AcDbLine
 10
2.821722232649606
 20
7.450674039346457
 30
0.0
 11
2.805973241145669
 21
7.454611287222441
 31
0.0
  0
LINE
  5
3C68
330
1E
100
AcDbEntity
  8
7
100
AcDbLine
 10
0.8268499754842517
 20
7.454611287222441
 30
0.0
 11
2.805973241145669
 21
7.454611287222441
 31
0.0
  0
LINE
  5
3C69
330
1E
100
AcDbEntity
  8
7
100
AcDbLine
 10
2.805973241145669
 20
7.454611287222441
 30
0.0
 11
2.80728565710433
 21
7.454611287222441
 31
0.0
  0
LINE
  5
3C6A
330
1E
100
AcDbEntity
  8
7
100
AcDbLine
 10
3.164262797860236
 20
7.820775339688976
 30
0.0
 11
3.178699373405511
 21
7.816838091812991
 31
0.0
  0
LINE
  5
3C6B
330
1E
100
AcDbEntity
  8
7
100
AcDbLine
 10
3.178699373405511
 20
7.816838091812991
 30
0.0
 11
3.190511117033464
 21
7.806338764143701
 31
0.0
  0
LINE
  5
3C6C
330
1E
100
AcDbEntity
  8
7
100
AcDbLine
 10
3.190511117033464
 20
7.806338764143701
 30
0.0
 11
3.194448364909448
 21
7.791902188598424
 31
0.0
  0
LINE
  5
3C6D
330
1E
100
AcDbEntity
  8
7
100
AcDbLine
 10
0.4383748517204725
 20
7.791902188598424
 30
0.0
 11
0.4423120995964567
 21
7.806338764143701
 31
0.0
  0
LINE
  5
3C6E
330
1E
100
AcDbEntity
  8
7
100
AcDbLine
 10
0.4423120995964567
 20
7.806338764143701
 30
0.0
 11
0.4528114272657478
 21
7.816838091812991
 31
0.0
  0
LINE
  5
3C6F
330
1E
100
AcDbEntity
  8
7
100
AcDbLine
 10
0.4685604187696848
 20
3.31525135360433
 30
0.0
 11
0.4528114272657478
 21
3.319188601480314
 31
0.0
  0
LINE
  5
3C70
330
1E
100
AcDbEntity
  8
7
100
AcDbLine
 10
0.4528114272657478
 20
3.319188601480314
 30
0.0
 11
0.4423120995964567
 21
3.329687929149605
 31
0.0
  0
LINE
  5
3C71
330
1E
100
AcDbEntity
  8
7
100
AcDbLine
 10
0.4423120995964567
 20
3.329687929149605
 30
0.0
 11
0.4383748517204725
 21
3.345436920653543
 31
0.0
  0
LINE
  5
3C72
330
1E
100
AcDbEntity
  8
7
100
AcDbLine
 10
3.194448364909448
 20
3.345436920653543
 30
0.0
 11
3.190511117033464
 21
3.329687929149605
 31
0.0
  0
LINE
  5
3C73
330
1E
100
AcDbEntity
  8
7
100
AcDbLine
 10
3.190511117033464
 20
3.329687929149605
 30
0.0
 11
3.178699373405511
 21
3.319188601480314
 31
0.0
  0
LINE
  5
3C74
330
1E
100
AcDbEntity
  8
7
100
AcDbLine
 10
2.311192424730315
 20
4.194570045907481
 30
0.0
 11
2.311192424730315
 21
4.22344319699803
 31
0.0
  0
LINE
  5
3C75
330
1E
100
AcDbEntity
  8
7
100
AcDbLine
 10
2.311192424730315
 20
4.22344319699803
 30
0.0
 11
2.31644208856496
 21
4.235254940625984
 31
0.0
  0
LINE
  5
3C76
330
1E
100
AcDbEntity
  8
7
100
AcDbLine
 10
2.31644208856496
 20
4.235254940625984
 30
0.0
 11
2.328253832192913
 21
4.24050460446063
 31
0.0
  0
LINE
  5
3C77
330
1E
100
AcDbEntity
  8
7
100
AcDbLine
 10
2.573675616462598
 20
4.24050460446063
 30
0.0
 11
2.574988032421259
 21
4.24050460446063
 31
0.0
  0
LINE
  5
3C78
330
1E
100
AcDbEntity
  8
7
100
AcDbLine
 10
2.574988032421259
 20
4.24050460446063
 30
0.0
 11
2.585487360090551
 21
4.235254940625984
 31
0.0
  0
LINE
  5
3C79
330
1E
100
AcDbEntity
  8
7
100
AcDbLine
 10
2.585487360090551
 20
4.235254940625984
 30
0.0
 11
2.590737023925196
 21
4.22344319699803
 31
0.0
  0
LINE
  5
3C7A
330
1E
100
AcDbEntity
  8
7
100
AcDbLine
 10
2.590737023925196
 20
4.22344319699803
 30
0.0
 11
2.590737023925196
 21
4.194570045907481
 31
0.0
  0
LINE
  5
3C7B
330
1E
100
AcDbEntity
  8
7
100
AcDbLine
 10
2.590737023925196
 20
4.194570045907481
 30
0.0
 11
2.585487360090551
 21
4.182758302279527
 31
0.0
  0
LINE
  5
3C7C
330
1E
100
AcDbEntity
  8
7
100
AcDbLine
 10
2.585487360090551
 20
4.182758302279527
 30
0.0
 11
2.574988032421259
 21
4.177508638444881
 31
0.0
  0
LINE
  5
3C7D
330
1E
100
AcDbEntity
  8
7
100
AcDbLine
 10
2.574988032421259
 20
4.177508638444881
 30
0.0
 11
2.328253832192913
 21
4.177508638444881
 31
0.0
  0
LINE
  5
3C7E
330
1E
100
AcDbEntity
  8
7
100
AcDbLine
 10
2.328253832192913
 20
4.177508638444881
 30
0.0
 11
2.31644208856496
 21
4.182758302279527
 31
0.0
  0
LINE
  5
3C7F
330
1E
100
AcDbEntity
  8
7
100
AcDbLine
 10
2.31644208856496
 20
4.182758302279527
 30
0.0
 11
2.311192424730315
 21
4.194570045907481
 31
0.0
  0
LINE
  5
3C80
330
1E
100
AcDbEntity
  8
7
100
AcDbLine
 10
1.057835184208661
 20
4.177508638444881
 30
0.0
 11
1.046023440580708
 21
4.182758302279527
 31
0.0
  0
LINE
  5
3C81
330
1E
100
AcDbEntity
  8
7
100
AcDbLine
 10
1.046023440580708
 20
4.182758302279527
 30
0.0
 11
1.042086192704724
 21
4.194570045907481
 31
0.0
  0
LINE
  5
3C82
330
1E
100
AcDbEntity
  8
7
100
AcDbLine
 10
1.042086192704724
 20
4.194570045907481
 30
0.0
 11
1.042086192704724
 21
4.22344319699803
 31
0.0
  0
LINE
  5
3C83
330
1E
100
AcDbEntity
  8
7
100
AcDbLine
 10
1.042086192704724
 20
4.22344319699803
 30
0.0
 11
1.046023440580708
 21
4.235254940625984
 31
0.0
  0
LINE
  5
3C84
330
1E
100
AcDbEntity
  8
7
100
AcDbLine
 10
1.046023440580708
 20
4.235254940625984
 30
0.0
 11
1.057835184208661
 21
4.24050460446063
 31
0.0
  0
LINE
  5
3C85
330
1E
100
AcDbEntity
  8
7
100
AcDbLine
 10
1.057835184208661
 20
4.24050460446063
 30
0.0
 11
1.059147600167322
 21
4.24050460446063
 31
0.0
  0
LINE
  5
3C86
330
1E
100
AcDbEntity
  8
7
100
AcDbLine
 10
1.303256968478346
 20
4.24050460446063
 30
0.0
 11
1.304569384437007
 21
4.24050460446063
 31
0.0
  0
LINE
  5
3C87
330
1E
100
AcDbEntity
  8
7
100
AcDbLine
 10
1.304569384437007
 20
4.24050460446063
 30
0.0
 11
1.31638112806496
 21
4.235254940625984
 31
0.0
  0
LINE
  5
3C88
330
1E
100
AcDbEntity
  8
7
100
AcDbLine
 10
1.31638112806496
 20
4.235254940625984
 30
0.0
 11
1.320318375940944
 21
4.22344319699803
 31
0.0
  0
LINE
  5
3C89
330
1E
100
AcDbEntity
  8
7
100
AcDbLine
 10
1.320318375940944
 20
4.22344319699803
 30
0.0
 11
1.320318375940944
 21
4.194570045907481
 31
0.0
  0
LINE
  5
3C8A
330
1E
100
AcDbEntity
  8
7
100
AcDbLine
 10
1.320318375940944
 20
4.194570045907481
 30
0.0
 11
1.31638112806496
 21
4.182758302279527
 31
0.0
  0
LINE
  5
3C8B
330
1E
100
AcDbEntity
  8
7
100
AcDbLine
 10
1.31638112806496
 20
4.182758302279527
 30
0.0
 11
1.304569384437007
 21
4.177508638444881
 31
0.0
  0
LINE
  5
3C8C
330
1E
100
AcDbEntity
  8
7
100
AcDbLine
 10
1.304569384437007
 20
4.177508638444881
 30
0.0
 11
1.057835184208661
 21
4.177508638444881
 31
0.0
  0
LINE
  5
3C8D
330
1E
100
AcDbEntity
  8
7
100
AcDbLine
 10
0.8255375595255909
 20
3.681415406070865
 30
0.0
 11
0.8111009839803147
 21
3.68535265394685
 31
0.0
  0
LINE
  5
3C8E
330
1E
100
AcDbEntity
  8
7
100
AcDbLine
 10
0.8111009839803147
 20
3.68535265394685
 30
0.0
 11
0.7992892403523629
 21
3.697164397574802
 31
0.0
  0
LINE
  5
3C8F
330
1E
100
AcDbEntity
  8
7
100
AcDbLine
 10
0.7992892403523629
 20
3.697164397574802
 30
0.0
 11
0.7953519924763777
 21
3.711600973120078
 31
0.0
  0
LINE
  5
3C90
330
1E
100
AcDbEntity
  8
7
100
AcDbLine
 10
0.7953519924763777
 20
3.711600973120078
 30
0.0
 11
0.7953519924763777
 21
4.143385823519684
 31
0.0
  0
LINE
  5
3C91
330
1E
100
AcDbEntity
  8
7
100
AcDbLine
 10
0.7953519924763777
 20
4.143385823519684
 30
0.0
 11
0.7992892403523629
 21
4.159134815023621
 31
0.0
  0
LINE
  5
3C92
330
1E
100
AcDbEntity
  8
7
100
AcDbLine
 10
0.7992892403523629
 20
4.159134815023621
 30
0.0
 11
0.8111009839803147
 21
4.169634142692913
 31
0.0
  0
LINE
  5
3C93
330
1E
100
AcDbEntity
  8
7
100
AcDbLine
 10
0.8111009839803147
 20
4.169634142692913
 30
0.0
 11
0.8255375595255909
 21
4.173571390568898
 31
0.0
  0
LINE
  5
3C94
330
1E
100
AcDbEntity
  8
7
100
AcDbLine
 10
0.8255375595255909
 20
4.173571390568898
 30
0.0
 11
1.736354234836614
 21
4.173571390568898
 31
0.0
  0
LINE
  5
3C95
330
1E
100
AcDbEntity
  8
7
100
AcDbLine
 10
1.736354234836614
 20
4.173571390568898
 30
0.0
 11
1.736354234836614
 21
4.195882461866141
 31
0.0
  0
LINE
  5
3C96
330
1E
100
AcDbEntity
  8
7
100
AcDbLine
 10
2.832221560318897
 20
3.697164397574802
 30
0.0
 11
2.821722232649606
 21
3.68535265394685
 31
0.0
  0
LINE
  5
3C97
330
1E
100
AcDbEntity
  8
7
100
AcDbLine
 10
2.821722232649606
 20
3.68535265394685
 30
0.0
 11
2.80728565710433
 21
3.681415406070865
 31
0.0
  0
LINE
  5
3C98
330
1E
100
AcDbEntity
  8
7
100
AcDbLine
 10
1.896468981793307
 20
4.195882461866141
 30
0.0
 11
1.896468981793307
 21
4.173571390568898
 31
0.0
  0
LINE
  5
3C99
330
1E
100
AcDbEntity
  8
7
100
AcDbLine
 10
1.896468981793307
 20
4.173571390568898
 30
0.0
 11
2.80728565710433
 21
4.173571390568898
 31
0.0
  0
LINE
  5
3C9A
330
1E
100
AcDbEntity
  8
7
100
AcDbLine
 10
2.80728565710433
 20
4.173571390568898
 30
0.0
 11
2.821722232649606
 21
4.169634142692913
 31
0.0
  0
LINE
  5
3C9B
330
1E
100
AcDbEntity
  8
7
100
AcDbLine
 10
2.821722232649606
 20
4.169634142692913
 30
0.0
 11
2.832221560318897
 21
4.159134815023621
 31
0.0
  0
LINE
  5
3C9C
330
1E
100
AcDbEntity
  8
7
100
AcDbLine
 10
2.832221560318897
 20
4.159134815023621
 30
0.0
 11
2.837471224153543
 21
4.143385823519684
 31
0.0
  0
LINE
  5
3C9D
330
1E
100
AcDbEntity
  8
7
100
AcDbLine
 10
2.837471224153543
 20
4.143385823519684
 30
0.0
 11
2.837471224153543
 21
3.711600973120078
 31
0.0
  0
LINE
  5
3C9E
330
1E
100
AcDbEntity
  8
7
100
AcDbLine
 10
2.837471224153543
 20
3.711600973120078
 30
0.0
 11
2.832221560318897
 21
3.697164397574802
 31
0.0
  0
LINE
  5
3C9F
330
1E
100
AcDbEntity
  8
7
100
AcDbLine
 10
1.137892557687007
 20
6.958518054848424
 30
0.0
 11
1.384626757915354
 21
6.958518054848424
 31
0.0
  0
LINE
  5
3CA0
330
1E
100
AcDbEntity
  8
7
100
AcDbLine
 10
1.384626757915354
 20
6.958518054848424
 30
0.0
 11
1.396438501543307
 21
6.953268391013779
 31
0.0
  0
LINE
  5
3CA1
330
1E
100
AcDbEntity
  8
7
100
AcDbLine
 10
1.396438501543307
 20
6.953268391013779
 30
0.0
 11
1.400375749419291
 21
6.942769063344488
 31
0.0
  0
LINE
  5
3CA2
330
1E
100
AcDbEntity
  8
7
100
AcDbLine
 10
1.400375749419291
 20
6.942769063344488
 30
0.0
 11
1.400375749419291
 21
6.912583496295274
 31
0.0
  0
LINE
  5
3CA3
330
1E
100
AcDbEntity
  8
7
100
AcDbLine
 10
1.400375749419291
 20
6.912583496295274
 30
0.0
 11
1.396438501543307
 21
6.900771752667322
 31
0.0
  0
LINE
  5
3CA4
330
1E
100
AcDbEntity
  8
7
100
AcDbLine
 10
1.396438501543307
 20
6.900771752667322
 30
0.0
 11
1.384626757915354
 21
6.896834504791337
 31
0.0
  0
LINE
  5
3CA5
330
1E
100
AcDbEntity
  8
7
100
AcDbLine
 10
1.139204973645669
 20
6.896834504791337
 30
0.0
 11
1.137892557687007
 21
6.896834504791337
 31
0.0
  0
LINE
  5
3CA6
330
1E
100
AcDbEntity
  8
7
100
AcDbLine
 10
1.137892557687007
 20
6.896834504791337
 30
0.0
 11
1.126080814059055
 21
6.900771752667322
 31
0.0
  0
LINE
  5
3CA7
330
1E
100
AcDbEntity
  8
7
100
AcDbLine
 10
1.126080814059055
 20
6.900771752667322
 30
0.0
 11
1.12214356618307
 21
6.912583496295274
 31
0.0
  0
LINE
  5
3CA8
330
1E
100
AcDbEntity
  8
7
100
AcDbLine
 10
1.12214356618307
 20
6.912583496295274
 30
0.0
 11
1.12214356618307
 21
6.942769063344488
 31
0.0
  0
LINE
  5
3CA9
330
1E
100
AcDbEntity
  8
7
100
AcDbLine
 10
1.12214356618307
 20
6.942769063344488
 30
0.0
 11
1.126080814059055
 21
6.953268391013779
 31
0.0
  0
LINE
  5
3CAA
330
1E
100
AcDbEntity
  8
7
100
AcDbLine
 10
1.126080814059055
 20
6.953268391013779
 30
0.0
 11
1.137892557687007
 21
6.958518054848424
 31
0.0
  0
LINE
  5
3CAB
330
1E
100
AcDbEntity
  8
7
100
AcDbLine
 10
2.248196458714567
 20
6.958518054848424
 30
0.0
 11
2.494930658942913
 21
6.958518054848424
 31
0.0
  0
LINE
  5
3CAC
330
1E
100
AcDbEntity
  8
7
100
AcDbLine
 10
2.494930658942913
 20
6.958518054848424
 30
0.0
 11
2.506742402570866
 21
6.953268391013779
 31
0.0
  0
LINE
  5
3CAD
330
1E
100
AcDbEntity
  8
7
100
AcDbLine
 10
2.506742402570866
 20
6.953268391013779
 30
0.0
 11
2.51067965044685
 21
6.942769063344488
 31
0.0
  0
LINE
  5
3CAE
330
1E
100
AcDbEntity
  8
7
100
AcDbLine
 10
2.51067965044685
 20
6.942769063344488
 30
0.0
 11
2.51067965044685
 21
6.912583496295274
 31
0.0
  0
LINE
  5
3CAF
330
1E
100
AcDbEntity
  8
7
100
AcDbLine
 10
2.51067965044685
 20
6.912583496295274
 30
0.0
 11
2.506742402570866
 21
6.900771752667322
 31
0.0
  0
LINE
  5
3CB0
330
1E
100
AcDbEntity
  8
7
100
AcDbLine
 10
2.506742402570866
 20
6.900771752667322
 30
0.0
 11
2.494930658942913
 21
6.896834504791337
 31
0.0
  0
LINE
  5
3CB1
330
1E
100
AcDbEntity
  8
7
100
AcDbLine
 10
2.494930658942913
 20
6.896834504791337
 30
0.0
 11
2.493618242984251
 21
6.896834504791337
 31
0.0
  0
LINE
  5
3CB2
330
1E
100
AcDbEntity
  8
7
100
AcDbLine
 10
2.248196458714567
 20
6.896834504791337
 30
0.0
 11
2.236384715086614
 21
6.900771752667322
 31
0.0
  0
LINE
  5
3CB3
330
1E
100
AcDbEntity
  8
7
100
AcDbLine
 10
2.236384715086614
 20
6.900771752667322
 30
0.0
 11
2.23244746721063
 21
6.912583496295274
 31
0.0
  0
LINE
  5
3CB4
330
1E
100
AcDbEntity
  8
7
100
AcDbLine
 10
2.23244746721063
 20
6.912583496295274
 30
0.0
 11
2.23244746721063
 21
6.942769063344488
 31
0.0
  0
LINE
  5
3CB5
330
1E
100
AcDbEntity
  8
7
100
AcDbLine
 10
2.23244746721063
 20
6.942769063344488
 30
0.0
 11
2.236384715086614
 21
6.953268391013779
 31
0.0
  0
LINE
  5
3CB6
330
1E
100
AcDbEntity
  8
7
100
AcDbLine
 10
2.236384715086614
 20
6.953268391013779
 30
0.0
 11
2.248196458714567
 21
6.958518054848424
 31
0.0
  0
LINE
  5
3CB7
330
1E
100
AcDbEntity
  8
7
100
AcDbLine
 10
2.837471224153543
 20
6.992640869773621
 30
0.0
 11
2.832221560318897
 21
6.978204294228346
 31
0.0
  0
LINE
  5
3CB8
330
1E
100
AcDbEntity
  8
7
100
AcDbLine
 10
2.832221560318897
 20
6.978204294228346
 30
0.0
 11
2.821722232649606
 21
6.966392550600394
 31
0.0
  0
LINE
  5
3CB9
330
1E
100
AcDbEntity
  8
7
100
AcDbLine
 10
2.821722232649606
 20
6.966392550600394
 30
0.0
 11
2.80728565710433
 21
6.962455302724409
 31
0.0
  0
LINE
  5
3CBA
330
1E
100
AcDbEntity
  8
7
100
AcDbLine
 10
0.8255375595255909
 20
7.454611287222441
 30
0.0
 11
2.80728565710433
 21
7.454611287222441
 31
0.0
  0
LINE
  5
3CBB
330
1E
100
AcDbEntity
  8
7
100
AcDbLine
 10
2.80728565710433
 20
7.454611287222441
 30
0.0
 11
2.821722232649606
 21
7.450674039346457
 31
0.0
  0
LINE
  5
3CBC
330
1E
100
AcDbEntity
  8
7
100
AcDbLine
 10
2.821722232649606
 20
7.450674039346457
 30
0.0
 11
2.832221560318897
 21
7.440174711677165
 31
0.0
  0
LINE
  5
3CBD
330
1E
100
AcDbEntity
  8
7
100
AcDbLine
 10
2.832221560318897
 20
7.440174711677165
 30
0.0
 11
2.837471224153543
 21
7.424425720173228
 31
0.0
  0
LINE
  5
3CBE
330
1E
100
AcDbEntity
  8
7
100
AcDbLine
 10
0.8255375595255909
 20
6.962455302724409
 30
0.0
 11
0.8111009839803147
 21
6.966392550600394
 31
0.0
  0
LINE
  5
3CBF
330
1E
100
AcDbEntity
  8
7
100
AcDbLine
 10
0.8111009839803147
 20
6.966392550600394
 30
0.0
 11
0.7992892403523629
 21
6.978204294228346
 31
0.0
  0
LINE
  5
3CC0
330
1E
100
AcDbEntity
  8
7
100
AcDbLine
 10
0.7992892403523629
 20
6.978204294228346
 30
0.0
 11
0.7953519924763777
 21
6.992640869773621
 31
0.0
  0
LINE
  5
3CC1
330
1E
100
AcDbEntity
  8
7
100
AcDbLine
 10
0.7953519924763777
 20
6.992640869773621
 30
0.0
 11
0.7953519924763777
 21
7.424425720173228
 31
0.0
  0
LINE
  5
3CC2
330
1E
100
AcDbEntity
  8
7
100
AcDbLine
 10
0.7953519924763777
 20
7.424425720173228
 30
0.0
 11
0.7992892403523629
 21
7.440174711677165
 31
0.0
  0
LINE
  5
3CC3
330
1E
100
AcDbEntity
  8
7
100
AcDbLine
 10
0.7992892403523629
 20
7.440174711677165
 30
0.0
 11
0.8111009839803147
 21
7.450674039346457
 31
0.0
  0
LINE
  5
3CC4
330
1E
100
AcDbEntity
  8
7
100
AcDbLine
 10
0.8111009839803147
 20
7.450674039346457
 30
0.0
 11
0.8255375595255909
 21
7.454611287222441
 31
0.0
  0
LINE
  5
3CC5
330
1E
100
AcDbEntity
  8
7
100
AcDbLine
 10
1.252072746090551
 20
4.190632798031495
 30
0.0
 11
1.303256968478346
 21
4.190632798031495
 31
0.0
  0
LINE
  5
3CC6
330
1E
100
AcDbEntity
  8
7
100
AcDbLine
 10
1.303256968478346
 20
4.190632798031495
 30
0.0
 11
1.311131464230315
 21
4.198507293783464
 31
0.0
  0
LINE
  5
3CC7
330
1E
100
AcDbEntity
  8
7
100
AcDbLine
 10
1.051273104415354
 20
4.198507293783464
 30
0.0
 11
1.059147600167322
 21
4.190632798031495
 31
0.0
  0
LINE
  5
3CC8
330
1E
100
AcDbEntity
  8
7
100
AcDbLine
 10
1.059147600167322
 20
4.190632798031495
 30
0.0
 11
1.111644238513779
 21
4.190632798031495
 31
0.0
  0
LINE
  5
3CC9
330
1E
100
AcDbEntity
  8
7
100
AcDbLine
 10
1.746853562505905
 20
4.170946558651574
 30
0.0
 11
1.738979066753937
 21
4.170946558651574
 31
0.0
  0
LINE
  5
3CCA
330
1E
100
AcDbEntity
  8
7
100
AcDbLine
 10
1.738979066753937
 20
4.170946558651574
 30
0.0
 11
1.738979066753937
 21
4.160447230982283
 31
0.0
  0
LINE
  5
3CCB
330
1E
100
AcDbEntity
  8
7
100
AcDbLine
 10
2.521178978116141
 20
4.190632798031495
 30
0.0
 11
2.573675616462598
 21
4.190632798031495
 31
0.0
  0
LINE
  5
3CCC
330
1E
100
AcDbEntity
  8
7
100
AcDbLine
 10
2.573675616462598
 20
4.190632798031495
 30
0.0
 11
2.581550112214567
 21
4.198507293783464
 31
0.0
  0
LINE
  5
3CCD
330
1E
100
AcDbEntity
  8
7
100
AcDbLine
 10
2.321691752399606
 20
4.198507293783464
 30
0.0
 11
2.329566248151575
 21
4.190632798031495
 31
0.0
  0
LINE
  5
3CCE
330
1E
100
AcDbEntity
  8
7
100
AcDbLine
 10
2.329566248151575
 20
4.190632798031495
 30
0.0
 11
2.380750470539369
 21
4.190632798031495
 31
0.0
  0
LINE
  5
3CCF
330
1E
100
AcDbEntity
  8
7
100
AcDbLine
 10
1.190389196033464
 20
6.945393895261811
 30
0.0
 11
1.139204973645669
 21
6.945393895261811
 31
0.0
  0
LINE
  5
3CD0
330
1E
100
AcDbEntity
  8
7
100
AcDbLine
 10
1.139204973645669
 20
6.945393895261811
 30
0.0
 11
1.1313304778937
 21
6.937519399509842
 31
0.0
  0
LINE
  5
3CD1
330
1E
100
AcDbEntity
  8
7
100
AcDbLine
 10
1.391188837708661
 20
6.937519399509842
 30
0.0
 11
1.383314341956693
 21
6.945393895261811
 31
0.0
  0
LINE
  5
3CD2
330
1E
100
AcDbEntity
  8
7
100
AcDbLine
 10
1.383314341956693
 20
6.945393895261811
 30
0.0
 11
1.332130119568897
 21
6.945393895261811
 31
0.0
  0
LINE
  5
3CD3
330
1E
100
AcDbEntity
  8
7
100
AcDbLine
 10
1.885969654124016
 20
6.966392550600394
 30
0.0
 11
1.893844149875984
 21
6.966392550600394
 31
0.0
  0
LINE
  5
3CD4
330
1E
100
AcDbEntity
  8
7
100
AcDbLine
 10
1.893844149875984
 20
6.966392550600394
 30
0.0
 11
1.893844149875984
 21
6.976891878269684
 31
0.0
  0
LINE
  5
3CD5
330
1E
100
AcDbEntity
  8
7
100
AcDbLine
 10
1.738979066753937
 20
6.976891878269684
 30
0.0
 11
1.738979066753937
 21
6.966392550600394
 31
0.0
  0
LINE
  5
3CD6
330
1E
100
AcDbEntity
  8
7
100
AcDbLine
 10
1.738979066753937
 20
6.966392550600394
 30
0.0
 11
1.746853562505905
 21
6.966392550600394
 31
0.0
  0
LINE
  5
3CD7
330
1E
100
AcDbEntity
  8
7
100
AcDbLine
 10
2.300693097061023
 20
6.945393895261811
 30
0.0
 11
2.249508874673228
 21
6.945393895261811
 31
0.0
  0
LINE
  5
3CD8
330
1E
100
AcDbEntity
  8
7
100
AcDbLine
 10
2.249508874673228
 20
6.945393895261811
 30
0.0
 11
2.241634378921259
 21
6.937519399509842
 31
0.0
  0
LINE
  5
3CD9
330
1E
100
AcDbEntity
  8
7
100
AcDbLine
 10
2.50149273873622
 20
6.937519399509842
 30
0.0
 11
2.493618242984251
 21
6.945393895261811
 31
0.0
  0
LINE
  5
3CDA
330
1E
100
AcDbEntity
  8
7
100
AcDbLine
 10
2.493618242984251
 20
6.945393895261811
 30
0.0
 11
2.441121604637795
 21
6.945393895261811
 31
0.0
  0
LINE
  5
3CDB
330
1E
100
AcDbEntity
  8
7
100
AcDbLine
 10
1.896468981793307
 20
7.004452613401574
 30
0.0
 11
1.897781397751968
 21
7.003140197442913
 31
0.0
  0
LINE
  5
3CDC
330
1E
100
AcDbEntity
  8
7
100
AcDbLine
 10
1.897781397751968
 20
7.003140197442913
 30
0.0
 11
2.744289691088582
 21
7.003140197442913
 31
0.0
  0
LINE
  5
3CDD
330
1E
100
AcDbEntity
  8
7
100
AcDbLine
 10
1.896468981793307
 20
7.058261667706692
 30
0.0
 11
1.896468981793307
 21
7.004452613401574
 31
0.0
  0
LINE
  5
3CDE
330
1E
100
AcDbEntity
  8
7
100
AcDbLine
 10
1.896468981793307
 20
7.004452613401574
 30
0.0
 11
2.703604796370078
 21
7.004452613401574
 31
0.0
  0
LINE
  5
3CDF
330
1E
100
AcDbEntity
  8
7
100
AcDbLine
 10
2.025085745742126
 20
7.239375070001967
 30
0.0
 11
2.01064917019685
 21
7.278747548761811
 31
0.0
  0
LINE
  5
3CE0
330
1E
100
AcDbEntity
  8
7
100
AcDbLine
 10
2.01064917019685
 20
7.278747548761811
 30
0.0
 11
1.987025682940944
 21
7.311557947728346
 31
0.0
  0
LINE
  5
3CE1
330
1E
100
AcDbEntity
  8
7
100
AcDbLine
 10
1.987025682940944
 20
7.311557947728346
 30
0.0
 11
1.95552769993307
 21
7.337806266901575
 31
0.0
  0
LINE
  5
3CE2
330
1E
100
AcDbEntity
  8
7
100
AcDbLine
 10
1.95552769993307
 20
7.337806266901575
 30
0.0
 11
1.91746763713189
 21
7.354867674364172
 31
0.0
  0
LINE
  5
3CE3
330
1E
100
AcDbEntity
  8
7
100
AcDbLine
 10
1.91746763713189
 20
7.354867674364172
 30
0.0
 11
1.876782742413385
 21
7.360117338198818
 31
0.0
  0
LINE
  5
3CE4
330
1E
100
AcDbEntity
  8
7
100
AcDbLine
 10
1.896468981793307
 20
7.059574083665355
 30
0.0
 11
1.935841460553149
 21
7.070073411334646
 31
0.0
  0
LINE
  5
3CE5
330
1E
100
AcDbEntity
  8
7
100
AcDbLine
 10
1.935841460553149
 20
7.070073411334646
 30
0.0
 11
1.971276691437007
 21
7.091072066673229
 31
0.0
  0
LINE
  5
3CE6
330
1E
100
AcDbEntity
  8
7
100
AcDbLine
 10
1.971276691437007
 20
7.091072066673229
 30
0.0
 11
2.000149842527558
 21
7.121257633722441
 31
0.0
  0
LINE
  5
3CE7
330
1E
100
AcDbEntity
  8
7
100
AcDbLine
 10
2.000149842527558
 20
7.121257633722441
 30
0.0
 11
2.018523665948818
 21
7.15800528056496
 31
0.0
  0
LINE
  5
3CE8
330
1E
100
AcDbEntity
  8
7
100
AcDbLine
 10
2.018523665948818
 20
7.15800528056496
 30
0.0
 11
2.027710577659449
 21
7.198690175283464
 31
0.0
  0
LINE
  5
3CE9
330
1E
100
AcDbEntity
  8
7
100
AcDbLine
 10
2.027710577659449
 20
7.198690175283464
 30
0.0
 11
2.025085745742126
 21
7.239375070001967
 31
0.0
  0
LINE
  5
3CEA
330
1E
100
AcDbEntity
  8
7
100
AcDbLine
 10
1.661546525192913
 20
7.091072066673229
 30
0.0
 11
1.696981756076771
 21
7.070073411334646
 31
0.0
  0
LINE
  5
3CEB
330
1E
100
AcDbEntity
  8
7
100
AcDbLine
 10
1.696981756076771
 20
7.070073411334646
 30
0.0
 11
1.736354234836614
 21
7.059574083665355
 31
0.0
  0
LINE
  5
3CEC
330
1E
100
AcDbEntity
  8
7
100
AcDbLine
 10
1.756040474216535
 20
7.360117338198818
 30
0.0
 11
1.715355579498031
 21
7.354867674364172
 31
0.0
  0
LINE
  5
3CED
330
1E
100
AcDbEntity
  8
7
100
AcDbLine
 10
1.715355579498031
 20
7.354867674364172
 30
0.0
 11
1.67729551669685
 21
7.337806266901575
 31
0.0
  0
LINE
  5
3CEE
330
1E
100
AcDbEntity
  8
7
100
AcDbLine
 10
1.67729551669685
 20
7.337806266901575
 30
0.0
 11
1.645797533688976
 21
7.311557947728346
 31
0.0
  0
LINE
  5
3CEF
330
1E
100
AcDbEntity
  8
7
100
AcDbLine
 10
1.645797533688976
 20
7.311557947728346
 30
0.0
 11
1.62217404643307
 21
7.278747548761811
 31
0.0
  0
LINE
  5
3CF0
330
1E
100
AcDbEntity
  8
7
100
AcDbLine
 10
1.62217404643307
 20
7.278747548761811
 30
0.0
 11
1.607737470887795
 21
7.239375070001967
 31
0.0
  0
LINE
  5
3CF1
330
1E
100
AcDbEntity
  8
7
100
AcDbLine
 10
1.607737470887795
 20
7.239375070001967
 30
0.0
 11
1.605112638970472
 21
7.198690175283464
 31
0.0
  0
LINE
  5
3CF2
330
1E
100
AcDbEntity
  8
7
100
AcDbLine
 10
1.605112638970472
 20
7.198690175283464
 30
0.0
 11
1.614299550681102
 21
7.15800528056496
 31
0.0
  0
LINE
  5
3CF3
330
1E
100
AcDbEntity
  8
7
100
AcDbLine
 10
1.614299550681102
 20
7.15800528056496
 30
0.0
 11
1.632673374102362
 21
7.121257633722441
 31
0.0
  0
LINE
  5
3CF4
330
1E
100
AcDbEntity
  8
7
100
AcDbLine
 10
1.632673374102362
 20
7.121257633722441
 30
0.0
 11
1.661546525192913
 21
7.091072066673229
 31
0.0
  0
LINE
  5
3CF5
330
1E
100
AcDbEntity
  8
7
100
AcDbLine
 10
0.9292184202598425
 20
7.004452613401574
 30
0.0
 11
1.736354234836614
 21
7.004452613401574
 31
0.0
  0
LINE
  5
3CF6
330
1E
100
AcDbEntity
  8
7
100
AcDbLine
 10
1.736354234836614
 20
7.004452613401574
 30
0.0
 11
1.736354234836614
 21
7.058261667706692
 31
0.0
  0
LINE
  5
3CF7
330
1E
100
AcDbEntity
  8
7
100
AcDbLine
 10
2.703604796370078
 20
7.003140197442913
 30
0.0
 11
2.703604796370078
 21
7.004452613401574
 31
0.0
  0
LINE
  5
3CF8
330
1E
100
AcDbEntity
  8
7
100
AcDbLine
 10
2.703604796370078
 20
7.004452613401574
 30
0.0
 11
2.703604796370078
 21
7.413926392503936
 31
0.0
  0
LINE
  5
3CF9
330
1E
100
AcDbEntity
  8
7
100
AcDbLine
 10
2.837471224153543
 20
7.424425720173228
 30
0.0
 11
2.836158808194881
 21
7.424425720173228
 31
0.0
  0
LINE
  5
3CFA
330
1E
100
AcDbEntity
  8
7
100
AcDbLine
 10
2.836158808194881
 20
7.424425720173228
 30
0.0
 11
2.836158808194881
 21
6.993953285732283
 31
0.0
  0
LINE
  5
3CFB
330
1E
100
AcDbEntity
  8
7
100
AcDbLine
 10
2.836158808194881
 20
6.993953285732283
 30
0.0
 11
2.837471224153543
 21
6.992640869773621
 31
0.0
  0
LINE
  5
3CFC
330
1E
100
AcDbEntity
  8
7
100
AcDbLine
 10
2.744289691088582
 20
7.003140197442913
 30
0.0
 11
2.75085177088189
 21
7.005765029360235
 31
0.0
  0
LINE
  5
3CFD
330
1E
100
AcDbEntity
  8
7
100
AcDbLine
 10
2.75085177088189
 20
7.005765029360235
 30
0.0
 11
2.753476602799212
 21
7.012327109153543
 31
0.0
  0
LINE
  5
3CFE
330
1E
100
AcDbEntity
  8
7
100
AcDbLine
 10
2.744289691088582
 20
7.003140197442913
 30
0.0
 11
2.75085177088189
 21
7.005765029360235
 31
0.0
  0
LINE
  5
3CFF
330
1E
100
AcDbEntity
  8
7
100
AcDbLine
 10
2.75085177088189
 20
7.005765029360235
 30
0.0
 11
2.753476602799212
 21
7.012327109153543
 31
0.0
  0
LINE
  5
3D00
330
1E
100
AcDbEntity
  8
7
100
AcDbLine
 10
2.753476602799212
 20
7.404739480793306
 30
0.0
 11
2.75085177088189
 21
7.411301560586613
 31
0.0
  0
LINE
  5
3D01
330
1E
100
AcDbEntity
  8
7
100
AcDbLine
 10
2.75085177088189
 20
7.411301560586613
 30
0.0
 11
2.744289691088582
 21
7.413926392503936
 31
0.0
  0
LINE
  5
3D02
330
1E
100
AcDbEntity
  8
7
100
AcDbLine
 10
2.753476602799212
 20
7.404739480793306
 30
0.0
 11
2.75085177088189
 21
7.411301560586613
 31
0.0
  0
LINE
  5
3D03
330
1E
100
AcDbEntity
  8
7
100
AcDbLine
 10
2.75085177088189
 20
7.411301560586613
 30
0.0
 11
2.744289691088582
 21
7.413926392503936
 31
0.0
  0
LINE
  5
3D04
330
1E
100
AcDbEntity
  8
7
100
AcDbLine
 10
0.4711852506870083
 20
7.818150507771653
 30
0.0
 11
0.461998338976378
 21
7.816838091812991
 31
0.0
  0
LINE
  5
3D05
330
1E
100
AcDbEntity
  8
7
100
AcDbLine
 10
0.461998338976378
 20
7.816838091812991
 30
0.0
 11
0.4528114272657478
 21
7.811588427978346
 31
0.0
  0
LINE
  5
3D06
330
1E
100
AcDbEntity
  8
7
100
AcDbLine
 10
0.4528114272657478
 20
7.811588427978346
 30
0.0
 11
0.446249347472441
 21
7.805026348185039
 31
0.0
  0
LINE
  5
3D07
330
1E
100
AcDbEntity
  8
7
100
AcDbLine
 10
0.446249347472441
 20
7.805026348185039
 30
0.0
 11
0.4423120995964567
 21
7.795839436474409
 31
0.0
  0
LINE
  5
3D08
330
1E
100
AcDbEntity
  8
7
100
AcDbLine
 10
0.5617419518346454
 20
7.633099857600393
 30
0.0
 11
0.590615102925197
 21
7.668535088484253
 31
0.0
  0
LINE
  5
3D09
330
1E
100
AcDbEntity
  8
7
100
AcDbLine
 10
0.590615102925197
 20
7.668535088484253
 30
0.0
 11
0.6260503338090553
 21
7.697408239574802
 31
0.0
  0
LINE
  5
3D0A
330
1E
100
AcDbEntity
  8
7
100
AcDbLine
 10
1.139204973645669
 20
6.89027242499803
 30
0.0
 11
1.139204973645669
 21
6.916520744171259
 31
0.0
  0
LINE
  5
3D0B
330
1E
100
AcDbEntity
  8
7
100
AcDbLine
 10
1.139204973645669
 20
6.916520744171259
 30
0.0
 11
1.139204973645669
 21
6.936206983551181
 31
0.0
  0
LINE
  5
3D0C
330
1E
100
AcDbEntity
  8
7
100
AcDbLine
 10
1.139204973645669
 20
6.936206983551181
 30
0.0
 11
1.139204973645669
 21
6.94408147930315
 31
0.0
  0
LINE
  5
3D0D
330
1E
100
AcDbEntity
  8
7
100
AcDbLine
 10
1.383314341956693
 20
6.89027242499803
 30
0.0
 11
1.383314341956693
 21
6.916520744171259
 31
0.0
  0
LINE
  5
3D0E
330
1E
100
AcDbEntity
  8
7
100
AcDbLine
 10
1.383314341956693
 20
6.916520744171259
 30
0.0
 11
1.383314341956693
 21
6.936206983551181
 31
0.0
  0
LINE
  5
3D0F
330
1E
100
AcDbEntity
  8
7
100
AcDbLine
 10
1.746853562505905
 20
6.962455302724409
 30
0.0
 11
1.745541146547244
 21
6.95458080697244
 31
0.0
  0
LINE
  5
3D10
330
1E
100
AcDbEntity
  8
7
100
AcDbLine
 10
1.745541146547244
 20
6.95458080697244
 30
0.0
 11
1.741603898671259
 21
6.948018727179134
 31
0.0
  0
LINE
  5
3D11
330
1E
100
AcDbEntity
  8
7
100
AcDbLine
 10
1.889906901999999
 20
6.948018727179134
 30
0.0
 11
1.887282070082677
 21
6.955893222931102
 31
0.0
  0
LINE
  5
3D12
330
1E
100
AcDbEntity
  8
7
100
AcDbLine
 10
1.887282070082677
 20
6.955893222931102
 30
0.0
 11
1.885969654124016
 21
6.962455302724409
 31
0.0
  0
LINE
  5
3D13
330
1E
100
AcDbEntity
  8
7
100
AcDbLine
 10
1.746853562505905
 20
6.962455302724409
 30
0.0
 11
1.746853562505905
 21
6.99132845381496
 31
0.0
  0
LINE
  5
3D14
330
1E
100
AcDbEntity
  8
7
100
AcDbLine
 10
1.746853562505905
 20
6.99132845381496
 30
0.0
 11
1.746853562505905
 21
7.001827781484252
 31
0.0
  0
LINE
  5
3D15
330
1E
100
AcDbEntity
  8
7
100
AcDbLine
 10
1.885969654124016
 20
6.962455302724409
 30
0.0
 11
1.885969654124016
 21
6.99132845381496
 31
0.0
  0
LINE
  5
3D16
330
1E
100
AcDbEntity
  8
7
100
AcDbLine
 10
1.885969654124016
 20
6.99132845381496
 30
0.0
 11
1.885969654124016
 21
7.001827781484252
 31
0.0
  0
LINE
  5
3D17
330
1E
100
AcDbEntity
  8
7
100
AcDbLine
 10
1.746853562505905
 20
7.001827781484252
 30
0.0
 11
1.746853562505905
 21
7.007077445318897
 31
0.0
  0
LINE
  5
3D18
330
1E
100
AcDbEntity
  8
7
100
AcDbLine
 10
1.746853562505905
 20
7.007077445318897
 30
0.0
 11
1.746853562505905
 21
7.020201604905511
 31
0.0
  0
LINE
  5
3D19
330
1E
100
AcDbEntity
  8
7
100
AcDbLine
 10
1.885969654124016
 20
7.001827781484252
 30
0.0
 11
1.885969654124016
 21
7.007077445318897
 31
0.0
  0
LINE
  5
3D1A
330
1E
100
AcDbEntity
  8
7
100
AcDbLine
 10
1.885969654124016
 20
7.007077445318897
 30
0.0
 11
1.885969654124016
 21
7.020201604905511
 31
0.0
  0
LINE
  5
3D1B
330
1E
100
AcDbEntity
  8
7
100
AcDbLine
 10
1.775726713596456
 20
7.129132129474409
 30
0.0
 11
1.754728058257874
 21
7.121257633722441
 31
0.0
  0
LINE
  5
3D1C
330
1E
100
AcDbEntity
  8
7
100
AcDbLine
 10
1.754728058257874
 20
7.121257633722441
 30
0.0
 11
1.746853562505905
 21
7.100258978383859
 31
0.0
  0
LINE
  5
3D1D
330
1E
100
AcDbEntity
  8
7
100
AcDbLine
 10
1.884657238165354
 20
7.100258978383859
 30
0.0
 11
1.876782742413385
 21
7.121257633722441
 31
0.0
  0
LINE
  5
3D1E
330
1E
100
AcDbEntity
  8
7
100
AcDbLine
 10
1.876782742413385
 20
7.121257633722441
 30
0.0
 11
1.855784087074803
 21
7.129132129474409
 31
0.0
  0
LINE
  5
3D1F
330
1E
100
AcDbEntity
  8
7
100
AcDbLine
 10
2.248196458714567
 20
6.89027242499803
 30
0.0
 11
2.248196458714567
 21
6.916520744171259
 31
0.0
  0
LINE
  5
3D20
330
1E
100
AcDbEntity
  8
7
100
AcDbLine
 10
2.248196458714567
 20
6.916520744171259
 30
0.0
 11
2.248196458714567
 21
6.936206983551181
 31
0.0
  0
LINE
  5
3D21
330
1E
100
AcDbEntity
  8
7
100
AcDbLine
 10
2.248196458714567
 20
6.936206983551181
 30
0.0
 11
2.248196458714567
 21
6.94408147930315
 31
0.0
  0
LINE
  5
3D22
330
1E
100
AcDbEntity
  8
7
100
AcDbLine
 10
2.493618242984251
 20
6.89027242499803
 30
0.0
 11
2.493618242984251
 21
6.916520744171259
 31
0.0
  0
LINE
  5
3D23
330
1E
100
AcDbEntity
  8
7
100
AcDbLine
 10
2.493618242984251
 20
6.916520744171259
 30
0.0
 11
2.493618242984251
 21
6.936206983551181
 31
0.0
  0
LINE
  5
3D24
330
1E
100
AcDbEntity
  8
7
100
AcDbLine
 10
2.493618242984251
 20
6.936206983551181
 30
0.0
 11
2.493618242984251
 21
6.94408147930315
 31
0.0
  0
LINE
  5
3D25
330
1E
100
AcDbEntity
  8
7
100
AcDbLine
 10
0.6260503338090553
 20
7.633099857600393
 30
0.0
 11
0.6260503338090553
 21
7.667222672525589
 31
0.0
  0
LINE
  5
3D26
330
1E
100
AcDbEntity
  8
7
100
AcDbLine
 10
0.6260503338090553
 20
7.667222672525589
 30
0.0
 11
0.6260503338090553
 21
7.697408239574802
 31
0.0
  0
LINE
  5
3D27
330
1E
100
AcDbEntity
  8
7
100
AcDbLine
 10
0.5053080656122049
 20
7.818150507771653
 30
0.0
 11
0.6260503338090553
 21
7.697408239574802
 31
0.0
  0
LINE
  5
3D28
330
1E
100
AcDbEntity
  8
7
100
AcDbLine
 10
0.6260503338090553
 20
7.697408239574802
 30
0.0
 11
3.005460466862204
 21
7.697408239574802
 31
0.0
  0
LINE
  5
3D29
330
1E
100
AcDbEntity
  8
7
100
AcDbLine
 10
3.191823532992126
 20
7.78796494072244
 30
0.0
 11
3.189198701074803
 21
7.798464268391732
 31
0.0
  0
LINE
  5
3D2A
330
1E
100
AcDbEntity
  8
7
100
AcDbLine
 10
3.189198701074803
 20
7.798464268391732
 30
0.0
 11
3.185261453198818
 21
7.806338764143701
 31
0.0
  0
LINE
  5
3D2B
330
1E
100
AcDbEntity
  8
7
100
AcDbLine
 10
3.185261453198818
 20
7.806338764143701
 30
0.0
 11
3.178699373405511
 21
7.812900843937007
 31
0.0
  0
LINE
  5
3D2C
330
1E
100
AcDbEntity
  8
7
100
AcDbLine
 10
3.178699373405511
 20
7.812900843937007
 30
0.0
 11
3.169512461694881
 21
7.816838091812991
 31
0.0
  0
LINE
  5
3D2D
330
1E
100
AcDbEntity
  8
7
100
AcDbLine
 10
3.169512461694881
 20
7.816838091812991
 30
0.0
 11
3.161637965942913
 21
7.818150507771653
 31
0.0
  0
LINE
  5
3D2E
330
1E
100
AcDbEntity
  8
7
100
AcDbLine
 10
3.005460466862204
 20
7.633099857600393
 30
0.0
 11
3.005460466862204
 21
7.667222672525589
 31
0.0
  0
LINE
  5
3D2F
330
1E
100
AcDbEntity
  8
7
100
AcDbLine
 10
3.005460466862204
 20
7.667222672525589
 30
0.0
 11
3.005460466862204
 21
7.697408239574802
 31
0.0
  0
LINE
  5
3D30
330
1E
100
AcDbEntity
  8
7
100
AcDbLine
 10
3.069768848836614
 20
7.633099857600393
 30
0.0
 11
3.042208113704724
 21
7.668535088484253
 31
0.0
  0
LINE
  5
3D31
330
1E
100
AcDbEntity
  8
7
100
AcDbLine
 10
3.042208113704724
 20
7.668535088484253
 30
0.0
 11
3.005460466862204
 21
7.697408239574802
 31
0.0
  0
LINE
  5
3D32
330
1E
100
AcDbEntity
  8
7
100
AcDbLine
 10
1.746853562505905
 20
4.037080130868109
 30
0.0
 11
1.754728058257874
 21
4.016081475529527
 31
0.0
  0
LINE
  5
3D33
330
1E
100
AcDbEntity
  8
7
100
AcDbLine
 10
1.754728058257874
 20
4.016081475529527
 30
0.0
 11
1.775726713596456
 21
4.008206979777559
 31
0.0
  0
LINE
  5
3D34
330
1E
100
AcDbEntity
  8
7
100
AcDbLine
 10
1.855784087074803
 20
4.008206979777559
 30
0.0
 11
1.876782742413385
 21
4.016081475529527
 31
0.0
  0
LINE
  5
3D35
330
1E
100
AcDbEntity
  8
7
100
AcDbLine
 10
1.876782742413385
 20
4.016081475529527
 30
0.0
 11
1.884657238165354
 21
4.037080130868109
 31
0.0
  0
LINE
  5
3D36
330
1E
100
AcDbEntity
  8
7
100
AcDbLine
 10
1.885969654124016
 20
4.134198911809054
 30
0.0
 11
1.885969654124016
 21
4.128949247974409
 31
0.0
  0
LINE
  5
3D37
330
1E
100
AcDbEntity
  8
7
100
AcDbLine
 10
1.885969654124016
 20
4.128949247974409
 30
0.0
 11
1.885969654124016
 21
4.117137504346456
 31
0.0
  0
LINE
  5
3D38
330
1E
100
AcDbEntity
  8
7
100
AcDbLine
 10
1.885969654124016
 20
4.117137504346456
 30
0.0
 11
1.746853562505905
 21
4.117137504346456
 31
0.0
  0
LINE
  5
3D39
330
1E
100
AcDbEntity
  8
7
100
AcDbLine
 10
1.746853562505905
 20
4.117137504346456
 30
0.0
 11
1.746853562505905
 21
4.037080130868109
 31
0.0
  0
LINE
  5
3D3A
330
1E
100
AcDbEntity
  8
7
100
AcDbLine
 10
1.746853562505905
 20
4.134198911809054
 30
0.0
 11
1.746853562505905
 21
4.128949247974409
 31
0.0
  0
LINE
  5
3D3B
330
1E
100
AcDbEntity
  8
7
100
AcDbLine
 10
1.746853562505905
 20
4.128949247974409
 30
0.0
 11
1.746853562505905
 21
4.117137504346456
 31
0.0
  0
LINE
  5
3D3C
330
1E
100
AcDbEntity
  8
7
100
AcDbLine
 10
1.885969654124016
 20
4.173571390568898
 30
0.0
 11
1.887282070082677
 21
4.182758302279527
 31
0.0
  0
LINE
  5
3D3D
330
1E
100
AcDbEntity
  8
7
100
AcDbLine
 10
1.887282070082677
 20
4.182758302279527
 30
0.0
 11
1.889906901999999
 21
4.188007966114172
 31
0.0
  0
LINE
  5
3D3E
330
1E
100
AcDbEntity
  8
7
100
AcDbLine
 10
1.741603898671259
 20
4.188007966114172
 30
0.0
 11
1.745541146547244
 21
4.180133470362204
 31
0.0
  0
LINE
  5
3D3F
330
1E
100
AcDbEntity
  8
7
100
AcDbLine
 10
1.745541146547244
 20
4.180133470362204
 30
0.0
 11
1.746853562505905
 21
4.173571390568898
 31
0.0
  0
LINE
  5
3D40
330
1E
100
AcDbEntity
  8
7
100
AcDbLine
 10
1.746853562505905
 20
4.173571390568898
 30
0.0
 11
1.746853562505905
 21
4.146010655437007
 31
0.0
  0
LINE
  5
3D41
330
1E
100
AcDbEntity
  8
7
100
AcDbLine
 10
1.746853562505905
 20
4.146010655437007
 30
0.0
 11
1.746853562505905
 21
4.134198911809054
 31
0.0
  0
LINE
  5
3D42
330
1E
100
AcDbEntity
  8
7
100
AcDbLine
 10
2.328253832192913
 20
4.247066684253937
 30
0.0
 11
2.328253832192913
 21
4.219505949122046
 31
0.0
  0
LINE
  5
3D43
330
1E
100
AcDbEntity
  8
7
100
AcDbLine
 10
2.328253832192913
 20
4.219505949122046
 30
0.0
 11
2.328253832192913
 21
4.199819709742126
 31
0.0
  0
LINE
  5
3D44
330
1E
100
AcDbEntity
  8
7
100
AcDbLine
 10
2.328253832192913
 20
4.199819709742126
 30
0.0
 11
2.328253832192913
 21
4.191945213990157
 31
0.0
  0
LINE
  5
3D45
330
1E
100
AcDbEntity
  8
7
100
AcDbLine
 10
2.328253832192913
 20
4.191945213990157
 30
0.0
 11
2.573675616462598
 21
4.191945213990157
 31
0.0
  0
LINE
  5
3D46
330
1E
100
AcDbEntity
  8
7
100
AcDbLine
 10
2.573675616462598
 20
4.247066684253937
 30
0.0
 11
2.573675616462598
 21
4.219505949122046
 31
0.0
  0
LINE
  5
3D47
330
1E
100
AcDbEntity
  8
7
100
AcDbLine
 10
2.573675616462598
 20
4.219505949122046
 30
0.0
 11
2.573675616462598
 21
4.199819709742126
 31
0.0
  0
LINE
  5
3D48
330
1E
100
AcDbEntity
  8
7
100
AcDbLine
 10
2.573675616462598
 20
4.199819709742126
 30
0.0
 11
2.573675616462598
 21
4.191945213990157
 31
0.0
  0
LINE
  5
3D49
330
1E
100
AcDbEntity
  8
7
100
AcDbLine
 10
1.303256968478346
 20
4.199819709742126
 30
0.0
 11
1.303256968478346
 21
4.191945213990157
 31
0.0
  0
LINE
  5
3D4A
330
1E
100
AcDbEntity
  8
7
100
AcDbLine
 10
1.303256968478346
 20
4.191945213990157
 30
0.0
 11
1.059147600167322
 21
4.191945213990157
 31
0.0
  0
LINE
  5
3D4B
330
1E
100
AcDbEntity
  8
7
100
AcDbLine
 10
1.303256968478346
 20
4.247066684253937
 30
0.0
 11
1.303256968478346
 21
4.219505949122046
 31
0.0
  0
LINE
  5
3D4C
330
1E
100
AcDbEntity
  8
7
100
AcDbLine
 10
1.303256968478346
 20
4.219505949122046
 30
0.0
 11
1.303256968478346
 21
4.199819709742126
 31
0.0
  0
LINE
  5
3D4D
330
1E
100
AcDbEntity
  8
7
100
AcDbLine
 10
1.059147600167322
 20
4.247066684253937
 30
0.0
 11
1.059147600167322
 21
4.219505949122046
 31
0.0
  0
LINE
  5
3D4E
330
1E
100
AcDbEntity
  8
7
100
AcDbLine
 10
1.059147600167322
 20
4.219505949122046
 30
0.0
 11
1.059147600167322
 21
4.199819709742126
 31
0.0
  0
LINE
  5
3D4F
330
1E
100
AcDbEntity
  8
7
100
AcDbLine
 10
1.059147600167322
 20
4.199819709742126
 30
0.0
 11
1.059147600167322
 21
4.191945213990157
 31
0.0
  0
LINE
  5
3D50
330
1E
100
AcDbEntity
  8
7
100
AcDbLine
 10
0.5617419518346454
 20
7.633099857600393
 30
0.0
 11
0.5919275188838587
 21
7.633099857600393
 31
0.0
  0
LINE
  5
3D51
330
1E
100
AcDbEntity
  8
7
100
AcDbLine
 10
0.5919275188838587
 20
7.633099857600393
 30
0.0
 11
0.6260503338090553
 21
7.633099857600393
 31
0.0
  0
LINE
  5
3D52
330
1E
100
AcDbEntity
  8
7
100
AcDbLine
 10
0.4409996836377959
 20
3.382184567496062
 30
0.0
 11
0.4409996836377959
 21
3.348061752570866
 31
0.0
  0
LINE
  5
3D53
330
1E
100
AcDbEntity
  8
7
100
AcDbLine
 10
0.4409996836377959
 20
3.348061752570866
 30
0.0
 11
0.4423120995964567
 21
3.338874840860236
 31
0.0
  0
LINE
  5
3D54
330
1E
100
AcDbEntity
  8
7
100
AcDbLine
 10
0.4423120995964567
 20
3.338874840860236
 30
0.0
 11
0.4475617634311018
 21
3.329687929149605
 31
0.0
  0
LINE
  5
3D55
330
1E
100
AcDbEntity
  8
7
100
AcDbLine
 10
0.4475617634311018
 20
3.329687929149605
 30
0.0
 11
0.4541238432244095
 21
3.323125849356299
 31
0.0
  0
LINE
  5
3D56
330
1E
100
AcDbEntity
  8
7
100
AcDbLine
 10
0.4541238432244095
 20
3.323125849356299
 30
0.0
 11
0.4633107549350389
 21
3.319188601480314
 31
0.0
  0
LINE
  5
3D57
330
1E
100
AcDbEntity
  8
7
100
AcDbLine
 10
0.4633107549350389
 20
3.319188601480314
 30
0.0
 11
0.4711852506870083
 21
3.317876185521653
 31
0.0
  0
LINE
  5
3D58
330
1E
100
AcDbEntity
  8
7
100
AcDbLine
 10
0.5617419518346454
 20
3.502926835692913
 30
0.0
 11
0.590615102925197
 21
3.467491604809055
 31
0.0
  0
LINE
  5
3D59
330
1E
100
AcDbEntity
  8
7
100
AcDbLine
 10
0.590615102925197
 20
3.467491604809055
 30
0.0
 11
0.6260503338090553
 21
3.438618453718503
 31
0.0
  0
LINE
  5
3D5A
330
1E
100
AcDbEntity
  8
7
100
AcDbLine
 10
0.5617419518346454
 20
3.502926835692913
 30
0.0
 11
0.5919275188838587
 21
3.502926835692913
 31
0.0
  0
LINE
  5
3D5B
330
1E
100
AcDbEntity
  8
7
100
AcDbLine
 10
0.5919275188838587
 20
3.502926835692913
 30
0.0
 11
0.6260503338090553
 21
3.502926835692913
 31
0.0
  0
LINE
  5
3D5C
330
1E
100
AcDbEntity
  8
7
100
AcDbLine
 10
0.5617419518346454
 20
7.633099857600393
 30
0.0
 11
0.4409996836377959
 21
7.753842125797244
 31
0.0
  0
LINE
  5
3D5D
330
1E
100
AcDbEntity
  8
7
100
AcDbLine
 10
0.4409996836377959
 20
7.753842125797244
 30
0.0
 11
0.4409996836377959
 21
3.382184567496062
 31
0.0
  0
LINE
  5
3D5E
330
1E
100
AcDbEntity
  8
7
100
AcDbLine
 10
0.6260503338090553
 20
3.468804020767716
 30
0.0
 11
0.6260503338090553
 21
3.438618453718503
 31
0.0
  0
LINE
  5
3D5F
330
1E
100
AcDbEntity
  8
7
100
AcDbLine
 10
0.6260503338090553
 20
3.438618453718503
 30
0.0
 11
3.005460466862204
 21
3.438618453718503
 31
0.0
  0
LINE
  5
3D60
330
1E
100
AcDbEntity
  8
7
100
AcDbLine
 10
2.752164186840551
 20
5.845589321903544
 30
0.0
 11
2.760038682592519
 21
5.849526569779527
 31
0.0
  0
LINE
  5
3D61
330
1E
100
AcDbEntity
  8
7
100
AcDbLine
 10
2.760038682592519
 20
5.849526569779527
 30
0.0
 11
2.763975930468504
 21
5.857401065531496
 31
0.0
  0
LINE
  5
3D62
330
1E
100
AcDbEntity
  8
7
100
AcDbLine
 10
2.763975930468504
 20
6.493922805482283
 30
0.0
 11
2.760038682592519
 21
6.501797301234252
 31
0.0
  0
LINE
  5
3D63
330
1E
100
AcDbEntity
  8
7
100
AcDbLine
 10
2.760038682592519
 20
6.501797301234252
 30
0.0
 11
2.752164186840551
 21
6.505734549110235
 31
0.0
  0
LINE
  5
3D64
330
1E
100
AcDbEntity
  8
7
100
AcDbLine
 10
2.151077677773622
 20
6.505734549110235
 30
0.0
 11
2.143203182021653
 21
6.501797301234252
 31
0.0
  0
LINE
  5
3D65
330
1E
100
AcDbEntity
  8
7
100
AcDbLine
 10
2.143203182021653
 20
6.501797301234252
 30
0.0
 11
2.139265934145669
 21
6.493922805482283
 31
0.0
  0
LINE
  5
3D66
330
1E
100
AcDbEntity
  8
7
100
AcDbLine
 10
2.139265934145669
 20
5.857401065531496
 30
0.0
 11
2.143203182021653
 21
5.849526569779527
 31
0.0
  0
LINE
  5
3D67
330
1E
100
AcDbEntity
  8
7
100
AcDbLine
 10
2.143203182021653
 20
5.849526569779527
 30
0.0
 11
2.151077677773622
 21
5.845589321903544
 31
0.0
  0
LINE
  5
3D68
330
1E
100
AcDbEntity
  8
7
100
AcDbLine
 10
2.206199148037401
 20
5.83377757827559
 30
0.0
 11
2.202261900161417
 21
5.841652074027559
 31
0.0
  0
LINE
  5
3D69
330
1E
100
AcDbEntity
  8
7
100
AcDbLine
 10
2.202261900161417
 20
5.841652074027559
 30
0.0
 11
2.194387404409448
 21
5.845589321903544
 31
0.0
  0
LINE
  5
3D6A
330
1E
100
AcDbEntity
  8
7
100
AcDbLine
 10
2.206199148037401
 20
5.793092683557087
 30
0.0
 11
2.210136395913385
 21
5.785218187805117
 31
0.0
  0
LINE
  5
3D6B
330
1E
100
AcDbEntity
  8
7
100
AcDbLine
 10
2.210136395913385
 20
5.785218187805117
 30
0.0
 11
2.218010891665354
 21
5.781280939929133
 31
0.0
  0
LINE
  5
3D6C
330
1E
100
AcDbEntity
  8
7
100
AcDbLine
 10
2.683918556990157
 20
5.781280939929133
 30
0.0
 11
2.691793052742125
 21
5.785218187805117
 31
0.0
  0
LINE
  5
3D6D
330
1E
100
AcDbEntity
  8
7
100
AcDbLine
 10
2.691793052742125
 20
5.785218187805117
 30
0.0
 11
2.69573030061811
 21
5.793092683557087
 31
0.0
  0
LINE
  5
3D6E
330
1E
100
AcDbEntity
  8
7
100
AcDbLine
 10
2.708854460204724
 20
5.845589321903544
 30
0.0
 11
2.700979964452755
 21
5.841652074027559
 31
0.0
  0
LINE
  5
3D6F
330
1E
100
AcDbEntity
  8
7
100
AcDbLine
 10
2.700979964452755
 20
5.841652074027559
 30
0.0
 11
2.697042716576771
 21
5.83377757827559
 31
0.0
  0
LINE
  5
3D70
330
1E
100
AcDbEntity
  8
7
100
AcDbLine
 10
2.206199148037401
 20
4.643416303769685
 30
0.0
 11
2.210136395913385
 21
4.635541808017715
 31
0.0
  0
LINE
  5
3D71
330
1E
100
AcDbEntity
  8
7
100
AcDbLine
 10
2.210136395913385
 20
4.635541808017715
 30
0.0
 11
2.218010891665354
 21
4.631604560141732
 31
0.0
  0
LINE
  5
3D72
330
1E
100
AcDbEntity
  8
7
100
AcDbLine
 10
2.683918556990157
 20
4.631604560141732
 30
0.0
 11
2.691793052742125
 21
4.635541808017715
 31
0.0
  0
LINE
  5
3D73
330
1E
100
AcDbEntity
  8
7
100
AcDbLine
 10
2.691793052742125
 20
4.635541808017715
 30
0.0
 11
2.69573030061811
 21
4.643416303769685
 31
0.0
  0
LINE
  5
3D74
330
1E
100
AcDbEntity
  8
7
100
AcDbLine
 10
2.708854460204724
 20
4.695912942116141
 30
0.0
 11
2.700979964452755
 21
4.691975694240157
 31
0.0
  0
LINE
  5
3D75
330
1E
100
AcDbEntity
  8
7
100
AcDbLine
 10
2.700979964452755
 20
4.691975694240157
 30
0.0
 11
2.697042716576771
 21
4.684101198488189
 31
0.0
  0
LINE
  5
3D76
330
1E
100
AcDbEntity
  8
7
100
AcDbLine
 10
2.752164186840551
 20
4.695912942116141
 30
0.0
 11
2.760038682592519
 21
4.699850189992126
 31
0.0
  0
LINE
  5
3D77
330
1E
100
AcDbEntity
  8
7
100
AcDbLine
 10
2.760038682592519
 20
4.699850189992126
 30
0.0
 11
2.763975930468504
 21
4.707724685744094
 31
0.0
  0
LINE
  5
3D78
330
1E
100
AcDbEntity
  8
7
100
AcDbLine
 10
2.763975930468504
 20
5.344246425694881
 30
0.0
 11
2.760038682592519
 21
5.35212092144685
 31
0.0
  0
LINE
  5
3D79
330
1E
100
AcDbEntity
  8
7
100
AcDbLine
 10
2.760038682592519
 20
5.35212092144685
 30
0.0
 11
2.752164186840551
 21
5.356058169322834
 31
0.0
  0
LINE
  5
3D7A
330
1E
100
AcDbEntity
  8
7
100
AcDbLine
 10
2.151077677773622
 20
5.356058169322834
 30
0.0
 11
2.143203182021653
 21
5.35212092144685
 31
0.0
  0
LINE
  5
3D7B
330
1E
100
AcDbEntity
  8
7
100
AcDbLine
 10
2.143203182021653
 20
5.35212092144685
 30
0.0
 11
2.139265934145669
 21
5.344246425694881
 31
0.0
  0
LINE
  5
3D7C
330
1E
100
AcDbEntity
  8
7
100
AcDbLine
 10
2.139265934145669
 20
4.707724685744094
 30
0.0
 11
2.143203182021653
 21
4.699850189992126
 31
0.0
  0
LINE
  5
3D7D
330
1E
100
AcDbEntity
  8
7
100
AcDbLine
 10
2.143203182021653
 20
4.699850189992126
 30
0.0
 11
2.151077677773622
 21
4.695912942116141
 31
0.0
  0
LINE
  5
3D7E
330
1E
100
AcDbEntity
  8
7
100
AcDbLine
 10
2.206199148037401
 20
4.684101198488189
 30
0.0
 11
2.202261900161417
 21
4.691975694240157
 31
0.0
  0
LINE
  5
3D7F
330
1E
100
AcDbEntity
  8
7
100
AcDbLine
 10
2.202261900161417
 20
4.691975694240157
 30
0.0
 11
2.194387404409448
 21
4.695912942116141
 31
0.0
  0
LINE
  5
3D80
330
1E
100
AcDbEntity
  8
7
100
AcDbLine
 10
1.481745538856299
 20
4.695912942116141
 30
0.0
 11
1.489620034608267
 21
4.699850189992126
 31
0.0
  0
LINE
  5
3D81
330
1E
100
AcDbEntity
  8
7
100
AcDbLine
 10
1.489620034608267
 20
4.699850189992126
 30
0.0
 11
1.493557282484252
 21
4.707724685744094
 31
0.0
  0
LINE
  5
3D82
330
1E
100
AcDbEntity
  8
7
100
AcDbLine
 10
1.493557282484252
 20
5.344246425694881
 30
0.0
 11
1.489620034608267
 21
5.35212092144685
 31
0.0
  0
LINE
  5
3D83
330
1E
100
AcDbEntity
  8
7
100
AcDbLine
 10
1.489620034608267
 20
5.35212092144685
 30
0.0
 11
1.481745538856299
 21
5.356058169322834
 31
0.0
  0
LINE
  5
3D84
330
1E
100
AcDbEntity
  8
7
100
AcDbLine
 10
0.8806590297893697
 20
5.356058169322834
 30
0.0
 11
0.872784534037402
 21
5.35212092144685
 31
0.0
  0
LINE
  5
3D85
330
1E
100
AcDbEntity
  8
7
100
AcDbLine
 10
0.872784534037402
 20
5.35212092144685
 30
0.0
 11
0.8688472861614169
 21
5.344246425694881
 31
0.0
  0
LINE
  5
3D86
330
1E
100
AcDbEntity
  8
7
100
AcDbLine
 10
0.8688472861614169
 20
4.707724685744094
 30
0.0
 11
0.872784534037402
 21
4.699850189992126
 31
0.0
  0
LINE
  5
3D87
330
1E
100
AcDbEntity
  8
7
100
AcDbLine
 10
0.872784534037402
 20
4.699850189992126
 30
0.0
 11
0.8806590297893697
 21
4.695912942116141
 31
0.0
  0
LINE
  5
3D88
330
1E
100
AcDbEntity
  8
7
100
AcDbLine
 10
0.9357805000531499
 20
4.684101198488189
 30
0.0
 11
0.9318432521771651
 21
4.691975694240157
 31
0.0
  0
LINE
  5
3D89
330
1E
100
AcDbEntity
  8
7
100
AcDbLine
 10
0.9318432521771651
 20
4.691975694240157
 30
0.0
 11
0.9239687564251966
 21
4.695912942116141
 31
0.0
  0
LINE
  5
3D8A
330
1E
100
AcDbEntity
  8
7
100
AcDbLine
 10
0.9357805000531499
 20
4.643416303769685
 30
0.0
 11
0.9397177479291336
 21
4.635541808017715
 31
0.0
  0
LINE
  5
3D8B
330
1E
100
AcDbEntity
  8
7
100
AcDbLine
 10
0.9397177479291336
 20
4.635541808017715
 30
0.0
 11
0.9475922436811021
 21
4.631604560141732
 31
0.0
  0
LINE
  5
3D8C
330
1E
100
AcDbEntity
  8
7
100
AcDbLine
 10
1.414812324964567
 20
4.631604560141732
 30
0.0
 11
1.422686820716535
 21
4.635541808017715
 31
0.0
  0
LINE
  5
3D8D
330
1E
100
AcDbEntity
  8
7
100
AcDbLine
 10
1.422686820716535
 20
4.635541808017715
 30
0.0
 11
1.426624068592519
 21
4.643416303769685
 31
0.0
  0
LINE
  5
3D8E
330
1E
100
AcDbEntity
  8
7
100
AcDbLine
 10
1.438435812220472
 20
4.695912942116141
 30
0.0
 11
1.430561316468504
 21
4.691975694240157
 31
0.0
  0
LINE
  5
3D8F
330
1E
100
AcDbEntity
  8
7
100
AcDbLine
 10
1.430561316468504
 20
4.691975694240157
 30
0.0
 11
1.426624068592519
 21
4.684101198488189
 31
0.0
  0
LINE
  5
3D90
330
1E
100
AcDbEntity
  8
7
100
AcDbLine
 10
0.9357805000531499
 20
5.793092683557087
 30
0.0
 11
0.9397177479291336
 21
5.785218187805117
 31
0.0
  0
LINE
  5
3D91
330
1E
100
AcDbEntity
  8
7
100
AcDbLine
 10
0.9397177479291336
 20
5.785218187805117
 30
0.0
 11
0.9475922436811021
 21
5.781280939929133
 31
0.0
  0
LINE
  5
3D92
330
1E
100
AcDbEntity
  8
7
100
AcDbLine
 10
1.414812324964567
 20
5.781280939929133
 30
0.0
 11
1.422686820716535
 21
5.785218187805117
 31
0.0
  0
LINE
  5
3D93
330
1E
100
AcDbEntity
  8
7
100
AcDbLine
 10
1.422686820716535
 20
5.785218187805117
 30
0.0
 11
1.426624068592519
 21
5.793092683557087
 31
0.0
  0
LINE
  5
3D94
330
1E
100
AcDbEntity
  8
7
100
AcDbLine
 10
1.438435812220472
 20
5.845589321903544
 30
0.0
 11
1.430561316468504
 21
5.841652074027559
 31
0.0
  0
LINE
  5
3D95
330
1E
100
AcDbEntity
  8
7
100
AcDbLine
 10
1.430561316468504
 20
5.841652074027559
 30
0.0
 11
1.426624068592519
 21
5.83377757827559
 31
0.0
  0
LINE
  5
3D96
330
1E
100
AcDbEntity
  8
7
100
AcDbLine
 10
1.481745538856299
 20
5.845589321903544
 30
0.0
 11
1.489620034608267
 21
5.849526569779527
 31
0.0
  0
LINE
  5
3D97
330
1E
100
AcDbEntity
  8
7
100
AcDbLine
 10
1.489620034608267
 20
5.849526569779527
 30
0.0
 11
1.493557282484252
 21
5.857401065531496
 31
0.0
  0
LINE
  5
3D98
330
1E
100
AcDbEntity
  8
7
100
AcDbLine
 10
1.493557282484252
 20
6.493922805482283
 30
0.0
 11
1.489620034608267
 21
6.501797301234252
 31
0.0
  0
LINE
  5
3D99
330
1E
100
AcDbEntity
  8
7
100
AcDbLine
 10
1.489620034608267
 20
6.501797301234252
 30
0.0
 11
1.481745538856299
 21
6.505734549110235
 31
0.0
  0
LINE
  5
3D9A
330
1E
100
AcDbEntity
  8
7
100
AcDbLine
 10
0.8806590297893697
 20
6.505734549110235
 30
0.0
 11
0.872784534037402
 21
6.501797301234252
 31
0.0
  0
LINE
  5
3D9B
330
1E
100
AcDbEntity
  8
7
100
AcDbLine
 10
0.872784534037402
 20
6.501797301234252
 30
0.0
 11
0.8688472861614169
 21
6.493922805482283
 31
0.0
  0
LINE
  5
3D9C
330
1E
100
AcDbEntity
  8
7
100
AcDbLine
 10
0.8688472861614169
 20
5.857401065531496
 30
0.0
 11
0.872784534037402
 21
5.849526569779527
 31
0.0
  0
LINE
  5
3D9D
330
1E
100
AcDbEntity
  8
7
100
AcDbLine
 10
0.872784534037402
 20
5.849526569779527
 30
0.0
 11
0.8806590297893697
 21
5.845589321903544
 31
0.0
  0
LINE
  5
3D9E
330
1E
100
AcDbEntity
  8
7
100
AcDbLine
 10
0.9357805000531499
 20
5.83377757827559
 30
0.0
 11
0.9318432521771651
 21
5.841652074027559
 31
0.0
  0
LINE
  5
3D9F
330
1E
100
AcDbEntity
  8
7
100
AcDbLine
 10
0.9318432521771651
 20
5.841652074027559
 30
0.0
 11
0.9239687564251966
 21
5.845589321903544
 31
0.0
  0
LINE
  5
3DA0
330
1E
100
AcDbEntity
  8
7
100
AcDbLine
 10
1.716667995456693
 20
6.933582151633858
 30
0.0
 11
1.731104571001968
 21
6.937519399509842
 31
0.0
  0
LINE
  5
3DA1
330
1E
100
AcDbEntity
  8
7
100
AcDbLine
 10
1.731104571001968
 20
6.937519399509842
 30
0.0
 11
1.741603898671259
 21
6.948018727179134
 31
0.0
  0
LINE
  5
3DA2
330
1E
100
AcDbEntity
  8
7
100
AcDbLine
 10
1.891219317958661
 20
6.948018727179134
 30
0.0
 11
1.901718645627953
 21
6.937519399509842
 31
0.0
  0
LINE
  5
3DA3
330
1E
100
AcDbEntity
  8
7
100
AcDbLine
 10
1.901718645627953
 20
6.937519399509842
 30
0.0
 11
1.916155221173228
 21
6.933582151633858
 31
0.0
  0
LINE
  5
3DA4
330
1E
100
AcDbEntity
  8
7
100
AcDbLine
 10
1.91746763713189
 20
6.933582151633858
 30
0.0
 11
1.929279380759842
 21
6.936206983551181
 31
0.0
  0
LINE
  5
3DA5
330
1E
100
AcDbEntity
  8
7
100
AcDbLine
 10
1.929279380759842
 20
6.936206983551181
 30
0.0
 11
1.938466292470472
 21
6.942769063344488
 31
0.0
  0
LINE
  5
3DA6
330
1E
100
AcDbEntity
  8
7
100
AcDbLine
 10
1.962089779726378
 20
6.951955975055118
 30
0.0
 11
1.950278036098425
 21
6.949331143137795
 31
0.0
  0
LINE
  5
3DA7
330
1E
100
AcDbEntity
  8
7
100
AcDbLine
 10
1.950278036098425
 20
6.949331143137795
 30
0.0
 11
1.941091124387795
 21
6.942769063344488
 31
0.0
  0
LINE
  5
3DA8
330
1E
100
AcDbEntity
  8
7
100
AcDbLine
 10
2.187825324616141
 20
6.923082823964567
 30
0.0
 11
2.179950828864173
 21
6.94408147930315
 31
0.0
  0
LINE
  5
3DA9
330
1E
100
AcDbEntity
  8
7
100
AcDbLine
 10
2.179950828864173
 20
6.94408147930315
 30
0.0
 11
2.15895217352559
 21
6.951955975055118
 31
0.0
  0
LINE
  5
3DAA
330
1E
100
AcDbEntity
  8
7
100
AcDbLine
 10
2.190450156533464
 20
6.89027242499803
 30
0.0
 11
2.19569982036811
 21
6.873211017535433
 31
0.0
  0
LINE
  5
3DAB
330
1E
100
AcDbEntity
  8
7
100
AcDbLine
 10
2.19569982036811
 20
6.873211017535433
 30
0.0
 11
2.210136395913385
 21
6.862711689866141
 31
0.0
  0
LINE
  5
3DAC
330
1E
100
AcDbEntity
  8
7
100
AcDbLine
 10
2.210136395913385
 20
6.862711689866141
 30
0.0
 11
2.228510219334645
 21
6.862711689866141
 31
0.0
  0
LINE
  5
3DAD
330
1E
100
AcDbEntity
  8
7
100
AcDbLine
 10
2.228510219334645
 20
6.862711689866141
 30
0.0
 11
2.242946794879921
 21
6.873211017535433
 31
0.0
  0
LINE
  5
3DAE
330
1E
100
AcDbEntity
  8
7
100
AcDbLine
 10
2.242946794879921
 20
6.873211017535433
 30
0.0
 11
2.248196458714567
 21
6.89027242499803
 31
0.0
  0
LINE
  5
3DAF
330
1E
100
AcDbEntity
  8
7
100
AcDbLine
 10
2.494930658942913
 20
6.89027242499803
 30
0.0
 11
2.500180322777558
 21
6.873211017535433
 31
0.0
  0
LINE
  5
3DB0
330
1E
100
AcDbEntity
  8
7
100
AcDbLine
 10
2.500180322777558
 20
6.873211017535433
 30
0.0
 11
2.514616898322834
 21
6.862711689866141
 31
0.0
  0
LINE
  5
3DB1
330
1E
100
AcDbEntity
  8
7
100
AcDbLine
 10
2.514616898322834
 20
6.862711689866141
 30
0.0
 11
2.532990721744094
 21
6.862711689866141
 31
0.0
  0
LINE
  5
3DB2
330
1E
100
AcDbEntity
  8
7
100
AcDbLine
 10
2.532990721744094
 20
6.862711689866141
 30
0.0
 11
2.547427297289369
 21
6.873211017535433
 31
0.0
  0
LINE
  5
3DB3
330
1E
100
AcDbEntity
  8
7
100
AcDbLine
 10
2.547427297289369
 20
6.873211017535433
 30
0.0
 11
2.552676961124015
 21
6.89027242499803
 31
0.0
  0
LINE
  5
3DB4
330
1E
100
AcDbEntity
  8
7
100
AcDbLine
 10
2.584174944131889
 20
6.951955975055118
 30
0.0
 11
2.563176288793307
 21
6.94408147930315
 31
0.0
  0
LINE
  5
3DB5
330
1E
100
AcDbEntity
  8
7
100
AcDbLine
 10
2.563176288793307
 20
6.94408147930315
 30
0.0
 11
2.555301793041338
 21
6.923082823964567
 31
0.0
  0
LINE
  5
3DB6
330
1E
100
AcDbEntity
  8
7
100
AcDbLine
 10
2.81647256881496
 20
6.953268391013779
 30
0.0
 11
2.837471224153543
 21
6.961142886765747
 31
0.0
  0
LINE
  5
3DB7
330
1E
100
AcDbEntity
  8
7
100
AcDbLine
 10
2.837471224153543
 20
6.961142886765747
 30
0.0
 11
2.845345719905512
 21
6.982141542104331
 31
0.0
  0
LINE
  5
3DB8
330
1E
100
AcDbEntity
  8
7
100
AcDbLine
 10
2.845345719905512
 20
7.434925047842519
 30
0.0
 11
2.837471224153543
 21
7.455923703181102
 31
0.0
  0
LINE
  5
3DB9
330
1E
100
AcDbEntity
  8
7
100
AcDbLine
 10
2.837471224153543
 20
7.455923703181102
 30
0.0
 11
2.81647256881496
 21
7.46379819893307
 31
0.0
  0
LINE
  5
3DBA
330
1E
100
AcDbEntity
  8
7
100
AcDbLine
 10
0.8163506478149606
 20
7.46379819893307
 30
0.0
 11
0.7953519924763777
 21
7.455923703181102
 31
0.0
  0
LINE
  5
3DBB
330
1E
100
AcDbEntity
  8
7
100
AcDbLine
 10
0.7953519924763777
 20
7.455923703181102
 30
0.0
 11
0.7874774967244092
 21
7.434925047842519
 31
0.0
  0
LINE
  5
3DBC
330
1E
100
AcDbEntity
  8
7
100
AcDbLine
 10
0.7874774967244092
 20
6.982141542104331
 30
0.0
 11
0.7953519924763777
 21
6.961142886765747
 31
0.0
  0
LINE
  5
3DBD
330
1E
100
AcDbEntity
  8
7
100
AcDbLine
 10
0.7953519924763777
 20
6.961142886765747
 30
0.0
 11
0.8163506478149606
 21
6.953268391013779
 31
0.0
  0
LINE
  5
3DBE
330
1E
100
AcDbEntity
  8
7
100
AcDbLine
 10
1.077521423588582
 20
6.923082823964567
 30
0.0
 11
1.069646927836614
 21
6.94408147930315
 31
0.0
  0
LINE
  5
3DBF
330
1E
100
AcDbEntity
  8
7
100
AcDbLine
 10
1.069646927836614
 20
6.94408147930315
 30
0.0
 11
1.048648272498031
 21
6.951955975055118
 31
0.0
  0
LINE
  5
3DC0
330
1E
100
AcDbEntity
  8
7
100
AcDbLine
 10
1.118206318307086
 20
6.862711689866141
 30
0.0
 11
1.132642893852362
 21
6.873211017535433
 31
0.0
  0
LINE
  5
3DC1
330
1E
100
AcDbEntity
  8
7
100
AcDbLine
 10
1.132642893852362
 20
6.873211017535433
 30
0.0
 11
1.137892557687007
 21
6.89027242499803
 31
0.0
  0
LINE
  5
3DC2
330
1E
100
AcDbEntity
  8
7
100
AcDbLine
 10
1.080146255505905
 20
6.89027242499803
 30
0.0
 11
1.08539591934055
 21
6.873211017535433
 31
0.0
  0
LINE
  5
3DC3
330
1E
100
AcDbEntity
  8
7
100
AcDbLine
 10
1.08539591934055
 20
6.873211017535433
 30
0.0
 11
1.099832494885827
 21
6.862711689866141
 31
0.0
  0
LINE
  5
3DC4
330
1E
100
AcDbEntity
  8
7
100
AcDbLine
 10
1.099832494885827
 20
6.862711689866141
 30
0.0
 11
1.118206318307086
 21
6.862711689866141
 31
0.0
  0
LINE
  5
3DC5
330
1E
100
AcDbEntity
  8
7
100
AcDbLine
 10
1.384626757915354
 20
6.89027242499803
 30
0.0
 11
1.389876421749999
 21
6.873211017535433
 31
0.0
  0
LINE
  5
3DC6
330
1E
100
AcDbEntity
  8
7
100
AcDbLine
 10
1.389876421749999
 20
6.873211017535433
 30
0.0
 11
1.404312997295275
 21
6.862711689866141
 31
0.0
  0
LINE
  5
3DC7
330
1E
100
AcDbEntity
  8
7
100
AcDbLine
 10
1.404312997295275
 20
6.862711689866141
 30
0.0
 11
1.422686820716535
 21
6.862711689866141
 31
0.0
  0
LINE
  5
3DC8
330
1E
100
AcDbEntity
  8
7
100
AcDbLine
 10
1.422686820716535
 20
6.862711689866141
 30
0.0
 11
1.437123396261811
 21
6.873211017535433
 31
0.0
  0
LINE
  5
3DC9
330
1E
100
AcDbEntity
  8
7
100
AcDbLine
 10
1.437123396261811
 20
6.873211017535433
 30
0.0
 11
1.442373060096456
 21
6.89027242499803
 31
0.0
  0
LINE
  5
3DCA
330
1E
100
AcDbEntity
  8
7
100
AcDbLine
 10
1.47387104310433
 20
6.951955975055118
 30
0.0
 11
1.452872387765748
 21
6.94408147930315
 31
0.0
  0
LINE
  5
3DCB
330
1E
100
AcDbEntity
  8
7
100
AcDbLine
 10
1.452872387765748
 20
6.94408147930315
 30
0.0
 11
1.444997892013779
 21
6.923082823964567
 31
0.0
  0
LINE
  5
3DCC
330
1E
100
AcDbEntity
  8
7
100
AcDbLine
 10
1.690419676283464
 20
6.942769063344488
 30
0.0
 11
1.681232764572834
 21
6.949331143137795
 31
0.0
  0
LINE
  5
3DCD
330
1E
100
AcDbEntity
  8
7
100
AcDbLine
 10
1.681232764572834
 20
6.949331143137795
 30
0.0
 11
1.669421020944881
 21
6.951955975055118
 31
0.0
  0
LINE
  5
3DCE
330
1E
100
AcDbEntity
  8
7
100
AcDbLine
 10
1.693044508200787
 20
6.942769063344488
 30
0.0
 11
1.702231419911417
 21
6.936206983551181
 31
0.0
  0
LINE
  5
3DCF
330
1E
100
AcDbEntity
  8
7
100
AcDbLine
 10
1.702231419911417
 20
6.936206983551181
 30
0.0
 11
1.71404316353937
 21
6.933582151633858
 31
0.0
  0
LINE
  5
3DD0
330
1E
100
AcDbEntity
  8
7
100
AcDbLine
 10
1.364940518535432
 20
4.212943869328739
 30
0.0
 11
1.372815014287401
 21
4.191945213990157
 31
0.0
  0
LINE
  5
3DD1
330
1E
100
AcDbEntity
  8
7
100
AcDbLine
 10
1.372815014287401
 20
4.191945213990157
 30
0.0
 11
1.393813669625984
 21
4.184070718238189
 31
0.0
  0
LINE
  5
3DD2
330
1E
100
AcDbEntity
  8
7
100
AcDbLine
 10
1.36231568661811
 20
4.247066684253937
 30
0.0
 11
1.357066022783464
 21
4.264128091716535
 31
0.0
  0
LINE
  5
3DD3
330
1E
100
AcDbEntity
  8
7
100
AcDbLine
 10
1.357066022783464
 20
4.264128091716535
 30
0.0
 11
1.342629447238189
 21
4.274627419385826
 31
0.0
  0
LINE
  5
3DD4
330
1E
100
AcDbEntity
  8
7
100
AcDbLine
 10
1.342629447238189
 20
4.274627419385826
 30
0.0
 11
1.324255623816929
 21
4.274627419385826
 31
0.0
  0
LINE
  5
3DD5
330
1E
100
AcDbEntity
  8
7
100
AcDbLine
 10
1.324255623816929
 20
4.274627419385826
 30
0.0
 11
1.309819048271653
 21
4.264128091716535
 31
0.0
  0
LINE
  5
3DD6
330
1E
100
AcDbEntity
  8
7
100
AcDbLine
 10
1.309819048271653
 20
4.264128091716535
 30
0.0
 11
1.304569384437007
 21
4.247066684253937
 31
0.0
  0
LINE
  5
3DD7
330
1E
100
AcDbEntity
  8
7
100
AcDbLine
 10
1.03814894482874
 20
4.274627419385826
 30
0.0
 11
1.01977512140748
 21
4.274627419385826
 31
0.0
  0
LINE
  5
3DD8
330
1E
100
AcDbEntity
  8
7
100
AcDbLine
 10
1.01977512140748
 20
4.274627419385826
 30
0.0
 11
1.005338545862204
 21
4.264128091716535
 31
0.0
  0
LINE
  5
3DD9
330
1E
100
AcDbEntity
  8
7
100
AcDbLine
 10
1.005338545862204
 20
4.264128091716535
 30
0.0
 11
1.000088882027558
 21
4.247066684253937
 31
0.0
  0
LINE
  5
3DDA
330
1E
100
AcDbEntity
  8
7
100
AcDbLine
 10
1.057835184208661
 20
4.247066684253937
 30
0.0
 11
1.052585520374015
 21
4.264128091716535
 31
0.0
  0
LINE
  5
3DDB
330
1E
100
AcDbEntity
  8
7
100
AcDbLine
 10
1.052585520374015
 20
4.264128091716535
 30
0.0
 11
1.03814894482874
 21
4.274627419385826
 31
0.0
  0
LINE
  5
3DDC
330
1E
100
AcDbEntity
  8
7
100
AcDbLine
 10
0.9685908990196846
 20
4.184070718238189
 30
0.0
 11
0.9895895543582673
 21
4.191945213990157
 31
0.0
  0
LINE
  5
3DDD
330
1E
100
AcDbEntity
  8
7
100
AcDbLine
 10
0.9895895543582673
 20
4.191945213990157
 30
0.0
 11
0.9974640501102367
 21
4.212943869328739
 31
0.0
  0
LINE
  5
3DDE
330
1E
100
AcDbEntity
  8
7
100
AcDbLine
 10
0.8163506478149606
 20
4.182758302279527
 30
0.0
 11
0.7953519924763777
 21
4.174883806527558
 31
0.0
  0
LINE
  5
3DDF
330
1E
100
AcDbEntity
  8
7
100
AcDbLine
 10
0.7953519924763777
 20
4.174883806527558
 30
0.0
 11
0.7874774967244092
 21
4.153885151188976
 31
0.0
  0
LINE
  5
3DE0
330
1E
100
AcDbEntity
  8
7
100
AcDbLine
 10
0.7874774967244092
 20
3.701101645450787
 30
0.0
 11
0.7953519924763777
 21
3.680102990112204
 31
0.0
  0
LINE
  5
3DE1
330
1E
100
AcDbEntity
  8
7
100
AcDbLine
 10
0.7953519924763777
 20
3.680102990112204
 30
0.0
 11
0.8163506478149606
 21
3.672228494360236
 31
0.0
  0
LINE
  5
3DE2
330
1E
100
AcDbEntity
  8
7
100
AcDbLine
 10
2.845345719905512
 20
4.153885151188976
 30
0.0
 11
2.837471224153543
 21
4.174883806527558
 31
0.0
  0
LINE
  5
3DE3
330
1E
100
AcDbEntity
  8
7
100
AcDbLine
 10
2.837471224153543
 20
4.174883806527558
 30
0.0
 11
2.81647256881496
 21
4.182758302279527
 31
0.0
  0
LINE
  5
3DE4
330
1E
100
AcDbEntity
  8
7
100
AcDbLine
 10
2.635359166519684
 20
4.212943869328739
 30
0.0
 11
2.643233662271653
 21
4.191945213990157
 31
0.0
  0
LINE
  5
3DE5
330
1E
100
AcDbEntity
  8
7
100
AcDbLine
 10
2.643233662271653
 20
4.191945213990157
 30
0.0
 11
2.664232317610236
 21
4.184070718238189
 31
0.0
  0
LINE
  5
3DE6
330
1E
100
AcDbEntity
  8
7
100
AcDbLine
 10
2.632734334602361
 20
4.247066684253937
 30
0.0
 11
2.627484670767716
 21
4.264128091716535
 31
0.0
  0
LINE
  5
3DE7
330
1E
100
AcDbEntity
  8
7
100
AcDbLine
 10
2.627484670767716
 20
4.264128091716535
 30
0.0
 11
2.613048095222441
 21
4.274627419385826
 31
0.0
  0
LINE
  5
3DE8
330
1E
100
AcDbEntity
  8
7
100
AcDbLine
 10
2.613048095222441
 20
4.274627419385826
 30
0.0
 11
2.594674271801181
 21
4.274627419385826
 31
0.0
  0
LINE
  5
3DE9
330
1E
100
AcDbEntity
  8
7
100
AcDbLine
 10
2.594674271801181
 20
4.274627419385826
 30
0.0
 11
2.580237696255905
 21
4.264128091716535
 31
0.0
  0
LINE
  5
3DEA
330
1E
100
AcDbEntity
  8
7
100
AcDbLine
 10
2.580237696255905
 20
4.264128091716535
 30
0.0
 11
2.574988032421259
 21
4.247066684253937
 31
0.0
  0
LINE
  5
3DEB
330
1E
100
AcDbEntity
  8
7
100
AcDbLine
 10
2.328253832192913
 20
4.247066684253937
 30
0.0
 11
2.323004168358267
 21
4.264128091716535
 31
0.0
  0
LINE
  5
3DEC
330
1E
100
AcDbEntity
  8
7
100
AcDbLine
 10
2.323004168358267
 20
4.264128091716535
 30
0.0
 11
2.308567592812992
 21
4.274627419385826
 31
0.0
  0
LINE
  5
3DED
330
1E
100
AcDbEntity
  8
7
100
AcDbLine
 10
2.308567592812992
 20
4.274627419385826
 30
0.0
 11
2.290193769391732
 21
4.274627419385826
 31
0.0
  0
LINE
  5
3DEE
330
1E
100
AcDbEntity
  8
7
100
AcDbLine
 10
2.290193769391732
 20
4.274627419385826
 30
0.0
 11
2.275757193846456
 21
4.264128091716535
 31
0.0
  0
LINE
  5
3DEF
330
1E
100
AcDbEntity
  8
7
100
AcDbLine
 10
2.275757193846456
 20
4.264128091716535
 30
0.0
 11
2.270507530011811
 21
4.247066684253937
 31
0.0
  0
LINE
  5
3DF0
330
1E
100
AcDbEntity
  8
7
100
AcDbLine
 10
2.239009547003937
 20
4.184070718238189
 30
0.0
 11
2.260008202342519
 21
4.191945213990157
 31
0.0
  0
LINE
  5
3DF1
330
1E
100
AcDbEntity
  8
7
100
AcDbLine
 10
2.260008202342519
 20
4.191945213990157
 30
0.0
 11
2.267882698094488
 21
4.212943869328739
 31
0.0
  0
LINE
  5
3DF2
330
1E
100
AcDbEntity
  8
7
100
AcDbLine
 10
1.941091124387795
 20
4.193257629948818
 30
0.0
 11
1.950278036098425
 21
4.186695550155511
 31
0.0
  0
LINE
  5
3DF3
330
1E
100
AcDbEntity
  8
7
100
AcDbLine
 10
1.950278036098425
 20
4.186695550155511
 30
0.0
 11
1.962089779726378
 21
4.184070718238189
 31
0.0
  0
LINE
  5
3DF4
330
1E
100
AcDbEntity
  8
7
100
AcDbLine
 10
1.938466292470472
 20
4.193257629948818
 30
0.0
 11
1.929279380759842
 21
4.199819709742126
 31
0.0
  0
LINE
  5
3DF5
330
1E
100
AcDbEntity
  8
7
100
AcDbLine
 10
1.929279380759842
 20
4.199819709742126
 30
0.0
 11
1.91746763713189
 21
4.202444541659448
 31
0.0
  0
LINE
  5
3DF6
330
1E
100
AcDbEntity
  8
7
100
AcDbLine
 10
1.916155221173228
 20
4.202444541659448
 30
0.0
 11
1.901718645627953
 21
4.198507293783464
 31
0.0
  0
LINE
  5
3DF7
330
1E
100
AcDbEntity
  8
7
100
AcDbLine
 10
1.901718645627953
 20
4.198507293783464
 30
0.0
 11
1.891219317958661
 21
4.188007966114172
 31
0.0
  0
LINE
  5
3DF8
330
1E
100
AcDbEntity
  8
7
100
AcDbLine
 10
1.741603898671259
 20
4.188007966114172
 30
0.0
 11
1.731104571001968
 21
4.198507293783464
 31
0.0
  0
LINE
  5
3DF9
330
1E
100
AcDbEntity
  8
7
100
AcDbLine
 10
1.731104571001968
 20
4.198507293783464
 30
0.0
 11
1.716667995456693
 21
4.202444541659448
 31
0.0
  0
LINE
  5
3DFA
330
1E
100
AcDbEntity
  8
7
100
AcDbLine
 10
1.71404316353937
 20
4.202444541659448
 30
0.0
 11
1.702231419911417
 21
4.199819709742126
 31
0.0
  0
LINE
  5
3DFB
330
1E
100
AcDbEntity
  8
7
100
AcDbLine
 10
1.702231419911417
 20
4.199819709742126
 30
0.0
 11
1.693044508200787
 21
4.193257629948818
 31
0.0
  0
LINE
  5
3DFC
330
1E
100
AcDbEntity
  8
7
100
AcDbLine
 10
1.669421020944881
 20
4.184070718238189
 30
0.0
 11
1.681232764572834
 21
4.186695550155511
 31
0.0
  0
LINE
  5
3DFD
330
1E
100
AcDbEntity
  8
7
100
AcDbLine
 10
1.681232764572834
 20
4.186695550155511
 30
0.0
 11
1.690419676283464
 21
4.193257629948818
 31
0.0
  0
LINE
  5
3DFE
330
1E
100
AcDbEntity
  8
7
100
AcDbLine
 10
3.005460466862204
 20
7.633099857600393
 30
0.0
 11
3.039583281787401
 21
7.633099857600393
 31
0.0
  0
LINE
  5
3DFF
330
1E
100
AcDbEntity
  8
7
100
AcDbLine
 10
3.039583281787401
 20
7.633099857600393
 30
0.0
 11
3.069768848836614
 21
7.633099857600393
 31
0.0
  0
LINE
  5
3E00
330
1E
100
AcDbEntity
  8
7
100
AcDbLine
 10
3.127515151017716
 20
3.317876185521653
 30
0.0
 11
3.161637965942913
 21
3.317876185521653
 31
0.0
  0
LINE
  5
3E01
330
1E
100
AcDbEntity
  8
7
100
AcDbLine
 10
3.161637965942913
 20
3.317876185521653
 30
0.0
 11
3.170824877653543
 21
3.319188601480314
 31
0.0
  0
LINE
  5
3E02
330
1E
100
AcDbEntity
  8
7
100
AcDbLine
 10
3.170824877653543
 20
3.319188601480314
 30
0.0
 11
3.180011789364173
 21
3.32443826531496
 31
0.0
  0
LINE
  5
3E03
330
1E
100
AcDbEntity
  8
7
100
AcDbLine
 10
3.180011789364173
 20
3.32443826531496
 30
0.0
 11
3.18657386915748
 21
3.331000345108267
 31
0.0
  0
LINE
  5
3E04
330
1E
100
AcDbEntity
  8
7
100
AcDbLine
 10
3.18657386915748
 20
3.331000345108267
 30
0.0
 11
3.190511117033464
 21
3.340187256818897
 31
0.0
  0
LINE
  5
3E05
330
1E
100
AcDbEntity
  8
7
100
AcDbLine
 10
3.190511117033464
 20
3.340187256818897
 30
0.0
 11
3.191823532992126
 21
3.348061752570866
 31
0.0
  0
LINE
  5
3E06
330
1E
100
AcDbEntity
  8
7
100
AcDbLine
 10
3.191823532992126
 20
3.348061752570866
 30
0.0
 11
3.191823532992126
 21
3.382184567496062
 31
0.0
  0
LINE
  5
3E07
330
1E
100
AcDbEntity
  8
7
100
AcDbLine
 10
3.069768848836614
 20
3.502926835692913
 30
0.0
 11
3.042208113704724
 21
3.467491604809055
 31
0.0
  0
LINE
  5
3E08
330
1E
100
AcDbEntity
  8
7
100
AcDbLine
 10
3.042208113704724
 20
3.467491604809055
 30
0.0
 11
3.005460466862204
 21
3.438618453718503
 31
0.0
  0
LINE
  5
3E09
330
1E
100
AcDbEntity
  8
7
100
AcDbLine
 10
3.005460466862204
 20
3.502926835692913
 30
0.0
 11
3.005460466862204
 21
3.468804020767716
 31
0.0
  0
LINE
  5
3E0A
330
1E
100
AcDbEntity
  8
7
100
AcDbLine
 10
3.005460466862204
 20
3.468804020767716
 30
0.0
 11
3.005460466862204
 21
3.438618453718503
 31
0.0
  0
LINE
  5
3E0B
330
1E
100
AcDbEntity
  8
7
100
AcDbLine
 10
3.005460466862204
 20
3.502926835692913
 30
0.0
 11
3.039583281787401
 21
3.502926835692913
 31
0.0
  0
LINE
  5
3E0C
330
1E
100
AcDbEntity
  8
7
100
AcDbLine
 10
3.039583281787401
 20
3.502926835692913
 30
0.0
 11
3.069768848836614
 21
3.502926835692913
 31
0.0
  0
LINE
  5
3E0D
330
1E
100
AcDbEntity
  8
7
100
AcDbLine
 10
3.191823532992126
 20
7.753842125797244
 30
0.0
 11
3.069768848836614
 21
7.633099857600393
 31
0.0
  0
LINE
  5
3E0E
330
1E
100
AcDbEntity
  8
7
100
AcDbLine
 10
3.069768848836614
 20
7.633099857600393
 30
0.0
 11
3.069768848836614
 21
3.502926835692913
 31
0.0
  0
ENDSEC
  0
SECTION
  2
OBJECTS
  0
DICTIONARY
  5
C
330
0
100
AcDbDictionary
  3
ACAD_GROUP
350
D
  3
ACAD_LAYOUT
350
19
  3
ACAD_MLINESTYLE
350
16
  3
ACAD_PLOTSETTINGS
350
18
1001
ACAD
1000
TREAT_AS_HARD
1070
     0
  0
DICTIONARY
  5
4F9B
330
1E
100
AcDbDictionary
  3
ACAD_LAYOUTSELFREF
350
4FD7
1001
ACAD
1000
TREAT_AS_HARD
1070
     1
  0
DICTIONARY
  5
4F9D
330
1A
100
AcDbDictionary
  3
ACAD_LAYOUTSELFREF
350
4FD6
1001
ACAD
1000
TREAT_AS_HARD
1070
     1
  0
DICTIONARY
  5
D
102
{ACAD_REACTORS
330
C
102
}
330
C
100
AcDbDictionary
1001
ACAD
1000
TREAT_AS_HARD
1070
     0
  0
DICTIONARY
  5
19
102
{ACAD_REACTORS
330
C
102
}
330
C
100
AcDbDictionary
1001
ACAD
1000
TREAT_AS_HARD
1070
     0
  0
DICTIONARY
  5
16
102
{ACAD_REACTORS
330
C
102
}
330
C
100
AcDbDictionary
  3
STANDARD
350
17
1001
ACAD
1000
TREAT_AS_HARD
1070
     0
  0
DICTIONARY
  5
18
102
{ACAD_REACTORS
330
C
102
}
330
C
100
AcDbDictionary
1001
ACAD
1000
TREAT_AS_HARD
1070
     0
  0
XRECORD
  5
4FD7
102
{ACAD_REACTORS
330
4F9B
102
}
330
4F9B
100
AcDbXrecord
340
1E
  0
XRECORD
  5
4FD6
102
{ACAD_REACTORS
330
4F9D
102
}
330
4F9D
100
AcDbXrecord
340
1A
  0
MLINESTYLE
  5
17
102
{ACAD_REACTORS
330
16
102
}
330
16
100
AcDbMlineStyle
  2
STANDARD
 70
     0
  3

 62
   256
 51
90.0
 52
90.0
 71
     2
 49
0.5
 62
   256
  6
BYLAYER
 49
-0.5
 62
   256
  6
BYLAYER
  0
ENDSEC
  0
EOF
