999
DXF file: C:\New 2D genarating\updateCreo8 with 3dPdf\CAD\LVCT20403S_3D-CAD\drw0001_5.dxf
999
Pro/ENGINEER 2021284 by Parametric Technology Corporation
  0
SECTION
  2
HEADER
  9
$ACADVER
  1
AC1024
  9
$DWGCODEPAGE
  3
ANSI_1252
  9
$EXTMAX
 10
93.113160206
 20
131.6886122913
 30
0.0
  9
$EXTMIN
 10
0.0
 20
0.0
 30
0.0
  9
$LIMMIN
 10
0.0
 20
0.0
  9
$LIMMAX
 10
93.113160206
 20
131.6886122913
  9
$VIEWCTR
 10
46.556580103
 20
65.8443061457
  9
$VIEWSIZE
 40
131.6886122913
  9
$CLAYER
  8
0
  9
$LTSCALE
 40
8.584146579
  9
$CELTYPE
  6
BYLAYER
  9
$DIMSCALE
 40
1.0
  9
$DIMASZ
 40
1.1084900025
  9
$DIMEXO
 40
1.0
  9
$DIMDLI
 40
5.9308649091
  9
$DIMEXE
 40
1.0
  9
$DIMCEN
 40
1.4046785311
  9
$DIMLFAC
 40
1.0
  9
$DIMBLK
  1
_FILLED
  9
$DIMALT
 70
0
  9
$DIMALTF
 40
0.0393700787
  9
$DIMTXT
 40
1.5518860034
  9
$DIMTOL
 70
1
  9
$DIMLIM
 70
0
  9
$DIMTFAC
 40
1.0
  9
$DIMTP
 40
0.01
  9
$DIMTM
 40
0.01
  9
$DIMGAP
 40
0.625
  9
$DIMDSEP
 70
46
  9
$AUNITS
 70
0
  9
$PDMODE
 70
3
  9
$PDSIZE
 40
0.3125
  9
$HANDSEED
  5
235
  9
$TILEMODE
 70
1
  9
$MEASUREMENT
 70
1
  9
$INSUNITS
 70
4
  0
ENDSEC
  0
SECTION
  2
CLASSES
  0
CLASS
  1
ACDBDICTIONARYWDFLT
  2
AcDbDictionaryWithDefault
  3
AutoCAD 2000
 90
0
 91
1
280
0
281
0
  0
CLASS
  1
ACDBPLACEHOLDER
  2
AcDbPlaceHolder
  3
AutoCAD 2000
 90
0
 91
1
280
0
281
0
  0
CLASS
  1
LAYOUT
  2
AcDbLayout
  3
AutoCAD 2000
 90
0
 91
0
280
0
281
0
  0
ENDSEC
  0
SECTION
  2
TABLES
  0
TABLE
  2
VPORT
  5
8
100
AcDbSymbolTable
 70
2
  0
VPORT
  5
1F4
100
AcDbSymbolTableRecord
100
AcDbViewportTableRecord
  2
*ACTIVE
 70
0
 10
0.0
 20
0.0
 11
1.0
 21
1.0
 12
46.556580103
 22
65.8443061457
 13
0.0
 23
0.0
 14
1.0
 24
1.0
 15
0.0
 25
0.0
 16
0.0
 26
0.0
 36
1.0
 17
0.0
 27
0.0
 37
0.0
 40
131.6886122913
 41
0.7070707071
 42
50.0
 43
0.0
 44
0.0
 50
0.0
 51
0.0
 71
0
 72
100
 73
1
 74
1
 75
0
 76
0
 77
0
 78
0
  0
ENDTAB
  0
TABLE
  2
LTYPE
  5
5
100
AcDbSymbolTable
 70
6
  0
LTYPE
  5
14
100
AcDbSymbolTableRecord
100
AcDbLinetypeTableRecord
  2
BYBLOCK
 70
0
  3

 72
65
 73
0
 40
0.0
  0
LTYPE
  5
15
100
AcDbSymbolTableRecord
100
AcDbLinetypeTableRecord
  2
BYLAYER
 70
0
  3

 72
65
 73
0
 40
0.0
  0
LTYPE
  5
16
100
AcDbSymbolTableRecord
100
AcDbLinetypeTableRecord
  2
CONTINUOUS
 70
64
  3
Solid line
 72
65
 73
0
 40
0.0
  0
LTYPE
  5
1F5
100
AcDbSymbolTableRecord
100
AcDbLinetypeTableRecord
  2
CENTER
 70
64
  3
____ _ ____ _ ____ _ ____ _ ____ _ ____ _ ____
 72
65
 73
4
 40
0.6
 49
0.375
 74
0
 49
-0.075
 74
0
 49
0.075
 74
0
 49
-0.075
 74
0
  0
LTYPE
  5
1F6
100
AcDbSymbolTableRecord
100
AcDbLinetypeTableRecord
  2
HIDDEN
 70
64
  3
- - - - - - - - - - - - - - - - - - - -
 72
65
 73
2
 40
0.2
 49
0.1
 74
0
 49
-0.1
 74
0
  0
LTYPE
  5
1F7
100
AcDbSymbolTableRecord
100
AcDbLinetypeTableRecord
  2
PHANTOM
 70
64
  3
_____ _ _ _____ _ _ _____ _ _ _____
 72
65
 73
6
 40
0.8
 49
0.45
 74
0
 49
-0.05
 74
0
 49
0.1
 74
0
 49
-0.05
 74
0
 49
0.1
 74
0
 49
-0.05
 74
0
  0
LTYPE
  5
1F8
100
AcDbSymbolTableRecord
100
AcDbLinetypeTableRecord
  2
DOT
 70
64
  3
. . . . . . . . . . . . . . . . . . . .
 72
65
 73
2
 40
0.2
 49
0.1
 74
0
 49
-0.1
 74
0
  0
LTYPE
  5
1F9
100
AcDbSymbolTableRecord
100
AcDbLinetypeTableRecord
  2
DASHED
 70
64
  3
- - - - - - - - - - - - - - - - - - - -
 72
65
 73
2
 40
0.2
 49
0.1
 74
0
 49
-0.1
 74
0
  0
ENDTAB
  0
TABLE
  2
LAYER
  5
2
100
AcDbSymbolTable
 70
36
  0
LAYER
  5
10
100
AcDbSymbolTableRecord
100
AcDbLayerTableRecord
  2
0
 70
0
 62
7
  6
CONTINUOUS
370
-3
390
F
  0
LAYER
  5
1FA
100
AcDbSymbolTableRecord
100
AcDbLayerTableRecord
  2
DEFAULT_1
 70
0
 62
7
  6
CENTER
370
-3
390
F
  0
LAYER
  5
1FB
100
AcDbSymbolTableRecord
100
AcDbLayerTableRecord
  2
DEFAULT_2
 70
0
 62
8
  6
HIDDEN
370
-3
390
F
  0
LAYER
  5
1FC
100
AcDbSymbolTableRecord
100
AcDbLayerTableRecord
  2
DEFAULT_3
 70
0
 62
7
  6
PHANTOM
370
-3
390
F
  0
LAYER
  5
1FD
100
AcDbSymbolTableRecord
100
AcDbLayerTableRecord
  2
00_COMPONENTS
 70
0
 62
7
  6
CONTINUOUS
370
-3
390
F
  0
LAYER
  5
1FE
100
AcDbSymbolTableRecord
100
AcDbLayerTableRecord
  2
01_1_DEFAULT_DATUMS
 70
0
 62
7
  6
CONTINUOUS
370
-3
390
F
  0
LAYER
  5
1FF
100
AcDbSymbolTableRecord
100
AcDbLayerTableRecord
  2
01_PLANES
 70
0
 62
7
  6
CONTINUOUS
370
-3
390
F
  0
LAYER
  5
200
100
AcDbSymbolTableRecord
100
AcDbLayerTableRecord
  2
02_COORD_SYS
 70
0
 62
7
  6
CONTINUOUS
370
-3
390
F
  0
LAYER
  5
201
100
AcDbSymbolTableRecord
100
AcDbLayerTableRecord
  2
03_AXES
 70
0
 62
7
  6
CONTINUOUS
370
-3
390
F
  0
LAYER
  5
202
100
AcDbSymbolTableRecord
100
AcDbLayerTableRecord
  2
04_POINTS
 70
0
 62
7
  6
CONTINUOUS
370
-3
390
F
  0
LAYER
  5
203
100
AcDbSymbolTableRecord
100
AcDbLayerTableRecord
  2
05_CURVES
 70
0
 62
7
  6
CONTINUOUS
370
-3
390
F
  0
LAYER
  5
204
100
AcDbSymbolTableRecord
100
AcDbLayerTableRecord
  2
06_SURFS
 70
0
 62
7
  6
CONTINUOUS
370
-3
390
F
  0
LAYER
  5
205
100
AcDbSymbolTableRecord
100
AcDbLayerTableRecord
  2
07_COSMETICS
 70
0
 62
7
  6
CONTINUOUS
370
-3
390
F
  0
LAYER
  5
206
100
AcDbSymbolTableRecord
100
AcDbLayerTableRecord
  2
10_NOTES
 70
0
 62
7
  6
CONTINUOUS
370
-3
390
F
  0
LAYER
  5
207
100
AcDbSymbolTableRecord
100
AcDbLayerTableRecord
  2
11_NOTES_PUB
 70
0
 62
7
  6
CONTINUOUS
370
-3
390
F
  0
LAYER
  5
208
100
AcDbSymbolTableRecord
100
AcDbLayerTableRecord
  2
13_REF_GTOL
 70
0
 62
7
  6
CONTINUOUS
370
-3
390
F
  0
LAYER
  5
209
100
AcDbSymbolTableRecord
100
AcDbLayerTableRecord
  2
16_MISC
 70
0
 62
7
  6
CONTINUOUS
370
-3
390
F
  0
LAYER
  5
20A
100
AcDbSymbolTableRecord
100
AcDbLayerTableRecord
  2
17_NO_PRINT
 70
0
 62
7
  6
CONTINUOUS
370
-3
390
F
  0
LAYER
  5
20B
100
AcDbSymbolTableRecord
100
AcDbLayerTableRecord
  2
18_DATUM_CAMS_JOINTS
 70
0
 62
7
  6
CONTINUOUS
370
-3
390
F
  0
LAYER
  5
20C
100
AcDbSymbolTableRecord
100
AcDbLayerTableRecord
  2
19_DATUM_FUNCTIONAL
 70
0
 62
7
  6
CONTINUOUS
370
-3
390
F
  0
LAYER
  5
20D
100
AcDbSymbolTableRecord
100
AcDbLayerTableRecord
  2
20_DATUM_KINEMATIC_SCHEME
 70
0
 62
7
  6
CONTINUOUS
370
-3
390
F
  0
ENDTAB
  0
TABLE
  2
STYLE
  5
3
100
AcDbSymbolTable
 70
1
  0
STYLE
  5
11
100
AcDbSymbolTableRecord
100
AcDbTextStyleTableRecord
  2
STANDARD
 70
0
 40
0.0
 41
0.8
 50
0.0
 71
0
 42
0.2
  3
txt
  4

  0
STYLE
  5
20E
100
AcDbSymbolTableRecord
100
AcDbTextStyleTableRecord
  2
TEXTSTYLE_1
 70
0
 40
0.0
 41
0.8
 50
0.0
 71
0
 42
0.2
  3
gdt
  4

  0
ENDTAB
  0
TABLE
  2
VIEW
  5
6
100
AcDbSymbolTable
 70
0
  0
ENDTAB
  0
TABLE
  2
UCS
  5
7
100
AcDbSymbolTable
 70
0
  0
ENDTAB
  0
TABLE
  2
APPID
  5
9
100
AcDbSymbolTable
 70
1
  0
APPID
  5
20F
100
AcDbSymbolTableRecord
100
AcDbRegAppTableRecord
  2
ACAD
 70
0
  0
ENDTAB
  0
TABLE
  2
BLOCK_RECORD
  5
1
100
AcDbSymbolTable
 70
0
  0
BLOCK_RECORD
  5
210
100
AcDbSymbolTableRecord
100
AcDbBlockTableRecord
  2
*Model_Space
  0
BLOCK_RECORD
  5
211
100
AcDbSymbolTableRecord
100
AcDbBlockTableRecord
  2
*Paper_Space
  0
BLOCK_RECORD
  5
212
100
AcDbSymbolTableRecord
100
AcDbBlockTableRecord
  2
_FILLED
  0
ENDTAB
  0
TABLE
  2
DIMSTYLE
  5
A
100
AcDbSymbolTable
 70
1
100
AcDbDimStyleTable
 71
0
  0
DIMSTYLE
105
213
100
AcDbSymbolTableRecord
100
AcDbDimStyleTableRecord
  2
STANDARD
 70
0
  3

  4

 40
1.0
 41
1.1084900025
 42
1.0
 43
0.38
 44
1.0
 45
0.0
 46
0.0
 47
0.01
 48
0.01
140
1.5518860034
141
0.09
142
0.0
143
25.4
144
1.0
145
0.0
146
1.0
147
0.625
 71
1
 72
0
 73
0
 74
0
 75
0
 76
0
 77
1
 78
8
 79
2
170
0
171
1
172
0
173
0
174
0
175
0
176
0
177
0
178
0
270
2
179
2
271
2
272
2
273
2
274
2
275
0
280
0
281
0
282
0
283
1
284
8
285
0
286
0
287
3
288
0
340
11
278
46
341
212
342
212
343
212
344
212
  0
ENDTAB
  0
ENDSEC
  0
SECTION
  2
BLOCKS
  0
BLOCK
  5
20
100
AcDbEntity
  8
0
100
AcDbBlockBegin
  2
*Model_Space
 70
0
 10
0.0
 20
0.0
 30
0.0
  3
*Model_Space
  1

  0
ENDBLK
  5
21
100
AcDbEntity
  8
0
100
AcDbBlockEnd
  0
BLOCK
  5
1C
100
AcDbEntity
  8
0
100
AcDbBlockBegin
  2
*Paper_Space
 70
0
 10
0.0
 20
0.0
 30
0.0
  3
*Paper_Space
  1

  0
ENDBLK
  5
1D
100
AcDbEntity
  8
0
100
AcDbBlockEnd
  0
BLOCK
  5
214
100
AcDbEntity
  8
0
100
AcDbBlockBegin
  2
_FILLED
 70
64
 10
0.0
 20
0.0
  3
_FILLED
  1

  0
SOLID
  5
215
100
AcDbEntity
  8
0
  6
BYBLOCK
 62
0
100
AcDbTrace
 10
0.0
 20
0.0
 11
-1.0
 21
0.25
 12
-1.0
 22
-0.25
 13
-1.0
 23
-0.25
  0
ENDBLK
  5
216
100
AcDbEntity
  8
0
  6
BYBLOCK
 62
0
100
AcDbBlockEnd
  0
ENDSEC
  0
SECTION
  2
ENTITIES
  0
LINE
  5
217
100
AcDbEntity
  8
0
100
AcDbLine
 62
7
  6
CONTINUOUS
 10
47.9100368856
 20
11.3182742143
 11
49.8180932958
 21
10.7188405353
  0
LINE
  5
218
100
AcDbEntity
  8
0
100
AcDbLine
 62
7
  6
CONTINUOUS
 10
47.9100700057
 20
26.3182831968
 11
49.8180601755
 21
25.7188265273
  0
LINE
  5
219
100
AcDbEntity
  8
0
100
AcDbLine
 62
7
  6
CONTINUOUS
 10
45.8640650911
 20
32.6435566119
 11
51.8640650902
 21
32.6435566119
  0
LINE
  5
21A
100
AcDbEntity
  8
0
100
AcDbLine
 62
7
  6
CONTINUOUS
 10
51.8640650903
 20
42.6435566119
 11
45.864065091
 21
42.6435566119
  0
LINE
  5
21B
100
AcDbEntity
  8
0
100
AcDbLine
 62
7
  6
CONTINUOUS
 10
58.2960646787
 20
42.6935566119
 11
37.3960646787
 21
42.6935566119
  0
LWPOLYLINE
  5
21C
100
AcDbEntity
  8
0
100
AcDbPolyline
 62
7
  6
CONTINUOUS
 90
19
 70
0
 10
48.8640650907
 20
14.6284731407
 10
48.7897543437
 20
14.9399702571
 10
48.6583204345
 20
15.5696755259
 10
48.5498520253
 20
16.1918428491
 10
48.4669655061
 20
16.7975471636
 10
48.4094410252
 20
17.3798876337
 10
48.3755400005
 20
17.9484457704
 10
48.3640650123
 20
18.5179251267
 10
48.3755190084
 20
19.0875806876
 10
48.4094121753
 20
19.6565793247
 10
48.466955819
 20
20.2394885162
 10
48.5498897222
 20
20.8456660091
 10
48.6584480547
 20
21.4682468994
 10
48.79005857
 20
22.0985796657
 10
48.9443048622
 20
22.7448738389
 10
49.1182831706
 20
23.4005349103
 10
49.2999472872
 20
24.0344006138
 10
49.4807241583
 20
24.6357314553
 10
49.6597786665
 20
25.2142852894
  0
LINE
  5
21D
100
AcDbEntity
  8
0
100
AcDbLine
 62
7
  6
CONTINUOUS
 10
37.3960646787
 20
42.6935566119
 11
37.3960646787
 21
121.2921476685
  0
LINE
  5
21E
100
AcDbEntity
  8
0
100
AcDbLine
 62
7
  6
CONTINUOUS
 10
58.2960646787
 20
58.2935566119
 11
37.3960646787
 21
58.2935566119
  0
LWPOLYLINE
  5
21F
100
AcDbEntity
  8
0
100
AcDbPolyline
 62
7
  6
CONTINUOUS
 90
19
 70
0
 10
48.8640650907
 20
22.408668047
 10
48.9380716113
 20
22.0985796657
 10
49.0696821266
 20
21.4682468994
 10
49.1782404591
 20
20.8456660091
 10
49.2611743623
 20
20.2394885162
 10
49.318718006
 20
19.6565793247
 10
49.3526111729
 20
19.0875806876
 10
49.364065169
 20
18.5179251267
 10
49.3525901808
 20
17.9484457704
 10
49.3186891562
 20
17.3798876337
 10
49.2611646752
 20
16.7975471636
 10
49.178278156
 20
16.191842849
 10
49.0698097468
 20
15.5696755259
 10
48.9383758376
 20
14.9399702571
 10
48.7845187151
 20
14.2950292228
 10
48.6110934654
 20
13.6411114709
 10
48.4298413772
 20
13.0083737719
 10
48.2491643732
 20
12.4071674718
 10
48.069973883
 20
11.8280465006
  0
LWPOLYLINE
  5
220
100
AcDbEntity
  8
0
100
AcDbPolyline
 62
7
  6
CONTINUOUS
 90
7
 70
0
 10
48.8640650907
 20
29.6285380261
 10
48.7894918194
 20
29.9411859309
 10
48.6579601454
 20
30.571494424
 10
48.5494208463
 20
31.1944900744
 10
48.466561959
 20
31.8009737056
 10
48.4091533534
 20
32.3838261755
 10
48.3937401386
 20
32.6435566119
  0
LWPOLYLINE
  5
221
100
AcDbEntity
  8
0
100
AcDbPolyline
 62
7
  6
CONTINUOUS
 90
12
 70
0
 10
46.3907927067
 20
32.6435566119
 10
46.4182664497
 20
32.192746742
 10
46.4848238258
 20
31.5291388356
 10
46.5760489856
 20
30.8723636035
 10
46.6890112803
 20
30.2219744262
 10
46.8211014812
 20
29.579277978
 10
46.9680080032
 20
28.9539208044
 10
47.1277986671
 20
28.3369016913
 10
47.3045205925
 20
27.7024343908
 10
47.4992755308
 20
27.0430238755
 10
47.7068092586
 20
26.3680396242
 10
47.8162250492
 20
26.0185572718
  0
LINE
  5
222
100
AcDbEntity
  8
0
100
AcDbLine
 62
7
  6
CONTINUOUS
 10
45.8640650907
 20
32.6435566119
 11
45.8640650907
 21
42.6435566119
  0
LINE
  5
223
100
AcDbEntity
  8
0
100
AcDbLine
 62
7
  6
CONTINUOUS
 10
51.8640650907
 20
32.6435566119
 11
51.8640650907
 21
42.6435566119
  0
LWPOLYLINE
  5
224
100
AcDbEntity
  8
0
100
AcDbPolyline
 62
7
  6
CONTINUOUS
 90
11
 70
0
 10
49.3343900427
 20
32.6435566119
 10
49.3189768279
 20
32.3838261755
 10
49.2615682223
 20
31.8009737056
 10
49.178709335
 20
31.1944900744
 10
49.0701700359
 20
30.571494424
 10
48.9386383619
 20
29.9411859309
 10
48.7847222243
 20
29.2958936284
 10
48.6112540832
 20
28.6417061048
 10
48.4299612255
 20
28.0087542384
 10
48.2492526834
 20
27.4074134983
 10
48.0700476534
 20
26.8282505856
  0
LINE
  5
225
100
AcDbEntity
  8
0
100
AcDbLine
 62
7
  6
CONTINUOUS
 10
58.2960646787
 20
42.6935566119
 11
58.2960646787
 21
121.2921476897
  0
LWPOLYLINE
  5
226
100
AcDbEntity
  8
0
100
AcDbPolyline
 62
7
  6
CONTINUOUS
 90
24
 70
0
 10
47.7075865576
 20
25.6715627696
 10
47.4998329357
 20
24.995926892
 10
47.3050257001
 20
24.3364584027
 10
47.1284877041
 20
23.7028419658
 10
46.9689865661
 20
23.087253865
 10
46.8222023398
 20
22.4629393414
 10
46.6900000797
 20
21.8204187236
 10
46.5768399604
 20
21.1698044233
 10
46.4854088424
 20
20.5128386731
 10
46.4186544928
 20
19.8492332375
 10
46.3777749671
 20
19.1816725729
 10
46.3640646591
 20
18.515335001
 10
46.377894551
 20
17.8495451724
 10
46.4189135929
 20
17.1831849167
 10
46.485833955
 20
16.5207733621
 10
46.5773420673
 20
15.8648307321
 10
46.6904010145
 20
15.2151504002
 10
46.8224462713
 20
14.5731684211
 10
46.9692358549
 20
13.9486909929
 10
47.1288589149
 20
13.3327445837
 10
47.3053669798
 20
12.6994803594
 10
47.4998617649
 20
12.0411979713
 10
47.7071093677
 20
11.3671532615
 10
47.9100637893
 20
10.7188489874
  0
LWPOLYLINE
  5
227
100
AcDbEntity
  8
0
100
AcDbPolyline
 62
7
  6
CONTINUOUS
 90
11
 70
0
 10
50.0213209227
 20
26.3680396242
 10
50.2288546505
 20
27.0430238755
 10
50.4236095888
 20
27.7024343908
 10
50.6003315142
 20
28.3369016913
 10
50.7601221781
 20
28.9539208044
 10
50.9070287002
 20
29.579277978
 10
51.039118901
 20
30.2219744262
 10
51.1520811957
 20
30.8723636035
 10
51.2433063555
 20
31.5291388356
 10
51.3098637317
 20
32.192746742
 10
51.3373374746
 20
32.6435566119
  0
LINE
  5
228
100
AcDbEntity
  8
0
100
AcDbLine
 62
7
  6
CONTINUOUS
 10
47.7075865576
 20
25.6715627696
 11
48.0700476534
 21
26.8282505856
  0
LINE
  5
229
100
AcDbEntity
  8
0
100
AcDbLine
 62
7
  6
CONTINUOUS
 10
49.6597786665
 20
25.2142852894
 11
50.0213209227
 21
26.3680396242
  0
LWPOLYLINE
  5
22A
100
AcDbEntity
  8
0
100
AcDbPolyline
 62
7
  6
CONTINUOUS
 90
24
 70
0
 10
50.0210208136
 20
11.3671532612
 10
50.2282684163
 20
12.0411979708
 10
50.4227632013
 20
12.6994803588
 10
50.5992712663
 20
13.332744583
 10
50.7588943262
 20
13.9486909923
 10
50.9056839099
 20
14.5731684205
 10
51.0377291667
 20
15.2151503996
 10
51.1507881139
 20
15.8648307315
 10
51.2422962262
 20
16.5207733615
 10
51.3092165884
 20
17.1831849162
 10
51.3502356303
 20
17.849545172
 10
51.3640655222
 20
18.5153350005
 10
51.3503552143
 20
19.1816725726
 10
51.3094756885
 20
19.8492332371
 10
51.2427213389
 20
20.5128386728
 10
51.151290221
 20
21.1698044231
 10
51.0381301017
 20
21.8204187234
 10
50.9059278416
 20
22.4629393412
 10
50.7591436152
 20
23.0872538648
 10
50.5996424773
 20
23.7028419657
 10
50.4231044813
 20
24.3364584026
 10
50.2282972457
 20
24.995926892
 10
50.0205436238
 20
25.6715627695
 10
49.9119051321
 20
26.0185572718
  0
LINE
  5
22B
100
AcDbEntity
  8
0
100
AcDbLine
 62
7
  6
CONTINUOUS
 10
49.818066392
 20
10.7188489874
 11
50.0210208136
 21
11.3671532612
  0
LINE
  5
22C
100
AcDbEntity
  8
0
100
AcDbLine
 62
7
  6
CONTINUOUS
 10
47.9100637434
 20
11.3182657767
 11
48.069973883
 21
11.8280465006
  0
LINE
  5
22D
100
AcDbEntity
  8
0
100
AcDbLine
 62
7
  6
CONTINUOUS
 10
47.9100368856
 20
10.7188405353
 11
48.8640650907
 21
11.0185573748
  0
LINE
  5
22E
100
AcDbEntity
  8
0
100
AcDbLine
 62
7
  6
CONTINUOUS
 10
37.3960646787
 20
121.2921476898
 11
58.2960646787
 21
121.2921476898
  0
SPLINE
  5
22F
100
AcDbEntity
  8
0
100
AcDbSpline
 62
7
  6
CONTINUOUS
 70
0
 71
3
 72
21
 73
17
 74
0
 42
0.0000001
 43
0.0000001
 44
0.0000000001
 40
0.0
 40
0.0
 40
0.0
 40
0.0
 40
0.0637908834
 40
0.1280709163
 40
0.2570823226
 40
0.321313663
 40
0.3850012545
 40
0.4479250279
 40
0.5100576419
 40
0.571492737
 40
0.6323680853
 40
0.6928807156
 40
0.7533377178
 40
0.8140714252
 40
0.8753389475
 40
1.0
 40
1.0
 40
1.0
 40
1.0
 10
47.9116996566
 20
11.323471133
 30
0.0
 10
48.0085075721
 20
11.6313991112
 30
0.0
 10
48.2138128955
 20
12.246188086
 30
0.0
 10
48.6541765095
 20
13.4702901607
 30
0.0
 10
49.1163588792
 20
14.6887138805
 30
0.0
 10
49.5536874229
 20
15.9131134036
 30
0.0
 10
49.8562583699
 20
16.8303240368
 30
0.0
 10
50.1220966591
 20
17.7479251441
 30
0.0
 10
50.3420962417
 20
18.6660278907
 30
0.0
 10
50.5072351758
 20
19.5851839961
 30
0.0
 10
50.612352653
 20
20.5050017703
 30
0.0
 10
50.6522712576
 20
21.4250717104
 30
0.0
 10
50.6263998425
 20
22.3449255613
 30
0.0
 10
50.53492319
 20
23.2643852267
 30
0.0
 10
50.3302271752
 20
24.4963473099
 30
0.0
 10
50.0935355879
 20
25.4090438837
 30
0.0
 10
49.9119039705
 20
26.013123425
 30
0.0
  0
SPLINE
  5
230
100
AcDbEntity
  8
0
100
AcDbSpline
 62
7
  6
CONTINUOUS
 70
0
 71
3
 72
13
 73
9
 74
0
 42
0.0000001
 43
0.0000001
 44
0.0000000001
 40
0.0
 40
0.0
 40
0.0
 40
0.0
 40
0.2548737958
 40
0.5045768191
 40
0.6282020494
 40
0.7516199699
 40
0.8754044004
 40
1.0
 40
1.0
 40
1.0
 40
1.0
 10
47.8162283393
 20
26.0240045176
 30
0.0
 10
47.6522746229
 20
26.569334893
 30
0.0
 10
47.3646299128
 20
27.6609175036
 30
0.0
 10
47.1487348381
 20
29.0512673289
 30
0.0
 10
47.0825652444
 20
30.1598137213
 30
0.0
 10
47.0863286283
 20
30.9889125639
 30
0.0
 10
47.1438344107
 20
31.8181374057
 30
0.0
 10
47.2163837315
 20
32.368692172
 30
0.0
 10
47.2604730556
 20
32.6435522562
 30
0.0
  0
SPLINE
  5
231
100
AcDbEntity
  8
0
100
AcDbSpline
 62
7
  6
CONTINUOUS
 70
0
 71
3
 72
22
 73
18
 74
0
 42
0.0000001
 43
0.0000001
 44
0.0000000001
 40
0.0
 40
0.0
 40
0.0
 40
0.0
 40
0.0630698916
 40
0.1253252035
 40
0.1867995944
 40
0.2476874255
 40
0.3082627968
 40
0.3687890896
 40
0.4295385552
 40
0.490821048
 40
0.5528653551
 40
0.6156939181
 40
0.6792153218
 40
0.7432876449
 40
0.8721555939
 40
0.9363399231
 40
1.0
 40
1.0
 40
1.0
 40
1.0
 10
47.908359756
 20
10.7242754372
 30
0.0
 10
47.8108019741
 20
11.0350600007
 30
0.0
 10
47.6280552934
 20
11.6562101428
 30
0.0
 10
47.3992232975
 20
12.5938902721
 30
0.0
 10
47.2270507757
 20
13.5323276819
 30
0.0
 10
47.1173378239
 20
14.4715115013
 30
0.0
 10
47.0756819038
 20
15.4113402637
 30
0.0
 10
47.1022922317
 20
16.3510075484
 30
0.0
 10
47.1974519532
 20
17.2898314254
 30
0.0
 10
47.356206627
 20
18.2278292872
 30
0.0
 10
47.5732669918
 20
19.1649356446
 30
0.0
 10
47.839057507
 20
20.1012495959
 30
0.0
 10
48.1441265474
 20
21.0363923091
 30
0.0
 10
48.5877528582
 20
22.2845286028
 30
0.0
 10
49.0589358381
 20
23.526159826
 30
0.0
 10
49.5084039593
 20
24.7735369204
 30
0.0
 10
49.7177832929
 20
25.3998641523
 30
0.0
 10
49.8163905431
 20
25.7135140266
 30
0.0
  0
SPLINE
  5
232
100
AcDbEntity
  8
0
100
AcDbSpline
 62
7
  6
CONTINUOUS
 70
0
 71
3
 72
9
 73
5
 74
0
 42
0.0000001
 43
0.0000001
 44
0.0000000001
 40
0.0
 40
0.0
 40
0.0
 40
0.0
 40
0.2497235796
 40
1.0
 40
1.0
 40
1.0
 40
1.0
 10
47.9117078336
 20
26.3234942625
 30
0.0
 10
48.0785798303
 20
26.8542439611
 30
0.0
 10
48.8107489455
 20
28.9582807353
 30
0.0
 10
49.6504398719
 20
31.0298598088
 30
0.0
 10
50.0864571442
 20
32.6435486745
 30
0.0
  0
ENDSEC
  0
SECTION
  2
OBJECTS
  0
DICTIONARY
  5
C
100
AcDbDictionary
280
0
281
1
  3
ACAD_GROUP
350
D
  3
ACAD_MLINESTYLE
350
17
  3
ACAD_LAYOUT
350
1A
  3
ACAD_PLOTSETTINGS
350
19
  3
ACAD_PLOTSTYLENAME
350
E
  0
DICTIONARY
  5
D
102
{ACAD_REACTORS
330
C
102
}
100
AcDbDictionary
280
0
281
1
  0
ACDBDICTIONARYWDFLT
  5
E
102
{ACAD_REACTORS
330
C
102
}
100
AcDbDictionary
281
1
  3
Normal
350
F
100
AcDbDictionaryWithDefault
340
F
  0
DICTIONARY
  5
17
102
{ACAD_REACTORS
330
C
102
}
100
AcDbDictionary
280
0
281
1
  3
Standard
350
18
  0
DICTIONARY
  5
19
102
{ACAD_REACTORS
330
C
102
}
100
AcDbDictionary
281
1
  0
DICTIONARY
  5
1A
102
{ACAD_REACTORS
330
C
102
}
100
AcDbDictionary
281
1
  3
Model
350
233
  3
Layout1
350
234
  0
ACDBPLACEHOLDER
  5
F
102
{ACAD_REACTORS
330
E
102
}
  0
MLINESTYLE
  5
18
102
{ACAD_REACTORS
330
17
102
}
100
AcDbMlineStyle
  2
STANDARD
 70
0
  3

 62
256
 51
90.0
 52
90.0
 71
2
 49
0.5
 62
256
  6
BYLAYER
 49
-0.5
 62
256
  6
BYLAYER
  0
LAYOUT
  5
233
102
{ACAD_REACTORS
330
1A
102
}
100
AcDbPlotSettings
  1

  2
none_device
  4

  6

 40
0.0
 41
0.0
 42
0.0
 43
0.0
 44
210.0
 45
297.0
 46
0.0
 47
0.0
 48
0.0
 49
0.0
140
0.0
141
0.0
142
1.0
143
1.0
 70
1024
 72
1
 73
0
 74
0
  7

 75
0
147
1.0
148
0.0
149
0.0
100
AcDbLayout
  1
Model
 70
0
 71
0
 10
0.0
 20
0.0
 11
210.0
 21
297.0
 12
0.0
 22
0.0
 32
0.0
 14
0.0
 24
0.0
 34
0.0
 15
0.0
 25
0.0
 35
0.0
146
0.0
 13
0.0
 23
0.0
 33
0.0
 16
1.0
 26
0.0
 36
0.0
 17
0.0
 27
1.0
 37
0.0
 76
0
330
210
345
0
346
0
  0
LAYOUT
  5
234
102
{ACAD_REACTORS
330
1A
102
}
100
AcDbPlotSettings
  1

  2
none_device
  4

  6

 40
0.0
 41
0.0
 42
0.0
 43
0.0
 44
210.0
 45
297.0
 46
0.0
 47
0.0
 48
0.0
 49
0.0
140
0.0
141
0.0
142
1.0
143
1.0
 70
0
 72
1
 73
0
 74
0
  7

 75
0
147
1.0
148
0.0
149
0.0
100
AcDbLayout
  1
Layout1
 70
0
 71
1
 10
0.0
 20
0.0
 11
210.0
 21
297.0
 12
0.0
 22
0.0
 32
0.0
 14
0.0
 24
0.0
 34
0.0
 15
0.0
 25
0.0
 35
0.0
146
0.0
 13
0.0
 23
0.0
 33
0.0
 16
1.0
 26
0.0
 36
0.0
 17
0.0
 27
1.0
 37
0.0
 76
0
330
211
345
0
346
0
  0
ENDSEC
  0
EOF
