999
DXF file: C:\Users\sesa63760\Dev\_Creo\CAD\MCADID0004159_3D-CAD\drw0001_1.dxf
999
Pro/ENGINEER 2019471 by Parametric Technology Corporation
  0
SECTION
  2
HEADER
  9
$ACADVER
  1
AC1024
  9
$DWGCODEPAGE
  3
ANSI_1252
  9
$EXTMAX
 10
258.9181682209
 20
366.1842664838
 30
0.0
  9
$EXTMIN
 10
-0.0
 20
0.0
 30
0.0
  9
$LIMMIN
 10
-0.0
 20
0.0
  9
$LIMMAX
 10
258.9181682209
 20
366.1842664838
  9
$VIEWCTR
 10
129.4590841104
 20
183.0921332419
  9
$VIEWSIZE
 40
366.1842664838
  9
$CLAYER
  8
0
  9
$LTSCALE
 40
23.8697892226
  9
$CELTYPE
  6
BYLAYER
  9
$DIMSCALE
 40
1.0
  9
$DIMASZ
 40
3.0823591455
  9
$DIMEXO
 40
1.0
  9
$DIMDLI
 40
16.491854372
  9
$DIMEXE
 40
1.0
  9
$DIMCEN
 40
3.9059655092
  9
$DIMLFAC
 40
1.0
  9
$DIMBLK
  1
_FILLED
  9
$DIMALT
 70
0
  9
$DIMALTF
 40
0.0393700787
  9
$DIMTXT
 40
4.3153028037
  9
$DIMTOL
 70
1
  9
$DIMLIM
 70
0
  9
$DIMTFAC
 40
1.0
  9
$DIMTP
 40
0.01
  9
$DIMTM
 40
0.01
  9
$DIMGAP
 40
0.625
  9
$DIMDSEP
 70
46
  9
$AUNITS
 70
0
  9
$PDMODE
 70
3
  9
$PDSIZE
 40
0.3125
  9
$HANDSEED
  5
554
  9
$TILEMODE
 70
1
  9
$MEASUREMENT
 70
1
  9
$INSUNITS
 70
4
  0
ENDSEC
  0
SECTION
  2
CLASSES
  0
CLASS
  1
ACDBDICTIONARYWDFLT
  2
AcDbDictionaryWithDefault
  3
AutoCAD 2000
 90
0
 91
1
280
0
281
0
  0
CLASS
  1
ACDBPLACEHOLDER
  2
AcDbPlaceHolder
  3
AutoCAD 2000
 90
0
 91
1
280
0
281
0
  0
CLASS
  1
LAYOUT
  2
AcDbLayout
  3
AutoCAD 2000
 90
0
 91
0
280
0
281
0
  0
ENDSEC
  0
SECTION
  2
TABLES
  0
TABLE
  2
VPORT
  5
8
100
AcDbSymbolTable
 70
2
  0
VPORT
  5
1F4
100
AcDbSymbolTableRecord
100
AcDbViewportTableRecord
  2
*ACTIVE
 70
0
 10
0.0
 20
0.0
 11
1.0
 21
1.0
 12
129.4590841104
 22
183.0921332419
 13
0.0
 23
0.0
 14
1.0
 24
1.0
 15
0.0
 25
0.0
 16
0.0
 26
0.0
 36
1.0
 17
0.0
 27
0.0
 37
0.0
 40
366.1842664838
 41
0.7070707071
 42
50.0
 43
0.0
 44
0.0
 50
0.0
 51
0.0
 71
0
 72
100
 73
1
 74
1
 75
0
 76
0
 77
0
 78
0
  0
ENDTAB
  0
TABLE
  2
LTYPE
  5
5
100
AcDbSymbolTable
 70
6
  0
LTYPE
  5
14
100
AcDbSymbolTableRecord
100
AcDbLinetypeTableRecord
  2
BYBLOCK
 70
0
  3

 72
65
 73
0
 40
0.0
  0
LTYPE
  5
15
100
AcDbSymbolTableRecord
100
AcDbLinetypeTableRecord
  2
BYLAYER
 70
0
  3

 72
65
 73
0
 40
0.0
  0
LTYPE
  5
16
100
AcDbSymbolTableRecord
100
AcDbLinetypeTableRecord
  2
CONTINUOUS
 70
64
  3
Solid line
 72
65
 73
0
 40
0.0
  0
LTYPE
  5
1F5
100
AcDbSymbolTableRecord
100
AcDbLinetypeTableRecord
  2
CENTER
 70
64
  3
____ _ ____ _ ____ _ ____ _ ____ _ ____ _ ____
 72
65
 73
4
 40
0.6
 49
0.375
 74
0
 49
-0.075
 74
0
 49
0.075
 74
0
 49
-0.075
 74
0
  0
LTYPE
  5
1F6
100
AcDbSymbolTableRecord
100
AcDbLinetypeTableRecord
  2
HIDDEN
 70
64
  3
- - - - - - - - - - - - - - - - - - - -
 72
65
 73
2
 40
0.2
 49
0.1
 74
0
 49
-0.1
 74
0
  0
LTYPE
  5
1F7
100
AcDbSymbolTableRecord
100
AcDbLinetypeTableRecord
  2
PHANTOM
 70
64
  3
_____ _ _ _____ _ _ _____ _ _ _____
 72
65
 73
6
 40
0.8
 49
0.45
 74
0
 49
-0.05
 74
0
 49
0.1
 74
0
 49
-0.05
 74
0
 49
0.1
 74
0
 49
-0.05
 74
0
  0
LTYPE
  5
1F8
100
AcDbSymbolTableRecord
100
AcDbLinetypeTableRecord
  2
DOT
 70
64
  3
. . . . . . . . . . . . . . . . . . . .
 72
65
 73
2
 40
0.2
 49
0.1
 74
0
 49
-0.1
 74
0
  0
LTYPE
  5
1F9
100
AcDbSymbolTableRecord
100
AcDbLinetypeTableRecord
  2
DASHED
 70
64
  3
- - - - - - - - - - - - - - - - - - - -
 72
65
 73
2
 40
0.2
 49
0.1
 74
0
 49
-0.1
 74
0
  0
ENDTAB
  0
TABLE
  2
LAYER
  5
2
100
AcDbSymbolTable
 70
36
  0
LAYER
  5
10
100
AcDbSymbolTableRecord
100
AcDbLayerTableRecord
  2
0
 70
0
 62
7
  6
CONTINUOUS
370
-3
390
F
  0
LAYER
  5
1FA
100
AcDbSymbolTableRecord
100
AcDbLayerTableRecord
  2
DEFAULT_1
 70
0
 62
7
  6
CENTER
370
-3
390
F
  0
LAYER
  5
1FB
100
AcDbSymbolTableRecord
100
AcDbLayerTableRecord
  2
DEFAULT_2
 70
0
 62
7
  6
HIDDEN
370
-3
390
F
  0
LAYER
  5
1FC
100
AcDbSymbolTableRecord
100
AcDbLayerTableRecord
  2
DEFAULT_3
 70
0
 62
7
  6
PHANTOM
370
-3
390
F
  0
LAYER
  5
1FD
100
AcDbSymbolTableRecord
100
AcDbLayerTableRecord
  2
00_COMPONENTS
 70
0
 62
7
  6
CONTINUOUS
370
-3
390
F
  0
LAYER
  5
1FE
100
AcDbSymbolTableRecord
100
AcDbLayerTableRecord
  2
01_1_DEFAULT_DATUMS
 70
0
 62
7
  6
CONTINUOUS
370
-3
390
F
  0
LAYER
  5
1FF
100
AcDbSymbolTableRecord
100
AcDbLayerTableRecord
  2
01_PLANES
 70
0
 62
7
  6
CONTINUOUS
370
-3
390
F
  0
LAYER
  5
200
100
AcDbSymbolTableRecord
100
AcDbLayerTableRecord
  2
02_COORD_SYS
 70
0
 62
7
  6
CONTINUOUS
370
-3
390
F
  0
LAYER
  5
201
100
AcDbSymbolTableRecord
100
AcDbLayerTableRecord
  2
03_AXES
 70
0
 62
7
  6
CONTINUOUS
370
-3
390
F
  0
LAYER
  5
202
100
AcDbSymbolTableRecord
100
AcDbLayerTableRecord
  2
04_POINTS
 70
0
 62
7
  6
CONTINUOUS
370
-3
390
F
  0
LAYER
  5
203
100
AcDbSymbolTableRecord
100
AcDbLayerTableRecord
  2
05_CURVES
 70
0
 62
7
  6
CONTINUOUS
370
-3
390
F
  0
LAYER
  5
204
100
AcDbSymbolTableRecord
100
AcDbLayerTableRecord
  2
06_SURFS
 70
0
 62
7
  6
CONTINUOUS
370
-3
390
F
  0
LAYER
  5
205
100
AcDbSymbolTableRecord
100
AcDbLayerTableRecord
  2
07_COSMETICS
 70
0
 62
7
  6
CONTINUOUS
370
-3
390
F
  0
LAYER
  5
206
100
AcDbSymbolTableRecord
100
AcDbLayerTableRecord
  2
10_NOTES
 70
0
 62
7
  6
CONTINUOUS
370
-3
390
F
  0
LAYER
  5
207
100
AcDbSymbolTableRecord
100
AcDbLayerTableRecord
  2
11_NOTES_PUB
 70
0
 62
7
  6
CONTINUOUS
370
-3
390
F
  0
LAYER
  5
208
100
AcDbSymbolTableRecord
100
AcDbLayerTableRecord
  2
13_REF_GTOL
 70
0
 62
7
  6
CONTINUOUS
370
-3
390
F
  0
LAYER
  5
209
100
AcDbSymbolTableRecord
100
AcDbLayerTableRecord
  2
16_MISC
 70
0
 62
7
  6
CONTINUOUS
370
-3
390
F
  0
LAYER
  5
20A
100
AcDbSymbolTableRecord
100
AcDbLayerTableRecord
  2
17_NO_PRINT
 70
0
 62
7
  6
CONTINUOUS
370
-3
390
F
  0
LAYER
  5
20B
100
AcDbSymbolTableRecord
100
AcDbLayerTableRecord
  2
18_DATUM_CAMS_JOINTS
 70
0
 62
7
  6
CONTINUOUS
370
-3
390
F
  0
LAYER
  5
20C
100
AcDbSymbolTableRecord
100
AcDbLayerTableRecord
  2
19_DATUM_FUNCTIONAL
 70
0
 62
7
  6
CONTINUOUS
370
-3
390
F
  0
LAYER
  5
20D
100
AcDbSymbolTableRecord
100
AcDbLayerTableRecord
  2
20_DATUM_KINEMATIC_SCHEME
 70
0
 62
7
  6
CONTINUOUS
370
-3
390
F
  0
ENDTAB
  0
TABLE
  2
STYLE
  5
3
100
AcDbSymbolTable
 70
1
  0
STYLE
  5
11
100
AcDbSymbolTableRecord
100
AcDbTextStyleTableRecord
  2
STANDARD
 70
0
 40
0.0
 41
1.0
 50
0.0
 71
0
 42
0.2
  3
ARIAL.TTF
  4

  0
STYLE
  5
20E
100
AcDbSymbolTableRecord
100
AcDbTextStyleTableRecord
  2
TEXTSTYLE_1
 70
0
 40
0.0
 41
0.8
 50
0.0
 71
0
 42
0.2
  3
gdt
  4

  0
ENDTAB
  0
TABLE
  2
VIEW
  5
6
100
AcDbSymbolTable
 70
0
  0
ENDTAB
  0
TABLE
  2
UCS
  5
7
100
AcDbSymbolTable
 70
0
  0
ENDTAB
  0
TABLE
  2
APPID
  5
9
100
AcDbSymbolTable
 70
1
  0
APPID
  5
20F
100
AcDbSymbolTableRecord
100
AcDbRegAppTableRecord
  2
ACAD
 70
0
  0
ENDTAB
  0
TABLE
  2
BLOCK_RECORD
  5
1
100
AcDbSymbolTable
 70
0
  0
BLOCK_RECORD
  5
210
100
AcDbSymbolTableRecord
100
AcDbBlockTableRecord
  2
*Model_Space
  0
BLOCK_RECORD
  5
211
100
AcDbSymbolTableRecord
100
AcDbBlockTableRecord
  2
*Paper_Space
  0
BLOCK_RECORD
  5
212
100
AcDbSymbolTableRecord
100
AcDbBlockTableRecord
  2
_FILLED
  0
ENDTAB
  0
TABLE
  2
DIMSTYLE
  5
A
100
AcDbSymbolTable
 70
1
100
AcDbDimStyleTable
 71
0
  0
DIMSTYLE
105
213
100
AcDbSymbolTableRecord
100
AcDbDimStyleTableRecord
  2
STANDARD
 70
0
  3

  4

 40
1.0
 41
3.0823591455
 42
1.0
 43
0.38
 44
1.0
 45
0.0
 46
0.0
 47
0.01
 48
0.01
140
4.3153028037
141
0.09
142
0.0
143
25.4
144
1.0
145
0.0
146
1.0
147
0.625
 71
1
 72
0
 73
0
 74
0
 75
0
 76
0
 77
1
 78
8
 79
2
170
0
171
1
172
0
173
0
174
0
175
0
176
0
177
0
178
0
270
2
179
2
271
2
272
2
273
2
274
2
275
0
280
0
281
0
282
0
283
1
284
8
285
0
286
0
287
3
288
0
340
11
278
46
341
212
342
212
343
212
344
212
  0
ENDTAB
  0
ENDSEC
  0
SECTION
  2
BLOCKS
  0
BLOCK
  5
20
100
AcDbEntity
  8
0
100
AcDbBlockBegin
  2
*Model_Space
 70
0
 10
0.0
 20
0.0
 30
0.0
  3
*Model_Space
  1

  0
ENDBLK
  5
21
100
AcDbEntity
  8
0
100
AcDbBlockEnd
  0
BLOCK
  5
1C
100
AcDbEntity
  8
0
100
AcDbBlockBegin
  2
*Paper_Space
 70
0
 10
0.0
 20
0.0
 30
0.0
  3
*Paper_Space
  1

  0
ENDBLK
  5
1D
100
AcDbEntity
  8
0
100
AcDbBlockEnd
  0
BLOCK
  5
214
100
AcDbEntity
  8
0
100
AcDbBlockBegin
  2
_FILLED
 70
64
 10
0.0
 20
0.0
  3
_FILLED
  1

  0
SOLID
  5
215
100
AcDbEntity
  8
0
  6
BYBLOCK
 62
0
100
AcDbTrace
 10
0.0
 20
0.0
 11
-1.0
 21
0.25
 12
-1.0
 22
-0.25
 13
-1.0
 23
-0.25
  0
ENDBLK
  5
216
100
AcDbEntity
  8
0
  6
BYBLOCK
 62
0
100
AcDbBlockEnd
  0
ENDSEC
  0
SECTION
  2
ENTITIES
  0
LINE
  5
217
100
AcDbEntity
  8
0
100
AcDbLine
 62
7
  6
BYLAYER
 10
118.0928425112
 20
333.9899579228
 11
115.9361758074
 21
332.7448132533
  0
LINE
  5
218
100
AcDbEntity
  8
0
100
AcDbLine
 62
7
  6
BYLAYER
 10
123.608252441
 20
337.1742623228
 11
125.7649191445
 21
338.4194069921
  0
LINE
  5
219
100
AcDbEntity
  8
0
100
AcDbLine
 62
7
  6
BYLAYER
 10
125.8002855234
 20
336.8884978738
 11
124.6689193839
 21
336.2353072276
  0
LINE
  5
21A
100
AcDbEntity
  8
0
100
AcDbLine
 62
7
  6
BYLAYER
 10
119.4363509885
 20
333.214300489
 11
118.5878263839
 21
332.7244075043
  0
LINE
  5
21B
100
AcDbEntity
  8
0
100
AcDbLine
 62
7
  6
BYLAYER
 10
115.7018635874
 20
330.1600265861
 11
115.0983847632
 21
329.8116100043
  0
LINE
  5
21C
100
AcDbEntity
  8
0
100
AcDbLine
 62
7
  6
BYLAYER
 10
128.4519680474
 20
337.5212588877
 11
128.4913041061
 21
337.5439694362
  0
LINE
  5
21D
100
AcDbEntity
  8
0
100
AcDbLine
 62
7
  6
BYLAYER
 10
114.3427232096
 20
329.3033410289
 11
114.3935226047
 21
329.3326698982
  0
LINE
  5
21E
100
AcDbEntity
  8
0
100
AcDbLine
 62
7
  6
BYLAYER
 10
129.8990076283
 20
338.284712414
 11
129.9498070234
 21
338.3140412834
  0
LINE
  5
21F
100
AcDbEntity
  8
0
100
AcDbLine
 62
7
  6
BYLAYER
 10
120.1434677792
 20
331.8262778444
 11
127.3559269188
 21
335.9903682139
  0
LINE
  5
220
100
AcDbEntity
  8
0
100
AcDbLine
 62
7
  6
BYLAYER
 10
114.3640685352
 20
328.3508486837
 11
114.7068877638
 21
328.5487742762
  0
LINE
  5
221
100
AcDbEntity
  8
0
100
AcDbLine
 62
7
  6
BYLAYER
 10
115.7004922745
 20
329.1224286837
 11
116.0433115031
 21
329.3203542761
  0
LINE
  5
222
100
AcDbEntity
  8
0
100
AcDbLine
 62
7
  6
BYLAYER
 10
129.9203529539
 20
337.3322200689
 11
130.2631721825
 21
337.5301456614
  0
LINE
  5
223
100
AcDbEntity
  8
0
100
AcDbLine
 62
7
  6
BYLAYER
 10
131.2567766932
 20
338.1038000688
 11
131.5995959218
 21
338.3017256613
  0
LINE
  5
224
100
AcDbEntity
  8
0
100
AcDbLine
 62
7
  6
BYLAYER
 10
132.0039506025
 20
338.0682766588
 11
131.6611313739
 21
337.8703510664
  0
LINE
  5
225
100
AcDbEntity
  8
0
100
AcDbLine
 62
7
  6
BYLAYER
 10
130.6675268633
 20
337.2966966589
 11
130.3247076347
 21
337.0987710665
  0
LINE
  5
226
100
AcDbEntity
  8
0
100
AcDbLine
 62
7
  6
BYLAYER
 10
116.4476661838
 20
329.0869052737
 11
116.1048469552
 21
328.8889796812
  0
LINE
  5
227
100
AcDbEntity
  8
0
100
AcDbLine
 62
7
  6
BYLAYER
 10
115.1112424446
 20
328.3153252738
 11
114.768423216
 21
328.1173996813
  0
LINE
  5
228
100
AcDbEntity
  8
0
100
AcDbLine
 62
7
  6
BYLAYER
 10
131.5390937597
 20
337.4528137436
 11
131.2627372445
 21
337.2932601876
  0
LINE
  5
229
100
AcDbEntity
  8
0
100
AcDbLine
 62
7
  6
BYLAYER
 10
115.982809341
 20
328.4714423585
 11
115.7064528258
 21
328.3118888024
  0
LINE
  5
22A
100
AcDbEntity
  8
0
100
AcDbLine
 62
7
  6
BYLAYER
 10
131.9826188366
 20
337.1404233866
 11
131.9318194415
 21
337.1110945173
  0
LINE
  5
22B
100
AcDbEntity
  8
0
100
AcDbLine
 62
7
  6
BYLAYER
 10
116.4263344179
 20
328.1590520015
 11
116.3755350228
 21
328.1297231321
  0
LINE
  5
22C
100
AcDbEntity
  8
0
100
AcDbLine
 62
7
  6
BYLAYER
 10
115.6706977204
 20
327.2435419074
 11
117.7039739662
 21
328.417447488
  0
LINE
  5
22D
100
AcDbEntity
  8
0
100
AcDbLine
 62
7
  6
BYLAYER
 10
133.2602583849
 20
337.3988188731
 11
135.2935346307
 21
338.5727244537
  0
LINE
  5
22E
100
AcDbEntity
  8
0
100
AcDbLine
 62
7
  6
BYLAYER
 10
136.2302315839
 20
36.6373690513
 11
135.0952900582
 21
37.292613023
  0
LINE
  5
22F
100
AcDbEntity
  8
0
100
AcDbLine
 62
7
  6
BYLAYER
 10
115.4364114279
 20
45.4557865367
 11
115.3568367929
 21
45.5084072572
  0
LINE
  5
230
100
AcDbEntity
  8
0
100
AcDbLine
 62
7
  6
BYLAYER
 10
115.4363855006
 20
45.4557734777
 11
115.3568158516
 21
45.5083966934
  0
LINE
  5
231
100
AcDbEntity
  8
0
100
AcDbLine
 62
7
  6
BYLAYER
 10
146.1277461976
 20
332.8254439561
 11
146.1363475786
 21
332.8304099361
  0
LINE
  5
232
100
AcDbEntity
  8
0
100
AcDbLine
 62
7
  6
BYLAYER
 10
146.1277509079
 20
332.1722560294
 11
144.2204591247
 21
331.0710871781
  0
LINE
  5
233
100
AcDbEntity
  8
0
100
AcDbLine
 62
7
  6
BYLAYER
 10
128.664174706
 20
322.0897157929
 11
126.7492243697
 21
320.9841253002
  0
LINE
  5
234
100
AcDbEntity
  8
0
100
AcDbLine
 62
7
  6
BYLAYER
 10
126.7492243697
 20
318.5346180488
 11
128.583887203
 21
319.5938548067
  0
LINE
  5
235
100
AcDbEntity
  8
0
100
AcDbLine
 62
7
  6
BYLAYER
 10
129.8991371628
 20
320.3220444294
 11
129.9499365579
 21
320.3513732988
  0
LINE
  5
236
100
AcDbEntity
  8
0
100
AcDbLine
 62
7
  6
BYLAYER
 10
145.4554215815
 20
329.2821053224
 11
145.5062209766
 21
329.3114341917
  0
LINE
  5
237
100
AcDbEntity
  8
0
100
AcDbLine
 62
7
  6
BYLAYER
 10
129.9204824885
 20
319.3695520843
 11
130.2633017171
 21
319.5674776768
  0
LINE
  5
238
100
AcDbEntity
  8
0
100
AcDbLine
 62
7
  6
BYLAYER
 10
131.2569062277
 20
320.1411320842
 11
131.5997254563
 21
320.3390576767
  0
LINE
  5
239
100
AcDbEntity
  8
0
100
AcDbLine
 62
7
  6
BYLAYER
 10
145.4767669072
 20
328.3296129772
 11
145.8195861358
 21
328.5275385697
  0
LINE
  5
23A
100
AcDbEntity
  8
0
100
AcDbLine
 62
7
  6
BYLAYER
 10
146.8131906464
 20
329.1011929772
 11
147.1560098751
 21
329.2991185696
  0
LINE
  5
23B
100
AcDbEntity
  8
0
100
AcDbLine
 62
7
  6
BYLAYER
 10
132.0040801371
 20
320.1056086742
 11
131.6612609085
 21
319.9076830818
  0
LINE
  5
23C
100
AcDbEntity
  8
0
100
AcDbLine
 62
7
  6
BYLAYER
 10
130.6676563978
 20
319.3340286743
 11
130.3248371692
 21
319.1361030818
  0
LINE
  5
23D
100
AcDbEntity
  8
0
100
AcDbLine
 62
7
  6
BYLAYER
 10
147.5603645558
 20
329.0656695672
 11
147.2175453272
 21
328.8677439747
  0
LINE
  5
23E
100
AcDbEntity
  8
0
100
AcDbLine
 62
7
  6
BYLAYER
 10
146.2239408165
 20
328.2940895673
 11
145.8811215879
 21
328.0961639748
  0
LINE
  5
23F
100
AcDbEntity
  8
0
100
AcDbLine
 62
7
  6
BYLAYER
 10
131.5392232943
 20
319.490145759
 11
131.262866779
 21
319.330592203
  0
LINE
  5
240
100
AcDbEntity
  8
0
100
AcDbLine
 62
7
  6
BYLAYER
 10
147.095507713
 20
328.4502066519
 11
146.8191511978
 21
328.2906530959
  0
LINE
  5
241
100
AcDbEntity
  8
0
100
AcDbLine
 62
7
  6
BYLAYER
 10
131.9827483711
 20
319.177755402
 11
131.931948976
 21
319.1484265326
  0
LINE
  5
242
100
AcDbEntity
  8
0
100
AcDbLine
 62
7
  6
BYLAYER
 10
147.5390327898
 20
328.137816295
 11
147.4882333947
 21
328.1084874256
  0
LINE
  5
243
100
AcDbEntity
  8
0
100
AcDbLine
 62
7
  6
BYLAYER
 10
147.1903457711
 20
326.0497110016
 11
137.3616024338
 21
320.3751172628
  0
LINE
  5
244
100
AcDbEntity
  8
0
100
AcDbLine
 62
7
  6
BYLAYER
 10
148.6560968001
 20
324.44645045
 11
147.1903457711
 21
323.6002037502
  0
LINE
  5
245
100
AcDbEntity
  8
0
100
AcDbLine
 62
7
  6
BYLAYER
 10
135.8958514048
 20
317.0793633116
 11
137.3616024339
 21
317.9256100114
  0
LINE
  5
246
100
AcDbEntity
  8
0
100
AcDbLine
 62
7
  6
BYLAYER
 10
121.614666904
 20
50.8129658697
 11
121.7170056258
 21
50.7564994316
  0
LINE
  5
247
100
AcDbEntity
  8
0
100
AcDbLine
 62
7
  6
BYLAYER
 10
121.6168637765
 20
50.8142918045
 11
121.7188184428
 21
50.7575955779
  0
LINE
  5
248
100
AcDbEntity
  8
0
100
AcDbLine
 62
7
  6
BYLAYER
 10
136.143951133
 20
47.100769459
 11
136.0326517564
 21
47.1650267303
  0
LINE
  5
249
100
AcDbEntity
  8
0
100
AcDbLine
 62
7
  6
BYLAYER
 10
148.6560968001
 20
321.9969431986
 11
136.0326517565
 21
314.7088373087
  0
LINE
  5
24A
100
AcDbEntity
  8
0
100
AcDbLine
 62
7
  6
BYLAYER
 10
136.143951133
 20
314.5053110689
 11
148.8718202028
 21
321.8537058386
  0
LINE
  5
24B
100
AcDbEntity
  8
0
100
AcDbLine
 62
7
  6
BYLAYER
 10
114.5830583897
 20
325.1310346021
 11
114.5588334221
 21
325.0468867857
  0
LINE
  5
24C
100
AcDbEntity
  8
0
100
AcDbLine
 62
7
  6
BYLAYER
 10
114.5113170302
 20
55.0858490261
 11
114.5101250355
 21
55.1028771543
  0
LINE
  5
24D
100
AcDbEntity
  8
0
100
AcDbLine
 62
7
  6
BYLAYER
 10
112.1624772965
 20
57.5158980737
 11
112.1607658193
 21
57.5747879594
  0
LINE
  5
24E
100
AcDbEntity
  8
0
100
AcDbLine
 62
7
  6
BYLAYER
 10
115.436880319
 20
326.9328734954
 11
115.43648572
 21
326.9169494081
  0
LINE
  5
24F
100
AcDbEntity
  8
0
100
AcDbLine
 62
7
  6
BYLAYER
 10
130.2784699912
 20
314.1919520663
 11
130.2697362792
 21
314.1392603505
  0
LINE
  5
250
100
AcDbEntity
  8
0
100
AcDbLine
 62
7
  6
BYLAYER
 10
130.2697362792
 20
314.1392603505
 11
130.2655452782
 21
314.1148035703
  0
LINE
  5
251
100
AcDbEntity
  8
0
100
AcDbLine
 62
7
  6
BYLAYER
 10
112.1607658193
 20
324.9793295694
 11
112.1624772965
 21
324.9204396836
  0
LINE
  5
252
100
AcDbEntity
  8
0
100
AcDbLine
 62
7
  6
BYLAYER
 10
115.6325649328
 20
45.3257298493
 11
115.6335478004
 21
42.8755696813
  0
LINE
  5
253
100
AcDbEntity
  8
0
100
AcDbLine
 62
7
  6
BYLAYER
 10
112.1517155088
 20
57.5158980737
 11
112.1517155088
 21
48.5883971255
  0
LINE
  5
254
100
AcDbEntity
  8
0
100
AcDbLine
 62
7
  6
BYLAYER
 10
112.1588353958
 20
324.9961554406
 11
112.1588353958
 21
327.4456626919
  0
LINE
  5
255
100
AcDbEntity
  8
0
100
AcDbLine
 62
7
  6
BYLAYER
 10
112.1607569778
 20
57.5747879593
 11
112.1607569778
 21
324.9793295693
  0
LINE
  5
256
100
AcDbEntity
  8
0
100
AcDbLine
 62
7
  6
BYLAYER
 10
112.3247019149
 20
57.0076599096
 11
112.3247019148
 21
326.861708771
  0
LINE
  5
257
100
AcDbEntity
  8
0
100
AcDbLine
 62
7
  6
BYLAYER
 10
112.4163639915
 20
56.8546216471
 11
112.4163639915
 21
47.8730950587
  0
LINE
  5
258
100
AcDbEntity
  8
0
100
AcDbLine
 62
7
  6
BYLAYER
 10
112.4163639915
 20
324.2623187966
 11
112.4163639915
 21
326.711826048
  0
LINE
  5
259
100
AcDbEntity
  8
0
100
AcDbLine
 62
7
  6
BYLAYER
 10
112.9058673595
 20
327.3580396169
 11
112.9058673595
 21
328.0384582978
  0
LINE
  5
25A
100
AcDbEntity
  8
0
100
AcDbLine
 62
7
  6
BYLAYER
 10
113.6934374078
 20
55.6228661076
 11
113.6934374078
 21
46.6413395191
  0
LINE
  5
25B
100
AcDbEntity
  8
0
100
AcDbLine
 62
7
  6
BYLAYER
 10
113.6934374078
 20
323.0305632571
 11
113.6934374078
 21
325.4800705085
  0
LINE
  5
25C
100
AcDbEntity
  8
0
100
AcDbLine
 62
7
  6
BYLAYER
 10
113.7482349797
 20
322.9879425769
 11
113.7482349797
 21
55.583400967
  0
LINE
  5
25D
100
AcDbEntity
  8
0
100
AcDbLine
 62
7
  6
BYLAYER
 10
114.0092691285
 20
322.9336500692
 11
114.0092691285
 21
55.5291084593
  0
LINE
  5
25E
100
AcDbEntity
  8
0
100
AcDbLine
 62
7
  6
BYLAYER
 10
114.0708207975
 20
325.3883390937
 11
114.0708207975
 21
322.9388318423
  0
LINE
  5
25F
100
AcDbEntity
  8
0
100
AcDbLine
 62
7
  6
BYLAYER
 10
114.0708207975
 20
55.5311346928
 11
114.0708207975
 21
46.5496081043
  0
LINE
  5
260
100
AcDbEntity
  8
0
100
AcDbLine
 62
7
  6
BYLAYER
 10
114.3427232096
 20
329.0992198018
 11
114.3427232096
 21
329.3033410289
  0
LINE
  5
261
100
AcDbEntity
  8
0
100
AcDbLine
 62
7
  6
BYLAYER
 10
114.3640685352
 20
328.1467274566
 11
114.3640685352
 21
328.3508486837
  0
LINE
  5
262
100
AcDbEntity
  8
0
100
AcDbLine
 62
7
  6
BYLAYER
 10
114.3935226047
 20
329.3326698982
 11
114.3935226047
 21
329.0698922707
  0
LINE
  5
263
100
AcDbEntity
  8
0
100
AcDbLine
 62
7
  6
BYLAYER
 10
114.5101048093
 20
55.1028772117
 11
114.5101048093
 21
322.5074188217
  0
LINE
  5
264
100
AcDbEntity
  8
0
100
AcDbLine
 62
7
  6
BYLAYER
 10
114.5372713466
 20
55.0071026744
 11
114.5372713466
 21
46.1333577181
  0
LINE
  5
265
100
AcDbEntity
  8
0
100
AcDbLine
 62
7
  6
BYLAYER
 10
114.5372713466
 20
322.522581456
 11
114.5372713466
 21
324.9720887074
  0
LINE
  5
266
100
AcDbEntity
  8
0
100
AcDbLine
 62
7
  6
BYLAYER
 10
114.5741382205
 20
322.4109503539
 11
114.5741382205
 21
55.006408744
  0
LINE
  5
267
100
AcDbEntity
  8
0
100
AcDbLine
 62
7
  6
BYLAYER
 10
114.6378577195
 20
324.8189553577
 11
114.6378577195
 21
322.3694481063
  0
LINE
  5
268
100
AcDbEntity
  8
0
100
AcDbLine
 62
7
  6
BYLAYER
 10
114.6378577195
 20
45.9802243683
 11
114.6378577195
 21
54.9617509568
  0
LINE
  5
269
100
AcDbEntity
  8
0
100
AcDbLine
 62
7
  6
BYLAYER
 10
114.7068877635
 20
328.548774276
 11
114.7068877635
 21
328.0921289629
  0
LINE
  5
26A
100
AcDbEntity
  8
0
100
AcDbLine
 62
7
  6
BYLAYER
 10
114.7470759953
 20
328.8587366879
 11
114.7470759953
 21
329.3326707481
  0
LINE
  5
26B
100
AcDbEntity
  8
0
100
AcDbLine
 62
7
  6
BYLAYER
 10
114.828925378
 20
328.1523304124
 11
114.828925378
 21
328.7188755919
  0
LINE
  5
26C
100
AcDbEntity
  8
0
100
AcDbLine
 62
7
  6
BYLAYER
 10
115.1112366239
 20
329.1224272674
 11
115.1112366239
 21
328.3153252738
  0
LINE
  5
26D
100
AcDbEntity
  8
0
100
AcDbLine
 62
7
  6
BYLAYER
 10
115.4363855006
 20
43.1792038117
 11
115.4363855006
 21
45.4557734777
  0
LINE
  5
26E
100
AcDbEntity
  8
0
100
AcDbLine
 62
7
  6
BYLAYER
 10
115.4363855006
 20
324.4674420524
 11
115.4363855006
 21
326.9169493038
  0
LINE
  5
26F
100
AcDbEntity
  8
0
100
AcDbLine
 62
7
  6
BYLAYER
 10
115.7004922749
 20
328.31532669
 11
115.7004922749
 21
329.1224286839
  0
LINE
  5
270
100
AcDbEntity
  8
0
100
AcDbLine
 62
7
  6
BYLAYER
 10
115.7018635874
 20
332.4182187266
 11
115.7018635874
 21
329.9687114752
  0
LINE
  5
271
100
AcDbEntity
  8
0
100
AcDbLine
 62
7
  6
BYLAYER
 10
115.7021645667
 20
326.5677022163
 11
115.7021645667
 21
321.6686877135
  0
LINE
  5
272
100
AcDbEntity
  8
0
100
AcDbLine
 62
7
  6
BYLAYER
 10
115.7021644877
 20
54.2609906159
 11
115.7021644877
 21
42.8299567761
  0
LINE
  5
273
100
AcDbEntity
  8
0
100
AcDbLine
 62
7
  6
BYLAYER
 10
115.9361805177
 20
329.7675964321
 11
115.9361805177
 21
332.0916253265
  0
LINE
  5
274
100
AcDbEntity
  8
0
100
AcDbLine
 62
7
  6
BYLAYER
 10
115.982809341
 20
328.1523379035
 11
115.982809341
 21
328.7188783655
  0
LINE
  5
275
100
AcDbEntity
  8
0
100
AcDbLine
 62
7
  6
BYLAYER
 10
116.0433115031
 20
329.3203542761
 11
116.0433115031
 21
328.8426793611
  0
LINE
  5
276
100
AcDbEntity
  8
0
100
AcDbLine
 62
7
  6
BYLAYER
 10
116.1048494089
 20
328.0993505332
 11
116.1048494089
 21
328.5487776363
  0
LINE
  5
277
100
AcDbEntity
  8
0
100
AcDbLine
 62
7
  6
BYLAYER
 10
116.3968648937
 20
329.0575753102
 11
116.3968648937
 21
329.320355126
  0
LINE
  5
278
100
AcDbEntity
  8
0
100
AcDbLine
 62
7
  6
BYLAYER
 10
116.4263329459
 20
328.3631732286
 11
116.4263329459
 21
328.1590520015
  0
LINE
  5
279
100
AcDbEntity
  8
0
100
AcDbLine
 62
7
  6
BYLAYER
 10
116.4476647119
 20
329.2910265008
 11
116.4476647119
 21
329.0869052737
  0
LINE
  5
27A
100
AcDbEntity
  8
0
100
AcDbLine
 62
7
  6
BYLAYER
 10
117.7039548305
 20
331.0710234402
 11
117.7039548305
 21
328.7508745574
  0
LINE
  5
27B
100
AcDbEntity
  8
0
100
AcDbLine
 62
7
  6
BYLAYER
 10
118.5878263839
 20
332.397813541
 11
118.5878263839
 21
332.7244075043
  0
LINE
  5
27C
100
AcDbEntity
  8
0
100
AcDbLine
 62
7
  6
BYLAYER
 10
119.4363509885
 20
333.214300489
 11
119.4363509885
 21
331.9079300745
  0
LINE
  5
27D
100
AcDbEntity
  8
0
100
AcDbLine
 62
7
  6
BYLAYER
 10
119.5535070985
 20
331.840291493
 11
119.5535070985
 21
333.3775977523
  0
LINE
  5
27E
100
AcDbEntity
  8
0
100
AcDbLine
 62
7
  6
BYLAYER
 10
115.6334462402
 20
326.6133826402
 11
115.6325649327
 21
324.1644608386
  0
LINE
  5
27F
100
AcDbEntity
  8
0
100
AcDbLine
 62
7
  6
BYLAYER
 10
130.2798419962
 20
316.6216359015
 11
130.2787354329
 21
316.6045133672
  0
LINE
  5
280
100
AcDbEntity
  8
0
100
AcDbLine
 62
7
  6
BYLAYER
 10
136.0200092498
 20
316.7171490179
 11
136.0326182732
 21
316.8039444996
  0
LINE
  5
281
100
AcDbEntity
  8
0
100
AcDbLine
 62
7
  6
BYLAYER
 10
136.0326182732
 20
314.3544372482
 11
136.0200092498
 21
314.2676417665
  0
LINE
  5
282
100
AcDbEntity
  8
0
100
AcDbLine
 62
7
  6
BYLAYER
 10
112.1588356654
 20
327.4456626919
 11
112.1702950531
 21
327.2902615466
  0
LINE
  5
283
100
AcDbEntity
  8
0
100
AcDbLine
 62
7
  6
BYLAYER
 10
123.4910963311
 20
333.759020553
 11
123.4910963311
 21
337.0109650595
  0
LINE
  5
284
100
AcDbEntity
  8
0
100
AcDbLine
 62
7
  6
BYLAYER
 10
123.6082547962
 20
333.8266616207
 11
123.6082547962
 21
336.8476683594
  0
LINE
  5
285
100
AcDbEntity
  8
0
100
AcDbLine
 62
7
  6
BYLAYER
 10
124.6689193839
 20
336.2353072276
 11
124.6689193839
 21
334.4390329505
  0
LINE
  5
286
100
AcDbEntity
  8
0
100
AcDbLine
 62
7
  6
BYLAYER
 10
125.3507282101
 20
37.3856814693
 11
125.3507282101
 21
48.8167153091
  0
LINE
  5
287
100
AcDbEntity
  8
0
100
AcDbLine
 62
7
  6
BYLAYER
 10
125.3581788018
 20
316.2205584257
 11
125.3581788018
 21
321.1195729285
  0
LINE
  5
288
100
AcDbEntity
  8
0
100
AcDbLine
 62
7
  6
BYLAYER
 10
125.6169106919
 20
37.24583275
 11
125.6169106919
 21
39.6953400014
  0
LINE
  5
289
100
AcDbEntity
  8
0
100
AcDbLine
 62
7
  6
BYLAYER
 10
125.6255120729
 20
39.6953400014
 11
125.6255120729
 21
37.25079873
  0
LINE
  5
28A
100
AcDbEntity
  8
0
100
AcDbLine
 62
7
  6
BYLAYER
 10
125.6486149116
 20
318.5177727973
 11
125.6486149116
 21
320.9672800487
  0
LINE
  5
28B
100
AcDbEntity
  8
0
100
AcDbLine
 62
7
  6
BYLAYER
 10
125.8002855234
 20
336.8884978738
 11
125.8002855234
 21
335.0922235967
  0
LINE
  5
28C
100
AcDbEntity
  8
0
100
AcDbLine
 62
7
  6
BYLAYER
 10
126.3659709484
 20
335.4188202796
 11
126.3659709484
 21
336.8884992336
  0
LINE
  5
28D
100
AcDbEntity
  8
0
100
AcDbLine
 62
7
  6
BYLAYER
 10
126.7492243697
 20
318.5346180488
 11
126.7492243697
 21
320.9841253002
  0
LINE
  5
28E
100
AcDbEntity
  8
0
100
AcDbLine
 62
7
  6
BYLAYER
 10
126.7568829228
 20
37.2508014495
 11
126.7568829228
 21
39.1251240011
  0
LINE
  5
28F
100
AcDbEntity
  8
0
100
AcDbLine
 62
7
  6
BYLAYER
 10
127.3559245636
 20
336.3169621772
 11
127.3559245636
 21
335.9903682139
  0
LINE
  5
290
100
AcDbEntity
  8
0
100
AcDbLine
 62
7
  6
BYLAYER
 10
127.7906554461
 20
31.7177713573
 11
127.7906554461
 21
35.6849964995
  0
LINE
  5
291
100
AcDbEntity
  8
0
100
AcDbLine
 62
7
  6
BYLAYER
 10
128.4622813127
 20
318.3767430175
 11
128.4622813127
 21
319.0571616984
  0
LINE
  5
292
100
AcDbEntity
  8
0
100
AcDbLine
 62
7
  6
BYLAYER
 10
128.5651310387
 20
317.1424886501
 11
128.5651310387
 21
314.6929813987
  0
LINE
  5
293
100
AcDbEntity
  8
0
100
AcDbLine
 62
7
  6
BYLAYER
 10
128.5651310387
 20
47.2852842492
 11
128.5651310387
 21
38.3037576608
  0
LINE
  5
294
100
AcDbEntity
  8
0
100
AcDbLine
 62
7
  6
BYLAYER
 10
128.664174706
 20
322.0897157929
 11
128.664174706
 21
319.7692392377
  0
LINE
  5
295
100
AcDbEntity
  8
0
100
AcDbLine
 62
7
  6
BYLAYER
 10
129.0590359986
 20
38.098434608
 11
129.0590359986
 21
47.0799611964
  0
LINE
  5
296
100
AcDbEntity
  8
0
100
AcDbLine
 62
7
  6
BYLAYER
 10
129.0590359986
 20
314.4876583459
 11
129.0590359986
 21
316.9371655973
  0
LINE
  5
297
100
AcDbEntity
  8
0
100
AcDbLine
 62
7
  6
BYLAYER
 10
129.1992793133
 20
38.0422177491
 11
129.1992793133
 21
47.0237443376
  0
LINE
  5
298
100
AcDbEntity
  8
0
100
AcDbLine
 62
7
  6
BYLAYER
 10
129.1992793133
 20
314.431441487
 11
129.1992793133
 21
316.8809487384
  0
LINE
  5
299
100
AcDbEntity
  8
0
100
AcDbLine
 62
7
  6
BYLAYER
 10
129.2770136195
 20
314.4006779489
 11
129.2770136195
 21
46.996136339
  0
LINE
  5
29A
100
AcDbEntity
  8
0
100
AcDbLine
 62
7
  6
BYLAYER
 10
129.5616145611
 20
314.4014502181
 11
129.5616145611
 21
46.9969086082
  0
LINE
  5
29B
100
AcDbEntity
  8
0
100
AcDbLine
 62
7
  6
BYLAYER
 10
129.6166255376
 20
47.0108779077
 11
129.6166255376
 21
38.0293513193
  0
LINE
  5
29C
100
AcDbEntity
  8
0
100
AcDbLine
 62
7
  6
BYLAYER
 10
129.6166255377
 20
314.4185750572
 11
129.6166255377
 21
316.8680823086
  0
LINE
  5
29D
100
AcDbEntity
  8
0
100
AcDbLine
 62
7
  6
BYLAYER
 10
129.8990076283
 20
338.0805911869
 11
129.8990076283
 21
338.284712414
  0
LINE
  5
29E
100
AcDbEntity
  8
0
100
AcDbLine
 62
7
  6
BYLAYER
 10
129.8991371628
 20
320.1179232023
 11
129.8991371628
 21
320.3220444294
  0
LINE
  5
29F
100
AcDbEntity
  8
0
100
AcDbLine
 62
7
  6
BYLAYER
 10
129.9203529539
 20
337.1280988418
 11
129.9203529539
 21
337.3322200689
  0
LINE
  5
2A0
100
AcDbEntity
  8
0
100
AcDbLine
 62
7
  6
BYLAYER
 10
129.9204824885
 20
319.1654308572
 11
129.9204824885
 21
319.3695520843
  0
LINE
  5
2A1
100
AcDbEntity
  8
0
100
AcDbLine
 62
7
  6
BYLAYER
 10
129.9498070234
 20
338.3140412834
 11
129.9498070234
 21
338.0512636558
  0
LINE
  5
2A2
100
AcDbEntity
  8
0
100
AcDbLine
 62
7
  6
BYLAYER
 10
129.9499365579
 20
320.3513732988
 11
129.9499365579
 21
320.0885956712
  0
LINE
  5
2A3
100
AcDbEntity
  8
0
100
AcDbLine
 62
7
  6
BYLAYER
 10
130.2631721822
 20
337.5301456612
 11
130.2631721822
 21
337.0735003481
  0
LINE
  5
2A4
100
AcDbEntity
  8
0
100
AcDbLine
 62
7
  6
BYLAYER
 10
130.2633017167
 20
319.5674776765
 11
130.2633017167
 21
319.1108323635
  0
LINE
  5
2A5
100
AcDbEntity
  8
0
100
AcDbLine
 62
7
  6
BYLAYER
 10
130.2648787123
 20
46.7102630311
 11
130.2648787123
 21
314.1148046411
  0
LINE
  5
2A6
100
AcDbEntity
  8
0
100
AcDbLine
 62
7
  6
BYLAYER
 10
130.2786033123
 20
46.6514488402
 11
130.2786033123
 21
37.7649210157
  0
LINE
  5
2A7
100
AcDbEntity
  8
0
100
AcDbLine
 62
7
  6
BYLAYER
 10
130.2787287895
 20
314.1550061167
 11
130.2787287895
 21
316.6045133681
  0
LINE
  5
2A8
100
AcDbEntity
  8
0
100
AcDbLine
 62
7
  6
BYLAYER
 10
130.303360414
 20
337.8401080731
 11
130.303360414
 21
338.3140421333
  0
LINE
  5
2A9
100
AcDbEntity
  8
0
100
AcDbLine
 62
7
  6
BYLAYER
 10
130.3034899485
 20
319.8774400885
 11
130.3034899485
 21
320.3513741486
  0
LINE
  5
2AA
100
AcDbEntity
  8
0
100
AcDbLine
 62
7
  6
BYLAYER
 10
130.3852097967
 20
337.1337017975
 11
130.3852097967
 21
337.7002469771
  0
LINE
  5
2AB
100
AcDbEntity
  8
0
100
AcDbLine
 62
7
  6
BYLAYER
 10
130.3853393313
 20
319.1710338129
 11
130.3853393313
 21
319.7375789924
  0
LINE
  5
2AC
100
AcDbEntity
  8
0
100
AcDbLine
 62
7
  6
BYLAYER
 10
130.3869622609
 20
313.9907767319
 11
130.3869622609
 21
46.5862351219
  0
LINE
  5
2AD
100
AcDbEntity
  8
0
100
AcDbLine
 62
7
  6
BYLAYER
 10
130.4249759011
 20
46.5699911
 11
130.4249759011
 21
37.5884645115
  0
LINE
  5
2AE
100
AcDbEntity
  8
0
100
AcDbLine
 62
7
  6
BYLAYER
 10
130.4249759011
 20
313.9776882495
 11
130.4249759011
 21
316.4271955008
  0
LINE
  5
2AF
100
AcDbEntity
  8
0
100
AcDbLine
 62
7
  6
BYLAYER
 10
130.6675210426
 20
338.1037986526
 11
130.6675210426
 21
337.2966966589
  0
LINE
  5
2B0
100
AcDbEntity
  8
0
100
AcDbLine
 62
7
  6
BYLAYER
 10
130.6676505772
 20
320.141130668
 11
130.6676505772
 21
319.3340286743
  0
LINE
  5
2B1
100
AcDbEntity
  8
0
100
AcDbLine
 62
7
  6
BYLAYER
 10
131.2567766936
 20
337.2966980751
 11
131.2567766936
 21
338.103800069
  0
LINE
  5
2B2
100
AcDbEntity
  8
0
100
AcDbLine
 62
7
  6
BYLAYER
 10
131.2569062281
 20
319.3340300905
 11
131.2569062281
 21
320.1411320844
  0
LINE
  5
2B3
100
AcDbEntity
  8
0
100
AcDbLine
 62
7
  6
BYLAYER
 10
131.5390937597
 20
337.1337092886
 11
131.5390937597
 21
337.7002497507
  0
LINE
  5
2B4
100
AcDbEntity
  8
0
100
AcDbLine
 62
7
  6
BYLAYER
 10
131.5392232943
 20
319.171041304
 11
131.5392232943
 21
319.7375817661
  0
LINE
  5
2B5
100
AcDbEntity
  8
0
100
AcDbLine
 62
7
  6
BYLAYER
 10
131.5995959218
 20
338.3017256613
 11
131.5995959218
 21
337.8240507463
  0
LINE
  5
2B6
100
AcDbEntity
  8
0
100
AcDbLine
 62
7
  6
BYLAYER
 10
131.5997254563
 20
320.3390576767
 11
131.5997254563
 21
319.8613827616
  0
LINE
  5
2B7
100
AcDbEntity
  8
0
100
AcDbLine
 62
7
  6
BYLAYER
 10
131.6611338276
 20
337.0807219184
 11
131.6611338276
 21
337.5301490215
  0
LINE
  5
2B8
100
AcDbEntity
  8
0
100
AcDbLine
 62
7
  6
BYLAYER
 10
131.6612633621
 20
319.1180539338
 11
131.6612633621
 21
319.5674810368
  0
LINE
  5
2B9
100
AcDbEntity
  8
0
100
AcDbLine
 62
7
  6
BYLAYER
 10
131.8430101089
 20
46.1766376698
 11
131.8430101089
 21
37.1951110813
  0
LINE
  5
2BA
100
AcDbEntity
  8
0
100
AcDbLine
 62
7
  6
BYLAYER
 10
131.8430101089
 20
313.5843348192
 11
131.8430101089
 21
316.0338420706
  0
LINE
  5
2BB
100
AcDbEntity
  8
0
100
AcDbLine
 62
7
  6
BYLAYER
 10
131.9531493124
 20
338.0389466954
 11
131.9531493124
 21
338.3017265111
  0
LINE
  5
2BC
100
AcDbEntity
  8
0
100
AcDbLine
 62
7
  6
BYLAYER
 10
131.9532788469
 20
320.0762787108
 11
131.9532788469
 21
320.3390585265
  0
LINE
  5
2BD
100
AcDbEntity
  8
0
100
AcDbLine
 62
7
  6
BYLAYER
 10
131.9826173646
 20
337.3445446137
 11
131.9826173646
 21
337.1404233866
  0
LINE
  5
2BE
100
AcDbEntity
  8
0
100
AcDbLine
 62
7
  6
BYLAYER
 10
131.9827468991
 20
319.3818766291
 11
131.9827468991
 21
319.177755402
  0
LINE
  5
2BF
100
AcDbEntity
  8
0
100
AcDbLine
 62
7
  6
BYLAYER
 10
132.0039491306
 20
338.2723978859
 11
132.0039491306
 21
338.0682766588
  0
LINE
  5
2C0
100
AcDbEntity
  8
0
100
AcDbLine
 62
7
  6
BYLAYER
 10
132.0040786651
 20
320.3097299013
 11
132.0040786651
 21
320.1056086742
  0
LINE
  5
2C1
100
AcDbEntity
  8
0
100
AcDbLine
 62
7
  6
BYLAYER
 10
130.2807531463
 20
316.6391268139
 11
130.2798419962
 21
316.6216359015
  0
LINE
  5
2C2
100
AcDbEntity
  8
0
100
AcDbLine
 62
7
  6
BYLAYER
 10
114.5100178709
 20
322.5074188415
 11
114.5125863919
 21
322.4876349744
  0
LINE
  5
2C3
100
AcDbEntity
  8
0
100
AcDbLine
 62
7
  6
BYLAYER
 10
136.0325677053
 20
314.3544372565
 11
136.0313445089
 21
314.3824355452
  0
LINE
  5
2C4
100
AcDbEntity
  8
0
100
AcDbLine
 62
7
  6
BYLAYER
 10
133.0876698209
 20
315.8616379583
 11
133.0876698209
 21
313.4121307069
  0
LINE
  5
2C5
100
AcDbEntity
  8
0
100
AcDbLine
 62
7
  6
BYLAYER
 10
133.0876698209
 20
46.0044335574
 11
133.0876698209
 21
37.022906969
  0
LINE
  5
2C6
100
AcDbEntity
  8
0
100
AcDbLine
 62
7
  6
BYLAYER
 10
133.2603687837
 20
319.7695779579
 11
133.2603687837
 21
322.0897268408
  0
LINE
  5
2C7
100
AcDbEntity
  8
0
100
AcDbLine
 62
7
  6
BYLAYER
 10
133.4622813127
 20
318.3767430175
 11
133.4622813127
 21
319.0571616984
  0
LINE
  5
2C8
100
AcDbEntity
  8
0
100
AcDbLine
 62
7
  6
BYLAYER
 10
133.7387418742
 20
313.4071763214
 11
133.7387418742
 21
46.0026347114
  0
LINE
  5
2C9
100
AcDbEntity
  8
0
100
AcDbLine
 62
7
  6
BYLAYER
 10
134.3757895537
 20
315.9344400172
 11
134.3757895537
 21
313.4849327658
  0
LINE
  5
2CA
100
AcDbEntity
  8
0
100
AcDbLine
 62
7
  6
BYLAYER
 10
134.3757895537
 20
46.0772356163
 11
134.3757895537
 21
37.0957090278
  0
LINE
  5
2CB
100
AcDbEntity
  8
0
100
AcDbLine
 62
7
  6
BYLAYER
 10
135.6961639747
 20
316.3987469923
 11
135.6961639747
 21
313.9492397409
  0
LINE
  5
2CC
100
AcDbEntity
  8
0
100
AcDbLine
 62
7
  6
BYLAYER
 10
135.6961639747
 20
46.5415425914
 11
135.6961639747
 21
37.5600160029
  0
LINE
  5
2CD
100
AcDbEntity
  8
0
100
AcDbLine
 62
7
  6
BYLAYER
 10
135.8446519107
 20
314.0365738259
 11
135.8446519107
 21
46.632032216
  0
LINE
  5
2CE
100
AcDbEntity
  8
0
100
AcDbLine
 62
7
  6
BYLAYER
 10
136.0326517565
 20
46.946740082
 11
136.0326517565
 21
37.9652134936
  0
LINE
  5
2CF
100
AcDbEntity
  8
0
100
AcDbLine
 62
7
  6
BYLAYER
 10
136.0326517564
 20
46.9498956217
 11
136.0326517565
 21
316.8039444829
  0
LINE
  5
2D0
100
AcDbEntity
  8
0
100
AcDbLine
 62
7
  6
BYLAYER
 10
136.143951133
 20
314.5053110689
 11
136.143951133
 21
47.100769459
  0
LINE
  5
2D1
100
AcDbEntity
  8
0
100
AcDbLine
 62
7
  6
BYLAYER
 10
136.230231584
 20
320.3751145433
 11
136.230231584
 21
317.9256072919
  0
LINE
  5
2D2
100
AcDbEntity
  8
0
100
AcDbLine
 62
7
  6
BYLAYER
 10
136.2302315839
 20
38.4336856564
 11
136.2302315839
 21
36.6373690513
  0
LINE
  5
2D3
100
AcDbEntity
  8
0
100
AcDbLine
 62
7
  6
BYLAYER
 10
137.3616024339
 20
36.6373717707
 11
137.3616024338
 21
39.0868790221
  0
LINE
  5
2D4
100
AcDbEntity
  8
0
100
AcDbLine
 62
7
  6
BYLAYER
 10
137.3616024339
 20
317.9256100114
 11
137.3616024338
 21
320.3751172628
  0
LINE
  5
2D5
100
AcDbEntity
  8
0
100
AcDbLine
 62
7
  6
BYLAYER
 10
139.7906554461
 20
31.7177713573
 11
139.7906554461
 21
35.6849045334
  0
LINE
  5
2D6
100
AcDbEntity
  8
0
100
AcDbLine
 62
7
  6
BYLAYER
 10
144.2204591247
 20
328.7293001306
 11
144.2204591247
 21
331.0710871781
  0
LINE
  5
2D7
100
AcDbEntity
  8
0
100
AcDbLine
 62
7
  6
BYLAYER
 10
145.4554215815
 20
329.0779840953
 11
145.4554215815
 21
329.2821053224
  0
LINE
  5
2D8
100
AcDbEntity
  8
0
100
AcDbLine
 62
7
  6
BYLAYER
 10
145.4767669072
 20
328.1254917501
 11
145.4767669072
 21
328.3296129772
  0
LINE
  5
2D9
100
AcDbEntity
  8
0
100
AcDbLine
 62
7
  6
BYLAYER
 10
145.5062209766
 20
329.3114341917
 11
145.5062209766
 21
329.0486565642
  0
LINE
  5
2DA
100
AcDbEntity
  8
0
100
AcDbLine
 62
7
  6
BYLAYER
 10
145.8195861354
 20
328.5275385695
 11
145.8195861354
 21
328.0708932564
  0
LINE
  5
2DB
100
AcDbEntity
  8
0
100
AcDbLine
 62
7
  6
BYLAYER
 10
145.8597743672
 20
328.8375009814
 11
145.8597743672
 21
329.3114350416
  0
LINE
  5
2DC
100
AcDbEntity
  8
0
100
AcDbLine
 62
7
  6
BYLAYER
 10
145.94162375
 20
328.1310947059
 11
145.94162375
 21
328.6976398854
  0
LINE
  5
2DD
100
AcDbEntity
  8
0
100
AcDbLine
 62
7
  6
BYLAYER
 10
146.1277509079
 20
332.1722560294
 11
146.1277509079
 21
329.7734547823
  0
LINE
  5
2DE
100
AcDbEntity
  8
0
100
AcDbLine
 62
7
  6
BYLAYER
 10
146.1363475786
 20
332.8304099361
 11
146.1363475786
 21
332.8254439561
  0
LINE
  5
2DF
100
AcDbEntity
  8
0
100
AcDbLine
 62
7
  6
BYLAYER
 10
146.2239349959
 20
329.1011915609
 11
146.2239349959
 21
328.2940895673
  0
LINE
  5
2E0
100
AcDbEntity
  8
0
100
AcDbLine
 62
7
  6
BYLAYER
 10
146.3620631278
 20
330.0493433046
 11
146.3620631278
 21
332.498850556
  0
LINE
  5
2E1
100
AcDbEntity
  8
0
100
AcDbLine
 62
7
  6
BYLAYER
 10
146.8131906468
 20
328.2940909835
 11
146.8131906468
 21
329.1011929774
  0
LINE
  5
2E2
100
AcDbEntity
  8
0
100
AcDbLine
 62
7
  6
BYLAYER
 10
147.0489250037
 20
44.6798239301
 11
147.0489250037
 21
42.2303166788
  0
LINE
  5
2E3
100
AcDbEntity
  8
0
100
AcDbLine
 62
7
  6
BYLAYER
 10
147.095507713
 20
328.131102197
 11
147.095507713
 21
328.697642659
  0
LINE
  5
2E4
100
AcDbEntity
  8
0
100
AcDbLine
 62
7
  6
BYLAYER
 10
147.1560098751
 20
329.2991185696
 11
147.1560098751
 21
328.8214436546
  0
LINE
  5
2E5
100
AcDbEntity
  8
0
100
AcDbLine
 62
7
  6
BYLAYER
 10
147.1903457711
 20
326.0497110016
 11
147.1903457711
 21
323.6002037502
  0
LINE
  5
2E6
100
AcDbEntity
  8
0
100
AcDbLine
 62
7
  6
BYLAYER
 10
147.2175477808
 20
328.0781148267
 11
147.2175477808
 21
328.5275419298
  0
LINE
  5
2E7
100
AcDbEntity
  8
0
100
AcDbLine
 62
7
  6
BYLAYER
 10
147.3418152785
 20
44.8489231998
 11
147.3418152785
 21
42.638559837
  0
LINE
  5
2E8
100
AcDbEntity
  8
0
100
AcDbLine
 62
7
  6
BYLAYER
 10
147.4246579909
 20
326.3763055282
 11
147.4246579909
 21
323.9267982768
  0
LINE
  5
2E9
100
AcDbEntity
  8
0
100
AcDbLine
 62
7
  6
BYLAYER
 10
147.5095632656
 20
329.0363396037
 11
147.5095632656
 21
329.2991194195
  0
LINE
  5
2EA
100
AcDbEntity
  8
0
100
AcDbLine
 62
7
  6
BYLAYER
 10
147.5390313178
 20
328.3419375221
 11
147.5390313178
 21
328.137816295
  0
LINE
  5
2EB
100
AcDbEntity
  8
0
100
AcDbLine
 62
7
  6
BYLAYER
 10
147.5603630838
 20
329.2697907943
 11
147.5603630838
 21
329.0656695672
  0
LINE
  5
2EC
100
AcDbEntity
  8
0
100
AcDbLine
 62
7
  6
BYLAYER
 10
148.6560968001
 20
324.44645045
 11
148.6560968001
 21
321.9969431986
  0
LINE
  5
2ED
100
AcDbEntity
  8
0
100
AcDbLine
 62
7
  6
BYLAYER
 10
148.6560968001
 20
54.3246170075
 11
148.6560968002
 21
45.6077194607
  0
LINE
  5
2EE
100
AcDbEntity
  8
0
100
AcDbLine
 62
7
  6
BYLAYER
 10
148.8718202028
 20
54.4491642286
 11
148.8718202028
 21
321.8537058386
  0
LINE
  5
2EF
100
AcDbEntity
  8
0
100
AcDbLine
 62
7
  6
BYLAYER
 10
149.0185657314
 20
327.3368039103
 11
149.0185657314
 21
328.0172225912
  0
LINE
  5
2F0
100
AcDbEntity
  8
0
100
AcDbLine
 62
7
  6
BYLAYER
 10
149.021999178
 20
328.0717131269
 11
149.021999178
 21
327.8424178896
  0
LINE
  5
2F1
100
AcDbEntity
  8
0
100
AcDbLine
 62
7
  6
BYLAYER
 10
149.0702661592
 20
327.7917083185
 11
149.0702661592
 21
328.1816871331
  0
LINE
  5
2F2
100
AcDbEntity
  8
0
100
AcDbLine
 62
7
  6
BYLAYER
 10
149.6837060375
 20
322.0265077578
 11
149.6837060375
 21
54.6219661479
  0
LINE
  5
2F3
100
AcDbEntity
  8
0
100
AcDbLine
 62
7
  6
BYLAYER
 10
149.8349740361
 20
45.7230130714
 11
149.8349740361
 21
54.7045396598
  0
LINE
  5
2F4
100
AcDbEntity
  8
0
100
AcDbLine
 62
7
  6
BYLAYER
 10
149.8349740361
 20
322.1122368093
 11
149.8349740361
 21
324.5617440607
  0
LINE
  5
2F5
100
AcDbEntity
  8
0
100
AcDbLine
 62
7
  6
BYLAYER
 10
150.6391778097
 20
46.485324567
 11
150.6391778097
 21
55.4614989708
  0
LINE
  5
2F6
100
AcDbEntity
  8
0
100
AcDbLine
 62
7
  6
BYLAYER
 10
150.6391778097
 20
322.8745483049
 11
150.6391778097
 21
325.3240555563
  0
LINE
  5
2F7
100
AcDbEntity
  8
0
100
AcDbLine
 62
7
  6
BYLAYER
 10
150.7738525428
 20
323.2423433436
 11
150.7738525428
 21
55.8378017336
  0
LINE
  5
2F8
100
AcDbEntity
  8
0
100
AcDbLine
 62
7
  6
BYLAYER
 10
150.7878622788
 20
55.8378017337
 11
150.7878622788
 21
47.0187777234
  0
LINE
  5
2F9
100
AcDbEntity
  8
0
100
AcDbLine
 62
7
  6
BYLAYER
 10
150.7878622788
 20
323.4080014613
 11
150.7878622788
 21
325.8575087127
  0
LINE
  5
2FA
100
AcDbEntity
  8
0
100
AcDbLine
 62
7
  6
BYLAYER
 10
149.0702522677
 20
328.1816871332
 11
149.0696969201
 21
328.1940031701
  0
LINE
  5
2FB
100
AcDbEntity
  8
0
100
AcDbLine
 62
7
  6
BYLAYER
 10
136.0200092498
 20
46.859944617
 11
136.0326182732
 21
46.9467400987
  0
LINE
  5
2FC
100
AcDbEntity
  8
0
100
AcDbLine
 62
7
  6
BYLAYER
 10
136.0326182732
 20
37.9652135103
 11
136.0200092498
 21
37.8784180286
  0
LINE
  5
2FD
100
AcDbEntity
  8
0
100
AcDbLine
 62
7
  6
BYLAYER
 10
136.0326517565
 20
314.5695683402
 11
136.143951133
 21
314.5053110689
  0
LINE
  5
2FE
100
AcDbEntity
  8
0
100
AcDbLine
 62
7
  6
BYLAYER
 10
116.83805635
 20
320.9794901046
 11
116.8858640339
 21
320.9501647325
  0
LINE
  5
2FF
100
AcDbEntity
  8
0
100
AcDbLine
 62
7
  6
BYLAYER
 10
114.5764141177
 20
322.4094093659
 11
114.6383640112
 21
322.3702490376
  0
LWPOLYLINE
  5
300
100
AcDbEntity
  8
0
100
AcDbPolyline
 62
7
  6
BYLAYER
 90
3
 70
0
 10
116.8382856451
 20
320.9796146274
 10
116.8526501488
 20
320.970534407
 10
116.8863795304
 20
320.9504450259
  0
LINE
  5
301
100
AcDbEntity
  8
0
100
AcDbLine
 62
7
  6
BYLAYER
 10
114.5764141177
 20
322.4094093659
 11
114.6373670797
 21
322.3697380549
  0
LINE
  5
302
100
AcDbEntity
  8
0
100
AcDbLine
 62
7
  6
BYLAYER
 10
148.8718202028
 20
54.4491642286
 11
136.143951133
 21
47.100769459
  0
LINE
  5
303
100
AcDbEntity
  8
0
100
AcDbLine
 62
7
  6
BYLAYER
 10
125.6255120729
 20
37.25079873
 11
125.6169106919
 21
37.24583275
  0
LINE
  5
304
100
AcDbEntity
  8
0
100
AcDbLine
 62
7
  6
BYLAYER
 10
126.7568829228
 20
37.2508014495
 11
128.5690151157
 21
38.2970302137
  0
LINE
  5
305
100
AcDbEntity
  8
0
100
AcDbLine
 62
7
  6
BYLAYER
 10
128.8172666965
 20
314.6109152767
 11
129.2765350469
 21
314.4009208988
  0
LINE
  5
306
100
AcDbEntity
  8
0
100
AcDbLine
 62
7
  6
BYLAYER
 10
128.5749737295
 20
314.7226021528
 11
128.8172666965
 21
314.6109152767
  0
LINE
  5
307
100
AcDbEntity
  8
0
100
AcDbLine
 62
7
  6
BYLAYER
 10
128.5810868585
 20
314.7270102578
 11
129.2765350469
 21
314.4009208988
  0
LINE
  5
308
100
AcDbEntity
  8
0
100
AcDbLine
 62
7
  6
BYLAYER
 10
129.9712837786
 20
319.136102232
 11
129.9204839604
 21
319.1654308572
  0
LINE
  5
309
100
AcDbEntity
  8
0
100
AcDbLine
 62
7
  6
BYLAYER
 10
114.4148698254
 20
328.1173988315
 11
114.3640700072
 21
328.1467274566
  0
LINE
  5
30A
100
AcDbEntity
  8
0
100
AcDbLine
 62
7
  6
BYLAYER
 10
130.6616958465
 20
319.330587369
 11
130.3853393313
 21
319.4901382679
  0
LINE
  5
30B
100
AcDbEntity
  8
0
100
AcDbLine
 62
7
  6
BYLAYER
 10
115.1052818933
 20
328.3118839684
 11
114.828925378
 21
328.4714348674
  0
LINE
  5
30C
100
AcDbEntity
  8
0
100
AcDbLine
 62
7
  6
BYLAYER
 10
131.5783955854
 20
319.1484256828
 11
131.2569120483
 21
319.3340300905
  0
LINE
  5
30D
100
AcDbEntity
  8
0
100
AcDbLine
 62
7
  6
BYLAYER
 10
130.2632992635
 20
319.9076797217
 11
129.8991386348
 21
320.1179232023
  0
LINE
  5
30E
100
AcDbEntity
  8
0
100
AcDbLine
 62
7
  6
BYLAYER
 10
116.0219816322
 20
328.1297222823
 11
115.7004980951
 21
328.31532669
  0
LINE
  5
30F
100
AcDbEntity
  8
0
100
AcDbLine
 62
7
  6
BYLAYER
 10
114.7068853103
 20
328.8889763211
 11
114.3427246816
 21
329.0992198018
  0
LINE
  5
310
100
AcDbEntity
  8
0
100
AcDbLine
 62
7
  6
BYLAYER
 10
114.7470759953
 20
329.3326707481
 11
115.1112366239
 21
329.1224272674
  0
LINE
  5
311
100
AcDbEntity
  8
0
100
AcDbLine
 62
7
  6
BYLAYER
 10
116.1048494089
 20
328.5487776363
 11
116.4263329459
 21
328.3631732286
  0
LINE
  5
312
100
AcDbEntity
  8
0
100
AcDbLine
 62
7
  6
BYLAYER
 10
130.3034899485
 20
320.3513741486
 11
130.6676505771
 21
320.141130668
  0
LINE
  5
313
100
AcDbEntity
  8
0
100
AcDbLine
 62
7
  6
BYLAYER
 10
131.6612633621
 20
319.5674810368
 11
131.9827468991
 21
319.3818766291
  0
LINE
  5
314
100
AcDbEntity
  8
0
100
AcDbLine
 62
7
  6
BYLAYER
 10
116.3968648937
 20
329.320355126
 11
116.4476647119
 21
329.2910265008
  0
LINE
  5
315
100
AcDbEntity
  8
0
100
AcDbLine
 62
7
  6
BYLAYER
 10
131.9532788469
 20
320.3390585265
 11
132.0040786651
 21
320.3097299013
  0
LINE
  5
316
100
AcDbEntity
  8
0
100
AcDbLine
 62
7
  6
BYLAYER
 10
133.3400286749
 20
319.5942289702
 11
136.230231584
 21
317.9256072919
  0
LINE
  5
317
100
AcDbEntity
  8
0
100
AcDbLine
 62
7
  6
BYLAYER
 10
136.230231584
 20
320.3751145433
 11
133.2603687837
 21
322.0897268408
  0
LINE
  5
318
100
AcDbEntity
  8
0
100
AcDbLine
 62
7
  6
BYLAYER
 10
117.7039548305
 20
331.0710234402
 11
115.9361805177
 21
332.0916253265
  0
LINE
  5
319
100
AcDbEntity
  8
0
100
AcDbLine
 62
7
  6
BYLAYER
 10
118.587828739
 20
332.397813541
 11
119.5777823542
 21
331.8262764846
  0
LINE
  5
31A
100
AcDbEntity
  8
0
100
AcDbLine
 62
7
  6
BYLAYER
 10
118.6585279357
 20
333.9899592823
 11
119.4363486333
 21
333.5408944523
  0
LINE
  5
31B
100
AcDbEntity
  8
0
100
AcDbLine
 62
7
  6
BYLAYER
 10
148.6560968002
 20
45.6077194607
 11
147.0489250037
 21
44.6798239301
  0
LINE
  5
31C
100
AcDbEntity
  8
0
100
AcDbLine
 62
7
  6
BYLAYER
 10
136.0326517565
 20
38.3196135707
 11
137.3616024338
 21
39.0868790221
  0
LINE
  5
31D
100
AcDbEntity
  8
0
100
AcDbLine
 62
7
  6
BYLAYER
 10
147.0489250036
 20
42.2303166787
 11
137.3616024345
 21
36.6373717711
  0
LINE
  5
31E
100
AcDbEntity
  8
0
100
AcDbLine
 62
7
  6
BYLAYER
 10
148.8718202028
 20
321.8537058386
 11
148.648002926
 21
321.9829238803
  0
LINE
  5
31F
100
AcDbEntity
  8
0
100
AcDbLine
 62
7
  6
BYLAYER
 10
124.6689193839
 20
336.2353072276
 11
123.6082547962
 21
336.8476683594
  0
LINE
  5
320
100
AcDbEntity
  8
0
100
AcDbLine
 62
7
  6
BYLAYER
 10
127.3559245636
 20
336.3169621772
 11
126.3659709484
 21
336.8884992336
  0
LINE
  5
321
100
AcDbEntity
  8
0
100
AcDbLine
 62
7
  6
BYLAYER
 10
126.8962899944
 20
338.4194097116
 11
128.6640643073
 21
337.3988078253
  0
LINE
  5
322
100
AcDbEntity
  8
0
100
AcDbLine
 62
7
  6
BYLAYER
 10
144.2204782605
 20
328.4175112258
 11
147.1903410607
 21
326.7028989284
  0
LINE
  5
323
100
AcDbEntity
  8
0
100
AcDbLine
 62
7
  6
BYLAYER
 10
145.5275681973
 20
328.096163125
 11
145.4767683792
 21
328.1254917501
  0
LINE
  5
324
100
AcDbEntity
  8
0
100
AcDbLine
 62
7
  6
BYLAYER
 10
129.9711542441
 20
337.0987702166
 11
129.9203544259
 21
337.1280988418
  0
LINE
  5
325
100
AcDbEntity
  8
0
100
AcDbLine
 62
7
  6
BYLAYER
 10
146.2179802652
 20
328.2906482619
 11
145.94162375
 21
328.4501991608
  0
LINE
  5
326
100
AcDbEntity
  8
0
100
AcDbLine
 62
7
  6
BYLAYER
 10
130.661566312
 20
337.2932553536
 11
130.3852097967
 21
337.4528062525
  0
LINE
  5
327
100
AcDbEntity
  8
0
100
AcDbLine
 62
7
  6
BYLAYER
 10
147.1346800041
 20
328.1084865758
 11
146.8131964671
 21
328.2940909835
  0
LINE
  5
328
100
AcDbEntity
  8
0
100
AcDbLine
 62
7
  6
BYLAYER
 10
145.8195836822
 20
328.8677406146
 11
145.4554230535
 21
329.0779840953
  0
LINE
  5
329
100
AcDbEntity
  8
0
100
AcDbLine
 62
7
  6
BYLAYER
 10
131.5782660509
 20
337.1110936674
 11
131.2567825138
 21
337.2966980751
  0
LINE
  5
32A
100
AcDbEntity
  8
0
100
AcDbLine
 62
7
  6
BYLAYER
 10
130.2631697289
 20
337.8703477063
 11
129.8990091003
 21
338.0805911869
  0
LINE
  5
32B
100
AcDbEntity
  8
0
100
AcDbLine
 62
7
  6
BYLAYER
 10
145.8597743672
 20
329.3114350416
 11
146.2239349959
 21
329.1011915609
  0
LINE
  5
32C
100
AcDbEntity
  8
0
100
AcDbLine
 62
7
  6
BYLAYER
 10
147.2175477808
 20
328.5275419298
 11
147.5390313178
 21
328.3419375221
  0
LINE
  5
32D
100
AcDbEntity
  8
0
100
AcDbLine
 62
7
  6
BYLAYER
 10
130.303360414
 20
338.3140421333
 11
130.6675210426
 21
338.1037986526
  0
LINE
  5
32E
100
AcDbEntity
  8
0
100
AcDbLine
 62
7
  6
BYLAYER
 10
131.6611338276
 20
337.5301490215
 11
131.9826173646
 21
337.3445446137
  0
LINE
  5
32F
100
AcDbEntity
  8
0
100
AcDbLine
 62
7
  6
BYLAYER
 10
147.5095632656
 20
329.2991194195
 11
147.5603630838
 21
329.2697907943
  0
LINE
  5
330
100
AcDbEntity
  8
0
100
AcDbLine
 62
7
  6
BYLAYER
 10
131.9531493124
 20
338.3017265111
 11
132.0039491306
 21
338.2723978859
  0
ARC
  5
331
100
AcDbEntity
  8
0
100
AcDbCircle
 62
7
  6
BYLAYER
 10
40.2068901794
 20
-68.2256733578
 40
136.3193163289
100
AcDbArc
 50
56.6385039696
 51
56.9066618881
  0
ARC
  5
332
100
AcDbEntity
  8
0
100
AcDbCircle
 62
7
  6
BYLAYER
 10
40.2068901852
 20
-59.2441467606
 40
136.3193163185
100
AcDbArc
 50
56.6385039696
 51
56.9066618881
  0
ARC
  5
333
100
AcDbEntity
  8
0
100
AcDbCircle
 62
7
  6
BYLAYER
 10
40.8065484866
 20
-58.3333759434
 40
135.2288606523
100
AcDbArc
 50
56.3689065087
 51
56.6385016254
  0
ARC
  5
334
100
AcDbEntity
  8
0
100
AcDbCircle
 62
7
  6
BYLAYER
 10
118.3042548082
 20
61.7313438033
 40
7.6456343731
100
AcDbArc
 50
221.7537539222
 51
225.6150364226
  0
ARC
  5
335
100
AcDbEntity
  8
0
100
AcDbCircle
 62
7
  6
BYLAYER
 10
117.9051945374
 20
61.3750615653
 40
7.1106707008
100
AcDbArc
 50
219.473868848
 51
221.7533911368
  0
ARC
  5
336
100
AcDbEntity
  8
0
100
AcDbCircle
 62
7
  6
BYLAYER
 10
115.344152281
 20
50.1318703285
 40
3.858359681
100
AcDbArc
 50
258.1330873673
 51
258.6283348267
  0
ARC
  5
337
100
AcDbEntity
  8
0
100
AcDbCircle
 62
7
  6
BYLAYER
 10
115.3376786154
 20
50.1009911762
 40
3.8268092424
100
AcDbArc
 50
257.8060011599
 51
258.1328680148
  0
ARC
  5
338
100
AcDbEntity
  8
0
100
AcDbCircle
 62
7
  6
BYLAYER
 10
115.3262932641
 20
50.0488122528
 40
3.7734027387
100
AcDbArc
 50
256.8068034186
 51
257.8076276332
  0
ARC
  5
339
100
AcDbEntity
  8
0
100
AcDbCircle
 62
7
  6
BYLAYER
 10
115.3058150206
 20
49.9616201795
 40
3.6838381549
100
AcDbArc
 50
255.7026280401
 51
256.8073856578
  0
ARC
  5
33A
100
AcDbEntity
  8
0
100
AcDbCircle
 62
7
  6
BYLAYER
 10
115.1114501872
 20
49.3489625797
 40
3.0406348721
100
AcDbArc
 50
248.1119216206
 51
249.3247364247
  0
ARC
  5
33B
100
AcDbEntity
  8
0
100
AcDbCircle
 62
7
  6
BYLAYER
 10
113.1861007151
 20
57.5719901596
 40
1.034463302
100
AcDbArc
 50
183.1694637338
 51
192.2163329186
  0
ARC
  5
33C
100
AcDbEntity
  8
0
100
AcDbCircle
 62
7
  6
BYLAYER
 10
113.1808052835
 20
48.589532739
 40
1.0290908365
100
AcDbArc
 50
180.0632265695
 51
192.2280681855
  0
ARC
  5
33D
100
AcDbEntity
  8
0
100
AcDbCircle
 62
7
  6
BYLAYER
 10
113.1643770573
 20
57.5700063355
 40
1.0126634891
100
AcDbArc
 50
182.5077137632
 51
183.1253487338
  0
ARC
  5
33E
100
AcDbEntity
  8
0
100
AcDbCircle
 62
7
  6
BYLAYER
 10
113.1622829503
 20
57.5699289561
 40
1.0105678768
100
AcDbArc
 50
179.6930474767
 51
182.5077663915
  0
ARC
  5
33F
100
AcDbEntity
  8
0
100
AcDbCircle
 62
7
  6
BYLAYER
 10
114.0154182734
 20
56.2210108506
 40
0.6920966818
100
AcDbArc
 50
268.6707539552
 51
269.8615885178
  0
ARC
  5
340
100
AcDbEntity
  8
0
100
AcDbCircle
 62
7
  6
BYLAYER
 10
114.0155320263
 20
56.2182502295
 40
0.689336354
100
AcDbArc
 50
269.8515794141
 51
274.6003949691
  0
ARC
  5
341
100
AcDbEntity
  8
0
100
AcDbCircle
 62
7
  6
BYLAYER
 10
114.2722975986
 20
55.1420487482
 40
0.3626363283
100
AcDbArc
 50
55.0220793645
 51
55.7926698346
  0
ARC
  5
342
100
AcDbEntity
  8
0
100
AcDbCircle
 62
7
  6
BYLAYER
 10
114.7796243893
 20
55.1890872537
 40
0.2676040638
100
AcDbArc
 50
226.6966660122
 51
229.8644333218
  0
ARC
  5
343
100
AcDbEntity
  8
0
100
AcDbCircle
 62
7
  6
BYLAYER
 10
66.5204147491
 20
209.2346018767
 40
147.0230486837
100
AcDbArc
 50
59.4347009724
 51
61.5929260377
  0
ARC
  5
344
100
AcDbEntity
  8
0
100
AcDbCircle
 62
7
  6
BYLAYER
 10
71.3581845755
 20
217.3648737393
 40
137.5623774621
100
AcDbArc
 50
57.1914456582
 51
59.4476779068
  0
ARC
  5
345
100
AcDbEntity
  8
0
100
AcDbCircle
 62
7
  6
BYLAYER
 10
40.206890182
 20
208.1635503841
 40
136.3193163242
100
AcDbArc
 50
56.6385039696
 51
56.9066618881
  0
ARC
  5
346
100
AcDbEntity
  8
0
100
AcDbCircle
 62
7
  6
BYLAYER
 10
40.2068901831
 20
210.6130576371
 40
136.3193163222
100
AcDbArc
 50
56.6385039696
 51
56.9066618881
  0
ARC
  5
347
100
AcDbEntity
  8
0
100
AcDbCircle
 62
7
  6
BYLAYER
 10
40.7689884523
 20
211.4669580383
 40
135.2970148261
100
AcDbArc
 50
56.4043968661
 51
56.6384606992
  0
ARC
  5
348
100
AcDbEntity
  8
0
100
AcDbCircle
 62
7
  6
BYLAYER
 10
40.806548304
 20
209.0743209297
 40
135.2288609835
100
AcDbArc
 50
56.3689065085
 51
56.6385016252
  0
ARC
  5
349
100
AcDbEntity
  8
0
100
AcDbCircle
 62
7
  6
BYLAYER
 10
118.1388775254
 20
328.862093069
 40
7.3315638158
100
AcDbArc
 50
226.5124047529
 51
227.704306458
  0
ARC
  5
34A
100
AcDbEntity
  8
0
100
AcDbCircle
 62
7
  6
BYLAYER
 10
117.9935909835
 20
328.7087563231
 40
7.1203285849
100
AcDbArc
 50
225.5081904827
 51
226.5114618022
  0
ARC
  5
34B
100
AcDbEntity
  8
0
100
AcDbCircle
 62
7
  6
BYLAYER
 10
117.8936216095
 20
328.6067107483
 40
6.9774750451
100
AcDbArc
 50
224.9894201677
 51
225.5065394152
  0
ARC
  5
34C
100
AcDbEntity
  8
0
100
AcDbCircle
 62
7
  6
BYLAYER
 10
117.684296565
 20
328.4001728098
 40
6.6834154257
100
AcDbArc
 50
222.154398222
 51
225.0058498459
  0
ARC
  5
34D
100
AcDbEntity
  8
0
100
AcDbCircle
 62
7
  6
BYLAYER
 10
117.2219782705
 20
327.9872449939
 40
6.0635537124
100
AcDbArc
 50
217.7718164285
 51
222.1936742818
  0
ARC
  5
34E
100
AcDbEntity
  8
0
100
AcDbCircle
 62
7
  6
BYLAYER
 10
116.9776457406
 20
327.7956762188
 40
5.75308039
100
AcDbArc
 50
216.8818297645
 51
217.7542025017
  0
ARC
  5
34F
100
AcDbEntity
  8
0
100
AcDbCircle
 62
7
  6
BYLAYER
 10
116.8887025967
 20
327.7289378966
 40
5.6418828789
100
AcDbArc
 50
216.0065380958
 51
216.8818133732
  0
ARC
  5
350
100
AcDbEntity
  8
0
100
AcDbCircle
 62
7
  6
BYLAYER
 10
116.0993499532
 20
326.6182232688
 40
4.3720328768
100
AcDbArc
 50
211.4503959942
 51
212.605925218
  0
ARC
  5
351
100
AcDbEntity
  8
0
100
AcDbCircle
 62
7
  6
BYLAYER
 10
116.0993499532
 20
329.0677305202
 40
4.3720328768
100
AcDbArc
 50
211.4503959942
 51
212.605925218
  0
ARC
  5
352
100
AcDbEntity
  8
0
100
AcDbCircle
 62
7
  6
BYLAYER
 10
116.0178555197
 20
329.0178838968
 40
4.2765026275
100
AcDbArc
 50
210.2776792142
 51
211.4503529302
  0
ARC
  5
353
100
AcDbEntity
  8
0
100
AcDbCircle
 62
7
  6
BYLAYER
 10
116.0178555176
 20
326.5683766441
 40
4.276502625
100
AcDbArc
 50
210.2776792142
 51
211.4503529304
  0
ARC
  5
354
100
AcDbEntity
  8
0
100
AcDbCircle
 62
7
  6
BYLAYER
 10
115.2885557928
 20
330.219619608
 40
3.6134855735
100
AcDbArc
 50
255.1338532774
 51
255.7007518067
  0
ARC
  5
355
100
AcDbEntity
  8
0
100
AcDbCircle
 62
7
  6
BYLAYER
 10
116.3049263008
 20
326.1774634749
 40
2.8160457107
100
AcDbArc
 50
56.7600478616
 51
57.6997949775
  0
ARC
  5
356
100
AcDbEntity
  8
0
100
AcDbCircle
 62
7
  6
BYLAYER
 10
113.3032092675
 20
325.0124213111
 40
1.1469491841
100
AcDbArc
 50
198.90197422
 51
202.2441376031
  0
ARC
  5
357
100
AcDbEntity
  8
0
100
AcDbCircle
 62
7
  6
BYLAYER
 10
113.2583411099
 20
324.9971077125
 40
1.0995397383
100
AcDbArc
 50
194.7287646389
 51
198.9044358433
  0
ARC
  5
358
100
AcDbEntity
  8
0
100
AcDbCircle
 62
7
  6
BYLAYER
 10
113.2246779777
 20
324.9966975728
 40
1.0658525496
100
AcDbArc
 50
181.4306066607
 51
188.4130583177
  0
ARC
  5
359
100
AcDbEntity
  8
0
100
AcDbCircle
 62
7
  6
BYLAYER
 10
113.2196870595
 20
324.9868273153
 40
1.0595421329
100
AcDbArc
 50
190.6967901966
 51
194.7225435167
  0
ARC
  5
35A
100
AcDbEntity
  8
0
100
AcDbCircle
 62
7
  6
BYLAYER
 10
113.2147167744
 20
324.9961772172
 40
1.0558814949
100
AcDbArc
 50
180.9172805741
 51
181.4158741301
  0
ARC
  5
35B
100
AcDbEntity
  8
0
100
AcDbCircle
 62
7
  6
BYLAYER
 10
113.1967432571
 20
324.982362042
 40
1.0361682221
100
AcDbArc
 50
187.835080717
 51
190.6896544896
  0
ARC
  5
35C
100
AcDbEntity
  8
0
100
AcDbCircle
 62
7
  6
BYLAYER
 10
113.1822042458
 20
324.9803408581
 40
1.0214894069
100
AcDbArc
 50
184.908311286
 51
187.8339406323
  0
ARC
  5
35D
100
AcDbEntity
  8
0
100
AcDbCircle
 62
7
  6
BYLAYER
 10
113.1732205059
 20
324.9795218394
 40
1.0124685361
100
AcDbArc
 50
183.3453704717
 51
184.9056315482
  0
ARC
  5
35E
100
AcDbEntity
  8
0
100
AcDbCircle
 62
7
  6
BYLAYER
 10
114.1260657228
 20
322.1733221764
 40
0.7706017998
100
AcDbArc
 50
94.183142398
 51
99.1008456592
  0
ARC
  5
35F
100
AcDbEntity
  8
0
100
AcDbCircle
 62
7
  6
BYLAYER
 10
114.1330176083
 20
322.2368344515
 40
0.706710715
100
AcDbArc
 50
72.593599669
 51
78.6799563581
  0
ARC
  5
360
100
AcDbEntity
  8
0
100
AcDbCircle
 62
7
  6
BYLAYER
 10
113.9378956054
 20
323.2907759738
 40
0.3603689323
100
AcDbArc
 50
251.0433163358
 51
258.6994045282
  0
ARC
  5
361
100
AcDbEntity
  8
0
100
AcDbCircle
 62
7
  6
BYLAYER
 10
114.6704072581
 20
322.5225914986
 40
0.1331362127
100
AcDbArc
 50
180.004322064
 51
182.1675270723
  0
ARC
  5
362
100
AcDbEntity
  8
0
100
AcDbCircle
 62
7
  6
BYLAYER
 10
133.936133123
 20
50.5337973055
 40
13.3575567294
100
AcDbArc
 50
247.4314448449
 51
248.5850965629
  0
ARC
  5
363
100
AcDbEntity
  8
0
100
AcDbCircle
 62
7
  6
BYLAYER
 10
133.9088205569
 20
59.4476948152
 40
13.2846243879
100
AcDbArc
 50
247.4282779737
 51
248.5882634341
  0
ARC
  5
364
100
AcDbEntity
  8
0
100
AcDbCircle
 62
7
  6
BYLAYER
 10
133.7682856239
 20
50.1281219444
 40
12.9185296512
100
AcDbArc
 50
246.2487424779
 51
247.428341683
  0
ARC
  5
365
100
AcDbEntity
  8
0
100
AcDbCircle
 62
7
  6
BYLAYER
 10
133.739393876
 20
59.0421136035
 40
12.8450781382
100
AcDbArc
 50
246.2453697314
 51
247.431714431
  0
ARC
  5
366
100
AcDbEntity
  8
0
100
AcDbCircle
 62
7
  6
BYLAYER
 10
134.1425031362
 20
48.286518498
 40
11.3255625839
100
AcDbArc
 50
250.8378829736
 51
254.510085161
  0
ARC
  5
367
100
AcDbEntity
  8
0
100
AcDbCircle
 62
7
  6
BYLAYER
 10
134.0766113632
 20
57.0679204122
 40
11.1149388984
100
AcDbArc
 50
252.0542985482
 51
252.4008297937
  0
ARC
  5
368
100
AcDbEntity
  8
0
100
AcDbCircle
 62
7
  6
BYLAYER
 10
133.99616457
 20
56.8225620515
 40
10.856730614
100
AcDbArc
 50
250.795685356
 51
252.0592289741
  0
ARC
  5
369
100
AcDbEntity
  8
0
100
AcDbCircle
 62
7
  6
BYLAYER
 10
133.7820667153
 20
46.690248668
 40
9.6922485818
100
AcDbArc
 50
262.1424598425
 51
265.8915491712
  0
ARC
  5
36A
100
AcDbEntity
  8
0
100
AcDbCircle
 62
7
  6
BYLAYER
 10
133.7753579269
 20
55.6077626534
 40
9.6279200587
100
AcDbArc
 50
262.1299306394
 51
265.9040783745
  0
ARC
  5
36B
100
AcDbEntity
  8
0
100
AcDbCircle
 62
7
  6
BYLAYER
 10
133.7394754193
 20
55.3421238396
 40
9.3598700121
100
AcDbArc
 50
260.8441880019
 51
262.1248583205
  0
ARC
  5
36C
100
AcDbEntity
  8
0
100
AcDbCircle
 62
7
  6
BYLAYER
 10
133.7186961422
 20
46.2193902177
 40
9.2171477164
100
AcDbArc
 50
258.2583178365
 51
262.1325406654
  0
ARC
  5
36D
100
AcDbEntity
  8
0
100
AcDbCircle
 62
7
  6
BYLAYER
 10
133.6858101677
 20
55.0217151357
 40
9.035004562
100
AcDbArc
 50
258.231241804
 51
260.8568592561
  0
ARC
  5
36E
100
AcDbEntity
  8
0
100
AcDbCircle
 62
7
  6
BYLAYER
 10
118.6581168587
 20
62.0834810459
 40
8.1448120641
100
AcDbArc
 50
225.5687608359
 51
226.035315042
  0
ARC
  5
36F
100
AcDbEntity
  8
0
100
AcDbCircle
 62
7
  6
BYLAYER
 10
130.1567603678
 20
41.4569564007
 40
5.8921111433
100
AcDbArc
 50
227.1901408704
 51
227.7872233297
  0
ARC
  5
370
100
AcDbEntity
  8
0
100
AcDbCircle
 62
7
  6
BYLAYER
 10
133.2856415167
 20
51.5646349158
 40
5.5946379521
100
AcDbArc
 50
281.2363039558
 51
281.3690769548
  0
ARC
  5
371
100
AcDbEntity
  8
0
100
AcDbCircle
 62
7
  6
BYLAYER
 10
133.4518225307
 20
42.0951746827
 40
5.0853226992
100
AcDbArc
 50
265.8936163536
 51
273.234406721
  0
ARC
  5
372
100
AcDbEntity
  8
0
100
AcDbCircle
 62
7
  6
BYLAYER
 10
133.4518225307
 20
51.0767012709
 40
5.085322699
100
AcDbArc
 50
265.8936163536
 51
273.2344067211
  0
ARC
  5
373
100
AcDbEntity
  8
0
100
AcDbCircle
 62
7
  6
BYLAYER
 10
133.4582043423
 20
50.9730020057
 40
4.9814285788
100
AcDbArc
 50
273.2284162861
 51
277.6302902745
  0
ARC
  5
374
100
AcDbEntity
  8
0
100
AcDbCircle
 62
7
  6
BYLAYER
 10
133.4766288919
 20
50.8195852035
 40
4.8269242504
100
AcDbArc
 50
277.6553281543
 51
278.0629868615
  0
ARC
  5
375
100
AcDbEntity
  8
0
100
AcDbCircle
 62
7
  6
BYLAYER
 10
133.4899897589
 20
50.7278293603
 40
4.7342014583
100
AcDbArc
 50
278.0586425133
 51
280.7839699151
  0
ARC
  5
376
100
AcDbEntity
  8
0
100
AcDbCircle
 62
7
  6
BYLAYER
 10
130.9641008295
 20
41.5719624227
 40
4.2843155428
100
AcDbArc
 50
272.1528970085
 51
274.503578467
  0
ARC
  5
377
100
AcDbEntity
  8
0
100
AcDbCircle
 62
7
  6
BYLAYER
 10
131.0970712608
 20
39.3116362604
 40
2.207827012
100
AcDbArc
 50
287.1354445223
 51
289.755352818
  0
ARC
  5
378
100
AcDbEntity
  8
0
100
AcDbCircle
 62
7
  6
BYLAYER
 10
129.5217082098
 20
38.8122936016
 40
1.0752584592
100
AcDbArc
 50
207.6219571101
 51
210.0957477926
  0
ARC
  5
379
100
AcDbEntity
  8
0
100
AcDbCircle
 62
7
  6
BYLAYER
 10
129.4355120326
 20
47.6032043805
 40
0.6195139818
100
AcDbArc
 50
280.5885571768
 51
282.0627860282
  0
ARC
  5
37A
100
AcDbEntity
  8
0
100
AcDbCircle
 62
7
  6
BYLAYER
 10
130.5993923977
 20
46.9457268864
 40
0.4142444876
100
AcDbArc
 50
242.5271917982
 51
245.0992784353
  0
ARC
  5
37B
100
AcDbEntity
  8
0
100
AcDbCircle
 62
7
  6
BYLAYER
 10
130.5831577853
 20
46.914733532
 40
0.3792567978
100
AcDbArc
 50
239.0006457928
 51
242.5431668614
  0
ARC
  5
37C
100
AcDbEntity
  8
0
100
AcDbCircle
 62
7
  6
BYLAYER
 10
130.0369795711
 20
46.7280352482
 40
0.259828597
100
AcDbArc
 50
41.0709591048
 51
44.3770700446
  0
ARC
  5
37D
100
AcDbEntity
  8
0
100
AcDbCircle
 62
7
  6
BYLAYER
 10
139.047077972
 20
62.8126400615
 40
26.6561992782
100
AcDbArc
 50
248.1565663155
 51
248.319071586
  0
ARC
  5
37E
100
AcDbEntity
  8
0
100
AcDbCircle
 62
7
  6
BYLAYER
 10
139.0014610514
 20
62.6988404888
 40
26.5335972953
100
AcDbArc
 50
247.9935613294
 51
248.1565667981
  0
ARC
  5
37F
100
AcDbEntity
  8
0
100
AcDbCircle
 62
7
  6
BYLAYER
 10
134.4369558943
 20
58.3803371932
 40
12.4763310631
100
AcDbArc
 50
256.6017975065
 51
258.0001375647
  0
ARC
  5
380
100
AcDbEntity
  8
0
100
AcDbCircle
 62
7
  6
BYLAYER
 10
134.4010171455
 20
49.2354509541
 40
12.309069187
100
AcDbArc
 50
254.5301289395
 51
258.0056740375
  0
ARC
  5
381
100
AcDbEntity
  8
0
100
AcDbCircle
 62
7
  6
BYLAYER
 10
149.1332100413
 20
56.0600566346
 40
1.549791542
100
AcDbArc
 50
268.2023490488
 51
275.5642345351
  0
ARC
  5
382
100
AcDbEntity
  8
0
100
AcDbCircle
 62
7
  6
BYLAYER
 10
149.1303246022
 20
56.02172039
 40
1.5082343863
100
AcDbArc
 50
260.126955702
 51
268.2645788551
  0
ARC
  5
383
100
AcDbEntity
  8
0
100
AcDbCircle
 62
7
  6
BYLAYER
 10
149.129006782
 20
56.0059568009
 40
1.4955885746
100
AcDbArc
 50
260.0740424864
 51
268.2982804432
  0
ARC
  5
384
100
AcDbEntity
  8
0
100
AcDbCircle
 62
7
  6
BYLAYER
 10
149.7950579257
 20
47.0193187753
 40
0.9928046467
100
AcDbArc
 50
350.3631012305
 51
359.9687753312
  0
ARC
  5
385
100
AcDbEntity
  8
0
100
AcDbCircle
 62
7
  6
BYLAYER
 10
135.7092672772
 20
46.9511188919
 40
0.3238415074
100
AcDbArc
 50
342.7511487671
 51
343.6478734047
  0
ARC
  5
386
100
AcDbEntity
  8
0
100
AcDbCircle
 62
7
  6
BYLAYER
 10
145.9529529573
 20
79.0248136001
 40
44.2779939461
100
AcDbArc
 50
244.5458870226
 51
246.8775999189
  0
ARC
  5
387
100
AcDbEntity
  8
0
100
AcDbCircle
 62
7
  6
BYLAYER
 10
145.7453135412
 20
87.5462184313
 40
43.7732965636
100
AcDbArc
 50
244.5324430423
 51
246.8910438996
  0
ARC
  5
388
100
AcDbEntity
  8
0
100
AcDbCircle
 62
7
  6
BYLAYER
 10
144.7558035132
 20
76.4839991612
 40
41.4692978141
100
AcDbArc
 50
242.5147933692
 51
244.5305923486
  0
ARC
  5
389
100
AcDbEntity
  8
0
100
AcDbCircle
 62
7
  6
BYLAYER
 10
144.434209546
 20
84.8192202499
 40
40.7475106223
100
AcDbArc
 50
242.0737344948
 51
244.548041821
  0
ARC
  5
38A
100
AcDbEntity
  8
0
100
AcDbCircle
 62
7
  6
BYLAYER
 10
143.9747909573
 20
72.5107357283
 40
39.7570767274
100
AcDbArc
 50
242.0664984747
 51
242.4998290462
  0
ARC
  5
38B
100
AcDbEntity
  8
0
100
AcDbCircle
 62
7
  6
BYLAYER
 10
139.0470779747
 20
71.7941666568
 40
26.6561992855
100
AcDbArc
 50
248.1565663156
 51
248.319071586
  0
ARC
  5
38C
100
AcDbEntity
  8
0
100
AcDbCircle
 62
7
  6
BYLAYER
 10
139.0014610446
 20
71.6803670602
 40
26.5335972769
100
AcDbArc
 50
247.9935613294
 51
248.1565667981
  0
ARC
  5
38D
100
AcDbEntity
  8
0
100
AcDbCircle
 62
7
  6
BYLAYER
 10
196.0286254378
 20
185.5901867166
 40
153.9556677663
100
AcDbArc
 50
241.2778911672
 51
242.6722721269
  0
ARC
  5
38E
100
AcDbEntity
  8
0
100
AcDbCircle
 62
7
  6
BYLAYER
 10
195.906787307
 20
173.9128415906
 40
153.6809126927
100
AcDbArc
 50
240.5825141155
 51
242.6704691288
  0
ARC
  5
38F
100
AcDbEntity
  8
0
100
AcDbCircle
 62
7
  6
BYLAYER
 10
194.5899458622
 20
182.9516159264
 40
150.9503701346
100
AcDbArc
 50
241.1341218606
 51
241.275488097
  0
ARC
  5
390
100
AcDbEntity
  8
0
100
AcDbCircle
 62
7
  6
BYLAYER
 10
194.0769691371
 20
182.0225841691
 40
149.8891229515
100
AcDbArc
 50
240.851312492
 51
241.0897257228
  0
ARC
  5
391
100
AcDbEntity
  8
0
100
AcDbCircle
 62
7
  6
BYLAYER
 10
191.2115923976
 20
165.5310918566
 40
144.0737381032
100
AcDbArc
 50
238.3921306864
 51
240.571758467
  0
ARC
  5
392
100
AcDbEntity
  8
0
100
AcDbCircle
 62
7
  6
BYLAYER
 10
189.5966222889
 20
174.2628374899
 40
140.9284717401
100
AcDbArc
 50
238.3761693294
 51
239.7097421113
  0
ARC
  5
393
100
AcDbEntity
  8
0
100
AcDbCircle
 62
7
  6
BYLAYER
 10
118.8594011378
 20
329.7139397432
 40
8.4476584595
100
AcDbArc
 50
232.2931630605
 51
232.7564581684
  0
ARC
  5
394
100
AcDbEntity
  8
0
100
AcDbCircle
 62
7
  6
BYLAYER
 10
118.8028495675
 20
329.6408016585
 40
8.3552070697
100
AcDbArc
 50
231.8002644029
 51
232.2932178161
  0
ARC
  5
395
100
AcDbEntity
  8
0
100
AcDbCircle
 62
7
  6
BYLAYER
 10
118.683717139
 20
329.490322852
 40
8.1632797905
100
AcDbArc
 50
230.2889106588
 51
231.8042269518
  0
ARC
  5
396
100
AcDbEntity
  8
0
100
AcDbCircle
 62
7
  6
BYLAYER
 10
118.4057864152
 20
329.158058913
 40
7.730102709
100
AcDbArc
 50
227.717237842
 51
230.3001504489
  0
ARC
  5
397
100
AcDbEntity
  8
0
100
AcDbCircle
 62
7
  6
BYLAYER
 10
127.5204139489
 20
303.7551362229
 40
34.524259969
100
AcDbArc
 50
57.3699120312
 51
57.8459914417
  0
ARC
  5
398
100
AcDbEntity
  8
0
100
AcDbCircle
 62
7
  6
BYLAYER
 10
128.4016331353
 20
302.6563131671
 40
32.9115163072
100
AcDbArc
 50
55.3623640114
 51
56.9246308819
  0
ARC
  5
399
100
AcDbEntity
  8
0
100
AcDbCircle
 62
7
  6
BYLAYER
 10
129.8215767953
 20
313.6224700437
 40
0.8291675989
100
AcDbArc
 50
84.2879771348
 51
87.2157597562
  0
ARC
  5
39A
100
AcDbEntity
  8
0
100
AcDbCircle
 62
7
  6
BYLAYER
 10
129.4189219641
 20
314.8008170606
 40
0.4255040622
100
AcDbArc
 50
263.415236858
 51
270.3558418426
  0
ARC
  5
39B
100
AcDbEntity
  8
0
100
AcDbCircle
 62
7
  6
BYLAYER
 10
130.4127454522
 20
314.1551690413
 40
0.1340223405
100
AcDbArc
 50
186.5001599923
 51
188.4487383467
  0
ARC
  5
39C
100
AcDbEntity
  8
0
100
AcDbCircle
 62
7
  6
BYLAYER
 10
130.4115101714
 20
314.1550330083
 40
0.132779601
100
AcDbArc
 50
180.0116044167
 51
186.5021805931
  0
ARC
  5
39D
100
AcDbEntity
  8
0
100
AcDbCircle
 62
7
  6
BYLAYER
 10
127.7420404353
 20
322.2303802647
 40
16.3259818972
100
AcDbArc
 50
69.466602244
 51
69.9534449276
  0
ARC
  5
39E
100
AcDbEntity
  8
0
100
AcDbCircle
 62
7
  6
BYLAYER
 10
133.9361331212
 20
326.9230210388
 40
13.3575567244
100
AcDbArc
 50
247.4314448448
 51
248.5850965627
  0
ARC
  5
39F
100
AcDbEntity
  8
0
100
AcDbCircle
 62
7
  6
BYLAYER
 10
133.9088205563
 20
329.3048992147
 40
13.2846243863
100
AcDbArc
 50
247.4282779737
 51
248.5882634338
  0
ARC
  5
3A0
100
AcDbEntity
  8
0
100
AcDbCircle
 62
7
  6
BYLAYER
 10
133.7682857312
 20
326.5173459388
 40
12.9185299292
100
AcDbArc
 50
246.2487424399
 51
247.4283416803
  0
ARC
  5
3A1
100
AcDbEntity
  8
0
100
AcDbCircle
 62
7
  6
BYLAYER
 10
133.7393941955
 20
328.8993187574
 40
12.8450789561
100
AcDbArc
 50
246.2453697145
 51
247.4317144042
  0
ARC
  5
3A2
100
AcDbEntity
  8
0
100
AcDbCircle
 62
7
  6
BYLAYER
 10
134.0902971978
 20
326.957903184
 40
11.1503535601
100
AcDbArc
 50
250.8090216232
 51
254.5389465113
  0
ARC
  5
3A3
100
AcDbEntity
  8
0
100
AcDbCircle
 62
7
  6
BYLAYER
 10
133.7561258111
 20
323.9776731934
 40
10.5705111666
100
AcDbArc
 50
266.7014904224
 51
269.9057730839
  0
ARC
  5
3A4
100
AcDbEntity
  8
0
100
AcDbCircle
 62
7
  6
BYLAYER
 10
133.7514710918
 20
323.8884686024
 40
10.4811865473
100
AcDbArc
 50
266.375626395
 51
266.6988355941
  0
ARC
  5
3A5
100
AcDbEntity
  8
0
100
AcDbCircle
 62
7
  6
BYLAYER
 10
133.7420909958
 20
323.7582628095
 40
10.3506482738
100
AcDbArc
 50
263.4576611109
 51
266.3818835116
  0
ARC
  5
3A6
100
AcDbEntity
  8
0
100
AcDbCircle
 62
7
  6
BYLAYER
 10
133.7219999494
 20
323.5729875219
 40
10.164290455
100
AcDbArc
 50
262.8554330478
 51
263.4511810235
  0
ARC
  5
3A7
100
AcDbEntity
  8
0
100
AcDbCircle
 62
7
  6
BYLAYER
 10
133.6927774034
 20
323.3525503626
 40
9.9419305016
100
AcDbArc
 50
260.1310442082
 51
262.8645337417
  0
ARC
  5
3A8
100
AcDbEntity
  8
0
100
AcDbCircle
 62
7
  6
BYLAYER
 10
133.7820667153
 20
323.0794724058
 40
9.6922485817
100
AcDbArc
 50
262.1424598425
 51
265.8915491712
  0
ARC
  5
3A9
100
AcDbEntity
  8
0
100
AcDbCircle
 62
7
  6
BYLAYER
 10
133.6450056488
 20
323.069330522
 40
9.6547139107
100
AcDbArc
 50
259.2365263437
 51
260.1222747517
  0
ARC
  5
3AA
100
AcDbEntity
  8
0
100
AcDbCircle
 62
7
  6
BYLAYER
 10
133.7753579269
 20
325.4649670542
 40
9.6279200586
100
AcDbArc
 50
262.1299306394
 51
265.9040783745
  0
ARC
  5
3AB
100
AcDbEntity
  8
0
100
AcDbCircle
 62
7
  6
BYLAYER
 10
133.6138049258
 20
322.9060189691
 40
9.4884486866
100
AcDbArc
 50
258.1101252121
 51
259.2374474163
  0
ARC
  5
3AC
100
AcDbEntity
  8
0
100
AcDbCircle
 62
7
  6
BYLAYER
 10
133.5629949765
 20
322.6661001428
 40
9.2432087869
100
AcDbArc
 50
256.6729495902
 51
258.1119170311
  0
ARC
  5
3AD
100
AcDbEntity
  8
0
100
AcDbCircle
 62
7
  6
BYLAYER
 10
133.7186961422
 20
322.6086139555
 40
9.2171477164
100
AcDbArc
 50
258.2583178365
 51
262.1325406654
  0
ARC
  5
3AE
100
AcDbEntity
  8
0
100
AcDbCircle
 62
7
  6
BYLAYER
 10
133.7018593827
 20
324.9606931055
 40
9.1183326338
100
AcDbArc
 50
258.2373172884
 51
262.1535412132
  0
ARC
  5
3AF
100
AcDbEntity
  8
0
100
AcDbCircle
 62
7
  6
BYLAYER
 10
133.4349914759
 20
322.1460508189
 40
8.7076595889
100
AcDbArc
 50
253.0578995895
 51
256.7037452985
  0
ARC
  5
3B0
100
AcDbEntity
  8
0
100
AcDbCircle
 62
7
  6
BYLAYER
 10
133.1915691286
 20
321.3648709583
 40
7.8894503469
100
AcDbArc
 50
249.4637916994
 51
253.0957936742
  0
ARC
  5
3B1
100
AcDbEntity
  8
0
100
AcDbCircle
 62
7
  6
BYLAYER
 10
133.0434976486
 20
320.9628629077
 40
7.4610466423
100
AcDbArc
 50
249.1604790368
 51
249.4456494438
  0
ARC
  5
3B2
100
AcDbEntity
  8
0
100
AcDbCircle
 62
7
  6
BYLAYER
 10
133.4699481063
 20
318.7060444929
 40
5.3056812936
100
AcDbArc
 50
272.9039331831
 51
276.0064859508
  0
ARC
  5
3B3
100
AcDbEntity
  8
0
100
AcDbCircle
 62
7
  6
BYLAYER
 10
133.4813625204
 20
318.5943000577
 40
5.1933559241
100
AcDbArc
 50
276.0102514006
 51
277.2766067347
  0
ARC
  5
3B4
100
AcDbEntity
  8
0
100
AcDbCircle
 62
7
  6
BYLAYER
 10
133.4518225307
 20
318.4843984206
 40
5.0853226992
100
AcDbArc
 50
265.8936163536
 51
273.234406721
  0
ARC
  5
3B5
100
AcDbEntity
  8
0
100
AcDbCircle
 62
7
  6
BYLAYER
 10
133.4518225307
 20
320.9339056718
 40
5.085322699
100
AcDbArc
 50
265.8936163536
 51
273.2344067211
  0
ARC
  5
3B6
100
AcDbEntity
  8
0
100
AcDbCircle
 62
7
  6
BYLAYER
 10
133.5105473907
 20
318.3829414284
 40
4.9800034589
100
AcDbArc
 50
277.2515344504
 51
281.7914670573
  0
ARC
  5
3B7
100
AcDbEntity
  8
0
100
AcDbCircle
 62
7
  6
BYLAYER
 10
133.5987181657
 20
317.96597618
 40
4.5538194929
100
AcDbArc
 50
281.7775864353
 51
286.5952025228
  0
ARC
  5
3B8
100
AcDbEntity
  8
0
100
AcDbCircle
 62
7
  6
BYLAYER
 10
133.70978546
 20
317.5856297146
 40
4.1575946466
100
AcDbArc
 50
286.6253703385
 51
289.3361534814
  0
ARC
  5
3B9
100
AcDbEntity
  8
0
100
AcDbCircle
 62
7
  6
BYLAYER
 10
133.8019755989
 20
317.3229455263
 40
3.8792028286
100
AcDbArc
 50
289.3359678027
 51
291.8583021034
  0
ARC
  5
3BA
100
AcDbEntity
  8
0
100
AcDbCircle
 62
7
  6
BYLAYER
 10
130.8449697455
 20
321.2383230067
 40
3.6134855715
100
AcDbArc
 50
255.1338532773
 51
255.700751807
  0
ARC
  5
3BB
100
AcDbEntity
  8
0
100
AcDbCircle
 62
7
  6
BYLAYER
 10
130.2956922529
 20
334.5852888852
 40
3.4654880158
100
AcDbArc
 50
119.446108904
 51
121.3774466034
  0
ARC
  5
3BC
100
AcDbEntity
  8
0
100
AcDbCircle
 62
7
  6
BYLAYER
 10
130.6065601441
 20
338.4464016957
 40
1.6468931867
100
AcDbArc
 50
240.0214320944
 51
243.8759279704
  0
ARC
  5
3BD
100
AcDbEntity
  8
0
100
AcDbCircle
 62
7
  6
BYLAYER
 10
134.4010171455
 20
325.6246746921
 40
12.3090691872
100
AcDbArc
 50
254.5301289395
 51
258.0056740374
  0
ARC
  5
3BE
100
AcDbEntity
  8
0
100
AcDbCircle
 62
7
  6
BYLAYER
 10
134.3642784315
 20
327.9238397706
 40
12.1543753134
100
AcDbArc
 50
254.508004659
 51
258.0277983179
  0
ARC
  5
3BF
100
AcDbEntity
  8
0
100
AcDbCircle
 62
7
  6
BYLAYER
 10
148.2977323959
 20
324.8610480803
 40
3.1552403672
100
AcDbArc
 50
296.0567315069
 51
299.2640026233
  0
ARC
  5
3C0
100
AcDbEntity
  8
0
100
AcDbCircle
 62
7
  6
BYLAYER
 10
134.1622332475
 20
316.5408692137
 40
3.0174254147
100
AcDbArc
 50
297.6633813603
 51
300.671800189
  0
ARC
  5
3C1
100
AcDbEntity
  8
0
100
AcDbCircle
 62
7
  6
BYLAYER
 10
148.4375266765
 20
324.6116140443
 40
2.8693036981
100
AcDbArc
 50
299.2635772387
 51
302.4018727792
  0
ARC
  5
3C2
100
AcDbEntity
  8
0
100
AcDbCircle
 62
7
  6
BYLAYER
 10
145.625503434
 20
326.1771313984
 40
2.819391116
100
AcDbArc
 50
122.2484353752
 51
123.3310036171
  0
ARC
  5
3C3
100
AcDbEntity
  8
0
100
AcDbCircle
 62
7
  6
BYLAYER
 10
134.3085980234
 20
316.295060515
 40
2.7313410021
100
AcDbArc
 50
300.6613745452
 51
304.220610149
  0
ARC
  5
3C4
100
AcDbEntity
  8
0
100
AcDbCircle
 62
7
  6
BYLAYER
 10
148.8833251751
 20
323.9924365011
 40
2.1053708831
100
AcDbArc
 50
309.6755921376
 51
313.1556506617
  0
ARC
  5
3C5
100
AcDbEntity
  8
0
100
AcDbCircle
 62
7
  6
BYLAYER
 10
149.0372301246
 20
323.8295308978
 40
1.8812634025
100
AcDbArc
 50
313.1297999183
 51
318.0642185899
  0
ARC
  5
3C6
100
AcDbEntity
  8
0
100
AcDbCircle
 62
7
  6
BYLAYER
 10
149.1329758304
 20
323.4751033257
 40
1.5571340405
100
AcDbArc
 50
268.2214950832
 51
272.3797904386
  0
ARC
  5
3C7
100
AcDbEntity
  8
0
100
AcDbCircle
 62
7
  6
BYLAYER
 10
149.1341099212
 20
323.4564778133
 40
1.5384775428
100
AcDbArc
 50
272.36639375
 51
275.828459988
  0
ARC
  5
3C8
100
AcDbEntity
  8
0
100
AcDbCircle
 62
7
  6
BYLAYER
 10
149.1324201548
 20
323.4552077102
 40
1.5372307647
100
AcDbArc
 50
264.3017217229
 51
268.2191816752
  0
ARC
  5
3C9
100
AcDbEntity
  8
0
100
AcDbCircle
 62
7
  6
BYLAYER
 10
149.1266583973
 20
323.4013167538
 40
1.4830340728
100
AcDbArc
 50
260.4355510616
 51
264.3164977936
  0
ARC
  5
3CA
100
AcDbEntity
  8
0
100
AcDbCircle
 62
7
  6
BYLAYER
 10
149.1421483835
 20
323.3815412905
 40
1.4631121543
100
AcDbArc
 50
275.8133023227
 51
280.6955371496
  0
ARC
  5
3CB
100
AcDbEntity
  8
0
100
AcDbCircle
 62
7
  6
BYLAYER
 10
149.1086695435
 20
323.2962703439
 40
1.3764589358
100
AcDbArc
 50
255.822265732
 51
260.4473980305
  0
ARC
  5
3CC
100
AcDbEntity
  8
0
100
AcDbCircle
 62
7
  6
BYLAYER
 10
149.4402769924
 20
323.5148459927
 40
1.3687477814
100
AcDbArc
 50
327.8531734209
 51
331.977039691
  0
ARC
  5
3CD
100
AcDbEntity
  8
0
100
AcDbCircle
 62
7
  6
BYLAYER
 10
149.1617412255
 20
323.2774656871
 40
1.3572083941
100
AcDbArc
 50
280.6981941663
 51
284.468738285
  0
ARC
  5
3CE
100
AcDbEntity
  8
0
100
AcDbCircle
 62
7
  6
BYLAYER
 10
149.5449752545
 20
323.4599314936
 40
1.2505243873
100
AcDbArc
 50
331.9443440174
 51
338.9698834485
  0
ARC
  5
3CF
100
AcDbEntity
  8
0
100
AcDbCircle
 62
7
  6
BYLAYER
 10
149.0765657538
 20
323.1698085704
 40
1.2459859191
100
AcDbArc
 50
251.4015016006
 51
255.8292353747
  0
ARC
  5
3D0
100
AcDbEntity
  8
0
100
AcDbCircle
 62
7
  6
BYLAYER
 10
149.1962636406
 20
323.1469738871
 40
1.2222300506
100
AcDbArc
 50
284.4301152386
 51
290.2129877169
  0
ARC
  5
3D1
100
AcDbEntity
  8
0
100
AcDbCircle
 62
7
  6
BYLAYER
 10
149.6245893123
 20
323.4281250544
 40
1.1647997897
100
AcDbArc
 50
339.0248615734
 51
342.4551438797
  0
ARC
  5
3D2
100
AcDbEntity
  8
0
100
AcDbCircle
 62
7
  6
BYLAYER
 10
149.6865783154
 20
323.4092883526
 40
1.1000163097
100
AcDbArc
 50
342.4173141447
 51
351.2707207589
  0
ARC
  5
3D3
100
AcDbEntity
  8
0
100
AcDbCircle
 62
7
  6
BYLAYER
 10
149.2487240371
 20
323.0028334007
 40
1.0688410086
100
AcDbArc
 50
290.2436771093
 51
294.014388591
  0
ARC
  5
3D4
100
AcDbEntity
  8
0
100
AcDbCircle
 62
7
  6
BYLAYER
 10
149.7950579257
 20
323.4085425133
 40
0.9928046467
100
AcDbArc
 50
350.3631012305
 51
359.9687753312
  0
ARC
  5
3D5
100
AcDbEntity
  8
0
100
AcDbCircle
 62
7
  6
BYLAYER
 10
149.7950579258
 20
325.8580497647
 40
0.9928046467
100
AcDbArc
 50
350.3631012305
 51
359.9687753313
  0
ARC
  5
3D6
100
AcDbEntity
  8
0
100
AcDbCircle
 62
7
  6
BYLAYER
 10
149.7962385625
 20
325.857256043
 40
0.9916238948
100
AcDbArc
 50
0.0145991916
 51
12.2550442033
  0
ARC
  5
3D7
100
AcDbEntity
  8
0
100
AcDbCircle
 62
7
  6
BYLAYER
 10
135.4609061832
 20
314.5515240036
 40
0.642210611
100
AcDbArc
 50
306.6938264229
 51
311.9891368471
  0
ARC
  5
3D8
100
AcDbEntity
  8
0
100
AcDbCircle
 62
7
  6
BYLAYER
 10
149.2550633652
 20
328.0482271819
 40
0.3229316841
100
AcDbArc
 50
228.184391107
 51
233.5385266573
  0
ARC
  5
3D9
100
AcDbEntity
  8
0
100
AcDbCircle
 62
7
  6
BYLAYER
 10
146.0843720529
 20
355.6871296499
 40
44.5807581424
100
AcDbArc
 50
244.5499429967
 51
246.8600959478
  0
ARC
  5
3DA
100
AcDbEntity
  8
0
100
AcDbCircle
 62
7
  6
BYLAYER
 10
145.8771765465
 20
357.6776425131
 40
44.0772687262
100
AcDbArc
 50
244.5367468767
 51
246.8732920674
  0
ARC
  5
3DB
100
AcDbEntity
  8
0
100
AcDbCircle
 62
7
  6
BYLAYER
 10
144.7948400758
 20
352.956054533
 40
41.5605639487
100
AcDbArc
 50
242.1167923645
 51
244.5372419397
  0
ARC
  5
3DC
100
AcDbEntity
  8
0
100
AcDbCircle
 62
7
  6
BYLAYER
 10
144.7174763046
 20
355.2550758513
 40
41.3914352313
100
AcDbArc
 50
242.567983077
 51
244.5443728248
  0
ARC
  5
3DD
100
AcDbEntity
  8
0
100
AcDbCircle
 62
7
  6
BYLAYER
 10
144.122665837
 20
356.5520336835
 40
40.0944540909
100
AcDbArc
 50
242.0949928533
 51
242.563630475
  0
ARC
  5
3DE
100
AcDbEntity
  8
0
100
AcDbCircle
 62
7
  6
BYLAYER
 10
139.047077995
 20
341.6513711084
 40
26.6561993402
100
AcDbArc
 50
248.1565663158
 51
248.3190715858
  0
ARC
  5
3DF
100
AcDbEntity
  8
0
100
AcDbCircle
 62
7
  6
BYLAYER
 10
139.0470779647
 20
339.2018637812
 40
26.6561992585
100
AcDbArc
 50
248.1565663155
 51
248.319071586
  0
ARC
  5
3E0
100
AcDbEntity
  8
0
100
AcDbCircle
 62
7
  6
BYLAYER
 10
139.0014610652
 20
341.5375715123
 40
26.5335973322
100
AcDbArc
 50
247.9935613293
 51
248.1565667979
  0
ARC
  5
3E1
100
AcDbEntity
  8
0
100
AcDbCircle
 62
7
  6
BYLAYER
 10
139.0014610556
 20
339.0880642372
 40
26.5335973066
100
AcDbArc
 50
247.9935613292
 51
248.1565667981
  0
ARC
  5
3E2
100
AcDbEntity
  8
0
100
AcDbCircle
 62
7
  6
BYLAYER
 10
145.759511338
 20
332.1875853125
 40
0.7365192198
100
AcDbArc
 50
59.1144307693
 51
60.0022232263
  0
ARC
  5
3E3
100
AcDbEntity
  8
0
100
AcDbCircle
 62
7
  6
BYLAYER
 10
196.5593303879
 20
453.9066085193
 40
155.0066204314
100
AcDbArc
 50
240.5838250067
 51
242.6553020412
  0
ARC
  5
3E4
100
AcDbEntity
  8
0
100
AcDbCircle
 62
7
  6
BYLAYER
 10
195.7920312614
 20
457.3853740863
 40
153.3926208705
100
AcDbArc
 50
240.572925741
 51
242.6662013176
  0
ARC
  5
3E5
100
AcDbEntity
  8
0
100
AcDbCircle
 62
7
  6
BYLAYER
 10
191.0571380705
 20
449.053954516
 40
143.8097839471
100
AcDbArc
 50
238.399685319
 51
240.585137509
  0
ARC
  5
3E6
100
AcDbEntity
  8
0
100
AcDbCircle
 62
7
  6
BYLAYER
 10
176.6224304572
 20
419.2180006434
 40
115.0087716526
100
AcDbArc
 50
241.5690799305
 51
243.5369606667
  0
ARC
  5
3E7
100
AcDbEntity
  8
0
100
AcDbCircle
 62
7
  6
BYLAYER
 10
175.1646573757
 20
416.5055431342
 40
111.9294151535
100
AcDbArc
 50
241.4179039447
 51
241.5642454966
  0
ARC
  5
3E8
100
AcDbEntity
  8
0
100
AcDbCircle
 62
7
  6
BYLAYER
 10
174.4878702345
 20
415.2682550331
 40
110.5191254676
100
AcDbArc
 50
240.7101325413
 51
241.4191318526
  0
ARC
  5
3E9
100
AcDbEntity
  8
0
100
AcDbCircle
 62
7
  6
BYLAYER
 10
172.4235294604
 20
411.618223708
 40
106.3257967156
100
AcDbArc
 50
239.1333110951
 51
240.7180692624
  0
ARC
  5
3EA
100
AcDbEntity
  8
0
100
AcDbCircle
 62
7
  6
BYLAYER
 10
170.9462600228
 20
409.1395362688
 40
103.4402806766
100
AcDbArc
 50
238.4915558358
 51
239.131296229
  0
ARC
  5
3EB
100
AcDbEntity
  8
0
100
AcDbCircle
 62
7
  6
BYLAYER
 10
169.6903020081
 20
407.0947524284
 40
101.0405773746
100
AcDbArc
 50
237.7046973716
 51
238.4609601211
  0
ARC
  5
3EC
100
AcDbEntity
  8
0
100
AcDbCircle
 62
7
  6
BYLAYER
 10
168.6042435826
 20
405.3722106638
 40
99.0042405265
100
AcDbArc
 50
237.3358630056
 51
237.7033816188
  0
ARC
  5
3ED
100
AcDbEntity
  8
0
100
AcDbCircle
 62
7
  6
BYLAYER
 10
167.8907044241
 20
404.2592611334
 40
97.6821986257
100
AcDbArc
 50
236.9637651929
 51
237.335873673
  0
SPLINE
  5
3EE
100
AcDbEntity
  8
0
100
AcDbSpline
 62
7
  6
BYLAYER
 70
0
 71
3
 72
9
 73
5
 74
0
 42
0.0000001
 43
0.0000001
 44
0.0000000001
 40
0.0
 40
0.0
 40
0.0
 40
0.0
 40
0.2411856886
 40
1.0
 40
1.0
 40
1.0
 40
1.0
 10
114.2273626941
 20
46.3514314851
 30
0.0
 10
114.24821182
 20
46.3394434483
 30
0.0
 10
114.3357588595
 20
46.2916688513
 30
0.0
 10
114.4273495055
 20
46.2514142572
 30
0.0
 10
114.4981875053
 20
46.2248202305
 30
0.0
  0
SPLINE
  5
3EF
100
AcDbEntity
  8
0
100
AcDbSpline
 62
7
  6
BYLAYER
 70
0
 71
3
 72
9
 73
5
 74
0
 42
0.0000001
 43
0.0000001
 44
0.0000000001
 40
0.0
 40
0.0
 40
0.0
 40
0.0
 40
0.2408001262
 40
1.0
 40
1.0
 40
1.0
 40
1.0
 10
114.0271383111
 20
46.491231401
 30
0.0
 10
114.0420946522
 20
46.4785388389
 30
0.0
 10
114.1055493783
 20
46.4274181824
 30
0.0
 10
114.1738526711
 20
46.3824416804
 30
0.0
 10
114.2273626941
 20
46.3514314851
 30
0.0
  0
SPLINE
  5
3F0
100
AcDbEntity
  8
0
100
AcDbSpline
 62
7
  6
BYLAYER
 70
0
 71
3
 72
9
 73
5
 74
0
 42
0.0000001
 43
0.0000001
 44
0.0000000001
 40
0.0
 40
0.0
 40
0.0
 40
0.0
 40
0.2324918756
 40
1.0
 40
1.0
 40
1.0
 40
1.0
 10
113.14623433
 20
47.094726025
 30
0.0
 10
113.1775802041
 20
47.0564944523
 30
0.0
 10
113.3215867607
 20
46.8995747384
 30
0.0
 10
113.4967635096
 20
46.7732490044
 30
0.0
 10
113.6381077665
 20
46.6916457057
 30
0.0
  0
SPLINE
  5
3F1
100
AcDbEntity
  8
0
100
AcDbSpline
 62
7
  6
BYLAYER
 70
0
 71
3
 72
9
 73
5
 74
0
 42
0.0000001
 43
0.0000001
 44
0.0000000001
 40
0.0
 40
0.0
 40
0.0
 40
0.0
 40
0.2449366897
 40
1.0
 40
1.0
 40
1.0
 40
1.0
 10
114.0378903453
 20
46.5041550834
 30
0.0
 10
114.0665714506
 20
46.4933295257
 30
0.0
 10
114.18432046
 20
46.450874066
 30
0.0
 10
114.3044991224
 20
46.415223234
 30
0.0
 10
114.396074369
 20
46.3918813237
 30
0.0
  0
SPLINE
  5
3F2
100
AcDbEntity
  8
0
100
AcDbSpline
 62
7
  6
BYLAYER
 70
0
 71
3
 72
12
 73
8
 74
0
 42
0.0000001
 43
0.0000001
 44
0.0000000001
 40
0.0
 40
0.0
 40
0.0
 40
0.0
 40
0.2303463478
 40
0.3555179364
 40
0.4848390583
 40
0.7471151887
 40
1.0
 40
1.0
 40
1.0
 40
1.0
 10
129.7837766473
 20
37.3701348857
 30
0.0
 10
129.9181298337
 20
37.2928831606
 30
0.0
 10
130.1428319852
 20
37.2026260008
 30
0.0
 10
130.4607599165
 20
37.1286945222
 30
0.0
 10
130.8059893728
 20
37.0830109531
 30
0.0
 10
131.2419702978
 20
37.0860056792
 30
0.0
 10
131.5849817878
 20
37.1516634748
 30
0.0
 10
131.7475667445
 20
37.2018126326
 30
0.0
  0
SPLINE
  5
3F3
100
AcDbEntity
  8
0
100
AcDbSpline
 62
7
  6
BYLAYER
 70
0
 71
3
 72
9
 73
5
 74
0
 42
0.0000001
 43
0.0000001
 44
0.0000000001
 40
0.0
 40
0.0
 40
0.0
 40
0.0
 40
0.236593015
 40
1.0
 40
1.0
 40
1.0
 40
1.0
 10
129.5156688756
 20
37.5726439213
 30
0.0
 10
129.5343553765
 20
37.5537933336
 30
0.0
 10
129.6164991135
 20
37.4772565763
 30
0.0
 10
129.7096753291
 20
37.413078174
 30
0.0
 10
129.7837766473
 20
37.3701348857
 30
0.0
  0
SPLINE
  5
3F4
100
AcDbEntity
  8
0
100
AcDbSpline
 62
7
  6
BYLAYER
 70
0
 71
3
 72
9
 73
5
 74
0
 42
0.0000001
 43
0.0000001
 44
0.0000000001
 40
0.0
 40
0.0
 40
0.0
 40
0.0
 40
0.2436059661
 40
1.0
 40
1.0
 40
1.0
 40
1.0
 10
128.5914068082
 20
38.27310898
 30
0.0
 10
128.6000932743
 20
38.2581161156
 30
0.0
 10
128.6372025209
 20
38.1974167415
 30
0.0
 10
128.6799077078
 20
38.1401900587
 30
0.0
 10
128.7145953504
 20
38.0990637136
 30
0.0
  0
SPLINE
  5
3F5
100
AcDbEntity
  8
0
100
AcDbSpline
 62
7
  6
BYLAYER
 70
0
 71
3
 72
9
 73
5
 74
0
 42
0.0000001
 43
0.0000001
 44
0.0000000001
 40
0.0
 40
0.0
 40
0.0
 40
0.0
 40
0.2330500097
 40
1.0
 40
1.0
 40
1.0
 40
1.0
 10
128.7145953504
 20
38.0990637136
 30
0.0
 10
128.7456180732
 20
38.062282569
 30
0.0
 10
128.8871440742
 20
37.9115499819
 30
0.0
 10
129.0573858473
 20
37.789522748
 30
0.0
 10
129.1945217197
 20
37.7103491063
 30
0.0
  0
SPLINE
  5
3F6
100
AcDbEntity
  8
0
100
AcDbSpline
 62
7
  6
BYLAYER
 70
0
 71
3
 72
11
 73
7
 74
0
 42
0.0000001
 43
0.0000001
 44
0.0000000001
 40
0.0
 40
0.0
 40
0.0
 40
0.0
 40
0.2279169331
 40
0.4748368042
 40
0.7346763546
 40
1.0
 40
1.0
 40
1.0
 40
1.0
 10
129.1945217197
 20
37.7103491063
 30
0.0
 10
129.3260212662
 20
37.6344295252
 30
0.0
 10
129.6153719622
 20
37.5022820737
 30
0.0
 10
130.0874077951
 20
37.3674763738
 30
0.0
 10
130.5976115612
 20
37.2922176578
 30
0.0
 10
130.9484092176
 20
37.2840201611
 30
0.0
 10
131.1250467119
 20
37.2906710179
 30
0.0
  0
SPLINE
  5
3F7
100
AcDbEntity
  8
0
100
AcDbSpline
 62
7
  6
BYLAYER
 70
0
 71
3
 72
24
 73
20
 74
0
 42
0.0000001
 43
0.0000001
 44
0.0000000001
 40
0.0
 40
0.0
 40
0.0
 40
0.0
 40
0.062388527
 40
0.1287315513
 40
0.1983298352
 40
0.2703116412
 40
0.3436947261
 40
0.417432282
 40
0.4904624323
 40
0.5617545343
 40
0.6303572133
 40
0.6954500401
 40
0.756402548
 40
0.8128443401
 40
0.864748906
 40
0.9125272336
 40
0.9571047433
 40
0.9786666394
 40
1.0
 40
1.0
 40
1.0
 40
1.0
 10
138.0333137969
 20
29.2683268302
 30
0.0
 10
137.8177430281
 20
29.1438677317
 30
0.0
 10
137.3557801874
 20
28.9160919648
 30
0.0
 10
136.6105677278
 20
28.646081551
 30
0.0
 10
135.8052631718
 20
28.4416385869
 30
0.0
 10
134.9570776966
 20
28.3071474991
 30
0.0
 10
134.0840107992
 20
28.2454261182
 30
0.0
 10
133.2046869989
 20
28.2577992171
 30
0.0
 10
132.3378635482
 20
28.3439994388
 30
0.0
 10
131.5020114585
 20
28.5021943865
 30
0.0
 10
130.7148873823
 20
28.7290423096
 30
0.0
 10
129.9931310134
 20
29.0198093453
 30
0.0
 10
129.3519070145
 20
29.3685716454
 30
0.0
 10
128.804642872
 20
29.7684399263
 30
0.0
 10
128.3629976827
 20
30.2120190879
 30
0.0
 10
128.0371326219
 20
30.6910514239
 30
0.0
 10
127.8679290049
 20
31.1178638832
 30
0.0
 10
127.8016525408
 20
31.4612998649
 30
0.0
 10
127.7906640324
 20
31.6326549804
 30
0.0
 10
127.7906638166
 20
31.717771358
 30
0.0
  0
SPLINE
  5
3F8
100
AcDbEntity
  8
0
100
AcDbSpline
 62
7
  6
BYLAYER
 70
0
 71
3
 72
14
 73
10
 74
0
 42
0.0000001
 43
0.0000001
 44
0.0000000001
 40
0.0
 40
0.0
 40
0.0
 40
0.0
 40
0.1080465594
 40
0.2181303306
 40
0.3321036619
 40
0.4515009317
 40
0.577460918
 40
0.7107191066
 40
1.0
 40
1.0
 40
1.0
 40
1.0
 10
139.7906470755
 20
31.7177713567
 30
0.0
 10
139.7906473635
 20
31.6041846512
 30
0.0
 10
139.7709243078
 20
31.3744083129
 30
0.0
 10
139.6828839526
 20
31.0350208596
 30
0.0
 10
139.5375479893
 20
30.7029437397
 30
0.0
 10
139.3367770305
 20
30.3815499468
 30
0.0
 10
139.0828016589
 20
30.0737048651
 30
0.0
 10
138.6655175253
 20
29.6743239511
 30
0.0
 10
138.2966845776
 20
29.4203831137
 30
0.0
 10
138.0333137969
 20
29.2683268302
 30
0.0
  0
SPLINE
  5
3F9
100
AcDbEntity
  8
0
100
AcDbSpline
 62
7
  6
BYLAYER
 70
0
 71
3
 72
9
 73
5
 74
0
 42
0.0000001
 43
0.0000001
 44
0.0000000001
 40
0.0
 40
0.0
 40
0.0
 40
0.0
 40
0.5255657768
 40
1.0
 40
1.0
 40
1.0
 40
1.0
 10
130.1479312442
 20
337.0564957512
 30
0.0
 10
130.1158311402
 20
337.0564956741
 30
0.0
 10
130.0545895627
 20
337.0631343105
 30
0.0
 10
129.9962493169
 20
337.0842818974
 30
0.0
 10
129.9711542441
 20
337.0987702166
 30
0.0
  0
SPLINE
  5
3FA
100
AcDbEntity
  8
0
100
AcDbSpline
 62
7
  6
BYLAYER
 70
0
 71
3
 72
9
 73
5
 74
0
 42
0.0000001
 43
0.0000001
 44
0.0000000001
 40
0.0
 40
0.0
 40
0.0
 40
0.0
 40
0.4744336899
 40
1.0
 40
1.0
 40
1.0
 40
1.0
 10
130.3247076347
 20
337.0987710665
 30
0.0
 10
130.2996127474
 20
337.084282613
 30
0.0
 10
130.2412727311
 20
337.0631347362
 30
0.0
 10
130.1800313133
 20
337.0564958284
 30
0.0
 10
130.1479312442
 20
337.0564957512
 30
0.0
  0
SPLINE
  5
3FB
100
AcDbEntity
  8
0
100
AcDbSpline
 62
7
  6
BYLAYER
 70
0
 71
3
 72
9
 73
5
 74
0
 42
0.0000001
 43
0.0000001
 44
0.0000000001
 40
0.0
 40
0.0
 40
0.0
 40
0.0
 40
0.5255663101
 40
1.0
 40
1.0
 40
1.0
 40
1.0
 10
130.9621541803
 20
337.3671555175
 30
0.0
 10
130.9086540652
 20
337.3671553889
 30
0.0
 10
130.8065850358
 20
337.3560905425
 30
0.0
 10
130.7093516754
 20
337.3208440813
 30
0.0
 10
130.6675268633
 20
337.2966966589
 30
0.0
  0
SPLINE
  5
3FC
100
AcDbEntity
  8
0
100
AcDbSpline
 62
7
  6
BYLAYER
 70
0
 71
3
 72
9
 73
5
 74
0
 42
0.0000001
 43
0.0000001
 44
0.0000000001
 40
0.0
 40
0.0
 40
0.0
 40
0.0
 40
0.4744342232
 40
1.0
 40
1.0
 40
1.0
 40
1.0
 10
131.2567825138
 20
337.2966980751
 30
0.0
 10
131.2149573925
 20
337.3208452739
 30
0.0
 10
131.1177236495
 20
337.356091252
 30
0.0
 10
131.0156543537
 20
337.3671556461
 30
0.0
 10
130.9621541803
 20
337.3671555175
 30
0.0
  0
SPLINE
  5
3FD
100
AcDbEntity
  8
0
100
AcDbSpline
 62
7
  6
BYLAYER
 70
0
 71
3
 72
9
 73
5
 74
0
 42
0.0000001
 43
0.0000001
 44
0.0000000001
 40
0.0
 40
0.0
 40
0.0
 40
0.0
 40
0.5255657768
 40
1.0
 40
1.0
 40
1.0
 40
1.0
 10
131.755043051
 20
337.068819202
 30
0.0
 10
131.722942947
 20
337.0688191249
 30
0.0
 10
131.6617013695
 20
337.0754577613
 30
0.0
 10
131.6033611237
 20
337.0966053482
 30
0.0
 10
131.5782660509
 20
337.1110936674
 30
0.0
  0
SPLINE
  5
3FE
100
AcDbEntity
  8
0
100
AcDbSpline
 62
7
  6
BYLAYER
 70
0
 71
3
 72
9
 73
5
 74
0
 42
0.0000001
 43
0.0000001
 44
0.0000000001
 40
0.0
 40
0.0
 40
0.0
 40
0.0
 40
0.4744336899
 40
1.0
 40
1.0
 40
1.0
 40
1.0
 10
131.9318194415
 20
337.1110945173
 30
0.0
 10
131.9067245542
 20
337.0966060638
 30
0.0
 10
131.8483845379
 20
337.075458187
 30
0.0
 10
131.7871431201
 20
337.0688192792
 30
0.0
 10
131.755043051
 20
337.068819202
 30
0.0
  0
SPLINE
  5
3FF
100
AcDbEntity
  8
0
100
AcDbSpline
 62
7
  6
BYLAYER
 70
0
 71
3
 72
11
 73
7
 74
0
 42
0.0000001
 43
0.0000001
 44
0.0000000001
 40
0.0
 40
0.0
 40
0.0
 40
0.0
 40
0.2177164324
 40
0.4509408358
 40
0.7102939719
 40
1.0
 40
1.0
 40
1.0
 40
1.0
 10
132.0558414053
 20
337.2424841762
 30
0.0
 10
132.0558414739
 20
337.2329650134
 30
0.0
 10
132.05231646
 20
337.2131186721
 30
0.0
 10
132.0372819373
 20
337.1854593972
 30
0.0
 10
132.0134865885
 20
337.1604661226
 30
0.0
 10
131.9935885771
 20
337.1467567315
 30
0.0
 10
131.9826188366
 20
337.1404233866
 30
0.0
  0
SPLINE
  5
400
100
AcDbEntity
  8
0
100
AcDbSpline
 62
7
  6
BYLAYER
 70
0
 71
3
 72
11
 73
7
 74
0
 42
0.0000001
 43
0.0000001
 44
0.0000000001
 40
0.0
 40
0.0
 40
0.0
 40
0.0
 40
0.2897060281
 40
0.5490591642
 40
0.7822835676
 40
1.0
 40
1.0
 40
1.0
 40
1.0
 10
131.6611313739
 20
337.8703510664
 30
0.0
 10
131.6428484731
 20
337.8597954917
 30
0.0
 10
131.6096851208
 20
337.8369465065
 30
0.0
 10
131.5700262063
 20
337.7952910489
 30
0.0
 10
131.5449686685
 20
337.7491922574
 30
0.0
 10
131.5390936453
 20
337.7161150219
 30
0.0
 10
131.5390937597
 20
337.7002497507
 30
0.0
  0
SPLINE
  5
401
100
AcDbEntity
  8
0
100
AcDbSpline
 62
7
  6
BYLAYER
 70
0
 71
3
 72
11
 73
7
 74
0
 42
0.0000001
 43
0.0000001
 44
0.0000000001
 40
0.0
 40
0.0
 40
0.0
 40
0.0
 40
0.2177164324
 40
0.4509408358
 40
0.7102939719
 40
1.0
 40
1.0
 40
1.0
 40
1.0
 10
132.0771731713
 20
338.1703374484
 30
0.0
 10
132.0771732399
 20
338.1608182856
 30
0.0
 10
132.073648226
 20
338.1409719443
 30
0.0
 10
132.0586137032
 20
338.1133126694
 30
0.0
 10
132.0348183545
 20
338.0883193948
 30
0.0
 10
132.0149203431
 20
338.0746100037
 30
0.0
 10
132.0039506025
 20
338.0682766588
 30
0.0
  0
SPLINE
  5
402
100
AcDbEntity
  8
0
100
AcDbSpline
 62
7
  6
BYLAYER
 70
0
 71
3
 72
11
 73
7
 74
0
 42
0.0000001
 43
0.0000001
 44
0.0000000001
 40
0.0
 40
0.0
 40
0.0
 40
0.0
 40
0.2897062311
 40
0.5490596185
 40
0.7822840529
 40
1.0
 40
1.0
 40
1.0
 40
1.0
 10
129.8990091003
 20
338.0805911869
 30
0.0
 10
129.8880392644
 20
338.0869244813
 30
0.0
 10
129.8681410553
 20
338.1006337786
 30
0.0
 10
129.8443453588
 20
338.1256269255
 30
0.0
 10
129.8293104419
 20
338.1532861038
 30
0.0
 10
129.8257851282
 20
338.1731324465
 30
0.0
 10
129.8257850596
 20
338.1826516245
 30
0.0
  0
SPLINE
  5
403
100
AcDbEntity
  8
0
100
AcDbSpline
 62
7
  6
BYLAYER
 70
0
 71
3
 72
11
 73
7
 74
0
 42
0.0000001
 43
0.0000001
 44
0.0000000001
 40
0.0
 40
0.0
 40
0.0
 40
0.0
 40
0.2177159471
 40
0.4509403815
 40
0.7102937689
 40
1.0
 40
1.0
 40
1.0
 40
1.0
 10
130.3852097967
 20
337.7002469771
 30
0.0
 10
130.3852096823
 20
337.7161122737
 30
0.0
 10
130.3793341596
 20
337.7491895116
 30
0.0
 10
130.3542759647
 20
337.7952881421
 30
0.0
 10
130.3146164706
 20
337.8369433869
 30
0.0
 10
130.2814527887
 20
337.8597922156
 30
0.0
 10
130.2631697289
 20
337.8703477063
 30
0.0
  0
SPLINE
  5
404
100
AcDbEntity
  8
0
100
AcDbSpline
 62
7
  6
BYLAYER
 70
0
 71
3
 72
11
 73
7
 74
0
 42
0.0000001
 43
0.0000001
 44
0.0000000001
 40
0.0
 40
0.0
 40
0.0
 40
0.0
 40
0.2897062311
 40
0.5490596185
 40
0.7822840529
 40
1.0
 40
1.0
 40
1.0
 40
1.0
 10
129.9203544259
 20
337.1280988418
 30
0.0
 10
129.9093845901
 20
337.1344321362
 30
0.0
 10
129.8894863809
 20
337.1481414335
 30
0.0
 10
129.8656906845
 20
337.1731345803
 30
0.0
 10
129.8506557675
 20
337.2007937587
 30
0.0
 10
129.8471304539
 20
337.2206401014
 30
0.0
 10
129.8471303852
 20
337.2301592794
 30
0.0
  0
SPLINE
  5
405
100
AcDbEntity
  8
0
100
AcDbSpline
 62
7
  6
BYLAYER
 70
0
 71
3
 72
10
 73
6
 74
0
 42
0.0000001
 43
0.0000001
 44
0.0000000001
 40
0.0
 40
0.0
 40
0.0
 40
0.0
 40
0.2472503589
 40
0.495188827
 40
1.0
 40
1.0
 40
1.0
 40
1.0
 10
128.5587409797
 20
337.5311400965
 30
0.0
 10
128.5951488464
 20
337.6251336078
 30
0.0
 10
128.6878827883
 20
337.8063005353
 30
0.0
 10
128.939823308
 20
338.1290111305
 30
0.0
 10
129.1887127681
 20
338.3189996073
 30
0.0
 10
129.366939604
 20
338.421901861
 30
0.0
  0
SPLINE
  5
406
100
AcDbEntity
  8
0
100
AcDbSpline
 62
7
  6
BYLAYER
 70
0
 71
3
 72
11
 73
7
 74
0
 42
0.0000001
 43
0.0000001
 44
0.0000000001
 40
0.0
 40
0.0
 40
0.0
 40
0.0
 40
0.2552218005
 40
0.5053824189
 40
0.7529302382
 40
1.0
 40
1.0
 40
1.0
 40
1.0
 10
132.5573639524
 20
338.421901861
 30
0.0
 10
132.6526541001
 20
338.3668844956
 30
0.0
 10
132.8342285695
 20
338.2447890527
 30
0.0
 10
133.0725673114
 20
338.022151655
 30
0.0
 10
133.2649021973
 20
337.7626673278
 30
0.0
 10
133.355168724
 20
337.5673385558
 30
0.0
 10
133.3889426827
 20
337.4663169375
 30
0.0
  0
SPLINE
  5
407
100
AcDbEntity
  8
0
100
AcDbSpline
 62
7
  6
BYLAYER
 70
0
 71
3
 72
13
 73
9
 74
0
 42
0.0000001
 43
0.0000001
 44
0.0000000001
 40
0.0
 40
0.0
 40
0.0
 40
0.0
 40
0.2431353558
 40
0.3705688964
 40
0.500006671
 40
0.6294430846
 40
0.7568756268
 40
1.0
 40
1.0
 40
1.0
 40
1.0
 10
129.366939604
 20
338.421901861
 30
0.0
 10
129.5996951625
 20
338.5562871875
 30
0.0
 10
129.9899357941
 20
338.7028571837
 30
0.0
 10
130.5347488774
 20
338.7990003051
 30
0.0
 10
130.9621458227
 20
338.8236649371
 30
0.0
 10
131.3895420562
 20
338.7990035669
 30
0.0
 10
131.9343400649
 20
338.7028600145
 30
0.0
 10
132.324569746
 20
338.5563026189
 30
0.0
 10
132.5573177706
 20
338.4219285242
 30
0.0
  0
SPLINE
  5
408
100
AcDbEntity
  8
0
100
AcDbSpline
 62
7
  6
BYLAYER
 70
0
 71
3
 72
9
 73
5
 74
0
 42
0.0000001
 43
0.0000001
 44
0.0000000001
 40
0.0
 40
0.0
 40
0.0
 40
0.0
 40
0.4744336899
 40
1.0
 40
1.0
 40
1.0
 40
1.0
 10
129.9498070234
 20
338.3140412834
 30
0.0
 10
129.9749019107
 20
338.3285297369
 30
0.0
 10
130.033241927
 20
338.3496776137
 30
0.0
 10
130.0944833448
 20
338.3563165215
 30
0.0
 10
130.1265834138
 20
338.3563165987
 30
0.0
  0
SPLINE
  5
409
100
AcDbEntity
  8
0
100
AcDbSpline
 62
7
  6
BYLAYER
 70
0
 71
3
 72
11
 73
7
 74
0
 42
0.0000001
 43
0.0000001
 44
0.0000000001
 40
0.0
 40
0.0
 40
0.0
 40
0.0
 40
0.2177164324
 40
0.4509408358
 40
0.7102939719
 40
1.0
 40
1.0
 40
1.0
 40
1.0
 10
129.8257850596
 20
338.1826516245
 30
0.0
 10
129.8257849909
 20
338.1921707873
 30
0.0
 10
129.8293100048
 20
338.2120171285
 30
0.0
 10
129.8443445276
 20
338.2396764035
 30
0.0
 10
129.8681398763
 20
338.2646696781
 30
0.0
 10
129.8880378877
 20
338.2783790692
 30
0.0
 10
129.8990076283
 20
338.284712414
 30
0.0
  0
SPLINE
  5
40A
100
AcDbEntity
  8
0
100
AcDbSpline
 62
7
  6
BYLAYER
 70
0
 71
3
 72
11
 73
7
 74
0
 42
0.0000001
 43
0.0000001
 44
0.0000000001
 40
0.0
 40
0.0
 40
0.0
 40
0.0
 40
0.2897062311
 40
0.5490596185
 40
0.7822840529
 40
1.0
 40
1.0
 40
1.0
 40
1.0
 10
131.9826173646
 20
337.3445446137
 30
0.0
 10
131.9935872004
 20
337.3382113193
 30
0.0
 10
132.0134854096
 20
337.3245020221
 30
0.0
 10
132.0372811061
 20
337.2995088752
 30
0.0
 10
132.052316023
 20
337.2718496969
 30
0.0
 10
132.0558413367
 20
337.2520033541
 30
0.0
 10
132.0558414053
 20
337.2424841762
 30
0.0
  0
SPLINE
  5
40B
100
AcDbEntity
  8
0
100
AcDbSpline
 62
7
  6
BYLAYER
 70
0
 71
3
 72
11
 73
7
 74
0
 42
0.0000001
 43
0.0000001
 44
0.0000000001
 40
0.0
 40
0.0
 40
0.0
 40
0.0
 40
0.2177159471
 40
0.4509403815
 40
0.7102937689
 40
1.0
 40
1.0
 40
1.0
 40
1.0
 10
131.5390937597
 20
337.7002497507
 30
0.0
 10
131.5390938741
 20
337.6843844541
 30
0.0
 10
131.5449693969
 20
337.6513072162
 30
0.0
 10
131.5700275918
 20
337.6052085856
 30
0.0
 10
131.6096870859
 20
337.5635533409
 30
0.0
 10
131.6428507678
 20
337.5407045121
 30
0.0
 10
131.6611338276
 20
337.5301490215
 30
0.0
  0
SPLINE
  5
40C
100
AcDbEntity
  8
0
100
AcDbSpline
 62
7
  6
BYLAYER
 70
0
 71
3
 72
11
 73
7
 74
0
 42
0.0000001
 43
0.0000001
 44
0.0000000001
 40
0.0
 40
0.0
 40
0.0
 40
0.0
 40
0.2897060281
 40
0.5490591642
 40
0.7822835676
 40
1.0
 40
1.0
 40
1.0
 40
1.0
 10
130.2631721825
 20
337.5301456614
 30
0.0
 10
130.2814550834
 20
337.5407012361
 30
0.0
 10
130.3146184357
 20
337.5635502212
 30
0.0
 10
130.3542773501
 20
337.6052056789
 30
0.0
 10
130.379334888
 20
337.6513044704
 30
0.0
 10
130.3852099112
 20
337.6843817058
 30
0.0
 10
130.3852097967
 20
337.7002469771
 30
0.0
  0
SPLINE
  5
40D
100
AcDbEntity
  8
0
100
AcDbSpline
 62
7
  6
BYLAYER
 70
0
 71
3
 72
11
 73
7
 74
0
 42
0.0000001
 43
0.0000001
 44
0.0000000001
 40
0.0
 40
0.0
 40
0.0
 40
0.0
 40
0.2177164324
 40
0.4509408358
 40
0.7102939719
 40
1.0
 40
1.0
 40
1.0
 40
1.0
 10
129.8471303852
 20
337.2301592794
 30
0.0
 10
129.8471303166
 20
337.2396784421
 30
0.0
 10
129.8506553305
 20
337.2595247834
 30
0.0
 10
129.8656898532
 20
337.2871840584
 30
0.0
 10
129.889485202
 20
337.312177333
 30
0.0
 10
129.9093832134
 20
337.3258867241
 30
0.0
 10
129.9203529539
 20
337.3322200689
 30
0.0
  0
SPLINE
  5
40E
100
AcDbEntity
  8
0
100
AcDbSpline
 62
7
  6
BYLAYER
 70
0
 71
3
 72
15
 73
11
 74
0
 42
0.0000001
 43
0.0000001
 44
0.0000000001
 40
0.0
 40
0.0
 40
0.0
 40
0.0
 40
0.1487761035
 40
0.2815960386
 40
0.3999294873
 40
0.5086801157
 40
0.6158070911
 40
0.7298709951
 40
0.8570482552
 40
1.0
 40
1.0
 40
1.0
 40
1.0
 10
132.0485359057
 20
336.9705285007
 30
0.0
 10
132.1308422987
 20
337.0113779337
 30
0.0
 10
132.281133411
 20
337.1010505681
 30
0.0
 10
132.4651612838
 20
337.268833499
 30
0.0
 10
132.5877545927
 20
337.4579855936
 30
0.0
 10
132.6399976732
 20
337.6620952998
 30
0.0
 10
132.6155487458
 20
337.8689504722
 30
0.0
 10
132.5176659413
 20
338.0645726844
 30
0.0
 10
132.3552174798
 20
338.2407328767
 30
0.0
 10
132.2171171382
 20
338.3365106843
 30
0.0
 10
132.1406564437
 20
338.3806542883
 30
0.0
  0
SPLINE
  5
40F
100
AcDbEntity
  8
0
100
AcDbSpline
 62
7
  6
BYLAYER
 70
0
 71
3
 72
23
 73
19
 74
0
 42
0.0000001
 43
0.0000001
 44
0.0000000001
 40
0.0
 40
0.0
 40
0.0
 40
0.0
 40
0.0665848159
 40
0.138435499
 40
0.2140597243
 40
0.2916527494
 40
0.3692459094
 40
0.4448717182
 40
0.5167179011
 40
0.5833037537
 40
0.6436821259
 40
0.6976956743
 40
0.7462777754
 40
0.7916495229
 40
0.8370216153
 40
0.8856028605
 40
0.9396219336
 40
1.0
 40
1.0
 40
1.0
 40
1.0
 10
132.1406564437
 20
338.3806542883
 30
0.0
 10
132.0599807603
 20
338.427231362
 30
0.0
 10
131.8835599079
 20
338.5093792683
 30
0.0
 10
131.5962754966
 20
338.5967026422
 30
0.0
 10
131.2852390277
 20
338.6504406511
 30
0.0
 10
130.9621500086
 20
338.6685783148
 30
0.0
 10
130.6390512633
 20
338.6504372339
 30
0.0
 10
130.3280410766
 20
338.5967011663
 30
0.0
 10
130.0406884301
 20
338.5093447347
 30
0.0
 10
129.7875601302
 20
338.3914907991
 30
0.0
 10
129.5778355655
 20
338.2470760418
 30
0.0
 10
129.4192667736
 20
338.0804037538
 30
0.0
 10
129.3189331863
 20
337.8959438857
 30
0.0
 10
129.2841769754
 20
337.7002541974
 30
0.0
 10
129.3189253097
 20
337.5045677425
 30
0.0
 10
129.4192588844
 20
337.3200867648
 30
0.0
 10
129.5777890012
 20
337.1534416569
 30
0.0
 10
129.7104916688
 20
337.0620777993
 30
0.0
 10
129.7836471128
 20
337.0198424395
 30
0.0
  0
SPLINE
  5
410
100
AcDbEntity
  8
0
100
AcDbSpline
 62
7
  6
BYLAYER
 70
0
 71
3
 72
11
 73
7
 74
0
 42
0.0000001
 43
0.0000001
 44
0.0000000001
 40
0.0
 40
0.0
 40
0.0
 40
0.0
 40
0.2897062311
 40
0.5490596185
 40
0.7822840529
 40
1.0
 40
1.0
 40
1.0
 40
1.0
 10
132.0039491306
 20
338.2723978859
 30
0.0
 10
132.0149189664
 20
338.2660645915
 30
0.0
 10
132.0348171755
 20
338.2523552943
 30
0.0
 10
132.058612872
 20
338.2273621474
 30
0.0
 10
132.073647789
 20
338.1997029691
 30
0.0
 10
132.0771731026
 20
338.1798566263
 30
0.0
 10
132.0771731713
 20
338.1703374484
 30
0.0
  0
SPLINE
  5
411
100
AcDbEntity
  8
0
100
AcDbSpline
 62
7
  6
BYLAYER
 70
0
 71
3
 72
9
 73
5
 74
0
 42
0.0000001
 43
0.0000001
 44
0.0000000001
 40
0.0
 40
0.0
 40
0.0
 40
0.0
 40
0.5255657768
 40
1.0
 40
1.0
 40
1.0
 40
1.0
 10
131.7763723123
 20
338.3440009765
 30
0.0
 10
131.8084724163
 20
338.3440010537
 30
0.0
 10
131.8697139938
 20
338.3373624172
 30
0.0
 10
131.9280542396
 20
338.3162148304
 30
0.0
 10
131.9531493124
 20
338.3017265111
 30
0.0
  0
SPLINE
  5
412
100
AcDbEntity
  8
0
100
AcDbSpline
 62
7
  6
BYLAYER
 70
0
 71
3
 72
9
 73
5
 74
0
 42
0.0000001
 43
0.0000001
 44
0.0000000001
 40
0.0
 40
0.0
 40
0.0
 40
0.0
 40
0.4744336899
 40
1.0
 40
1.0
 40
1.0
 40
1.0
 10
131.5995959218
 20
338.3017256613
 30
0.0
 10
131.6246908091
 20
338.3162141147
 30
0.0
 10
131.6830308254
 20
338.3373619915
 30
0.0
 10
131.7442722432
 20
338.3440008994
 30
0.0
 10
131.7763723123
 20
338.3440009765
 30
0.0
  0
SPLINE
  5
413
100
AcDbEntity
  8
0
100
AcDbSpline
 62
7
  6
BYLAYER
 70
0
 71
3
 72
9
 73
5
 74
0
 42
0.0000001
 43
0.0000001
 44
0.0000000001
 40
0.0
 40
0.0
 40
0.0
 40
0.0
 40
0.5255663101
 40
1.0
 40
1.0
 40
1.0
 40
1.0
 10
130.9621493762
 20
338.0333412103
 30
0.0
 10
131.0156494913
 20
338.0333413389
 30
0.0
 10
131.1177185207
 20
338.0444061852
 30
0.0
 10
131.2149518811
 20
338.0796526465
 30
0.0
 10
131.2567766932
 20
338.1038000688
 30
0.0
  0
SPLINE
  5
414
100
AcDbEntity
  8
0
100
AcDbSpline
 62
7
  6
BYLAYER
 70
0
 71
3
 72
9
 73
5
 74
0
 42
0.0000001
 43
0.0000001
 44
0.0000000001
 40
0.0
 40
0.0
 40
0.0
 40
0.0
 40
0.4744342232
 40
1.0
 40
1.0
 40
1.0
 40
1.0
 10
130.6675210426
 20
338.1037986526
 30
0.0
 10
130.709346164
 20
338.0796514538
 30
0.0
 10
130.806579907
 20
338.0444054757
 30
0.0
 10
130.9086492028
 20
338.0333410817
 30
0.0
 10
130.9621493762
 20
338.0333412103
 30
0.0
  0
SPLINE
  5
415
100
AcDbEntity
  8
0
100
AcDbSpline
 62
7
  6
BYLAYER
 70
0
 71
3
 72
9
 73
5
 74
0
 42
0.0000001
 43
0.0000001
 44
0.0000000001
 40
0.0
 40
0.0
 40
0.0
 40
0.0
 40
0.5255657768
 40
1.0
 40
1.0
 40
1.0
 40
1.0
 10
130.1265834138
 20
338.3563165987
 30
0.0
 10
130.1586835179
 20
338.3563166758
 30
0.0
 10
130.2199250954
 20
338.3496780394
 30
0.0
 10
130.2782653412
 20
338.3285304525
 30
0.0
 10
130.303360414
 20
338.3140421333
 30
0.0
  0
SPLINE
  5
416
100
AcDbEntity
  8
0
100
AcDbSpline
 62
7
  6
BYLAYER
 70
0
 71
3
 72
9
 73
5
 74
0
 42
0.0000001
 43
0.0000001
 44
0.0000000001
 40
0.0
 40
0.0
 40
0.0
 40
0.0
 40
0.5255657768
 40
1.0
 40
1.0
 40
1.0
 40
1.0
 10
145.7043451975
 20
328.0538886596
 30
0.0
 10
145.6722450934
 20
328.0538885824
 30
0.0
 10
145.6110035159
 20
328.0605272188
 30
0.0
 10
145.5526632701
 20
328.0816748057
 30
0.0
 10
145.5275681973
 20
328.096163125
 30
0.0
  0
SPLINE
  5
417
100
AcDbEntity
  8
0
100
AcDbSpline
 62
7
  6
BYLAYER
 70
0
 71
3
 72
9
 73
5
 74
0
 42
0.0000001
 43
0.0000001
 44
0.0000000001
 40
0.0
 40
0.0
 40
0.0
 40
0.0
 40
0.4744336899
 40
1.0
 40
1.0
 40
1.0
 40
1.0
 10
145.8811215879
 20
328.0961639748
 30
0.0
 10
145.8560267006
 20
328.0816755214
 30
0.0
 10
145.7976866843
 20
328.0605276446
 30
0.0
 10
145.7364452665
 20
328.0538887367
 30
0.0
 10
145.7043451975
 20
328.0538886596
 30
0.0
  0
SPLINE
  5
418
100
AcDbEntity
  8
0
100
AcDbSpline
 62
7
  6
BYLAYER
 70
0
 71
3
 72
9
 73
5
 74
0
 42
0.0000001
 43
0.0000001
 44
0.0000000001
 40
0.0
 40
0.0
 40
0.0
 40
0.0
 40
0.5255663101
 40
1.0
 40
1.0
 40
1.0
 40
1.0
 10
146.5185681335
 20
328.3645484258
 30
0.0
 10
146.4650680185
 20
328.3645482972
 30
0.0
 10
146.362998989
 20
328.3534834508
 30
0.0
 10
146.2657656286
 20
328.3182369896
 30
0.0
 10
146.2239408165
 20
328.2940895673
 30
0.0
  0
SPLINE
  5
419
100
AcDbEntity
  8
0
100
AcDbSpline
 62
7
  6
BYLAYER
 70
0
 71
3
 72
9
 73
5
 74
0
 42
0.0000001
 43
0.0000001
 44
0.0000000001
 40
0.0
 40
0.0
 40
0.0
 40
0.0
 40
0.4744342232
 40
1.0
 40
1.0
 40
1.0
 40
1.0
 10
146.8131964671
 20
328.2940909835
 30
0.0
 10
146.7713713458
 20
328.3182381822
 30
0.0
 10
146.6741376027
 20
328.3534841603
 30
0.0
 10
146.5720683069
 20
328.3645485544
 30
0.0
 10
146.5185681335
 20
328.3645484258
 30
0.0
  0
SPLINE
  5
41A
100
AcDbEntity
  8
0
100
AcDbSpline
 62
7
  6
BYLAYER
 70
0
 71
3
 72
9
 73
5
 74
0
 42
0.0000001
 43
0.0000001
 44
0.0000000001
 40
0.0
 40
0.0
 40
0.0
 40
0.0
 40
0.5255657768
 40
1.0
 40
1.0
 40
1.0
 40
1.0
 10
147.3114570043
 20
328.0662121104
 30
0.0
 10
147.2793569002
 20
328.0662120332
 30
0.0
 10
147.2181153227
 20
328.0728506696
 30
0.0
 10
147.1597750769
 20
328.0939982565
 30
0.0
 10
147.1346800041
 20
328.1084865758
 30
0.0
  0
SPLINE
  5
41B
100
AcDbEntity
  8
0
100
AcDbSpline
 62
7
  6
BYLAYER
 70
0
 71
3
 72
9
 73
5
 74
0
 42
0.0000001
 43
0.0000001
 44
0.0000000001
 40
0.0
 40
0.0
 40
0.0
 40
0.0
 40
0.4744336899
 40
1.0
 40
1.0
 40
1.0
 40
1.0
 10
147.4882333947
 20
328.1084874256
 30
0.0
 10
147.4631385074
 20
328.0939989722
 30
0.0
 10
147.4047984911
 20
328.0728510954
 30
0.0
 10
147.3435570733
 20
328.0662121875
 30
0.0
 10
147.3114570043
 20
328.0662121104
 30
0.0
  0
SPLINE
  5
41C
100
AcDbEntity
  8
0
100
AcDbSpline
 62
7
  6
BYLAYER
 70
0
 71
3
 72
11
 73
7
 74
0
 42
0.0000001
 43
0.0000001
 44
0.0000000001
 40
0.0
 40
0.0
 40
0.0
 40
0.0
 40
0.2177164324
 40
0.4509408358
 40
0.7102939719
 40
1.0
 40
1.0
 40
1.0
 40
1.0
 10
147.6122553585
 20
328.2398770845
 30
0.0
 10
147.6122554272
 20
328.2303579218
 30
0.0
 10
147.6087304133
 20
328.2105115805
 30
0.0
 10
147.5936958905
 20
328.1828523055
 30
0.0
 10
147.5699005418
 20
328.1578590309
 30
0.0
 10
147.5500025304
 20
328.1441496398
 30
0.0
 10
147.5390327898
 20
328.137816295
 30
0.0
  0
SPLINE
  5
41D
100
AcDbEntity
  8
0
100
AcDbSpline
 62
7
  6
BYLAYER
 70
0
 71
3
 72
11
 73
7
 74
0
 42
0.0000001
 43
0.0000001
 44
0.0000000001
 40
0.0
 40
0.0
 40
0.0
 40
0.0
 40
0.2897060281
 40
0.5490591642
 40
0.7822835676
 40
1.0
 40
1.0
 40
1.0
 40
1.0
 10
147.2175453272
 20
328.8677439747
 30
0.0
 10
147.1992624263
 20
328.8571884
 30
0.0
 10
147.166099074
 20
328.8343394149
 30
0.0
 10
147.1264401596
 20
328.7926839572
 30
0.0
 10
147.1013826217
 20
328.7465851657
 30
0.0
 10
147.0955075986
 20
328.7135079303
 30
0.0
 10
147.095507713
 20
328.697642659
 30
0.0
  0
SPLINE
  5
41E
100
AcDbEntity
  8
0
100
AcDbSpline
 62
7
  6
BYLAYER
 70
0
 71
3
 72
11
 73
7
 74
0
 42
0.0000001
 43
0.0000001
 44
0.0000000001
 40
0.0
 40
0.0
 40
0.0
 40
0.0
 40
0.2177164324
 40
0.4509408358
 40
0.7102939719
 40
1.0
 40
1.0
 40
1.0
 40
1.0
 10
147.6335871245
 20
329.1677303567
 30
0.0
 10
147.6335871931
 20
329.158211194
 30
0.0
 10
147.6300621792
 20
329.1383648527
 30
0.0
 10
147.6150276565
 20
329.1107055777
 30
0.0
 10
147.5912323077
 20
329.0857123031
 30
0.0
 10
147.5713342963
 20
329.072002912
 30
0.0
 10
147.5603645558
 20
329.0656695672
 30
0.0
  0
SPLINE
  5
41F
100
AcDbEntity
  8
0
100
AcDbSpline
 62
7
  6
BYLAYER
 70
0
 71
3
 72
11
 73
7
 74
0
 42
0.0000001
 43
0.0000001
 44
0.0000000001
 40
0.0
 40
0.0
 40
0.0
 40
0.0
 40
0.2897062311
 40
0.5490596185
 40
0.7822840529
 40
1.0
 40
1.0
 40
1.0
 40
1.0
 10
145.4554230535
 20
329.0779840953
 30
0.0
 10
145.4444532176
 20
329.0843173897
 30
0.0
 10
145.4245550085
 20
329.0980266869
 30
0.0
 10
145.400759312
 20
329.1230198338
 30
0.0
 10
145.3857243951
 20
329.1506790121
 30
0.0
 10
145.3821990814
 20
329.1705253549
 30
0.0
 10
145.3821990128
 20
329.1800445328
 30
0.0
  0
SPLINE
  5
420
100
AcDbEntity
  8
0
100
AcDbSpline
 62
7
  6
BYLAYER
 70
0
 71
3
 72
11
 73
7
 74
0
 42
0.0000001
 43
0.0000001
 44
0.0000000001
 40
0.0
 40
0.0
 40
0.0
 40
0.0
 40
0.2177159471
 40
0.4509403815
 40
0.7102937689
 40
1.0
 40
1.0
 40
1.0
 40
1.0
 10
145.94162375
 20
328.6976398854
 30
0.0
 10
145.9416236356
 20
328.713505182
 30
0.0
 10
145.9357481128
 20
328.7465824199
 30
0.0
 10
145.9106899179
 20
328.7926810505
 30
0.0
 10
145.8710304238
 20
328.8343362952
 30
0.0
 10
145.8378667419
 20
328.857185124
 30
0.0
 10
145.8195836822
 20
328.8677406146
 30
0.0
  0
SPLINE
  5
421
100
AcDbEntity
  8
0
100
AcDbSpline
 62
7
  6
BYLAYER
 70
0
 71
3
 72
11
 73
7
 74
0
 42
0.0000001
 43
0.0000001
 44
0.0000000001
 40
0.0
 40
0.0
 40
0.0
 40
0.0
 40
0.2897062311
 40
0.5490596185
 40
0.7822840529
 40
1.0
 40
1.0
 40
1.0
 40
1.0
 10
145.4767683792
 20
328.1254917501
 30
0.0
 10
145.4657985433
 20
328.1318250445
 30
0.0
 10
145.4459003342
 20
328.1455343418
 30
0.0
 10
145.4221046377
 20
328.1705274886
 30
0.0
 10
145.4070697208
 20
328.198186667
 30
0.0
 10
145.4035444071
 20
328.2180330097
 30
0.0
 10
145.4035443385
 20
328.2275521877
 30
0.0
  0
SPLINE
  5
422
100
AcDbEntity
  8
0
100
AcDbSpline
 62
7
  6
BYLAYER
 70
0
 71
3
 72
14
 73
10
 74
0
 42
0.0000001
 43
0.0000001
 44
0.0000000001
 40
0.0
 40
0.0
 40
0.0
 40
0.0
 40
0.0973327373
 40
0.1988068215
 40
0.3077575286
 40
0.4263048634
 40
0.5553506723
 40
0.694769512
 40
1.0
 40
1.0
 40
1.0
 40
1.0
 10
149.0185586923
 20
327.3368039382
 30
0.0
 10
149.0185520138
 20
327.2644972759
 30
0.0
 10
148.9989008382
 20
327.1161600093
 30
0.0
 10
148.9124923355
 20
326.9022754865
 30
0.0
 10
148.7724383856
 20
326.699900367
 30
0.0
 10
148.5828276133
 20
326.5131321561
 30
0.0
 10
148.3481130636
 20
326.3453211825
 30
0.0
 10
147.9707244303
 20
326.145366455
 30
0.0
 10
147.6531342457
 20
326.043365056
 30
0.0
 10
147.4319928976
 20
325.9932445468
 30
0.0
  0
SPLINE
  5
423
100
AcDbEntity
  8
0
100
AcDbSpline
 62
7
  6
BYLAYER
 70
0
 71
3
 72
10
 73
6
 74
0
 42
0.0000001
 43
0.0000001
 44
0.0000000001
 40
0.0
 40
0.0
 40
0.0
 40
0.0
 40
0.2473292689
 40
0.4952676752
 40
1.0
 40
1.0
 40
1.0
 40
1.0
 10
144.1063534731
 20
328.505228245
 30
0.0
 10
144.1418822894
 20
328.6017635286
 30
0.0
 10
144.233872767
 20
328.7880378595
 30
0.0
 10
144.4879405991
 20
329.1196831836
 30
0.0
 10
144.7415577627
 20
329.3143319174
 30
0.0
 10
144.9233535572
 20
329.4192947693
 30
0.0
  0
SPLINE
  5
424
100
AcDbEntity
  8
0
100
AcDbSpline
 62
7
  6
BYLAYER
 70
0
 71
3
 72
13
 73
9
 74
0
 42
0.0000001
 43
0.0000001
 44
0.0000000001
 40
0.0
 40
0.0
 40
0.0
 40
0.0
 40
0.2547136527
 40
0.5036455312
 40
0.6276145894
 40
0.7516483046
 40
0.8756553856
 40
1.0
 40
1.0
 40
1.0
 40
1.0
 10
148.1137779056
 20
329.4192947693
 30
0.0
 10
148.2422256807
 20
329.3451332915
 30
0.0
 10
148.4835699937
 20
329.1745211648
 30
0.0
 10
148.729467577
 20
328.898696676
 30
0.0
 10
148.875419198
 20
328.6478504776
 30
0.0
 10
148.9567658602
 20
328.4462146582
 30
0.0
 10
149.007224048
 20
328.2345036832
 30
0.0
 10
149.0185657314
 20
328.0896284676
 30
0.0
 10
149.0185657314
 20
328.0172225912
 30
0.0
  0
SPLINE
  5
425
100
AcDbEntity
  8
0
100
AcDbSpline
 62
7
  6
BYLAYER
 70
0
 71
3
 72
13
 73
9
 74
0
 42
0.0000001
 43
0.0000001
 44
0.0000000001
 40
0.0
 40
0.0
 40
0.0
 40
0.0
 40
0.2431353558
 40
0.3705688964
 40
0.500006671
 40
0.6294430846
 40
0.7568756268
 40
1.0
 40
1.0
 40
1.0
 40
1.0
 10
144.9233535572
 20
329.4192947693
 30
0.0
 10
145.1561091157
 20
329.5536800957
 30
0.0
 10
145.5463497473
 20
329.7002500919
 30
0.0
 10
146.0911628307
 20
329.7963932133
 30
0.0
 10
146.5185597759
 20
329.8210578454
 30
0.0
 10
146.9459560094
 20
329.7963964752
 30
0.0
 10
147.4907540181
 20
329.7002529227
 30
0.0
 10
147.8809836992
 20
329.5536955272
 30
0.0
 10
148.1137317239
 20
329.4193214324
 30
0.0
  0
SPLINE
  5
426
100
AcDbEntity
  8
0
100
AcDbSpline
 62
7
  6
BYLAYER
 70
0
 71
3
 72
9
 73
5
 74
0
 42
0.0000001
 43
0.0000001
 44
0.0000000001
 40
0.0
 40
0.0
 40
0.0
 40
0.0
 40
0.4744336899
 40
1.0
 40
1.0
 40
1.0
 40
1.0
 10
145.5062209766
 20
329.3114341917
 30
0.0
 10
145.5313158639
 20
329.3259226452
 30
0.0
 10
145.5896558802
 20
329.347070522
 30
0.0
 10
145.650897298
 20
329.3537094298
 30
0.0
 10
145.6829973671
 20
329.353709507
 30
0.0
  0
SPLINE
  5
427
100
AcDbEntity
  8
0
100
AcDbSpline
 62
7
  6
BYLAYER
 70
0
 71
3
 72
11
 73
7
 74
0
 42
0.0000001
 43
0.0000001
 44
0.0000000001
 40
0.0
 40
0.0
 40
0.0
 40
0.0
 40
0.2177164324
 40
0.4509408358
 40
0.7102939719
 40
1.0
 40
1.0
 40
1.0
 40
1.0
 10
145.3821990128
 20
329.1800445328
 30
0.0
 10
145.3821989442
 20
329.1895636956
 30
0.0
 10
145.3857239581
 20
329.2094100369
 30
0.0
 10
145.4007584808
 20
329.2370693118
 30
0.0
 10
145.4245538296
 20
329.2620625864
 30
0.0
 10
145.444451841
 20
329.2757719775
 30
0.0
 10
145.4554215815
 20
329.2821053224
 30
0.0
  0
SPLINE
  5
428
100
AcDbEntity
  8
0
100
AcDbSpline
 62
7
  6
BYLAYER
 70
0
 71
3
 72
11
 73
7
 74
0
 42
0.0000001
 43
0.0000001
 44
0.0000000001
 40
0.0
 40
0.0
 40
0.0
 40
0.0
 40
0.2897062311
 40
0.5490596185
 40
0.7822840529
 40
1.0
 40
1.0
 40
1.0
 40
1.0
 10
147.5390313178
 20
328.3419375221
 30
0.0
 10
147.5500011537
 20
328.3356042277
 30
0.0
 10
147.5698993628
 20
328.3218949304
 30
0.0
 10
147.5936950593
 20
328.2969017836
 30
0.0
 10
147.6087299762
 20
328.2692426052
 30
0.0
 10
147.6122552899
 20
328.2493962625
 30
0.0
 10
147.6122553585
 20
328.2398770845
 30
0.0
  0
SPLINE
  5
429
100
AcDbEntity
  8
0
100
AcDbSpline
 62
7
  6
BYLAYER
 70
0
 71
3
 72
11
 73
7
 74
0
 42
0.0000001
 43
0.0000001
 44
0.0000000001
 40
0.0
 40
0.0
 40
0.0
 40
0.0
 40
0.2177159471
 40
0.4509403815
 40
0.7102937689
 40
1.0
 40
1.0
 40
1.0
 40
1.0
 10
147.095507713
 20
328.697642659
 30
0.0
 10
147.0955078274
 20
328.6817773624
 30
0.0
 10
147.1013833501
 20
328.6487001245
 30
0.0
 10
147.126441545
 20
328.602601494
 30
0.0
 10
147.1661010392
 20
328.5609462492
 30
0.0
 10
147.1992647211
 20
328.5380974204
 30
0.0
 10
147.2175477808
 20
328.5275419298
 30
0.0
  0
SPLINE
  5
42A
100
AcDbEntity
  8
0
100
AcDbSpline
 62
7
  6
BYLAYER
 70
0
 71
3
 72
11
 73
7
 74
0
 42
0.0000001
 43
0.0000001
 44
0.0000000001
 40
0.0
 40
0.0
 40
0.0
 40
0.0
 40
0.2897060281
 40
0.5490591642
 40
0.7822835676
 40
1.0
 40
1.0
 40
1.0
 40
1.0
 10
145.8195861358
 20
328.5275385697
 30
0.0
 10
145.8378690366
 20
328.5380941444
 30
0.0
 10
145.8710323889
 20
328.5609431296
 30
0.0
 10
145.9106913034
 20
328.6025985872
 30
0.0
 10
145.9357488412
 20
328.6486973787
 30
0.0
 10
145.9416238644
 20
328.6817746141
 30
0.0
 10
145.94162375
 20
328.6976398854
 30
0.0
  0
SPLINE
  5
42B
100
AcDbEntity
  8
0
100
AcDbSpline
 62
7
  6
BYLAYER
 70
0
 71
3
 72
11
 73
7
 74
0
 42
0.0000001
 43
0.0000001
 44
0.0000000001
 40
0.0
 40
0.0
 40
0.0
 40
0.0
 40
0.2177164324
 40
0.4509408358
 40
0.7102939719
 40
1.0
 40
1.0
 40
1.0
 40
1.0
 10
145.4035443385
 20
328.2275521877
 30
0.0
 10
145.4035442698
 20
328.2370713505
 30
0.0
 10
145.4070692837
 20
328.2569176917
 30
0.0
 10
145.4221038065
 20
328.2845769667
 30
0.0
 10
145.4458991552
 20
328.3095702413
 30
0.0
 10
145.4657971666
 20
328.3232796324
 30
0.0
 10
145.4767669072
 20
328.3296129772
 30
0.0
  0
SPLINE
  5
42C
100
AcDbEntity
  8
0
100
AcDbSpline
 62
7
  6
BYLAYER
 70
0
 71
3
 72
23
 73
19
 74
0
 42
0.0000001
 43
0.0000001
 44
0.0000000001
 40
0.0
 40
0.0
 40
0.0
 40
0.0
 40
0.0665848159
 40
0.138435499
 40
0.2140597243
 40
0.2916527494
 40
0.3692459094
 40
0.4448717182
 40
0.5167179011
 40
0.5833037537
 40
0.6436821259
 40
0.6976956743
 40
0.7462777754
 40
0.7916495229
 40
0.8370216153
 40
0.8856028605
 40
0.9396219336
 40
1.0
 40
1.0
 40
1.0
 40
1.0
 10
145.340061066
 20
328.0172353479
 30
0.0
 10
145.4207367493
 20
327.9706582741
 30
0.0
 10
145.5971576018
 20
327.8885103678
 30
0.0
 10
145.884442013
 20
327.8011869939
 30
0.0
 10
146.1954784819
 20
327.747448985
 30
0.0
 10
146.5185675011
 20
327.7293113213
 30
0.0
 10
146.8416662464
 20
327.7474524023
 30
0.0
 10
147.152676433
 20
327.8011884699
 30
0.0
 10
147.4400290795
 20
327.8885449014
 30
0.0
 10
147.6931573795
 20
328.0063988371
 30
0.0
 10
147.9028819441
 20
328.1508135943
 30
0.0
 10
148.061450736
 20
328.3174858823
 30
0.0
 10
148.1617843234
 20
328.5019457504
 30
0.0
 10
148.1965405342
 20
328.6976354387
 30
0.0
 10
148.1617922
 20
328.8933218936
 30
0.0
 10
148.0614586253
 20
329.0778028713
 30
0.0
 10
147.9029285085
 20
329.2444479792
 30
0.0
 10
147.7702258408
 20
329.3358118368
 30
0.0
 10
147.6970703969
 20
329.3780471966
 30
0.0
  0
SPLINE
  5
42D
100
AcDbEntity
  8
0
100
AcDbSpline
 62
7
  6
BYLAYER
 70
0
 71
3
 72
14
 73
10
 74
0
 42
0.0000001
 43
0.0000001
 44
0.0000000001
 40
0.0
 40
0.0
 40
0.0
 40
0.0
 40
0.3063681254
 40
0.4466953873
 40
0.5764293433
 40
0.6951814061
 40
0.8036988856
 40
0.9041170767
 40
1.0
 40
1.0
 40
1.0
 40
1.0
 10
147.2697114884
 20
326.6405584137
 30
0.0
 10
147.5102283946
 20
326.684295689
 30
0.0
 10
147.8571972326
 20
326.7804672734
 30
0.0
 10
148.272542938
 20
326.9803414762
 30
0.0
 10
148.5324120278
 20
327.1518943639
 30
0.0
 10
148.7432349242
 20
327.3455882219
 30
0.0
 10
148.8995838441
 20
327.5576102423
 30
0.0
 10
148.9964384911
 20
327.7833236684
 30
0.0
 10
149.0185542643
 20
327.9407144208
 30
0.0
 10
149.0185610611
 20
328.0172225914
 30
0.0
  0
SPLINE
  5
42E
100
AcDbEntity
  8
0
100
AcDbSpline
 62
7
  6
BYLAYER
 70
0
 71
3
 72
23
 73
19
 74
0
 42
0.0000001
 43
0.0000001
 44
0.0000000001
 40
0.0
 40
0.0
 40
0.0
 40
0.0
 40
0.0665848159
 40
0.138435499
 40
0.2140597243
 40
0.2916527494
 40
0.3692459094
 40
0.4448717182
 40
0.5167179011
 40
0.5833037537
 40
0.6436821259
 40
0.6976956743
 40
0.7462777754
 40
0.7916495229
 40
0.8370216153
 40
0.8856028605
 40
0.9396219336
 40
1.0
 40
1.0
 40
1.0
 40
1.0
 10
147.6970703969
 20
329.3780471966
 30
0.0
 10
147.6163947136
 20
329.4246242704
 30
0.0
 10
147.4399738611
 20
329.5067721766
 30
0.0
 10
147.1526894498
 20
329.5940955505
 30
0.0
 10
146.841652981
 20
329.6478335595
 30
0.0
 10
146.5185639618
 20
329.6659712231
 30
0.0
 10
146.1954652165
 20
329.6478301422
 30
0.0
 10
145.8844550299
 20
329.5940940746
 30
0.0
 10
145.5971023833
 20
329.506737643
 30
0.0
 10
145.3439740834
 20
329.3888837074
 30
0.0
 10
145.1342495188
 20
329.2444689502
 30
0.0
 10
144.9756807268
 20
329.0777966622
 30
0.0
 10
144.8753471395
 20
328.8933367941
 30
0.0
 10
144.8405909287
 20
328.6976471058
 30
0.0
 10
144.8753392629
 20
328.5019606509
 30
0.0
 10
144.9756728376
 20
328.3174796731
 30
0.0
 10
145.1342029544
 20
328.1508345652
 30
0.0
 10
145.2669056221
 20
328.0594707076
 30
0.0
 10
145.340061066
 20
328.0172353479
 30
0.0
  0
SPLINE
  5
42F
100
AcDbEntity
  8
0
100
AcDbSpline
 62
7
  6
BYLAYER
 70
0
 71
3
 72
11
 73
7
 74
0
 42
0.0000001
 43
0.0000001
 44
0.0000000001
 40
0.0
 40
0.0
 40
0.0
 40
0.0
 40
0.2897062311
 40
0.5490596185
 40
0.7822840529
 40
1.0
 40
1.0
 40
1.0
 40
1.0
 10
147.5603630838
 20
329.2697907943
 30
0.0
 10
147.5713329196
 20
329.2634574999
 30
0.0
 10
147.5912311288
 20
329.2497482026
 30
0.0
 10
147.6150268252
 20
329.2247550558
 30
0.0
 10
147.6300617422
 20
329.1970958774
 30
0.0
 10
147.6335870558
 20
329.1772495347
 30
0.0
 10
147.6335871245
 20
329.1677303567
 30
0.0
  0
SPLINE
  5
430
100
AcDbEntity
  8
0
100
AcDbSpline
 62
7
  6
BYLAYER
 70
0
 71
3
 72
9
 73
5
 74
0
 42
0.0000001
 43
0.0000001
 44
0.0000000001
 40
0.0
 40
0.0
 40
0.0
 40
0.0
 40
0.5255657768
 40
1.0
 40
1.0
 40
1.0
 40
1.0
 10
147.3327862655
 20
329.3413938849
 30
0.0
 10
147.3648863695
 20
329.341393962
 30
0.0
 10
147.426127947
 20
329.3347553256
 30
0.0
 10
147.4844681929
 20
329.3136077387
 30
0.0
 10
147.5095632656
 20
329.2991194195
 30
0.0
  0
SPLINE
  5
431
100
AcDbEntity
  8
0
100
AcDbSpline
 62
7
  6
BYLAYER
 70
0
 71
3
 72
9
 73
5
 74
0
 42
0.0000001
 43
0.0000001
 44
0.0000000001
 40
0.0
 40
0.0
 40
0.0
 40
0.0
 40
0.4744336899
 40
1.0
 40
1.0
 40
1.0
 40
1.0
 10
147.1560098751
 20
329.2991185696
 30
0.0
 10
147.1811047623
 20
329.3136070231
 30
0.0
 10
147.2394447787
 20
329.3347548999
 30
0.0
 10
147.3006861964
 20
329.3413938077
 30
0.0
 10
147.3327862655
 20
329.3413938849
 30
0.0
  0
SPLINE
  5
432
100
AcDbEntity
  8
0
100
AcDbSpline
 62
7
  6
BYLAYER
 70
0
 71
3
 72
9
 73
5
 74
0
 42
0.0000001
 43
0.0000001
 44
0.0000000001
 40
0.0
 40
0.0
 40
0.0
 40
0.0
 40
0.5255663101
 40
1.0
 40
1.0
 40
1.0
 40
1.0
 10
146.5185633295
 20
329.0307341186
 30
0.0
 10
146.5720634445
 20
329.0307342472
 30
0.0
 10
146.674132474
 20
329.0417990936
 30
0.0
 10
146.7713658344
 20
329.0770455548
 30
0.0
 10
146.8131906464
 20
329.1011929772
 30
0.0
  0
SPLINE
  5
433
100
AcDbEntity
  8
0
100
AcDbSpline
 62
7
  6
BYLAYER
 70
0
 71
3
 72
9
 73
5
 74
0
 42
0.0000001
 43
0.0000001
 44
0.0000000001
 40
0.0
 40
0.0
 40
0.0
 40
0.0
 40
0.4744342232
 40
1.0
 40
1.0
 40
1.0
 40
1.0
 10
146.2239349959
 20
329.1011915609
 30
0.0
 10
146.2657601172
 20
329.0770443622
 30
0.0
 10
146.3629938602
 20
329.0417983841
 30
0.0
 10
146.465063156
 20
329.03073399
 30
0.0
 10
146.5185633295
 20
329.0307341186
 30
0.0
  0
SPLINE
  5
434
100
AcDbEntity
  8
0
100
AcDbSpline
 62
7
  6
BYLAYER
 70
0
 71
3
 72
9
 73
5
 74
0
 42
0.0000001
 43
0.0000001
 44
0.0000000001
 40
0.0
 40
0.0
 40
0.0
 40
0.0
 40
0.5255657768
 40
1.0
 40
1.0
 40
1.0
 40
1.0
 10
145.6829973671
 20
329.353709507
 30
0.0
 10
145.7150974711
 20
329.3537095841
 30
0.0
 10
145.7763390486
 20
329.3470709477
 30
0.0
 10
145.8346792944
 20
329.3259233608
 30
0.0
 10
145.8597743672
 20
329.3114350416
 30
0.0
  0
SPLINE
  5
435
100
AcDbEntity
  8
0
100
AcDbSpline
 62
7
  6
BYLAYER
 70
0
 71
3
 72
9
 73
5
 74
0
 42
0.0000001
 43
0.0000001
 44
0.0000000001
 40
0.0
 40
0.0
 40
0.0
 40
0.0
 40
0.5255657768
 40
1.0
 40
1.0
 40
1.0
 40
1.0
 10
114.5916468255
 20
328.0751243661
 30
0.0
 10
114.5595467215
 20
328.0751242889
 30
0.0
 10
114.498305144
 20
328.0817629253
 30
0.0
 10
114.4399648982
 20
328.1029105122
 30
0.0
 10
114.4148698254
 20
328.1173988315
 30
0.0
  0
SPLINE
  5
436
100
AcDbEntity
  8
0
100
AcDbSpline
 62
7
  6
BYLAYER
 70
0
 71
3
 72
9
 73
5
 74
0
 42
0.0000001
 43
0.0000001
 44
0.0000000001
 40
0.0
 40
0.0
 40
0.0
 40
0.0
 40
0.4744336899
 40
1.0
 40
1.0
 40
1.0
 40
1.0
 10
114.768423216
 20
328.1173996813
 30
0.0
 10
114.7433283287
 20
328.1029112278
 30
0.0
 10
114.6849883124
 20
328.0817633511
 30
0.0
 10
114.6237468946
 20
328.0751244432
 30
0.0
 10
114.5916468255
 20
328.0751243661
 30
0.0
  0
SPLINE
  5
437
100
AcDbEntity
  8
0
100
AcDbSpline
 62
7
  6
BYLAYER
 70
0
 71
3
 72
9
 73
5
 74
0
 42
0.0000001
 43
0.0000001
 44
0.0000000001
 40
0.0
 40
0.0
 40
0.0
 40
0.0
 40
0.5255663101
 40
1.0
 40
1.0
 40
1.0
 40
1.0
 10
115.4058697616
 20
328.3857841323
 30
0.0
 10
115.3523696465
 20
328.3857840037
 30
0.0
 10
115.2503006171
 20
328.3747191573
 30
0.0
 10
115.1530672567
 20
328.3394726961
 30
0.0
 10
115.1112424446
 20
328.3153252738
 30
0.0
  0
SPLINE
  5
438
100
AcDbEntity
  8
0
100
AcDbSpline
 62
7
  6
BYLAYER
 70
0
 71
3
 72
9
 73
5
 74
0
 42
0.0000001
 43
0.0000001
 44
0.0000000001
 40
0.0
 40
0.0
 40
0.0
 40
0.0
 40
0.4744342232
 40
1.0
 40
1.0
 40
1.0
 40
1.0
 10
115.7004980951
 20
328.31532669
 30
0.0
 10
115.6586729738
 20
328.3394738888
 30
0.0
 10
115.5614392308
 20
328.3747198668
 30
0.0
 10
115.459369935
 20
328.3857842609
 30
0.0
 10
115.4058697616
 20
328.3857841323
 30
0.0
  0
SPLINE
  5
439
100
AcDbEntity
  8
0
100
AcDbSpline
 62
7
  6
BYLAYER
 70
0
 71
3
 72
9
 73
5
 74
0
 42
0.0000001
 43
0.0000001
 44
0.0000000001
 40
0.0
 40
0.0
 40
0.0
 40
0.0
 40
0.5255657768
 40
1.0
 40
1.0
 40
1.0
 40
1.0
 10
116.1987586323
 20
328.0874478169
 30
0.0
 10
116.1666585283
 20
328.0874477397
 30
0.0
 10
116.1054169508
 20
328.0940863761
 30
0.0
 10
116.047076705
 20
328.115233963
 30
0.0
 10
116.0219816322
 20
328.1297222823
 30
0.0
  0
SPLINE
  5
43A
100
AcDbEntity
  8
0
100
AcDbSpline
 62
7
  6
BYLAYER
 70
0
 71
3
 72
9
 73
5
 74
0
 42
0.0000001
 43
0.0000001
 44
0.0000000001
 40
0.0
 40
0.0
 40
0.0
 40
0.0
 40
0.4744336899
 40
1.0
 40
1.0
 40
1.0
 40
1.0
 10
116.3755350228
 20
328.1297231321
 30
0.0
 10
116.3504401355
 20
328.1152346786
 30
0.0
 10
116.2921001192
 20
328.0940868019
 30
0.0
 10
116.2308587014
 20
328.087447894
 30
0.0
 10
116.1987586323
 20
328.0874478169
 30
0.0
  0
SPLINE
  5
43B
100
AcDbEntity
  8
0
100
AcDbSpline
 62
7
  6
BYLAYER
 70
0
 71
3
 72
11
 73
7
 74
0
 42
0.0000001
 43
0.0000001
 44
0.0000000001
 40
0.0
 40
0.0
 40
0.0
 40
0.0
 40
0.2177164324
 40
0.4509408358
 40
0.7102939719
 40
1.0
 40
1.0
 40
1.0
 40
1.0
 10
116.4995569866
 20
328.261112791
 30
0.0
 10
116.4995570552
 20
328.2515936283
 30
0.0
 10
116.4960320413
 20
328.231747287
 30
0.0
 10
116.4809975186
 20
328.204088012
 30
0.0
 10
116.4572021698
 20
328.1790947374
 30
0.0
 10
116.4373041584
 20
328.1653853463
 30
0.0
 10
116.4263344179
 20
328.1590520015
 30
0.0
  0
SPLINE
  5
43C
100
AcDbEntity
  8
0
100
AcDbSpline
 62
7
  6
BYLAYER
 70
0
 71
3
 72
11
 73
7
 74
0
 42
0.0000001
 43
0.0000001
 44
0.0000000001
 40
0.0
 40
0.0
 40
0.0
 40
0.0
 40
0.2897060281
 40
0.5490591642
 40
0.7822835676
 40
1.0
 40
1.0
 40
1.0
 40
1.0
 10
116.1048469552
 20
328.8889796812
 30
0.0
 10
116.0865640544
 20
328.8784241065
 30
0.0
 10
116.0534007021
 20
328.8555751214
 30
0.0
 10
116.0137417876
 20
328.8139196637
 30
0.0
 10
115.9886842498
 20
328.7678208722
 30
0.0
 10
115.9828092266
 20
328.7347436368
 30
0.0
 10
115.982809341
 20
328.7188783655
 30
0.0
  0
SPLINE
  5
43D
100
AcDbEntity
  8
0
100
AcDbSpline
 62
7
  6
BYLAYER
 70
0
 71
3
 72
11
 73
7
 74
0
 42
0.0000001
 43
0.0000001
 44
0.0000000001
 40
0.0
 40
0.0
 40
0.0
 40
0.0
 40
0.2177164324
 40
0.4509408358
 40
0.7102939719
 40
1.0
 40
1.0
 40
1.0
 40
1.0
 10
116.5208887526
 20
329.1889660632
 30
0.0
 10
116.5208888212
 20
329.1794469005
 30
0.0
 10
116.5173638073
 20
329.1596005592
 30
0.0
 10
116.5023292845
 20
329.1319412842
 30
0.0
 10
116.4785339358
 20
329.1069480096
 30
0.0
 10
116.4586359244
 20
329.0932386185
 30
0.0
 10
116.4476661838
 20
329.0869052737
 30
0.0
  0
SPLINE
  5
43E
100
AcDbEntity
  8
0
100
AcDbSpline
 62
7
  6
BYLAYER
 70
0
 71
3
 72
11
 73
7
 74
0
 42
0.0000001
 43
0.0000001
 44
0.0000000001
 40
0.0
 40
0.0
 40
0.0
 40
0.0
 40
0.2897062311
 40
0.5490596185
 40
0.7822840529
 40
1.0
 40
1.0
 40
1.0
 40
1.0
 10
114.3427246816
 20
329.0992198018
 30
0.0
 10
114.3317548457
 20
329.1055530962
 30
0.0
 10
114.3118566366
 20
329.1192623934
 30
0.0
 10
114.2880609401
 20
329.1442555403
 30
0.0
 10
114.2730260231
 20
329.1719147186
 30
0.0
 10
114.2695007095
 20
329.1917610614
 30
0.0
 10
114.2695006409
 20
329.2012802393
 30
0.0
  0
SPLINE
  5
43F
100
AcDbEntity
  8
0
100
AcDbSpline
 62
7
  6
BYLAYER
 70
0
 71
3
 72
11
 73
7
 74
0
 42
0.0000001
 43
0.0000001
 44
0.0000000001
 40
0.0
 40
0.0
 40
0.0
 40
0.0
 40
0.2177159471
 40
0.4509403815
 40
0.7102937689
 40
1.0
 40
1.0
 40
1.0
 40
1.0
 10
114.828925378
 20
328.7188755919
 30
0.0
 10
114.8289252636
 20
328.7347408885
 30
0.0
 10
114.8230497409
 20
328.7678181264
 30
0.0
 10
114.797991546
 20
328.8139167569
 30
0.0
 10
114.7583320519
 20
328.8555720017
 30
0.0
 10
114.72516837
 20
328.8784208304
 30
0.0
 10
114.7068853103
 20
328.8889763211
 30
0.0
  0
SPLINE
  5
440
100
AcDbEntity
  8
0
100
AcDbSpline
 62
7
  6
BYLAYER
 70
0
 71
3
 72
11
 73
7
 74
0
 42
0.0000001
 43
0.0000001
 44
0.0000000001
 40
0.0
 40
0.0
 40
0.0
 40
0.0
 40
0.2897062311
 40
0.5490596185
 40
0.7822840529
 40
1.0
 40
1.0
 40
1.0
 40
1.0
 10
114.3640700072
 20
328.1467274566
 30
0.0
 10
114.3531001714
 20
328.153060751
 30
0.0
 10
114.3332019622
 20
328.1667700483
 30
0.0
 10
114.3094062658
 20
328.1917631951
 30
0.0
 10
114.2943713488
 20
328.2194223735
 30
0.0
 10
114.2908460352
 20
328.2392687162
 30
0.0
 10
114.2908459665
 20
328.2487878942
 30
0.0
  0
SPLINE
  5
441
100
AcDbEntity
  8
0
100
AcDbSpline
 62
7
  6
BYLAYER
 70
0
 71
3
 72
12
 73
8
 74
0
 42
0.0000001
 43
0.0000001
 44
0.0000000001
 40
0.0
 40
0.0
 40
0.0
 40
0.0
 40
0.289588615
 40
0.5486348214
 40
0.7816400505
 40
0.8918395484
 40
1.0
 40
1.0
 40
1.0
 40
1.0
 10
113.6381077665
 20
326.3374292322
 30
0.0
 10
113.5283685154
 20
326.400785785
 30
0.0
 10
113.3293157452
 20
326.5378707378
 30
0.0
 10
113.0915225
 20
326.7876529622
 30
0.0
 10
112.9638313671
 20
327.0230109422
 30
0.0
 10
112.9141062303
 20
327.2149661992
 30
0.0
 10
112.9058700272
 20
327.3107118333
 30
0.0
 10
112.9058743986
 20
327.358039589
 30
0.0
  0
SPLINE
  5
442
100
AcDbEntity
  8
0
100
AcDbSpline
 62
7
  6
BYLAYER
 70
0
 71
3
 72
11
 73
7
 74
0
 42
0.0000001
 43
0.0000001
 44
0.0000000001
 40
0.0
 40
0.0
 40
0.0
 40
0.0
 40
0.2659302623
 40
0.5253368941
 40
0.7717756854
 40
1.0
 40
1.0
 40
1.0
 40
1.0
 10
115.4366636249
 20
325.9147990033
 30
0.0
 10
115.2711787631
 20
325.9136176413
 30
0.0
 10
114.9438212899
 20
325.9299492979
 30
0.0
 10
114.4690561282
 20
326.0097020089
 30
0.0
 10
114.030376049
 20
326.1414847833
 30
0.0
 10
113.7611053489
 20
326.2664181514
 30
0.0
 10
113.6381077665
 20
326.3374292322
 30
0.0
  0
SPLINE
  5
443
100
AcDbEntity
  8
0
100
AcDbSpline
 62
7
  6
BYLAYER
 70
0
 71
3
 72
13
 73
9
 74
0
 42
0.0000001
 43
0.0000001
 44
0.0000000001
 40
0.0
 40
0.0
 40
0.0
 40
0.0
 40
0.1243404898
 40
0.2483447021
 40
0.3723810364
 40
0.4963522686
 40
0.7452862416
 40
1.0
 40
1.0
 40
1.0
 40
1.0
 10
112.9058673595
 20
328.0384582978
 30
0.0
 10
112.9058673595
 20
328.1108617719
 30
0.0
 10
112.91720568
 20
328.2557333112
 30
0.0
 10
112.9676674293
 20
328.4674407123
 30
0.0
 10
113.049008742
 20
328.6690797728
 30
0.0
 10
113.1949644361
 20
328.9199285697
 30
0.0
 10
113.4408611223
 20
329.195756842
 30
0.0
 10
113.6822073579
 20
329.3663689678
 30
0.0
 10
113.8106551853
 20
329.4405304759
 30
0.0
  0
SPLINE
  5
444
100
AcDbEntity
  8
0
100
AcDbSpline
 62
7
  6
BYLAYER
 70
0
 71
3
 72
11
 73
7
 74
0
 42
0.0000001
 43
0.0000001
 44
0.0000000001
 40
0.0
 40
0.0
 40
0.0
 40
0.0
 40
0.2552177596
 40
0.5054319754
 40
0.752992448
 40
1.0
 40
1.0
 40
1.0
 40
1.0
 10
117.0010795337
 20
329.4405304759
 30
0.0
 10
117.0945231278
 20
329.3865792492
 30
0.0
 10
117.2727260214
 20
329.2670920825
 30
0.0
 10
117.5074793123
 20
329.0499362743
 30
0.0
 10
117.6983940393
 20
328.7973187682
 30
0.0
 10
117.7896650419
 20
328.6071949744
 30
0.0
 10
117.8244753394
 20
328.5087385342
 30
0.0
  0
SPLINE
  5
445
100
AcDbEntity
  8
0
100
AcDbSpline
 62
7
  6
BYLAYER
 70
0
 71
3
 72
13
 73
9
 74
0
 42
0.0000001
 43
0.0000001
 44
0.0000000001
 40
0.0
 40
0.0
 40
0.0
 40
0.0
 40
0.2431353558
 40
0.3705688964
 40
0.500006671
 40
0.6294430846
 40
0.7568756268
 40
1.0
 40
1.0
 40
1.0
 40
1.0
 10
113.8106551853
 20
329.4405304759
 30
0.0
 10
114.0434107438
 20
329.5749158023
 30
0.0
 10
114.4336513754
 20
329.7214857985
 30
0.0
 10
114.9784644587
 20
329.8176289199
 30
0.0
 10
115.405861404
 20
329.8422935519
 30
0.0
 10
115.8332576375
 20
329.8176321817
 30
0.0
 10
116.3780556462
 20
329.7214886293
 30
0.0
 10
116.7682853273
 20
329.5749312338
 30
0.0
 10
117.0010333519
 20
329.440557139
 30
0.0
  0
SPLINE
  5
446
100
AcDbEntity
  8
0
100
AcDbSpline
 62
7
  6
BYLAYER
 70
0
 71
3
 72
9
 73
5
 74
0
 42
0.0000001
 43
0.0000001
 44
0.0000000001
 40
0.0
 40
0.0
 40
0.0
 40
0.0
 40
0.4744336899
 40
1.0
 40
1.0
 40
1.0
 40
1.0
 10
114.3935226047
 20
329.3326698982
 30
0.0
 10
114.418617492
 20
329.3471583517
 30
0.0
 10
114.4769575083
 20
329.3683062285
 30
0.0
 10
114.538198926
 20
329.3749451363
 30
0.0
 10
114.5702989951
 20
329.3749452135
 30
0.0
  0
SPLINE
  5
447
100
AcDbEntity
  8
0
100
AcDbSpline
 62
7
  6
BYLAYER
 70
0
 71
3
 72
11
 73
7
 74
0
 42
0.0000001
 43
0.0000001
 44
0.0000000001
 40
0.0
 40
0.0
 40
0.0
 40
0.0
 40
0.2177164324
 40
0.4509408358
 40
0.7102939719
 40
1.0
 40
1.0
 40
1.0
 40
1.0
 10
114.2695006409
 20
329.2012802393
 30
0.0
 10
114.2695005722
 20
329.2107994021
 30
0.0
 10
114.2730255861
 20
329.2306457434
 30
0.0
 10
114.2880601089
 20
329.2583050183
 30
0.0
 10
114.3118554576
 20
329.2832982929
 30
0.0
 10
114.331753469
 20
329.297007684
 30
0.0
 10
114.3427232096
 20
329.3033410289
 30
0.0
  0
SPLINE
  5
448
100
AcDbEntity
  8
0
100
AcDbSpline
 62
7
  6
BYLAYER
 70
0
 71
3
 72
11
 73
7
 74
0
 42
0.0000001
 43
0.0000001
 44
0.0000000001
 40
0.0
 40
0.0
 40
0.0
 40
0.0
 40
0.2897062311
 40
0.5490596185
 40
0.7822840529
 40
1.0
 40
1.0
 40
1.0
 40
1.0
 10
116.4263329459
 20
328.3631732286
 30
0.0
 10
116.4373027817
 20
328.3568399342
 30
0.0
 10
116.4572009909
 20
328.3431306369
 30
0.0
 10
116.4809966873
 20
328.3181374901
 30
0.0
 10
116.4960316043
 20
328.2904783117
 30
0.0
 10
116.4995569179
 20
328.270631969
 30
0.0
 10
116.4995569866
 20
328.261112791
 30
0.0
  0
SPLINE
  5
449
100
AcDbEntity
  8
0
100
AcDbSpline
 62
7
  6
BYLAYER
 70
0
 71
3
 72
11
 73
7
 74
0
 42
0.0000001
 43
0.0000001
 44
0.0000000001
 40
0.0
 40
0.0
 40
0.0
 40
0.0
 40
0.2177159471
 40
0.4509403815
 40
0.7102937689
 40
1.0
 40
1.0
 40
1.0
 40
1.0
 10
115.982809341
 20
328.7188783655
 30
0.0
 10
115.9828094554
 20
328.7030130689
 30
0.0
 10
115.9886849782
 20
328.669935831
 30
0.0
 10
116.0137431731
 20
328.6238372004
 30
0.0
 10
116.0534026672
 20
328.5821819557
 30
0.0
 10
116.0865663491
 20
328.5593331269
 30
0.0
 10
116.1048494089
 20
328.5487776363
 30
0.0
  0
SPLINE
  5
44A
100
AcDbEntity
  8
0
100
AcDbSpline
 62
7
  6
BYLAYER
 70
0
 71
3
 72
11
 73
7
 74
0
 42
0.0000001
 43
0.0000001
 44
0.0000000001
 40
0.0
 40
0.0
 40
0.0
 40
0.0
 40
0.2897060281
 40
0.5490591642
 40
0.7822835676
 40
1.0
 40
1.0
 40
1.0
 40
1.0
 10
114.7068877638
 20
328.5487742762
 30
0.0
 10
114.7251706647
 20
328.5593298509
 30
0.0
 10
114.758334017
 20
328.582178836
 30
0.0
 10
114.7979929314
 20
328.6238342937
 30
0.0
 10
114.8230504693
 20
328.6699330852
 30
0.0
 10
114.8289254925
 20
328.7030103206
 30
0.0
 10
114.828925378
 20
328.7188755919
 30
0.0
  0
SPLINE
  5
44B
100
AcDbEntity
  8
0
100
AcDbSpline
 62
7
  6
BYLAYER
 70
0
 71
3
 72
11
 73
7
 74
0
 42
0.0000001
 43
0.0000001
 44
0.0000000001
 40
0.0
 40
0.0
 40
0.0
 40
0.0
 40
0.2177164324
 40
0.4509408358
 40
0.7102939719
 40
1.0
 40
1.0
 40
1.0
 40
1.0
 10
114.2908459665
 20
328.2487878942
 30
0.0
 10
114.2908458979
 20
328.2583070569
 30
0.0
 10
114.2943709118
 20
328.2781533982
 30
0.0
 10
114.3094054345
 20
328.3058126732
 30
0.0
 10
114.3332007833
 20
328.3308059478
 30
0.0
 10
114.3530987947
 20
328.3445153389
 30
0.0
 10
114.3640685352
 20
328.3508486837
 30
0.0
  0
SPLINE
  5
44C
100
AcDbEntity
  8
0
100
AcDbSpline
 62
7
  6
BYLAYER
 70
0
 71
3
 72
23
 73
19
 74
0
 42
0.0000001
 43
0.0000001
 44
0.0000000001
 40
0.0
 40
0.0
 40
0.0
 40
0.0
 40
0.0665848159
 40
0.138435499
 40
0.2140597243
 40
0.2916527494
 40
0.3692459094
 40
0.4448717182
 40
0.5167179011
 40
0.5833037537
 40
0.6436821259
 40
0.6976956743
 40
0.7462777754
 40
0.7916495229
 40
0.8370216153
 40
0.8856028605
 40
0.9396219336
 40
1.0
 40
1.0
 40
1.0
 40
1.0
 10
114.2273626941
 20
328.0384710544
 30
0.0
 10
114.3080383774
 20
327.9918939806
 30
0.0
 10
114.4844592299
 20
327.9097460743
 30
0.0
 10
114.7717436411
 20
327.8224227004
 30
0.0
 10
115.08278011
 20
327.7686846915
 30
0.0
 10
115.4058691291
 20
327.7505470278
 30
0.0
 10
115.7289678744
 20
327.7686881088
 30
0.0
 10
116.0399780611
 20
327.8224241764
 30
0.0
 10
116.3273307076
 20
327.9097806079
 30
0.0
 10
116.5804590075
 20
328.0276345436
 30
0.0
 10
116.7901835722
 20
328.1720493008
 30
0.0
 10
116.9487523641
 20
328.3387215888
 30
0.0
 10
117.0490859514
 20
328.5231814569
 30
0.0
 10
117.0838421623
 20
328.7188711452
 30
0.0
 10
117.049093828
 20
328.9145576001
 30
0.0
 10
116.9487602533
 20
329.0990385778
 30
0.0
 10
116.7902301365
 20
329.2656836857
 30
0.0
 10
116.6575274689
 20
329.3570475433
 30
0.0
 10
116.584372025
 20
329.3992829031
 30
0.0
  0
SPLINE
  5
44D
100
AcDbEntity
  8
0
100
AcDbSpline
 62
7
  6
BYLAYER
 70
0
 71
3
 72
9
 73
5
 74
0
 42
0.0000001
 43
0.0000001
 44
0.0000000001
 40
0.0
 40
0.0
 40
0.0
 40
0.0
 40
0.4823167273
 40
1.0
 40
1.0
 40
1.0
 40
1.0
 10
113.6381077665
 20
327.0178479131
 30
0.0
 10
113.746889813
 20
326.9550439901
 30
0.0
 10
113.9829188695
 20
326.8426217168
 30
0.0
 10
114.2311661302
 20
326.7616762761
 30
0.0
 10
114.3614735603
 20
326.7270852097
 30
0.0
  0
SPLINE
  5
44E
100
AcDbEntity
  8
0
100
AcDbSpline
 62
7
  6
BYLAYER
 70
0
 71
3
 72
9
 73
5
 74
0
 42
0.0000001
 43
0.0000001
 44
0.0000000001
 40
0.0
 40
0.0
 40
0.0
 40
0.0
 40
0.4928068345
 40
1.0
 40
1.0
 40
1.0
 40
1.0
 10
114.396074369
 20
326.7180835311
 30
0.0
 10
114.5632044946
 20
326.6754831939
 30
0.0
 10
114.9087076737
 20
326.6128565826
 30
0.0
 10
115.2591634033
 20
326.5939492673
 30
0.0
 10
115.4366678128
 20
326.5952163473
 30
0.0
  0
SPLINE
  5
44F
100
AcDbEntity
  8
0
100
AcDbSpline
 62
7
  6
BYLAYER
 70
0
 71
3
 72
23
 73
19
 74
0
 42
0.0000001
 43
0.0000001
 44
0.0000000001
 40
0.0
 40
0.0
 40
0.0
 40
0.0
 40
0.0665848159
 40
0.138435499
 40
0.2140597243
 40
0.2916527494
 40
0.3692459094
 40
0.4448717182
 40
0.5167179011
 40
0.5833037537
 40
0.6436821259
 40
0.6976956743
 40
0.7462777754
 40
0.7916495229
 40
0.8370216153
 40
0.8856028605
 40
0.9396219336
 40
1.0
 40
1.0
 40
1.0
 40
1.0
 10
116.584372025
 20
329.3992829031
 30
0.0
 10
116.5036963416
 20
329.4458599769
 30
0.0
 10
116.3272754892
 20
329.5280078831
 30
0.0
 10
116.0399910779
 20
329.615331257
 30
0.0
 10
115.728954609
 20
329.669069266
 30
0.0
 10
115.4058655899
 20
329.6872069296
 30
0.0
 10
115.0827668446
 20
329.6690658487
 30
0.0
 10
114.7717566579
 20
329.6153297811
 30
0.0
 10
114.4844040114
 20
329.5279733495
 30
0.0
 10
114.2312757115
 20
329.4101194139
 30
0.0
 10
114.0215511468
 20
329.2657046566
 30
0.0
 10
113.8629823549
 20
329.0990323687
 30
0.0
 10
113.7626487676
 20
328.9145725006
 30
0.0
 10
113.7278925567
 20
328.7188828122
 30
0.0
 10
113.762640891
 20
328.5231963574
 30
0.0
 10
113.8629744657
 20
328.3387153796
 30
0.0
 10
114.0215045825
 20
328.1720702717
 30
0.0
 10
114.1542072501
 20
328.0807064141
 30
0.0
 10
114.2273626941
 20
328.0384710544
 30
0.0
  0
SPLINE
  5
450
100
AcDbEntity
  8
0
100
AcDbSpline
 62
7
  6
BYLAYER
 70
0
 71
3
 72
11
 73
7
 74
0
 42
0.0000001
 43
0.0000001
 44
0.0000000001
 40
0.0
 40
0.0
 40
0.0
 40
0.0
 40
0.2897062311
 40
0.5490596185
 40
0.7822840529
 40
1.0
 40
1.0
 40
1.0
 40
1.0
 10
116.4476647119
 20
329.2910265008
 30
0.0
 10
116.4586345477
 20
329.2846932064
 30
0.0
 10
116.4785327568
 20
329.2709839091
 30
0.0
 10
116.5023284533
 20
329.2459907623
 30
0.0
 10
116.5173633703
 20
329.2183315839
 30
0.0
 10
116.5208886839
 20
329.1984852412
 30
0.0
 10
116.5208887526
 20
329.1889660632
 30
0.0
  0
SPLINE
  5
451
100
AcDbEntity
  8
0
100
AcDbSpline
 62
7
  6
BYLAYER
 70
0
 71
3
 72
9
 73
5
 74
0
 42
0.0000001
 43
0.0000001
 44
0.0000000001
 40
0.0
 40
0.0
 40
0.0
 40
0.0
 40
0.5255657768
 40
1.0
 40
1.0
 40
1.0
 40
1.0
 10
116.2200878935
 20
329.3626295913
 30
0.0
 10
116.2521879976
 20
329.3626296685
 30
0.0
 10
116.3134295751
 20
329.3559910321
 30
0.0
 10
116.3717698209
 20
329.3348434452
 30
0.0
 10
116.3968648937
 20
329.320355126
 30
0.0
  0
SPLINE
  5
452
100
AcDbEntity
  8
0
100
AcDbSpline
 62
7
  6
BYLAYER
 70
0
 71
3
 72
9
 73
5
 74
0
 42
0.0000001
 43
0.0000001
 44
0.0000000001
 40
0.0
 40
0.0
 40
0.0
 40
0.0
 40
0.4744336899
 40
1.0
 40
1.0
 40
1.0
 40
1.0
 10
116.0433115031
 20
329.3203542761
 30
0.0
 10
116.0684063904
 20
329.3348427296
 30
0.0
 10
116.1267464067
 20
329.3559906064
 30
0.0
 10
116.1879878245
 20
329.3626295142
 30
0.0
 10
116.2200878935
 20
329.3626295913
 30
0.0
  0
SPLINE
  5
453
100
AcDbEntity
  8
0
100
AcDbSpline
 62
7
  6
BYLAYER
 70
0
 71
3
 72
12
 73
8
 74
0
 42
0.0000001
 43
0.0000001
 44
0.0000000001
 40
0.0
 40
0.0
 40
0.0
 40
0.0
 40
0.1081609828
 40
0.2183621381
 40
0.4513672884
 40
0.7104122728
 40
1.0
 40
1.0
 40
1.0
 40
1.0
 10
112.9058720299
 20
328.0384582977
 30
0.0
 10
112.9058678254
 20
327.9911302771
 30
0.0
 10
112.9141056914
 20
327.8953837701
 30
0.0
 10
112.9638306682
 20
327.7034274676
 30
0.0
 10
113.091523289
 20
327.4680697018
 30
0.0
 10
113.3293165905
 20
327.2182887645
 30
0.0
 10
113.5283687765
 20
327.0812043152
 30
0.0
 10
113.6381077665
 20
327.0178479131
 30
0.0
  0
SPLINE
  5
454
100
AcDbEntity
  8
0
100
AcDbSpline
 62
7
  6
BYLAYER
 70
0
 71
3
 72
9
 73
5
 74
0
 42
0.0000001
 43
0.0000001
 44
0.0000000001
 40
0.0
 40
0.0
 40
0.0
 40
0.0
 40
0.5255663101
 40
1.0
 40
1.0
 40
1.0
 40
1.0
 10
115.4058649575
 20
329.0519698251
 30
0.0
 10
115.4593650726
 20
329.0519699537
 30
0.0
 10
115.561434102
 20
329.0630348001
 30
0.0
 10
115.6586674624
 20
329.0982812613
 30
0.0
 10
115.7004922745
 20
329.1224286837
 30
0.0
  0
SPLINE
  5
455
100
AcDbEntity
  8
0
100
AcDbSpline
 62
7
  6
BYLAYER
 70
0
 71
3
 72
9
 73
5
 74
0
 42
0.0000001
 43
0.0000001
 44
0.0000000001
 40
0.0
 40
0.0
 40
0.0
 40
0.0
 40
0.4744342232
 40
1.0
 40
1.0
 40
1.0
 40
1.0
 10
115.1112366239
 20
329.1224272674
 30
0.0
 10
115.1530617452
 20
329.0982800687
 30
0.0
 10
115.2502954883
 20
329.0630340906
 30
0.0
 10
115.3523647841
 20
329.0519696965
 30
0.0
 10
115.4058649575
 20
329.0519698251
 30
0.0
  0
SPLINE
  5
456
100
AcDbEntity
  8
0
100
AcDbSpline
 62
7
  6
BYLAYER
 70
0
 71
3
 72
9
 73
5
 74
0
 42
0.0000001
 43
0.0000001
 44
0.0000000001
 40
0.0
 40
0.0
 40
0.0
 40
0.0
 40
0.5255657768
 40
1.0
 40
1.0
 40
1.0
 40
1.0
 10
114.5702989951
 20
329.3749452135
 30
0.0
 10
114.6023990992
 20
329.3749452906
 30
0.0
 10
114.6636406767
 20
329.3683066542
 30
0.0
 10
114.7219809225
 20
329.3471590673
 30
0.0
 10
114.7470759953
 20
329.3326707481
 30
0.0
  0
SPLINE
  5
457
100
AcDbEntity
  8
0
100
AcDbSpline
 62
7
  6
BYLAYER
 70
0
 71
3
 72
9
 73
5
 74
0
 42
0.0000001
 43
0.0000001
 44
0.0000000001
 40
0.0
 40
0.0
 40
0.0
 40
0.0
 40
0.5255657768
 40
1.0
 40
1.0
 40
1.0
 40
1.0
 10
130.1480607788
 20
319.0938277666
 30
0.0
 10
130.1159606747
 20
319.0938276895
 30
0.0
 10
130.0547190972
 20
319.1004663259
 30
0.0
 10
129.9963788514
 20
319.1216139127
 30
0.0
 10
129.9712837786
 20
319.136102232
 30
0.0
  0
SPLINE
  5
458
100
AcDbEntity
  8
0
100
AcDbSpline
 62
7
  6
BYLAYER
 70
0
 71
3
 72
9
 73
5
 74
0
 42
0.0000001
 43
0.0000001
 44
0.0000000001
 40
0.0
 40
0.0
 40
0.0
 40
0.0
 40
0.4744336899
 40
1.0
 40
1.0
 40
1.0
 40
1.0
 10
130.3248371692
 20
319.1361030818
 30
0.0
 10
130.2997422819
 20
319.1216146284
 30
0.0
 10
130.2414022656
 20
319.1004667516
 30
0.0
 10
130.1801608478
 20
319.0938278438
 30
0.0
 10
130.1480607788
 20
319.0938277666
 30
0.0
  0
SPLINE
  5
459
100
AcDbEntity
  8
0
100
AcDbSpline
 62
7
  6
BYLAYER
 70
0
 71
3
 72
9
 73
5
 74
0
 42
0.0000001
 43
0.0000001
 44
0.0000000001
 40
0.0
 40
0.0
 40
0.0
 40
0.0
 40
0.5255663101
 40
1.0
 40
1.0
 40
1.0
 40
1.0
 10
130.9622837148
 20
319.4044875329
 30
0.0
 10
130.9087835998
 20
319.4044874043
 30
0.0
 10
130.8067145703
 20
319.3934225579
 30
0.0
 10
130.7094812099
 20
319.3581760967
 30
0.0
 10
130.6676563978
 20
319.3340286743
 30
0.0
  0
SPLINE
  5
45A
100
AcDbEntity
  8
0
100
AcDbSpline
 62
7
  6
BYLAYER
 70
0
 71
3
 72
9
 73
5
 74
0
 42
0.0000001
 43
0.0000001
 44
0.0000000001
 40
0.0
 40
0.0
 40
0.0
 40
0.0
 40
0.4744342232
 40
1.0
 40
1.0
 40
1.0
 40
1.0
 10
131.2569120483
 20
319.3340300905
 30
0.0
 10
131.215086927
 20
319.3581772893
 30
0.0
 10
131.117853184
 20
319.3934232674
 30
0.0
 10
131.0157838882
 20
319.4044876615
 30
0.0
 10
130.9622837148
 20
319.4044875329
 30
0.0
  0
SPLINE
  5
45B
100
AcDbEntity
  8
0
100
AcDbSpline
 62
7
  6
BYLAYER
 70
0
 71
3
 72
9
 73
5
 74
0
 42
0.0000001
 43
0.0000001
 44
0.0000000001
 40
0.0
 40
0.0
 40
0.0
 40
0.0
 40
0.5255657768
 40
1.0
 40
1.0
 40
1.0
 40
1.0
 10
131.7551725856
 20
319.1061512174
 30
0.0
 10
131.7230724815
 20
319.1061511403
 30
0.0
 10
131.661830904
 20
319.1127897767
 30
0.0
 10
131.6034906582
 20
319.1339373635
 30
0.0
 10
131.5783955854
 20
319.1484256828
 30
0.0
  0
SPLINE
  5
45C
100
AcDbEntity
  8
0
100
AcDbSpline
 62
7
  6
BYLAYER
 70
0
 71
3
 72
9
 73
5
 74
0
 42
0.0000001
 43
0.0000001
 44
0.0000000001
 40
0.0
 40
0.0
 40
0.0
 40
0.0
 40
0.4744336899
 40
1.0
 40
1.0
 40
1.0
 40
1.0
 10
131.931948976
 20
319.1484265326
 30
0.0
 10
131.9068540887
 20
319.1339380792
 30
0.0
 10
131.8485140724
 20
319.1127902024
 30
0.0
 10
131.7872726546
 20
319.1061512946
 30
0.0
 10
131.7551725856
 20
319.1061512174
 30
0.0
  0
SPLINE
  5
45D
100
AcDbEntity
  8
0
100
AcDbSpline
 62
7
  6
BYLAYER
 70
0
 71
3
 72
11
 73
7
 74
0
 42
0.0000001
 43
0.0000001
 44
0.0000000001
 40
0.0
 40
0.0
 40
0.0
 40
0.0
 40
0.2177164324
 40
0.4509408358
 40
0.7102939719
 40
1.0
 40
1.0
 40
1.0
 40
1.0
 10
132.0559709398
 20
319.2798161916
 30
0.0
 10
132.0559710085
 20
319.2702970288
 30
0.0
 10
132.0524459946
 20
319.2504506875
 30
0.0
 10
132.0374114718
 20
319.2227914126
 30
0.0
 10
132.0136161231
 20
319.197798138
 30
0.0
 10
131.9937181116
 20
319.1840887469
 30
0.0
 10
131.9827483711
 20
319.177755402
 30
0.0
  0
SPLINE
  5
45E
100
AcDbEntity
  8
0
100
AcDbSpline
 62
7
  6
BYLAYER
 70
0
 71
3
 72
11
 73
7
 74
0
 42
0.0000001
 43
0.0000001
 44
0.0000000001
 40
0.0
 40
0.0
 40
0.0
 40
0.0
 40
0.2897060281
 40
0.5490591642
 40
0.7822835676
 40
1.0
 40
1.0
 40
1.0
 40
1.0
 10
131.6612609085
 20
319.9076830818
 30
0.0
 10
131.6429780076
 20
319.897127507
 30
0.0
 10
131.6098146553
 20
319.8742785219
 30
0.0
 10
131.5701557409
 20
319.8326230643
 30
0.0
 10
131.545098203
 20
319.7865242727
 30
0.0
 10
131.5392231799
 20
319.7534470373
 30
0.0
 10
131.5392232943
 20
319.7375817661
 30
0.0
  0
SPLINE
  5
45F
100
AcDbEntity
  8
0
100
AcDbSpline
 62
7
  6
BYLAYER
 70
0
 71
3
 72
11
 73
7
 74
0
 42
0.0000001
 43
0.0000001
 44
0.0000000001
 40
0.0
 40
0.0
 40
0.0
 40
0.0
 40
0.2177164324
 40
0.4509408358
 40
0.7102939719
 40
1.0
 40
1.0
 40
1.0
 40
1.0
 10
132.0773027058
 20
320.2076694638
 30
0.0
 10
132.0773027744
 20
320.198150301
 30
0.0
 10
132.0737777605
 20
320.1783039597
 30
0.0
 10
132.0587432378
 20
320.1506446848
 30
0.0
 10
132.034947889
 20
320.1256514102
 30
0.0
 10
132.0150498776
 20
320.1119420191
 30
0.0
 10
132.0040801371
 20
320.1056086742
 30
0.0
  0
SPLINE
  5
460
100
AcDbEntity
  8
0
100
AcDbSpline
 62
7
  6
BYLAYER
 70
0
 71
3
 72
11
 73
7
 74
0
 42
0.0000001
 43
0.0000001
 44
0.0000000001
 40
0.0
 40
0.0
 40
0.0
 40
0.0
 40
0.2897062311
 40
0.5490596185
 40
0.7822840529
 40
1.0
 40
1.0
 40
1.0
 40
1.0
 10
129.8991386348
 20
320.1179232023
 30
0.0
 10
129.8881687989
 20
320.1242564967
 30
0.0
 10
129.8682705898
 20
320.137965794
 30
0.0
 10
129.8444748933
 20
320.1629589408
 30
0.0
 10
129.8294399764
 20
320.1906181192
 30
0.0
 10
129.8259146627
 20
320.2104644619
 30
0.0
 10
129.8259145941
 20
320.2199836399
 30
0.0
  0
SPLINE
  5
461
100
AcDbEntity
  8
0
100
AcDbSpline
 62
7
  6
BYLAYER
 70
0
 71
3
 72
11
 73
7
 74
0
 42
0.0000001
 43
0.0000001
 44
0.0000000001
 40
0.0
 40
0.0
 40
0.0
 40
0.0
 40
0.2177159471
 40
0.4509403815
 40
0.7102937689
 40
1.0
 40
1.0
 40
1.0
 40
1.0
 10
130.3853393313
 20
319.7375789924
 30
0.0
 10
130.3853392169
 20
319.753444289
 30
0.0
 10
130.3794636941
 20
319.7865215269
 30
0.0
 10
130.3544054992
 20
319.8326201575
 30
0.0
 10
130.3147460051
 20
319.8742754022
 30
0.0
 10
130.2815823232
 20
319.897124231
 30
0.0
 10
130.2632992635
 20
319.9076797217
 30
0.0
  0
SPLINE
  5
462
100
AcDbEntity
  8
0
100
AcDbSpline
 62
7
  6
BYLAYER
 70
0
 71
3
 72
11
 73
7
 74
0
 42
0.0000001
 43
0.0000001
 44
0.0000000001
 40
0.0
 40
0.0
 40
0.0
 40
0.0
 40
0.2897062311
 40
0.5490596185
 40
0.7822840529
 40
1.0
 40
1.0
 40
1.0
 40
1.0
 10
129.9204839604
 20
319.1654308572
 30
0.0
 10
129.9095141246
 20
319.1717641516
 30
0.0
 10
129.8896159155
 20
319.1854734489
 30
0.0
 10
129.865820219
 20
319.2104665957
 30
0.0
 10
129.850785302
 20
319.238125774
 30
0.0
 10
129.8472599884
 20
319.2579721168
 30
0.0
 10
129.8472599198
 20
319.2674912947
 30
0.0
  0
SPLINE
  5
463
100
AcDbEntity
  8
0
100
AcDbSpline
 62
7
  6
BYLAYER
 70
0
 71
3
 72
12
 73
8
 74
0
 42
0.0000001
 43
0.0000001
 44
0.0000000001
 40
0.0
 40
0.0
 40
0.0
 40
0.0
 40
0.289588615
 40
0.5486348214
 40
0.7816400505
 40
0.8918395484
 40
1.0
 40
1.0
 40
1.0
 40
1.0
 10
129.1945217197
 20
317.3561326328
 30
0.0
 10
129.0847824687
 20
317.4194891856
 30
0.0
 10
128.8857296985
 20
317.5565741384
 30
0.0
 10
128.6479364533
 20
317.8063563627
 30
0.0
 10
128.5202453203
 20
318.0417143428
 30
0.0
 10
128.4705201835
 20
318.2336695998
 30
0.0
 10
128.4622839804
 20
318.3294152339
 30
0.0
 10
128.4622883518
 20
318.3767429895
 30
0.0
  0
SPLINE
  5
464
100
AcDbEntity
  8
0
100
AcDbSpline
 62
7
  6
BYLAYER
 70
0
 71
3
 72
18
 73
14
 74
0
 42
0.0000001
 43
0.0000001
 44
0.0000000001
 40
0.0
 40
0.0
 40
0.0
 40
0.0
 40
0.0428484115
 40
0.0874662759
 40
0.1352878753
 40
0.1872388099
 40
0.2437304014
 40
0.304736623
 40
0.4383719868
 40
0.5826797863
 40
0.7297950767
 40
0.8713477438
 40
1.0
 40
1.0
 40
1.0
 40
1.0
 10
133.4622742736
 20
318.3767430454
 30
0.0
 10
133.4622677002
 20
318.3055743188
 30
0.0
 10
133.4432562724
 20
318.1596782255
 30
0.0
 10
133.359574013
 20
317.9490200555
 30
0.0
 10
133.2237983055
 20
317.7493206992
 30
0.0
 10
133.0397774972
 20
317.5645331434
 30
0.0
 10
132.8117519347
 20
317.3978922648
 30
0.0
 10
132.4444197846
 20
317.1981988272
 30
0.0
 10
131.9061719462
 20
317.0184308052
 30
0.0
 10
131.203845651
 20
316.9198211427
 30
0.0
 10
130.4814437324
 20
316.939767804
 30
0.0
 10
129.7985887159
 20
317.0764226092
 30
0.0
 10
129.3795784847
 20
317.2492924767
 30
0.0
 10
129.1945217197
 20
317.3561326328
 30
0.0
  0
SPLINE
  5
465
100
AcDbEntity
  8
0
100
AcDbSpline
 62
7
  6
BYLAYER
 70
0
 71
3
 72
13
 73
9
 74
0
 42
0.0000001
 43
0.0000001
 44
0.0000000001
 40
0.0
 40
0.0
 40
0.0
 40
0.0
 40
0.1243404898
 40
0.2483447021
 40
0.3723810364
 40
0.4963522686
 40
0.7452862416
 40
1.0
 40
1.0
 40
1.0
 40
1.0
 10
128.4622813127
 20
319.0571616984
 30
0.0
 10
128.4622813127
 20
319.1295651725
 30
0.0
 10
128.4736196332
 20
319.2744367118
 30
0.0
 10
128.5240813825
 20
319.4861441128
 30
0.0
 10
128.6054226952
 20
319.6877831734
 30
0.0
 10
128.7513783894
 20
319.9386319703
 30
0.0
 10
128.9972750756
 20
320.2144602425
 30
0.0
 10
129.2386213111
 20
320.3850723684
 30
0.0
 10
129.3670691385
 20
320.4592338764
 30
0.0
  0
SPLINE
  5
466
100
AcDbEntity
  8
0
100
AcDbSpline
 62
7
  6
BYLAYER
 70
0
 71
3
 72
13
 73
9
 74
0
 42
0.0000001
 43
0.0000001
 44
0.0000000001
 40
0.0
 40
0.0
 40
0.0
 40
0.0
 40
0.2547136527
 40
0.5036455312
 40
0.6276145894
 40
0.7516483046
 40
0.8756553856
 40
1.0
 40
1.0
 40
1.0
 40
1.0
 10
132.5574934869
 20
320.4592338764
 30
0.0
 10
132.685941262
 20
320.3850723986
 30
0.0
 10
132.927285575
 20
320.214460272
 30
0.0
 10
133.1731831583
 20
319.9386357831
 30
0.0
 10
133.3191347793
 20
319.6877895847
 30
0.0
 10
133.4004814415
 20
319.4861537653
 30
0.0
 10
133.4509396293
 20
319.2744427904
 30
0.0
 10
133.4622813127
 20
319.1295675748
 30
0.0
 10
133.4622813127
 20
319.0571616984
 30
0.0
  0
SPLINE
  5
467
100
AcDbEntity
  8
0
100
AcDbSpline
 62
7
  6
BYLAYER
 70
0
 71
3
 72
13
 73
9
 74
0
 42
0.0000001
 43
0.0000001
 44
0.0000000001
 40
0.0
 40
0.0
 40
0.0
 40
0.0
 40
0.2431353558
 40
0.3705688964
 40
0.500006671
 40
0.6294430846
 40
0.7568756268
 40
1.0
 40
1.0
 40
1.0
 40
1.0
 10
129.3670691385
 20
320.4592338764
 30
0.0
 10
129.599824697
 20
320.5936192029
 30
0.0
 10
129.9900653286
 20
320.7401891991
 30
0.0
 10
130.534878412
 20
320.8363323204
 30
0.0
 10
130.9622753572
 20
320.8609969525
 30
0.0
 10
131.3896715907
 20
320.8363355823
 30
0.0
 10
131.9344695994
 20
320.7401920298
 30
0.0
 10
132.3246992805
 20
320.5936346343
 30
0.0
 10
132.5574473052
 20
320.4592605396
 30
0.0
  0
SPLINE
  5
468
100
AcDbEntity
  8
0
100
AcDbSpline
 62
7
  6
BYLAYER
 70
0
 71
3
 72
9
 73
5
 74
0
 42
0.0000001
 43
0.0000001
 44
0.0000000001
 40
0.0
 40
0.0
 40
0.0
 40
0.0
 40
0.4744336899
 40
1.0
 40
1.0
 40
1.0
 40
1.0
 10
129.9499365579
 20
320.3513732988
 30
0.0
 10
129.9750314452
 20
320.3658617522
 30
0.0
 10
130.0333714615
 20
320.387009629
 30
0.0
 10
130.0946128793
 20
320.3936485369
 30
0.0
 10
130.1267129483
 20
320.393648614
 30
0.0
  0
SPLINE
  5
469
100
AcDbEntity
  8
0
100
AcDbSpline
 62
7
  6
BYLAYER
 70
0
 71
3
 72
11
 73
7
 74
0
 42
0.0000001
 43
0.0000001
 44
0.0000000001
 40
0.0
 40
0.0
 40
0.0
 40
0.0
 40
0.2177164324
 40
0.4509408358
 40
0.7102939719
 40
1.0
 40
1.0
 40
1.0
 40
1.0
 10
129.8259145941
 20
320.2199836399
 30
0.0
 10
129.8259145254
 20
320.2295028026
 30
0.0
 10
129.8294395393
 20
320.2493491439
 30
0.0
 10
129.8444740621
 20
320.2770084189
 30
0.0
 10
129.8682694108
 20
320.3020016935
 30
0.0
 10
129.8881674223
 20
320.3157110846
 30
0.0
 10
129.8991371628
 20
320.3220444294
 30
0.0
  0
SPLINE
  5
46A
100
AcDbEntity
  8
0
100
AcDbSpline
 62
7
  6
BYLAYER
 70
0
 71
3
 72
11
 73
7
 74
0
 42
0.0000001
 43
0.0000001
 44
0.0000000001
 40
0.0
 40
0.0
 40
0.0
 40
0.0
 40
0.2897062311
 40
0.5490596185
 40
0.7822840529
 40
1.0
 40
1.0
 40
1.0
 40
1.0
 10
131.9827468991
 20
319.3818766291
 30
0.0
 10
131.993716735
 20
319.3755433347
 30
0.0
 10
132.0136149441
 20
319.3618340375
 30
0.0
 10
132.0374106406
 20
319.3368408906
 30
0.0
 10
132.0524455575
 20
319.3091817123
 30
0.0
 10
132.0559708712
 20
319.2893353695
 30
0.0
 10
132.0559709398
 20
319.2798161916
 30
0.0
  0
SPLINE
  5
46B
100
AcDbEntity
  8
0
100
AcDbSpline
 62
7
  6
BYLAYER
 70
0
 71
3
 72
11
 73
7
 74
0
 42
0.0000001
 43
0.0000001
 44
0.0000000001
 40
0.0
 40
0.0
 40
0.0
 40
0.0
 40
0.2177159471
 40
0.4509403815
 40
0.7102937689
 40
1.0
 40
1.0
 40
1.0
 40
1.0
 10
131.5392232943
 20
319.7375817661
 30
0.0
 10
131.5392234087
 20
319.7217164695
 30
0.0
 10
131.5450989314
 20
319.6886392316
 30
0.0
 10
131.5701571263
 20
319.642540601
 30
0.0
 10
131.6098166205
 20
319.6008853563
 30
0.0
 10
131.6429803024
 20
319.5780365275
 30
0.0
 10
131.6612633621
 20
319.5674810368
 30
0.0
  0
SPLINE
  5
46C
100
AcDbEntity
  8
0
100
AcDbSpline
 62
7
  6
BYLAYER
 70
0
 71
3
 72
11
 73
7
 74
0
 42
0.0000001
 43
0.0000001
 44
0.0000000001
 40
0.0
 40
0.0
 40
0.0
 40
0.0
 40
0.2897060281
 40
0.5490591642
 40
0.7822835676
 40
1.0
 40
1.0
 40
1.0
 40
1.0
 10
130.2633017171
 20
319.5674776768
 30
0.0
 10
130.2815846179
 20
319.5780332515
 30
0.0
 10
130.3147479702
 20
319.6008822366
 30
0.0
 10
130.3544068847
 20
319.6425376943
 30
0.0
 10
130.3794644225
 20
319.6886364858
 30
0.0
 10
130.3853394457
 20
319.7217137212
 30
0.0
 10
130.3853393313
 20
319.7375789924
 30
0.0
  0
SPLINE
  5
46D
100
AcDbEntity
  8
0
100
AcDbSpline
 62
7
  6
BYLAYER
 70
0
 71
3
 72
11
 73
7
 74
0
 42
0.0000001
 43
0.0000001
 44
0.0000000001
 40
0.0
 40
0.0
 40
0.0
 40
0.0
 40
0.2177164324
 40
0.4509408358
 40
0.7102939719
 40
1.0
 40
1.0
 40
1.0
 40
1.0
 10
129.8472599198
 20
319.2674912947
 30
0.0
 10
129.8472598511
 20
319.2770104575
 30
0.0
 10
129.850784865
 20
319.2968567988
 30
0.0
 10
129.8658193878
 20
319.3245160737
 30
0.0
 10
129.8896147365
 20
319.3495093484
 30
0.0
 10
129.9095127479
 20
319.3632187394
 30
0.0
 10
129.9204824885
 20
319.3695520843
 30
0.0
  0
SPLINE
  5
46E
100
AcDbEntity
  8
0
100
AcDbSpline
 62
7
  6
BYLAYER
 70
0
 71
3
 72
23
 73
19
 74
0
 42
0.0000001
 43
0.0000001
 44
0.0000000001
 40
0.0
 40
0.0
 40
0.0
 40
0.0
 40
0.0665848159
 40
0.138435499
 40
0.2140597243
 40
0.2916527494
 40
0.3692459094
 40
0.4448717182
 40
0.5167179011
 40
0.5833037537
 40
0.6436821259
 40
0.6976956743
 40
0.7462777754
 40
0.7916495229
 40
0.8370216153
 40
0.8856028605
 40
0.9396219336
 40
1.0
 40
1.0
 40
1.0
 40
1.0
 10
129.7837766473
 20
319.0571744549
 30
0.0
 10
129.8644523306
 20
319.0105973812
 30
0.0
 10
130.0408731831
 20
318.9284494749
 30
0.0
 10
130.3281575943
 20
318.841126101
 30
0.0
 10
130.6391940632
 20
318.787388092
 30
0.0
 10
130.9622830824
 20
318.7692504284
 30
0.0
 10
131.2853818277
 20
318.7873915093
 30
0.0
 10
131.5963920143
 20
318.8411275769
 30
0.0
 10
131.8837446608
 20
318.9284840085
 30
0.0
 10
132.1368729608
 20
319.0463379441
 30
0.0
 10
132.3465975254
 20
319.1907527014
 30
0.0
 10
132.5051663173
 20
319.3574249893
 30
0.0
 10
132.6054999047
 20
319.5418848574
 30
0.0
 10
132.6402561155
 20
319.7375745458
 30
0.0
 10
132.6055077813
 20
319.9332610007
 30
0.0
 10
132.5051742066
 20
320.1177419784
 30
0.0
 10
132.3466440898
 20
320.2843870863
 30
0.0
 10
132.2139414221
 20
320.3757509439
 30
0.0
 10
132.1407859782
 20
320.4179863036
 30
0.0
  0
SPLINE
  5
46F
100
AcDbEntity
  8
0
100
AcDbSpline
 62
7
  6
BYLAYER
 70
0
 71
3
 72
9
 73
5
 74
0
 42
0.0000001
 43
0.0000001
 44
0.0000000001
 40
0.0
 40
0.0
 40
0.0
 40
0.0
 40
0.4823167273
 40
1.0
 40
1.0
 40
1.0
 40
1.0
 10
129.1945217197
 20
318.0365513137
 30
0.0
 10
129.3033037662
 20
317.9737473907
 30
0.0
 10
129.5393328227
 20
317.8613251174
 30
0.0
 10
129.7875800834
 20
317.7803796767
 30
0.0
 10
129.9178875135
 20
317.7457886102
 30
0.0
  0
SPLINE
  5
470
100
AcDbEntity
  8
0
100
AcDbSpline
 62
7
  6
BYLAYER
 70
0
 71
3
 72
17
 73
13
 74
0
 42
0.0000001
 43
0.0000001
 44
0.0000000001
 40
0.0
 40
0.0
 40
0.0
 40
0.0
 40
0.1444402633
 40
0.2929392257
 40
0.4394643791
 40
0.5782302788
 40
0.7045099009
 40
0.8155978423
 40
0.8656160625
 40
0.9124311617
 40
0.9568577424
 40
1.0
 40
1.0
 40
1.0
 40
1.0
 10
129.9524883222
 20
317.7367869317
 30
0.0
 10
130.1469094749
 20
317.6872302965
 30
0.0
 10
130.5499155629
 20
317.6188593567
 30
0.0
 10
131.1620812982
 20
317.6038874349
 30
0.0
 10
131.7626412554
 20
317.6744496796
 30
0.0
 10
132.3163486276
 20
317.8266611971
 30
0.0
 10
132.7911059091
 20
318.051708896
 30
0.0
 10
133.1100596409
 20
318.2999784928
 30
0.0
 10
133.2930595103
 20
318.5249144655
 30
0.0
 10
133.389842985
 20
318.6968695115
 30
0.0
 10
133.4489583935
 20
318.8752121311
 30
0.0
 10
133.4622713186
 20
318.9972340952
 30
0.0
 10
133.4622766424
 20
319.0571616985
 30
0.0
  0
SPLINE
  5
471
100
AcDbEntity
  8
0
100
AcDbSpline
 62
7
  6
BYLAYER
 70
0
 71
3
 72
23
 73
19
 74
0
 42
0.0000001
 43
0.0000001
 44
0.0000000001
 40
0.0
 40
0.0
 40
0.0
 40
0.0
 40
0.0665848159
 40
0.138435499
 40
0.2140597243
 40
0.2916527494
 40
0.3692459094
 40
0.4448717182
 40
0.5167179011
 40
0.5833037537
 40
0.6436821259
 40
0.6976956743
 40
0.7462777754
 40
0.7916495229
 40
0.8370216153
 40
0.8856028605
 40
0.9396219336
 40
1.0
 40
1.0
 40
1.0
 40
1.0
 10
132.1407859782
 20
320.4179863036
 30
0.0
 10
132.0601102949
 20
320.4645633774
 30
0.0
 10
131.8836894424
 20
320.5467112837
 30
0.0
 10
131.5964050311
 20
320.6340346576
 30
0.0
 10
131.2853685623
 20
320.6877726665
 30
0.0
 10
130.9622795431
 20
320.7059103302
 30
0.0
 10
130.6391807978
 20
320.6877692492
 30
0.0
 10
130.3281706112
 20
320.6340331817
 30
0.0
 10
130.0408179646
 20
320.5466767501
 30
0.0
 10
129.7876896647
 20
320.4288228144
 30
0.0
 10
129.5779651
 20
320.2844080572
 30
0.0
 10
129.4193963081
 20
320.1177357692
 30
0.0
 10
129.3190627208
 20
319.9332759011
 30
0.0
 10
129.28430651
 20
319.7375862128
 30
0.0
 10
129.3190548442
 20
319.5418997579
 30
0.0
 10
129.4193884189
 20
319.3574187802
 30
0.0
 10
129.5779185357
 20
319.1907736723
 30
0.0
 10
129.7106212034
 20
319.0994098147
 30
0.0
 10
129.7837766473
 20
319.0571744549
 30
0.0
  0
SPLINE
  5
472
100
AcDbEntity
  8
0
100
AcDbSpline
 62
7
  6
BYLAYER
 70
0
 71
3
 72
11
 73
7
 74
0
 42
0.0000001
 43
0.0000001
 44
0.0000000001
 40
0.0
 40
0.0
 40
0.0
 40
0.0
 40
0.2897062311
 40
0.5490596185
 40
0.7822840529
 40
1.0
 40
1.0
 40
1.0
 40
1.0
 10
132.0040786651
 20
320.3097299013
 30
0.0
 10
132.0150485009
 20
320.3033966069
 30
0.0
 10
132.0349467101
 20
320.2896873097
 30
0.0
 10
132.0587424065
 20
320.2646941628
 30
0.0
 10
132.0737773235
 20
320.2370349845
 30
0.0
 10
132.0773026371
 20
320.2171886417
 30
0.0
 10
132.0773027058
 20
320.2076694638
 30
0.0
  0
SPLINE
  5
473
100
AcDbEntity
  8
0
100
AcDbSpline
 62
7
  6
BYLAYER
 70
0
 71
3
 72
9
 73
5
 74
0
 42
0.0000001
 43
0.0000001
 44
0.0000000001
 40
0.0
 40
0.0
 40
0.0
 40
0.0
 40
0.5255657768
 40
1.0
 40
1.0
 40
1.0
 40
1.0
 10
131.7765018468
 20
320.3813329919
 30
0.0
 10
131.8086019508
 20
320.3813330691
 30
0.0
 10
131.8698435283
 20
320.3746944326
 30
0.0
 10
131.9281837741
 20
320.3535468458
 30
0.0
 10
131.9532788469
 20
320.3390585265
 30
0.0
  0
SPLINE
  5
474
100
AcDbEntity
  8
0
100
AcDbSpline
 62
7
  6
BYLAYER
 70
0
 71
3
 72
9
 73
5
 74
0
 42
0.0000001
 43
0.0000001
 44
0.0000000001
 40
0.0
 40
0.0
 40
0.0
 40
0.0
 40
0.4744336899
 40
1.0
 40
1.0
 40
1.0
 40
1.0
 10
131.5997254563
 20
320.3390576767
 30
0.0
 10
131.6248203436
 20
320.3535461301
 30
0.0
 10
131.6831603599
 20
320.3746940069
 30
0.0
 10
131.7444017777
 20
320.3813329147
 30
0.0
 10
131.7765018468
 20
320.3813329919
 30
0.0
  0
SPLINE
  5
475
100
AcDbEntity
  8
0
100
AcDbSpline
 62
7
  6
BYLAYER
 70
0
 71
3
 72
12
 73
8
 74
0
 42
0.0000001
 43
0.0000001
 44
0.0000000001
 40
0.0
 40
0.0
 40
0.0
 40
0.0
 40
0.1081609828
 40
0.2183621381
 40
0.4513672884
 40
0.7104122728
 40
1.0
 40
1.0
 40
1.0
 40
1.0
 10
128.4622859831
 20
319.0571616982
 30
0.0
 10
128.4622817787
 20
319.0098336776
 30
0.0
 10
128.4705196446
 20
318.9140871707
 30
0.0
 10
128.5202446214
 20
318.7221308681
 30
0.0
 10
128.6479372422
 20
318.4867731023
 30
0.0
 10
128.8857305438
 20
318.2369921651
 30
0.0
 10
129.0847827298
 20
318.0999077158
 30
0.0
 10
129.1945217197
 20
318.0365513137
 30
0.0
  0
SPLINE
  5
476
100
AcDbEntity
  8
0
100
AcDbSpline
 62
7
  6
BYLAYER
 70
0
 71
3
 72
9
 73
5
 74
0
 42
0.0000001
 43
0.0000001
 44
0.0000000001
 40
0.0
 40
0.0
 40
0.0
 40
0.0
 40
0.5255663101
 40
1.0
 40
1.0
 40
1.0
 40
1.0
 10
130.9622789108
 20
320.0706732257
 30
0.0
 10
131.0157790258
 20
320.0706733543
 30
0.0
 10
131.1178480553
 20
320.0817382006
 30
0.0
 10
131.2150814157
 20
320.1169846618
 30
0.0
 10
131.2569062277
 20
320.1411320842
 30
0.0
  0
SPLINE
  5
477
100
AcDbEntity
  8
0
100
AcDbSpline
 62
7
  6
BYLAYER
 70
0
 71
3
 72
9
 73
5
 74
0
 42
0.0000001
 43
0.0000001
 44
0.0000000001
 40
0.0
 40
0.0
 40
0.0
 40
0.0
 40
0.4744342232
 40
1.0
 40
1.0
 40
1.0
 40
1.0
 10
130.6676505771
 20
320.141130668
 30
0.0
 10
130.7094756985
 20
320.1169834692
 30
0.0
 10
130.8067094415
 20
320.0817374911
 30
0.0
 10
130.9087787373
 20
320.0706730971
 30
0.0
 10
130.9622789108
 20
320.0706732257
 30
0.0
  0
SPLINE
  5
478
100
AcDbEntity
  8
0
100
AcDbSpline
 62
7
  6
BYLAYER
 70
0
 71
3
 72
9
 73
5
 74
0
 42
0.0000001
 43
0.0000001
 44
0.0000000001
 40
0.0
 40
0.0
 40
0.0
 40
0.0
 40
0.5255657768
 40
1.0
 40
1.0
 40
1.0
 40
1.0
 10
130.1267129483
 20
320.393648614
 30
0.0
 10
130.1588130524
 20
320.3936486912
 30
0.0
 10
130.2200546299
 20
320.3870100548
 30
0.0
 10
130.2783948757
 20
320.3658624679
 30
0.0
 10
130.3034899485
 20
320.3513741486
 30
0.0
  0
SPLINE
  5
479
100
AcDbEntity
  8
0
100
AcDbSpline
 62
7
  6
BYLAYER
 70
0
 71
3
 72
9
 73
5
 74
0
 42
0.0000001
 43
0.0000001
 44
0.0000000001
 40
0.0
 40
0.0
 40
0.0
 40
0.0
 40
0.5255657768
 40
1.0
 40
1.0
 40
1.0
 40
1.0
 10
126.1911984734
 20
37.1155204407
 30
0.0
 10
126.0884781405
 20
37.1155201938
 30
0.0
 10
125.8925050925
 20
37.1367638304
 30
0.0
 10
125.7058163059
 20
37.2044361083
 30
0.0
 10
125.6255120729
 20
37.25079873
 30
0.0
  0
SPLINE
  5
47A
100
AcDbEntity
  8
0
100
AcDbSpline
 62
7
  6
BYLAYER
 70
0
 71
3
 72
9
 73
5
 74
0
 42
0.0000001
 43
0.0000001
 44
0.0000000001
 40
0.0
 40
0.0
 40
0.0
 40
0.0
 40
0.4744336899
 40
1.0
 40
1.0
 40
1.0
 40
1.0
 10
126.7568829228
 20
37.2508014495
 30
0.0
 10
126.6765792835
 20
37.2044383984
 30
0.0
 10
126.4898912313
 20
37.1367651927
 30
0.0
 10
126.2939186944
 20
37.1155206876
 30
0.0
 10
126.1911984734
 20
37.1155204407
 30
0.0
  0
SPLINE
  5
47B
100
AcDbEntity
  8
0
100
AcDbSpline
 62
7
  6
BYLAYER
 70
0
 71
3
 72
11
 73
7
 74
0
 42
0.0000001
 43
0.0000001
 44
0.0000000001
 40
0.0
 40
0.0
 40
0.0
 40
0.0
 40
0.2068559305
 40
0.4365751433
 40
0.7006923235
 40
1.0
 40
1.0
 40
1.0
 40
1.0
 10
130.2807595007
 20
37.8056655386
 30
0.0
 10
130.2799915978
 20
37.8272453703
 30
0.0
 10
130.2680268894
 20
37.8727898531
 30
0.0
 10
130.2236160192
 20
37.9324970276
 30
0.0
 10
130.1571229014
 20
37.9831415662
 30
0.0
 10
130.1034673887
 20
38.0082201801
 30
0.0
 10
130.0741796322
 20
38.0191032972
 30
0.0
  0
SPLINE
  5
47C
100
AcDbEntity
  8
0
100
AcDbSpline
 62
7
  6
BYLAYER
 70
0
 71
3
 72
15
 73
11
 74
0
 42
0.0000001
 43
0.0000001
 44
0.0000000001
 40
0.0
 40
0.0
 40
0.0
 40
0.0
 40
0.1160876616
 40
0.23944565
 40
0.3682703344
 40
0.5000002978
 40
0.6317302146
 40
0.7605546944
 40
0.8839122652
 40
1.0
 40
1.0
 40
1.0
 40
1.0
 10
127.6336691744
 20
35.7509067149
 30
0.0
 10
128.0625528245
 20
35.5032835444
 30
0.0
 10
128.9922255817
 20
35.0684544911
 30
0.0
 10
130.4986585734
 20
34.6081106323
 30
0.0
 10
132.1161732569
 20
34.3268726029
 30
0.0
 10
133.7905950987
 20
34.2323061195
 30
0.0
 10
135.465016854
 20
34.3268587087
 30
0.0
 10
137.0825310676
 20
34.6080822724
 30
0.0
 10
138.5889665489
 20
35.0684094745
 30
0.0
 10
139.5186433826
 20
35.503225888
 30
0.0
 10
139.9475310088
 20
35.7508427963
 30
0.0
  0
SPLINE
  5
47D
100
AcDbEntity
  8
0
100
AcDbSpline
 62
7
  6
BYLAYER
 70
0
 71
3
 72
13
 73
9
 74
0
 42
0.0000001
 43
0.0000001
 44
0.0000000001
 40
0.0
 40
0.0
 40
0.0
 40
0.0
 40
0.2723561333
 40
0.5259639819
 40
0.647495376
 40
0.766467371
 40
0.8836992809
 40
1.0
 40
1.0
 40
1.0
 40
1.0
 10
139.9476417177
 20
35.7509067149
 30
0.0
 10
140.3503084252
 20
35.9833930937
 30
0.0
 10
141.0939268093
 20
36.4965506384
 30
0.0
 10
141.8629137957
 20
37.3055405861
 30
0.0
 10
142.3169817393
 20
38.0192398135
 30
0.0
 10
142.5705513773
 20
38.5772722819
 30
0.0
 10
142.7350336573
 20
39.1585408937
 30
0.0
 10
142.7815125693
 20
39.5565782539
 30
0.0
 10
142.7884286314
 20
39.7550048114
 30
0.0
  0
SPLINE
  5
47E
100
AcDbEntity
  8
0
100
AcDbSpline
 62
7
  6
BYLAYER
 70
0
 71
3
 72
9
 73
5
 74
0
 42
0.0000001
 43
0.0000001
 44
0.0000000001
 40
0.0
 40
0.0
 40
0.0
 40
0.0
 40
0.2396039715
 40
1.0
 40
1.0
 40
1.0
 40
1.0
 10
125.9105672757
 20
37.1268158218
 30
0.0
 10
126.0273147985
 20
36.994356035
 30
0.0
 10
126.5412892199
 20
36.4651115554
 30
0.0
 10
127.1484023289
 20
36.0310836691
 30
0.0
 10
127.6336691744
 20
35.7509067149
 30
0.0
  0
SPLINE
  5
47F
100
AcDbEntity
  8
0
100
AcDbSpline
 62
7
  6
BYLAYER
 70
0
 71
3
 72
11
 73
7
 74
0
 42
0.0000001
 43
0.0000001
 44
0.0000000001
 40
0.0
 40
0.0
 40
0.0
 40
0.0
 40
0.2857492054
 40
0.5435709782
 40
0.7783450801
 40
1.0
 40
1.0
 40
1.0
 40
1.0
 10
115.6329036815
 20
42.8759979851
 30
0.0
 10
115.6030677673
 20
42.8957429723
 30
0.0
 10
115.5490415897
 20
42.937833217
 30
0.0
 10
115.4853041177
 20
43.012650769
 30
0.0
 10
115.4456254502
 20
43.0939834091
 30
0.0
 10
115.4363907895
 20
43.1514512263
 30
0.0
 10
115.43639309
 20
43.1792039225
 30
0.0
  0
LINE
  5
480
100
AcDbEntity
  8
0
100
AcDbLine
 62
7
  6
BYLAYER
 10
115.7021310615
 20
42.8299783336
 11
115.6329036815
 21
42.8759979851
  0
SPLINE
  5
481
100
AcDbEntity
  8
0
100
AcDbSpline
 62
7
  6
BYLAYER
 70
0
 71
3
 72
9
 73
5
 74
0
 42
0.0000001
 43
0.0000001
 44
0.0000000001
 40
0.0
 40
0.0
 40
0.0
 40
0.0
 40
0.5255657768
 40
1.0
 40
1.0
 40
1.0
 40
1.0
 10
136.7959179844
 20
36.502090762
 30
0.0
 10
136.6931976514
 20
36.5020905151
 30
0.0
 10
136.4972246034
 20
36.5233341517
 30
0.0
 10
136.3105358168
 20
36.5910064296
 30
0.0
 10
136.2302315839
 20
36.6373690513
 30
0.0
  0
SPLINE
  5
482
100
AcDbEntity
  8
0
100
AcDbSpline
 62
7
  6
BYLAYER
 70
0
 71
3
 72
9
 73
5
 74
0
 42
0.0000001
 43
0.0000001
 44
0.0000000001
 40
0.0
 40
0.0
 40
0.0
 40
0.0
 40
0.4744336898
 40
1.0
 40
1.0
 40
1.0
 40
1.0
 10
137.3616024345
 20
36.6373717711
 30
0.0
 10
137.2812987951
 20
36.59100872
 30
0.0
 10
137.0946107427
 20
36.523335514
 30
0.0
 10
136.8986382055
 20
36.5020910089
 30
0.0
 10
136.7959179844
 20
36.502090762
 30
0.0
  0
SPLINE
  5
483
100
AcDbEntity
  8
0
100
AcDbSpline
 62
7
  6
BYLAYER
 70
0
 71
3
 72
11
 73
7
 74
0
 42
0.0000001
 43
0.0000001
 44
0.0000000001
 40
0.0
 40
0.0
 40
0.0
 40
0.0
 40
0.2177164324
 40
0.4509408358
 40
0.7102939719
 40
1.0
 40
1.0
 40
1.0
 40
1.0
 10
147.3418152785
 20
42.638559837
 30
0.0
 10
147.3418155531
 20
42.6004831859
 30
0.0
 10
147.3277154975
 20
42.5210978207
 30
0.0
 10
147.2675774064
 20
42.4104607209
 30
0.0
 10
147.1723960114
 20
42.3104876224
 30
0.0
 10
147.0928039658
 20
42.2556500581
 30
0.0
 10
147.0489250036
 20
42.2303166787
 30
0.0
  0
SPLINE
  5
484
100
AcDbEntity
  8
0
100
AcDbSpline
 62
7
  6
BYLAYER
 70
0
 71
3
 72
9
 73
5
 74
0
 42
0.0000001
 43
0.0000001
 44
0.0000000001
 40
0.0
 40
0.0
 40
0.0
 40
0.0
 40
0.2372066285
 40
1.0
 40
1.0
 40
1.0
 40
1.0
 10
114.5415907941
 20
46.4012359525
 30
0.0
 10
114.537459353
 20
46.4063913294
 30
0.0
 10
114.5191364743
 20
46.4273963463
 30
0.0
 10
114.4975899346
 20
46.4454771454
 30
0.0
 10
114.4801827639
 20
46.4576565816
 30
0.0
  0
SPLINE
  5
485
100
AcDbEntity
  8
0
100
AcDbSpline
 62
7
  6
BYLAYER
 70
0
 71
3
 72
9
 73
5
 74
0
 42
0.0000001
 43
0.0000001
 44
0.0000000001
 40
0.0
 40
0.0
 40
0.0
 40
0.0
 40
0.2601874101
 40
1.0
 40
1.0
 40
1.0
 40
1.0
 10
129.4048103386
 20
38.0018123904
 30
0.0
 10
129.3866036042
 20
38.0023736886
 30
0.0
 10
129.3167826725
 20
38.0073045914
 30
0.0
 10
129.2474085286
 20
38.0230833026
 30
0.0
 10
129.1992793135
 20
38.0422177491
 30
0.0
  0
SPLINE
  5
486
100
AcDbEntity
  8
0
100
AcDbSpline
 62
7
  6
BYLAYER
 70
0
 71
3
 72
9
 73
5
 74
0
 42
0.0000001
 43
0.0000001
 44
0.0000000001
 40
0.0
 40
0.0
 40
0.0
 40
0.0
 40
0.2412953819
 40
1.0
 40
1.0
 40
1.0
 40
1.0
 10
129.6166255389
 20
38.0293513196
 30
0.0
 10
129.6001855772
 20
38.0242110447
 30
0.0
 10
129.5310591206
 20
38.0061667713
 30
0.0
 10
129.4589446198
 20
38.0001434765
 30
0.0
 10
129.4048103386
 20
38.0018123904
 30
0.0
  0
SPLINE
  5
487
100
AcDbEntity
  8
0
100
AcDbSpline
 62
7
  6
BYLAYER
 70
0
 71
3
 72
9
 73
5
 74
0
 42
0.0000001
 43
0.0000001
 44
0.0000000001
 40
0.0
 40
0.0
 40
0.0
 40
0.0
 40
0.4965566634
 40
1.0
 40
1.0
 40
1.0
 40
1.0
 10
130.0741796322
 20
38.0191032972
 30
0.0
 10
130.0022921518
 20
38.0458161614
 30
0.0
 10
129.8469269855
 20
38.071494948
 30
0.0
 10
129.6908680905
 20
38.0524532236
 30
0.0
 10
129.6166255389
 20
38.0293513196
 30
0.0
  0
SPLINE
  5
488
100
AcDbEntity
  8
0
100
AcDbSpline
 62
7
  6
BYLAYER
 70
0
 71
3
 72
9
 73
5
 74
0
 42
0.0000001
 43
0.0000001
 44
0.0000000001
 40
0.0
 40
0.0
 40
0.0
 40
0.0
 40
0.5181657412
 40
1.0
 40
1.0
 40
1.0
 40
1.0
 10
130.3106306647
 20
37.675290315
 30
0.0
 10
130.3006663316
 20
37.6886398415
 30
0.0
 10
130.2845466851
 20
37.7170727359
 30
0.0
 10
130.2786058481
 20
37.7494307534
 30
0.0
 10
130.2786051897
 20
37.7649210147
 30
0.0
  0
SPLINE
  5
489
100
AcDbEntity
  8
0
100
AcDbSpline
 62
7
  6
BYLAYER
 70
0
 71
3
 72
9
 73
5
 74
0
 42
0.0000001
 43
0.0000001
 44
0.0000000001
 40
0.0
 40
0.0
 40
0.0
 40
0.0
 40
0.2759147208
 40
1.0
 40
1.0
 40
1.0
 40
1.0
 10
130.424975901
 20
37.5884645115
 30
0.0
 10
130.4129374285
 20
37.5940565866
 30
0.0
 10
130.3703636973
 20
37.6162576412
 30
0.0
 10
130.3314674871
 20
37.6473745767
 30
0.0
 10
130.3106306647
 20
37.675290315
 30
0.0
  0
SPLINE
  5
48A
100
AcDbEntity
  8
0
100
AcDbSpline
 62
7
  6
BYLAYER
 70
0
 71
3
 72
9
 73
5
 74
0
 42
0.0000001
 43
0.0000001
 44
0.0000000001
 40
0.0
 40
0.0
 40
0.0
 40
0.0
 40
0.2469319429
 40
1.0
 40
1.0
 40
1.0
 40
1.0
 10
134.3757895537
 20
37.0957090278
 30
0.0
 10
134.323878918
 20
37.0858069106
 30
0.0
 10
134.112978368
 20
37.0493263498
 30
0.0
 10
133.8996513805
 20
37.0270468803
 30
0.0
 10
133.7387418742
 20
37.0179525834
 30
0.0
  0
SPLINE
  5
48B
100
AcDbEntity
  8
0
100
AcDbSpline
 62
7
  6
BYLAYER
 70
0
 71
3
 72
9
 73
5
 74
0
 42
0.0000001
 43
0.0000001
 44
0.0000000001
 40
0.0
 40
0.0
 40
0.0
 40
0.0
 40
0.2439727904
 40
1.0
 40
1.0
 40
1.0
 40
1.0
 10
135.079504705
 20
37.2866027889
 30
0.0
 10
135.0235384585
 20
37.2669223724
 30
0.0
 10
134.7926077092
 20
37.1906589626
 30
0.0
 10
134.5561052347
 20
37.1315313212
 30
0.0
 10
134.3757895537
 20
37.0957090278
 30
0.0
  0
SPLINE
  5
48C
100
AcDbEntity
  8
0
100
AcDbSpline
 62
7
  6
BYLAYER
 70
0
 71
3
 72
9
 73
5
 74
0
 42
0.0000001
 43
0.0000001
 44
0.0000000001
 40
0.0
 40
0.0
 40
0.0
 40
0.0
 40
0.2413147141
 40
1.0
 40
1.0
 40
1.0
 40
1.0
 10
135.6961639741
 20
37.5600160026
 30
0.0
 10
135.6486242837
 20
37.5337863376
 30
0.0
 10
135.4491166161
 20
37.4296549472
 30
0.0
 10
135.2405418795
 20
37.3432311833
 30
0.0
 10
135.079504705
 20
37.2866027889
 30
0.0
  0
SPLINE
  5
48D
100
AcDbEntity
  8
0
100
AcDbSpline
 62
7
  6
BYLAYER
 70
0
 71
3
 72
10
 73
6
 74
0
 42
0.0000001
 43
0.0000001
 44
0.0000000001
 40
0.0
 40
0.0
 40
0.0
 40
0.0
 40
0.4483750671
 40
0.7109722496
 40
1.0
 40
1.0
 40
1.0
 40
1.0
 10
136.0200092498
 20
37.8784180286
 30
0.0
 10
136.0004391136
 20
37.8117150115
 30
0.0
 10
135.9341563835
 20
37.7160763522
 30
0.0
 10
135.8122245594
 20
37.6203364889
 30
0.0
 10
135.7368161104
 20
37.5788662958
 30
0.0
 10
135.6961639741
 20
37.5600160026
 30
0.0
  0
SPLINE
  5
48E
100
AcDbEntity
  8
0
100
AcDbSpline
 62
7
  6
BYLAYER
 70
0
 71
3
 72
9
 73
5
 74
0
 42
0.0000001
 43
0.0000001
 44
0.0000000001
 40
0.0
 40
0.0
 40
0.0
 40
0.0
 40
0.5118166122
 40
1.0
 40
1.0
 40
1.0
 40
1.0
 10
149.2834803629
 20
45.5360409363
 30
0.0
 10
149.1756280393
 20
45.5254930324
 30
0.0
 10
148.9622823841
 20
45.527056166
 30
0.0
 10
148.7533253803
 20
45.5726407171
 30
0.0
 10
148.6560968002
 20
45.6077194607
 30
0.0
  0
SPLINE
  5
48F
100
AcDbEntity
  8
0
100
AcDbSpline
 62
7
  6
BYLAYER
 70
0
 71
3
 72
9
 73
5
 74
0
 42
0.0000001
 43
0.0000001
 44
0.0000000001
 40
0.0
 40
0.0
 40
0.0
 40
0.0
 40
0.4682831591
 40
1.0
 40
1.0
 40
1.0
 40
1.0
 10
149.8349740369
 20
45.7230130719
 30
0.0
 10
149.7605636911
 20
45.6695231059
 30
0.0
 10
149.5804510191
 20
45.5848249704
 30
0.0
 10
149.3870409942
 20
45.5461691148
 30
0.0
 10
149.2834803629
 20
45.5360409363
 30
0.0
  0
SPLINE
  5
490
100
AcDbEntity
  8
0
100
AcDbSpline
 62
7
  6
BYLAYER
 70
0
 71
3
 72
9
 73
5
 74
0
 42
0.0000001
 43
0.0000001
 44
0.0000000001
 40
0.0
 40
0.0
 40
0.0
 40
0.0
 40
0.2389907174
 40
1.0
 40
1.0
 40
1.0
 40
1.0
 10
150.3085412495
 20
46.0790386537
 30
0.0
 10
150.2742486776
 20
46.0465324374
 30
0.0
 10
150.1265808701
 20
45.9149419565
 30
0.0
 10
149.9637556604
 20
45.8008151268
 30
0.0
 10
149.8349740369
 20
45.7230130719
 30
0.0
  0
SPLINE
  5
491
100
AcDbEntity
  8
0
100
AcDbSpline
 62
7
  6
BYLAYER
 70
0
 71
3
 72
9
 73
5
 74
0
 42
0.0000001
 43
0.0000001
 44
0.0000000001
 40
0.0
 40
0.0
 40
0.0
 40
0.0
 40
0.23914411
 40
1.0
 40
1.0
 40
1.0
 40
1.0
 10
150.6391778097
 20
46.4853245669
 30
0.0
 10
150.617761218
 20
46.4493903199
 30
0.0
 10
150.5223446387
 20
46.3026354767
 30
0.0
 10
150.4051342363
 20
46.1705999552
 30
0.0
 10
150.3085412495
 20
46.0790386537
 30
0.0
  0
SPLINE
  5
492
100
AcDbEntity
  8
0
100
AcDbSpline
 62
7
  6
BYLAYER
 70
0
 71
3
 72
9
 73
5
 74
0
 42
0.0000001
 43
0.0000001
 44
0.0000000001
 40
0.0
 40
0.0
 40
0.0
 40
0.0
 40
0.2433973571
 40
1.0
 40
1.0
 40
1.0
 40
1.0
 10
150.7738525429
 20
46.8531196056
 30
0.0
 10
150.7685247483
 20
46.8216954464
 30
0.0
 10
150.7405558467
 20
46.693639704
 30
0.0
 10
150.6883872754
 20
46.5713160422
 30
0.0
 10
150.6391778097
 20
46.4853245669
 30
0.0
  0
LINE
  5
493
100
AcDbEntity
  8
0
100
AcDbLine
 62
7
  6
BYLAYER
 10
115.6325649326
 20
45.3257298494
 11
115.4364114279
 21
45.4557865367
  0
LINE
  5
494
100
AcDbEntity
  8
0
100
AcDbLine
 62
7
  6
BYLAYER
 10
115.3568367929
 20
45.5084072572
 11
115.1715514279
 21
45.6306201366
  0
SPLINE
  5
495
100
AcDbEntity
  8
0
100
AcDbSpline
 62
7
  6
BYLAYER
 70
0
 71
3
 72
9
 73
5
 74
0
 42
0.0000001
 43
0.0000001
 44
0.0000000001
 40
0.0
 40
0.0
 40
0.0
 40
0.0
 40
0.2802757735
 40
1.0
 40
1.0
 40
1.0
 40
1.0
 10
114.6378577193
 20
45.9802243685
 30
0.0
 10
114.626619103
 20
45.9875489185
 30
0.0
 10
114.5881845892
 20
46.015784025
 30
0.0
 10
114.5563357926
 20
46.0554839153
 30
0.0
 10
114.5450515774
 20
46.0880312121
 30
0.0
  0
SPLINE
  5
496
100
AcDbEntity
  8
0
100
AcDbSpline
 62
7
  6
BYLAYER
 70
0
 71
3
 72
8
 73
4
 74
0
 42
0.0000001
 43
0.0000001
 44
0.0000000001
 40
0.0
 40
0.0
 40
0.0
 40
0.0
 40
1.0
 40
1.0
 40
1.0
 40
1.0
 10
114.5450515774
 20
46.0880312121
 30
0.0
 10
114.5400299431
 20
46.1025152166
 30
0.0
 10
114.5372721567
 20
46.1180279037
 30
0.0
 10
114.5372710457
 20
46.1333577177
 30
0.0
  0
SPLINE
  5
497
100
AcDbEntity
  8
0
100
AcDbSpline
 62
7
  6
BYLAYER
 70
0
 71
3
 72
9
 73
5
 74
0
 42
0.0000001
 43
0.0000001
 44
0.0000000001
 40
0.0
 40
0.0
 40
0.0
 40
0.0
 40
0.468676756
 40
1.0
 40
1.0
 40
1.0
 40
1.0
 10
114.4801827639
 20
46.4576565816
 30
0.0
 10
114.4257485166
 20
46.4957430952
 30
0.0
 10
114.28917581
 20
46.5469991386
 30
0.0
 10
114.1458926046
 20
46.5556639451
 30
0.0
 10
114.0708207968
 20
46.5496081044
 30
0.0
  0
SPLINE
  5
498
100
AcDbEntity
  8
0
100
AcDbSpline
 62
7
  6
BYLAYER
 70
0
 71
3
 72
9
 73
5
 74
0
 42
0.0000001
 43
0.0000001
 44
0.0000000001
 40
0.0
 40
0.0
 40
0.0
 40
0.0
 40
0.2532145011
 40
1.0
 40
1.0
 40
1.0
 40
1.0
 10
114.0708207968
 20
46.5496081044
 30
0.0
 10
114.0530145088
 20
46.548171719
 30
0.0
 10
113.9825122381
 20
46.545279906
 30
0.0
 10
113.9114518898
 20
46.5530371556
 30
0.0
 10
113.8602573175
 20
46.5654811335
 30
0.0
  0
SPLINE
  5
499
100
AcDbEntity
  8
0
100
AcDbSpline
 62
7
  6
BYLAYER
 70
0
 71
3
 72
9
 73
5
 74
0
 42
0.0000001
 43
0.0000001
 44
0.0000000001
 40
0.0
 40
0.0
 40
0.0
 40
0.0
 40
0.2714876873
 40
1.0
 40
1.0
 40
1.0
 40
1.0
 10
113.8602573175
 20
46.5654811335
 30
0.0
 10
113.8440798251
 20
46.5694134324
 30
0.0
 10
113.7852309187
 20
46.5863889913
 30
0.0
 10
113.7286020785
 20
46.6137843212
 30
0.0
 10
113.6934374078
 20
46.6413395192
 30
0.0
  0
SPLINE
  5
49A
100
AcDbEntity
  8
0
100
AcDbSpline
 62
7
  6
BYLAYER
 70
0
 71
3
 72
9
 73
5
 74
0
 42
0.0000001
 43
0.0000001
 44
0.0000000001
 40
0.0
 40
0.0
 40
0.0
 40
0.0
 40
0.2551707188
 40
1.0
 40
1.0
 40
1.0
 40
1.0
 10
113.6934374078
 20
46.6413395192
 30
0.0
 10
113.6323030526
 20
46.6892446816
 30
0.0
 10
113.394999734
 20
46.8798623941
 30
0.0
 10
113.1670434732
 20
47.0821950016
 30
0.0
 10
113.003867263
 20
47.2395807856
 30
0.0
  0
SPLINE
  5
49B
100
AcDbEntity
  8
0
100
AcDbSpline
 62
7
  6
BYLAYER
 70
0
 71
3
 72
9
 73
5
 74
0
 42
0.0000001
 43
0.0000001
 44
0.0000000001
 40
0.0
 40
0.0
 40
0.0
 40
0.0
 40
0.2552371616
 40
1.0
 40
1.0
 40
1.0
 40
1.0
 10
113.003867263
 20
47.2395807856
 30
0.0
 10
112.950942561
 20
47.2906274162
 30
0.0
 10
112.746292357
 20
47.4933991523
 30
0.0
 10
112.5527486754
 20
47.707462617
 30
0.0
 10
112.4163639915
 20
47.8730950588
 30
0.0
  0
SPLINE
  5
49C
100
AcDbEntity
  8
0
100
AcDbSpline
 62
7
  6
BYLAYER
 70
0
 71
3
 72
9
 73
5
 74
0
 42
0.0000001
 43
0.0000001
 44
0.0000000001
 40
0.0
 40
0.0
 40
0.0
 40
0.0
 40
0.5166174518
 40
1.0
 40
1.0
 40
1.0
 40
1.0
 10
112.4163639915
 20
47.8730950588
 30
0.0
 10
112.3575592698
 20
47.9489388815
 30
0.0
 10
112.2568775416
 20
48.1068008345
 30
0.0
 10
112.1940361837
 20
48.2837988231
 30
0.0
 10
112.1750621998
 20
48.3715676056
 30
0.0
  0
SPLINE
  5
49D
100
AcDbEntity
  8
0
100
AcDbSpline
 62
7
  6
BYLAYER
 70
0
 71
3
 72
9
 73
5
 74
0
 42
0.0000001
 43
0.0000001
 44
0.0000000001
 40
0.0
 40
0.0
 40
0.0
 40
0.0
 40
0.4957057874
 40
1.0
 40
1.0
 40
1.0
 40
1.0
 10
142.788225451
 20
39.7621504342
 30
0.0
 10
142.7823882593
 20
39.6172286478
 30
0.0
 10
142.7493058863
 20
39.3253641336
 30
0.0
 10
142.6752577478
 20
39.0412151181
 30
0.0
 10
142.6286086254
 20
38.9012311564
 30
0.0
  0
SPLINE
  5
49E
100
AcDbEntity
  8
0
100
AcDbSpline
 62
7
  6
BYLAYER
 70
0
 71
3
 72
11
 73
7
 74
0
 42
0.0000001
 43
0.0000001
 44
0.0000000001
 40
0.0
 40
0.0
 40
0.0
 40
0.0
 40
0.2207680759
 40
0.4589080927
 40
0.7182254242
 40
1.0
 40
1.0
 40
1.0
 40
1.0
 10
142.6286086254
 20
38.9012311564
 30
0.0
 10
142.5417968954
 20
38.6407278655
 30
0.0
 10
142.2930686262
 20
38.1204663563
 30
0.0
 10
141.7435200099
 20
37.4095318315
 30
0.0
 10
141.0213096727
 20
36.7568373834
 30
0.0
 10
140.4581560573
 20
36.3838610533
 30
0.0
 10
140.1546429724
 20
36.208628738
 30
0.0
  0
SPLINE
  5
49F
100
AcDbEntity
  8
0
100
AcDbSpline
 62
7
  6
BYLAYER
 70
0
 71
3
 72
9
 73
5
 74
0
 42
0.0000001
 43
0.0000001
 44
0.0000000001
 40
0.0
 40
0.0
 40
0.0
 40
0.0
 40
0.2731948011
 40
1.0
 40
1.0
 40
1.0
 40
1.0
 10
130.0741796322
 20
47.0006298856
 30
0.0
 10
130.0891039025
 20
46.9950841354
 30
0.0
 10
130.1427411096
 20
46.9725053907
 30
0.0
 10
130.193081666
 20
46.9400404534
 30
0.0
 10
130.2226927442
 20
46.9097534839
 30
0.0
  0
SPLINE
  5
4A0
100
AcDbEntity
  8
0
100
AcDbSpline
 62
7
  6
BYLAYER
 70
0
 71
3
 72
8
 73
4
 74
0
 42
0.0000001
 43
0.0000001
 44
0.0000000001
 40
0.0
 40
0.0
 40
0.0
 40
0.0
 40
1.0
 40
1.0
 40
1.0
 40
1.0
 10
130.232863439
 20
46.8987408724
 30
0.0
 10
130.2388660183
 20
46.8918470513
 30
0.0
 10
130.2445001122
 20
46.8846079689
 30
0.0
 10
130.2496432921
 20
46.8770512879
 30
0.0
  0
SPLINE
  5
4A1
100
AcDbEntity
  8
0
100
AcDbSpline
 62
7
  6
BYLAYER
 70
0
 71
3
 72
9
 73
5
 74
0
 42
0.0000001
 43
0.0000001
 44
0.0000000001
 40
0.0
 40
0.0
 40
0.0
 40
0.0
 40
0.2412038708
 40
1.0
 40
1.0
 40
1.0
 40
1.0
 10
129.6166255389
 20
47.010877908
 30
0.0
 10
129.6345770459
 20
47.016463842
 30
0.0
 10
129.7100525884
 20
47.0361623192
 30
0.0
 10
129.7886967352
 20
47.043142364
 30
0.0
 10
129.8478258823
 20
47.0418180249
 30
0.0
  0
SPLINE
  5
4A2
100
AcDbEntity
  8
0
100
AcDbSpline
 62
7
  6
BYLAYER
 70
0
 71
3
 72
9
 73
5
 74
0
 42
0.0000001
 43
0.0000001
 44
0.0000000001
 40
0.0
 40
0.0
 40
0.0
 40
0.0
 40
0.2590867806
 40
1.0
 40
1.0
 40
1.0
 40
1.0
 10
129.8478258823
 20
47.0418180249
 30
0.0
 10
129.8677395047
 20
47.0413720115
 30
0.0
 10
129.9444678338
 20
47.0366966807
 30
0.0
 10
130.0207853632
 20
47.0204708071
 30
0.0
 10
130.0741796322
 20
47.0006298856
 30
0.0
  0
SPLINE
  5
4A3
100
AcDbEntity
  8
0
100
AcDbSpline
 62
7
  6
BYLAYER
 70
0
 71
3
 72
9
 73
5
 74
0
 42
0.0000001
 43
0.0000001
 44
0.0000000001
 40
0.0
 40
0.0
 40
0.0
 40
0.0
 40
0.7540193194
 40
1.0
 40
1.0
 40
1.0
 40
1.0
 10
129.5649801971
 20
46.997369776
 30
0.0
 10
129.5781036348
 20
47.0001749706
 30
0.0
 10
129.5953958869
 20
47.0044675619
 30
0.0
 10
129.6124471036
 20
47.0095714386
 30
0.0
 10
129.6166255389
 20
47.010877908
 30
0.0
  0
SPLINE
  5
4A4
100
AcDbEntity
  8
0
100
AcDbSpline
 62
7
  6
BYLAYER
 70
0
 71
3
 72
9
 73
5
 74
0
 42
0.0000001
 43
0.0000001
 44
0.0000000001
 40
0.0
 40
0.0
 40
0.0
 40
0.0
 40
0.2441123428
 40
1.0
 40
1.0
 40
1.0
 40
1.0
 10
129.1992793135
 20
47.0237443375
 30
0.0
 10
129.2041430589
 20
47.0218106871
 30
0.0
 10
129.2241963076
 20
47.0142163289
 30
0.0
 10
129.2447241003
 20
47.0078894263
 30
0.0
 10
129.2603983876
 20
47.0037682091
 30
0.0
  0
SPLINE
  5
4A5
100
AcDbEntity
  8
0
100
AcDbSpline
 62
7
  6
BYLAYER
 70
0
 71
3
 72
9
 73
5
 74
0
 42
0.0000001
 43
0.0000001
 44
0.0000000001
 40
0.0
 40
0.0
 40
0.0
 40
0.0
 40
0.2437377208
 40
1.0
 40
1.0
 40
1.0
 40
1.0
 10
114.6071272554
 20
54.9844982175
 30
0.0
 10
114.6095021173
 20
54.9824941729
 30
0.0
 10
114.6193821521
 20
54.9744345228
 30
0.0
 10
114.629780121
 20
54.9670153748
 30
0.0
 10
114.6378577193
 20
54.9617509569
 30
0.0
  0
SPLINE
  5
4A6
100
AcDbEntity
  8
0
100
AcDbSpline
 62
7
  6
BYLAYER
 70
0
 71
3
 72
9
 73
5
 74
0
 42
0.0000001
 43
0.0000001
 44
0.0000000001
 40
0.0
 40
0.0
 40
0.0
 40
0.0
 40
0.5303036897
 40
1.0
 40
1.0
 40
1.0
 40
1.0
 10
114.070820797
 20
55.5311346928
 30
0.0
 10
114.1449067493
 20
55.5371110073
 30
0.0
 10
114.2865728636
 20
55.5287842996
 30
0.0
 10
114.4217253503
 20
55.4789638173
 30
0.0
 10
114.4761678209
 20
55.4419521311
 30
0.0
  0
SPLINE
  5
4A7
100
AcDbEntity
  8
0
100
AcDbSpline
 62
7
  6
BYLAYER
 70
0
 71
3
 72
8
 73
4
 74
0
 42
0.0000001
 43
0.0000001
 44
0.0000000001
 40
0.0
 40
0.0
 40
0.0
 40
0.0
 40
1.0
 40
1.0
 40
1.0
 40
1.0
 10
113.6934374078
 20
55.6228661076
 30
0.0
 10
113.7022613563
 20
55.6159516209
 30
0.0
 10
113.7114878049
 20
55.6095309715
 30
0.0
 10
113.7209807805
 20
55.603568119
 30
0.0
  0
SPLINE
  5
4A8
100
AcDbEntity
  8
0
100
AcDbSpline
 62
7
  6
BYLAYER
 70
0
 71
3
 72
9
 73
5
 74
0
 42
0.0000001
 43
0.0000001
 44
0.0000000001
 40
0.0
 40
0.0
 40
0.0
 40
0.0
 40
0.2393997778
 40
1.0
 40
1.0
 40
1.0
 40
1.0
 10
113.7209807805
 20
55.603568119
 30
0.0
 10
113.7267091527
 20
55.5999699386
 30
0.0
 10
113.7510659579
 20
55.5856254795
 30
0.0
 10
113.7769499364
 20
55.5739435839
 30
0.0
 10
113.7970657782
 20
55.5663760074
 30
0.0
  0
SPLINE
  5
4A9
100
AcDbEntity
  8
0
100
AcDbSpline
 62
7
  6
BYLAYER
 70
0
 71
3
 72
9
 73
5
 74
0
 42
0.0000001
 43
0.0000001
 44
0.0000000001
 40
0.0
 40
0.0
 40
0.0
 40
0.0
 40
0.2449312445
 40
1.0
 40
1.0
 40
1.0
 40
1.0
 10
113.003867263
 20
56.2211073741
 30
0.0
 10
113.0575268367
 20
56.1693519492
 30
0.0
 10
113.279484087
 20
55.9610407067
 30
0.0
 10
113.512535175
 20
55.7646219309
 30
0.0
 10
113.6934374078
 20
55.6228661076
 30
0.0
  0
SPLINE
  5
4AA
100
AcDbEntity
  8
0
100
AcDbSpline
 62
7
  6
BYLAYER
 70
0
 71
3
 72
9
 73
5
 74
0
 42
0.0000001
 43
0.0000001
 44
0.0000000001
 40
0.0
 40
0.0
 40
0.0
 40
0.0
 40
0.2432238808
 40
1.0
 40
1.0
 40
1.0
 40
1.0
 10
112.1750621998
 20
57.3530941941
 30
0.0
 10
112.1815562561
 20
57.3230543551
 30
0.0
 10
112.2136194637
 20
57.2007254002
 30
0.0
 10
112.2668229144
 20
57.0842908096
 30
0.0
 10
112.3156553844
 20
57.0020730086
 30
0.0
  0
SPLINE
  5
4AB
100
AcDbEntity
  8
0
100
AcDbSpline
 62
7
  6
BYLAYER
 70
0
 71
3
 72
9
 73
5
 74
0
 42
0.0000001
 43
0.0000001
 44
0.0000000001
 40
0.0
 40
0.0
 40
0.0
 40
0.0
 40
0.2455919294
 40
1.0
 40
1.0
 40
1.0
 40
1.0
 10
112.3156553844
 20
57.0020730086
 30
0.0
 10
112.3231227767
 20
56.9895003786
 30
0.0
 10
112.3543612832
 20
56.9388046686
 30
0.0
 10
112.3888403851
 20
56.8901204212
 30
0.0
 10
112.4163639915
 20
56.8546216472
 30
0.0
  0
SPLINE
  5
4AC
100
AcDbEntity
  8
0
100
AcDbSpline
 62
7
  6
BYLAYER
 70
0
 71
3
 72
9
 73
5
 74
0
 42
0.0000001
 43
0.0000001
 44
0.0000000001
 40
0.0
 40
0.0
 40
0.0
 40
0.0
 40
0.261772037
 40
1.0
 40
1.0
 40
1.0
 40
1.0
 10
149.2834803629
 20
54.5175675247
 30
0.0
 10
149.3195723796
 20
54.5210973061
 30
0.0
 10
149.4568344484
 20
54.539561822
 30
0.0
 10
149.5920723623
 20
54.5776906757
 30
0.0
 10
149.6853776329
 20
54.6195612559
 30
0.0
  0
SPLINE
  5
4AD
100
AcDbEntity
  8
0
100
AcDbSpline
 62
7
  6
BYLAYER
 70
0
 71
3
 72
9
 73
5
 74
0
 42
0.0000001
 43
0.0000001
 44
0.0000000001
 40
0.0
 40
0.0
 40
0.0
 40
0.0
 40
0.2610522135
 40
1.0
 40
1.0
 40
1.0
 40
1.0
 10
149.6853776329
 20
54.6195612559
 30
0.0
 10
149.6990490247
 20
54.6256962695
 30
0.0
 10
149.7508777683
 20
54.650361047
 30
0.0
 10
149.8005325555
 20
54.6797813602
 30
0.0
 10
149.8349740369
 20
54.7045396603
 30
0.0
  0
SPLINE
  5
4AE
100
AcDbEntity
  8
0
100
AcDbSpline
 62
7
  6
BYLAYER
 70
0
 71
3
 72
15
 73
11
 74
0
 42
0.0000001
 43
0.0000001
 44
0.0000000001
 40
0.0
 40
0.0
 40
0.0
 40
0.0
 40
0.114157724
 40
0.2373244526
 40
0.3669752053
 40
0.4999994786
 40
0.6330238245
 40
0.762674789
 40
0.8858418513
 40
1.0
 40
1.0
 40
1.0
 40
1.0
 10
140.1546429724
 20
36.208628738
 30
0.0
 10
139.7189680007
 20
35.9570931772
 30
0.0
 10
138.7663219833
 20
35.5134718887
 30
0.0
 10
137.2149707903
 20
35.0419839229
 30
0.0
 10
135.5354159869
 20
34.7517252839
 30
0.0
 10
133.7906926744
 20
34.6537981015
 30
0.0
 10
132.0459679673
 20
34.7517170032
 30
0.0
 10
130.3664090428
 20
35.0419676672
 30
0.0
 10
128.8150511718
 20
35.5134482586
 30
0.0
 10
127.8623993177
 20
35.957064789
 30
0.0
 10
127.4267209111
 20
36.2085981438
 30
0.0
  0
SPLINE
  5
4AF
100
AcDbEntity
  8
0
100
AcDbSpline
 62
7
  6
BYLAYER
 70
0
 71
3
 72
9
 73
5
 74
0
 42
0.0000001
 43
0.0000001
 44
0.0000000001
 40
0.0
 40
0.0
 40
0.0
 40
0.0
 40
0.261203105
 40
1.0
 40
1.0
 40
1.0
 40
1.0
 10
127.4267209111
 20
36.2085981438
 30
0.0
 10
127.3124488261
 20
36.2745716703
 30
0.0
 10
126.8810248388
 20
36.537299721
 30
0.0
 10
126.4743513431
 20
36.8421774228
 30
0.0
 10
126.1979347453
 20
37.0929360736
 30
0.0
  0
SPLINE
  5
4B0
100
AcDbEntity
  8
0
100
AcDbSpline
 62
7
  6
BYLAYER
 70
0
 71
3
 72
9
 73
5
 74
0
 42
0.0000001
 43
0.0000001
 44
0.0000000001
 40
0.0
 40
0.0
 40
0.0
 40
0.0
 40
0.2755756012
 40
1.0
 40
1.0
 40
1.0
 40
1.0
 10
135.6961639741
 20
46.541542591
 30
0.0
 10
135.7236716718
 20
46.5542978412
 30
0.0
 10
135.8210726272
 20
46.6050164588
 30
0.0
 10
135.9101712758
 20
46.6759311559
 30
0.0
 10
135.9580827694
 20
46.7396314145
 30
0.0
  0
SPLINE
  5
4B1
100
AcDbEntity
  8
0
100
AcDbSpline
 62
7
  6
BYLAYER
 70
0
 71
3
 72
9
 73
5
 74
0
 42
0.0000001
 43
0.0000001
 44
0.0000000001
 40
0.0
 40
0.0
 40
0.0
 40
0.0
 40
0.2613555246
 40
1.0
 40
1.0
 40
1.0
 40
1.0
 10
135.9580827694
 20
46.7396314145
 30
0.0
 10
135.9649263167
 20
46.7487301861
 30
0.0
 10
135.9897854804
 20
46.784498148
 30
0.0
 10
136.009003612
 20
46.8243628107
 30
0.0
 10
136.018544301
 20
46.8550926221
 30
0.0
  0
SPLINE
  5
4B2
100
AcDbEntity
  8
0
100
AcDbSpline
 62
7
  6
BYLAYER
 70
0
 71
3
 72
9
 73
5
 74
0
 42
0.0000001
 43
0.0000001
 44
0.0000000001
 40
0.0
 40
0.0
 40
0.0
 40
0.0
 40
0.2617578761
 40
1.0
 40
1.0
 40
1.0
 40
1.0
 10
114.5588334221
 20
325.0468867857
 30
0.0
 10
114.5553459842
 20
325.0410054357
 30
0.0
 10
114.5433058432
 20
325.0178197761
 30
0.0
 10
114.5372696482
 20
324.9913729008
 30
0.0
 10
114.5372710458
 20
324.972088707
 30
0.0
  0
SPLINE
  5
4B3
100
AcDbEntity
  8
0
100
AcDbSpline
 62
7
  6
BYLAYER
 70
0
 71
3
 72
9
 73
5
 74
0
 42
0.0000001
 43
0.0000001
 44
0.0000000001
 40
0.0
 40
0.0
 40
0.0
 40
0.0
 40
0.2528153945
 40
1.0
 40
1.0
 40
1.0
 40
1.0
 10
112.1967462281
 20
327.7277214872
 30
0.0
 10
112.1904747736
 20
327.704531979
 30
0.0
 10
112.1685808784
 20
327.6120473415
 30
0.0
 10
112.1588346512
 20
327.5166603591
 30
0.0
 10
112.1588353646
 20
327.4456626919
 30
0.0
  0
SPLINE
  5
4B4
100
AcDbEntity
  8
0
100
AcDbSpline
 62
7
  6
BYLAYER
 70
0
 71
3
 72
9
 73
5
 74
0
 42
0.0000001
 43
0.0000001
 44
0.0000000001
 40
0.0
 40
0.0
 40
0.0
 40
0.0
 40
0.2533558182
 40
1.0
 40
1.0
 40
1.0
 40
1.0
 10
112.2245927578
 20
327.8064496891
 30
0.0
 10
112.221758784
 20
327.7999877647
 30
0.0
 10
112.2110300312
 20
327.7742851869
 30
0.0
 10
112.2021748948
 20
327.7477946799
 30
0.0
 10
112.1967462281
 20
327.7277214872
 30
0.0
  0
SPLINE
  5
4B5
100
AcDbEntity
  8
0
100
AcDbSpline
 62
7
  6
BYLAYER
 70
0
 71
3
 72
9
 73
5
 74
0
 42
0.0000001
 43
0.0000001
 44
0.0000000001
 40
0.0
 40
0.0
 40
0.0
 40
0.0
 40
0.254298895
 40
1.0
 40
1.0
 40
1.0
 40
1.0
 10
112.2649960639
 20
327.8833422898
 30
0.0
 10
112.2611380065
 20
327.8770672739
 30
0.0
 10
112.246371605
 20
327.8521458021
 30
0.0
 10
112.233268287
 20
327.8262313164
 30
0.0
 10
112.2245927578
 20
327.8064496891
 30
0.0
  0
SPLINE
  5
4B6
100
AcDbEntity
  8
0
100
AcDbSpline
 62
7
  6
BYLAYER
 70
0
 71
3
 72
9
 73
5
 74
0
 42
0.0000001
 43
0.0000001
 44
0.0000000001
 40
0.0
 40
0.0
 40
0.0
 40
0.0
 40
0.263116697
 40
1.0
 40
1.0
 40
1.0
 40
1.0
 10
112.6513724014
 20
328.3346203237
 30
0.0
 10
112.6123132569
 20
328.2999806071
 30
0.0
 10
112.4680850155
 20
328.163767242
 30
0.0
 10
112.3415738129
 20
328.0078937257
 30
0.0
 10
112.2649960639
 20
327.8833422898
 30
0.0
  0
SPLINE
  5
4B7
100
AcDbEntity
  8
0
100
AcDbSpline
 62
7
  6
BYLAYER
 70
0
 71
3
 72
9
 73
5
 74
0
 42
0.0000001
 43
0.0000001
 44
0.0000000001
 40
0.0
 40
0.0
 40
0.0
 40
0.0
 40
0.2588666781
 40
1.0
 40
1.0
 40
1.0
 40
1.0
 10
113.0364116378
 20
328.6200029616
 30
0.0
 10
113.0013059487
 20
328.5980925674
 30
0.0
 10
112.8673147075
 20
328.5109102052
 30
0.0
 10
112.7400124089
 20
328.4132309737
 30
0.0
 10
112.6513724014
 20
328.3346203237
 30
0.0
  0
SPLINE
  5
4B8
100
AcDbEntity
  8
0
100
AcDbSpline
 62
7
  6
BYLAYER
 70
0
 71
3
 72
11
 73
7
 74
0
 42
0.0000001
 43
0.0000001
 44
0.0000000001
 40
0.0
 40
0.0
 40
0.0
 40
0.0
 40
0.2186698235
 40
0.4522998897
 40
0.7112411981
 40
1.0
 40
1.0
 40
1.0
 40
1.0
 10
146.3620631278
 20
332.498850556
 30
0.0
 10
146.3620629131
 20
332.5286184105
 30
0.0
 10
146.3513192938
 20
332.5905829097
 30
0.0
 10
146.3053836238
 20
332.6772692428
 30
0.0
 10
146.2324750193
 20
332.7559929535
 30
0.0
 10
146.1713194701
 20
332.7994824783
 30
0.0
 10
146.1375851547
 20
332.8196618508
 30
0.0
  0
SPLINE
  5
4B9
100
AcDbEntity
  8
0
100
AcDbSpline
 62
7
  6
BYLAYER
 70
0
 71
3
 72
11
 73
7
 74
0
 42
0.0000001
 43
0.0000001
 44
0.0000000001
 40
0.0
 40
0.0
 40
0.0
 40
0.0
 40
0.2898001512
 40
0.5490497799
 40
0.7822288614
 40
1.0
 40
1.0
 40
1.0
 40
1.0
 10
144.2204782605
 20
328.4175112258
 30
0.0
 10
144.0778216259
 20
328.4998722089
 30
0.0
 10
143.8190520509
 20
328.6779955434
 30
0.0
 10
143.5099390166
 20
329.0030617664
 30
0.0
 10
143.3142601072
 20
329.3624587056
 30
0.0
 10
143.2685666241
 20
329.6205140288
 30
0.0
 10
143.2685657315
 20
329.7442969138
 30
0.0
  0
SPLINE
  5
4BA
100
AcDbEntity
  8
0
100
AcDbSpline
 62
7
  6
BYLAYER
 70
0
 71
3
 72
11
 73
7
 74
0
 42
0.0000001
 43
0.0000001
 44
0.0000000001
 40
0.0
 40
0.0
 40
0.0
 40
0.0
 40
0.2177159471
 40
0.4509403815
 40
0.7102937689
 40
1.0
 40
1.0
 40
1.0
 40
1.0
 10
147.4246579909
 20
326.3763055282
 30
0.0
 10
147.4246577713
 20
326.4067668977
 30
0.0
 10
147.4133767676
 20
326.4702751944
 30
0.0
 10
147.3652650333
 20
326.5587845652
 30
0.0
 10
147.2891188046
 20
326.6387626351
 30
0.0
 10
147.2254445354
 20
326.6826323863
 30
0.0
 10
147.1903410607
 20
326.7028989284
 30
0.0
  0
SPLINE
  5
4BB
100
AcDbEntity
  8
0
100
AcDbSpline
 62
7
  6
BYLAYER
 70
0
 71
3
 72
11
 73
7
 74
0
 42
0.0000001
 43
0.0000001
 44
0.0000000001
 40
0.0
 40
0.0
 40
0.0
 40
0.0
 40
0.2884644208
 40
0.5479840518
 40
0.7821696105
 40
1.0
 40
1.0
 40
1.0
 40
1.0
 10
115.6702205422
 20
327.24326641
 30
0.0
 10
115.6366300501
 20
327.2238730461
 30
0.0
 10
115.5754982442
 20
327.1819462272
 30
0.0
 10
115.5014514436
 20
327.1060951043
 30
0.0
 10
115.4526831519
 20
327.0224803562
 30
0.0
 10
115.4386511129
 20
326.9621093723
 30
0.0
 10
115.436880319
 20
326.9328734954
 30
0.0
  0
SPLINE
  5
4BC
100
AcDbEntity
  8
0
100
AcDbSpline
 62
7
  6
BYLAYER
 70
0
 71
3
 72
11
 73
7
 74
0
 42
0.0000001
 43
0.0000001
 44
0.0000000001
 40
0.0
 40
0.0
 40
0.0
 40
0.0
 40
0.2176656375
 40
0.4508002441
 40
0.7100903698
 40
1.0
 40
1.0
 40
1.0
 40
1.0
 10
118.658449549
 20
329.7442377584
 30
0.0
 10
118.6584504422
 20
329.6203854023
 30
0.0
 10
118.6126061749
 20
329.362139332
 30
0.0
 10
118.4163338871
 20
329.00262827
 30
0.0
 10
118.1063712293
 20
328.6776295674
 30
0.0
 10
117.8469698307
 20
328.4996897108
 30
0.0
 10
117.7039739667
 20
328.4174474882
 30
0.0
  0
SPLINE
  5
4BD
100
AcDbEntity
  8
0
100
AcDbSpline
 62
7
  6
BYLAYER
 70
0
 71
3
 72
11
 73
7
 74
0
 42
0.0000001
 43
0.0000001
 44
0.0000000001
 40
0.0
 40
0.0
 40
0.0
 40
0.0
 40
0.2897060281
 40
0.5490591642
 40
0.7822835676
 40
1.0
 40
1.0
 40
1.0
 40
1.0
 10
115.9361758074
 20
332.7448132533
 30
0.0
 10
115.9010726377
 20
332.7245465498
 30
0.0
 10
115.8373990011
 20
332.6806764983
 30
0.0
 10
115.7612538851
 20
332.6006980195
 30
0.0
 10
115.7131434123
 20
332.5121883396
 30
0.0
 10
115.7018633678
 20
332.4486800475
 30
0.0
 10
115.7018635874
 20
332.4182187266
 30
0.0
  0
SPLINE
  5
4BE
100
AcDbEntity
  8
0
100
AcDbSpline
 62
7
  6
BYLAYER
 70
0
 71
3
 72
9
 73
5
 74
0
 42
0.0000001
 43
0.0000001
 44
0.0000000001
 40
0.0
 40
0.0
 40
0.0
 40
0.0
 40
0.5255663101
 40
1.0
 40
1.0
 40
1.0
 40
1.0
 10
118.3756847354
 20
334.0575984269
 30
0.0
 10
118.324324625
 20
334.0575983035
 30
0.0
 10
118.2263383568
 20
334.046976051
 30
0.0
 10
118.1329943308
 20
334.0131394483
 30
0.0
 10
118.0928425112
 20
333.9899579228
 30
0.0
  0
SPLINE
  5
4BF
100
AcDbEntity
  8
0
100
AcDbSpline
 62
7
  6
BYLAYER
 70
0
 71
3
 72
9
 73
5
 74
0
 42
0.0000001
 43
0.0000001
 44
0.0000000001
 40
0.0
 40
0.0
 40
0.0
 40
0.0
 40
0.4744342232
 40
1.0
 40
1.0
 40
1.0
 40
1.0
 10
118.6585279357
 20
333.9899592823
 30
0.0
 10
118.6183758192
 20
334.0131405931
 30
0.0
 10
118.5250314259
 20
334.0469767321
 30
0.0
 10
118.4270449019
 20
334.0575985504
 30
0.0
 10
118.3756847354
 20
334.0575984269
 30
0.0
  0
SPLINE
  5
4C0
100
AcDbEntity
  8
0
100
AcDbSpline
 62
7
  6
BYLAYER
 70
0
 71
3
 72
11
 73
7
 74
0
 42
0.0000001
 43
0.0000001
 44
0.0000000001
 40
0.0
 40
0.0
 40
0.0
 40
0.0
 40
0.2177159471
 40
0.4509403815
 40
0.7102937689
 40
1.0
 40
1.0
 40
1.0
 40
1.0
 10
119.5535070985
 20
333.3775977523
 30
0.0
 10
119.5535069886
 20
333.392828437
 30
0.0
 10
119.5478664868
 20
333.4245825854
 30
0.0
 10
119.5238106197
 20
333.4688372707
 30
0.0
 10
119.4857375053
 20
333.5088263057
 30
0.0
 10
119.4539003707
 20
333.5307611813
 30
0.0
 10
119.4363486333
 20
333.5408944523
 30
0.0
  0
SPLINE
  5
4C1
100
AcDbEntity
  8
0
100
AcDbSpline
 62
7
  6
BYLAYER
 70
0
 71
3
 72
11
 73
7
 74
0
 42
0.0000001
 43
0.0000001
 44
0.0000000001
 40
0.0
 40
0.0
 40
0.0
 40
0.0
 40
0.2897062311
 40
0.5490596185
 40
0.7822840529
 40
1.0
 40
1.0
 40
1.0
 40
1.0
 10
118.587828739
 20
332.397813541
 30
0.0
 10
118.5702770017
 20
332.407946812
 30
0.0
 10
118.5384398671
 20
332.4298816876
 30
0.0
 10
118.5003667527
 20
332.4698707226
 30
0.0
 10
118.4763108856
 20
332.5141254079
 30
0.0
 10
118.4706703838
 20
332.5458795563
 30
0.0
 10
118.4706702739
 20
332.561110241
 30
0.0
  0
SPLINE
  5
4C2
100
AcDbEntity
  8
0
100
AcDbSpline
 62
7
  6
BYLAYER
 70
0
 71
3
 72
9
 73
5
 74
0
 42
0.0000001
 43
0.0000001
 44
0.0000000001
 40
0.0
 40
0.0
 40
0.0
 40
0.0
 40
0.5255657768
 40
1.0
 40
1.0
 40
1.0
 40
1.0
 10
119.8606255545
 20
331.75863734
 30
0.0
 10
119.809265388
 20
331.7586372166
 30
0.0
 10
119.711278864
 20
331.7692590349
 30
0.0
 10
119.6179344707
 20
331.8030951738
 30
0.0
 10
119.5777823542
 20
331.8262764846
 30
0.0
  0
SPLINE
  5
4C3
100
AcDbEntity
  8
0
100
AcDbSpline
 62
7
  6
BYLAYER
 70
0
 71
3
 72
9
 73
5
 74
0
 42
0.0000001
 43
0.0000001
 44
0.0000000001
 40
0.0
 40
0.0
 40
0.0
 40
0.0
 40
0.4744336899
 40
1.0
 40
1.0
 40
1.0
 40
1.0
 10
120.1434677792
 20
331.8262778444
 30
0.0
 10
120.1033159595
 20
331.8030963189
 30
0.0
 10
120.0099719334
 20
331.769259716
 30
0.0
 10
119.911985665
 20
331.7586374635
 30
0.0
 10
119.8606255545
 20
331.75863734
 30
0.0
  0
SPLINE
  5
4C4
100
AcDbEntity
  8
0
100
AcDbSpline
 62
7
  6
BYLAYER
 70
0
 71
3
 72
11
 73
7
 74
0
 42
0.0000001
 43
0.0000001
 44
0.0000000001
 40
0.0
 40
0.0
 40
0.0
 40
0.0
 40
0.2177164324
 40
0.4509408358
 40
0.7102939719
 40
1.0
 40
1.0
 40
1.0
 40
1.0
 10
127.4730830287
 20
336.1536654772
 30
0.0
 10
127.4730831385
 20
336.1384348167
 30
0.0
 10
127.4674431163
 20
336.1066806707
 30
0.0
 10
127.4433878799
 20
336.0624258308
 30
0.0
 10
127.4053153219
 20
336.0224365914
 30
0.0
 10
127.3734785036
 20
336.0005015656
 30
0.0
 10
127.3559269188
 20
335.9903682139
 30
0.0
  0
SPLINE
  5
4C5
100
AcDbEntity
  8
0
100
AcDbSpline
 62
7
  6
BYLAYER
 70
0
 71
3
 72
11
 73
7
 74
0
 42
0.0000001
 43
0.0000001
 44
0.0000000001
 40
0.0
 40
0.0
 40
0.0
 40
0.0
 40
0.2897060281
 40
0.5490591642
 40
0.7822835676
 40
1.0
 40
1.0
 40
1.0
 40
1.0
 10
123.608252441
 20
337.1742623228
 30
0.0
 10
123.5907008561
 20
337.164128971
 30
0.0
 10
123.5588640379
 20
337.1421939453
 30
0.0
 10
123.5207914799
 20
337.1022047059
 30
0.0
 10
123.4967362435
 20
337.057949866
 30
0.0
 10
123.4910962212
 20
337.0261957199
 30
0.0
 10
123.4910963311
 20
337.0109650595
 30
0.0
  0
SPLINE
  5
4C6
100
AcDbEntity
  8
0
100
AcDbSpline
 62
7
  6
BYLAYER
 70
0
 71
3
 72
9
 73
5
 74
0
 42
0.0000001
 43
0.0000001
 44
0.0000000001
 40
0.0
 40
0.0
 40
0.0
 40
0.0
 40
0.5255663101
 40
1.0
 40
1.0
 40
1.0
 40
1.0
 10
126.3306035939
 20
338.5546880008
 30
0.0
 10
126.2278833729
 20
338.5546877539
 30
0.0
 10
126.031910836
 20
338.5334432488
 30
0.0
 10
125.8452227838
 20
338.4657700431
 30
0.0
 10
125.7649191445
 20
338.4194069921
 30
0.0
  0
SPLINE
  5
4C7
100
AcDbEntity
  8
0
100
AcDbSpline
 62
7
  6
BYLAYER
 70
0
 71
3
 72
9
 73
5
 74
0
 42
0.0000001
 43
0.0000001
 44
0.0000000001
 40
0.0
 40
0.0
 40
0.0
 40
0.0
 40
0.4744342232
 40
1.0
 40
1.0
 40
1.0
 40
1.0
 10
126.8962899944
 20
338.4194097116
 30
0.0
 10
126.8159857615
 20
338.4657723332
 30
0.0
 10
126.6292969749
 20
338.5334446111
 30
0.0
 10
126.4333239269
 20
338.5546882477
 30
0.0
 10
126.3306035939
 20
338.5546880008
 30
0.0
  0
SPLINE
  5
4C8
100
AcDbEntity
  8
0
100
AcDbSpline
 62
7
  6
BYLAYER
 70
0
 71
3
 72
11
 73
7
 74
0
 42
0.0000001
 43
0.0000001
 44
0.0000000001
 40
0.0
 40
0.0
 40
0.0
 40
0.0
 40
0.2661265443
 40
0.5254694246
 40
0.7717922511
 40
1.0
 40
1.0
 40
1.0
 40
1.0
 10
130.96216532
 20
336.8477489686
 30
0.0
 10
130.7503701486
 20
336.8477484595
 30
0.0
 10
130.331783561
 20
336.8712888863
 30
0.0
 10
129.7251650498
 20
336.9763901947
 30
0.0
 10
129.1650057925
 20
337.1471130915
 30
0.0
 10
128.8211996205
 20
337.3077392041
 30
0.0
 10
128.6640643073
 20
337.3988078253
 30
0.0
  0
SPLINE
  5
4C9
100
AcDbEntity
  8
0
100
AcDbSpline
 62
7
  6
BYLAYER
 70
0
 71
3
 72
11
 73
7
 74
0
 42
0.0000001
 43
0.0000001
 44
0.0000000001
 40
0.0
 40
0.0
 40
0.0
 40
0.0
 40
0.2282073749
 40
0.4745300473
 40
0.7338730449
 40
1.0
 40
1.0
 40
1.0
 40
1.0
 10
133.2602583845
 20
337.3988188729
 30
0.0
 10
133.1031243151
 20
337.307749456
 30
0.0
 10
132.7593202568
 20
337.1471216259
 30
0.0
 10
132.1991634173
 20
336.9763960666
 30
0.0
 10
131.5925463984
 20
336.8712918779
 30
0.0
 10
131.1739603757
 20
336.8477494777
 30
0.0
 10
130.96216532
 20
336.8477489686
 30
0.0
  0
SPLINE
  5
4CA
100
AcDbEntity
  8
0
100
AcDbSpline
 62
7
  6
BYLAYER
 70
0
 71
3
 72
9
 73
5
 74
0
 42
0.0000001
 43
0.0000001
 44
0.0000000001
 40
0.0
 40
0.0
 40
0.0
 40
0.0
 40
0.5254238561
 40
1.0
 40
1.0
 40
1.0
 40
1.0
 10
135.8316347003
 20
338.7077197743
 30
0.0
 10
135.7338579469
 20
338.7057452733
 30
0.0
 10
135.5476997804
 20
338.6826341627
 30
0.0
 10
135.3705099953
 20
338.6171659359
 30
0.0
 10
135.294011738
 20
338.5729999101
 30
0.0
  0
SPLINE
  5
4CB
100
AcDbEntity
  8
0
100
AcDbSpline
 62
7
  6
BYLAYER
 70
0
 71
3
 72
9
 73
5
 74
0
 42
0.0000001
 43
0.0000001
 44
0.0000000001
 40
0.0
 40
0.0
 40
0.0
 40
0.0
 40
0.4786545066
 40
1.0
 40
1.0
 40
1.0
 40
1.0
 10
136.3840628673
 20
338.5947153291
 30
0.0
 10
136.3031412395
 20
338.6354567913
 30
0.0
 10
136.1204028954
 20
338.6937551896
 30
0.0
 10
135.930294058
 20
338.7097120987
 30
0.0
 10
135.8316347003
 20
338.7077197743
 30
0.0
  0
LINE
  5
4CC
100
AcDbEntity
  8
0
100
AcDbLine
 62
7
  6
BYLAYER
 10
136.4641028809
 20
338.5545822926
 11
136.3840628673
 21
338.5947153291
  0
SPLINE
  5
4CD
100
AcDbEntity
  8
0
100
AcDbSpline
 62
7
  6
BYLAYER
 70
0
 71
3
 72
9
 73
5
 74
0
 42
0.0000001
 43
0.0000001
 44
0.0000000001
 40
0.0
 40
0.0
 40
0.0
 40
0.0
 40
0.4682831591
 40
1.0
 40
1.0
 40
1.0
 40
1.0
 10
149.8349740367
 20
322.1122368097
 30
0.0
 10
149.7605636909
 20
322.0587468437
 30
0.0
 10
149.580451019
 20
321.9740487083
 30
0.0
 10
149.3870409941
 20
321.9353928527
 30
0.0
 10
149.2834803629
 20
321.9252646742
 30
0.0
  0
SPLINE
  5
4CE
100
AcDbEntity
  8
0
100
AcDbSpline
 62
7
  6
BYLAYER
 70
0
 71
3
 72
9
 73
5
 74
0
 42
0.0000001
 43
0.0000001
 44
0.0000000001
 40
0.0
 40
0.0
 40
0.0
 40
0.0
 40
0.23914411
 40
1.0
 40
1.0
 40
1.0
 40
1.0
 10
150.6391778097
 20
322.8745483049
 30
0.0
 10
150.617761218
 20
322.8386140578
 30
0.0
 10
150.5223446387
 20
322.6918592146
 30
0.0
 10
150.4051342363
 20
322.5598236931
 30
0.0
 10
150.3085412495
 20
322.4682623916
 30
0.0
  0
SPLINE
  5
4CF
100
AcDbEntity
  8
0
100
AcDbSpline
 62
7
  6
BYLAYER
 70
0
 71
3
 72
10
 73
6
 74
0
 42
0.0000001
 43
0.0000001
 44
0.0000000001
 40
0.0
 40
0.0
 40
0.0
 40
0.0
 40
0.2311382515
 40
0.4707654152
 40
1.0
 40
1.0
 40
1.0
 40
1.0
 10
136.0326326757
 20
316.8039444982
 30
0.0
 10
136.0326400786
 20
316.828240207
 30
0.0
 10
136.0265224667
 20
316.877931575
 30
0.0
 10
135.9893424128
 20
316.9770502305
 30
0.0
 10
135.9367121921
 20
317.0416134881
 30
0.0
 10
135.8958514048
 20
317.0793633116
 30
0.0
  0
SPLINE
  5
4D0
100
AcDbEntity
  8
0
100
AcDbSpline
 62
7
  6
BYLAYER
 70
0
 71
3
 72
11
 73
7
 74
0
 42
0.0000001
 43
0.0000001
 44
0.0000000001
 40
0.0
 40
0.0
 40
0.0
 40
0.0
 40
0.2068464867
 40
0.4365278822
 40
0.7006409972
 40
1.0
 40
1.0
 40
1.0
 40
1.0
 10
130.2807701738
 20
314.1945804397
 30
0.0
 10
130.2800458185
 20
314.2161817623
 30
0.0
 10
130.2681502664
 20
314.2617919168
 30
0.0
 10
130.2237518866
 20
314.3215988529
 30
0.0
 10
130.1572117148
 20
314.3723212192
 30
0.0
 10
130.1035008455
 20
314.3974314857
 30
0.0
 10
130.0741796322
 20
314.4083270351
 30
0.0
  0
SPLINE
  5
4D1
100
AcDbEntity
  8
0
100
AcDbSpline
 62
7
  6
BYLAYER
 70
0
 71
3
 72
9
 73
5
 74
0
 42
0.0000001
 43
0.0000001
 44
0.0000000001
 40
0.0
 40
0.0
 40
0.0
 40
0.0
 40
0.5109588724
 40
1.0
 40
1.0
 40
1.0
 40
1.0
 10
112.324701915
 20
324.4122015192
 30
0.0
 10
112.2854070224
 20
324.4795126528
 30
0.0
 10
112.2193829444
 20
324.6180633198
 30
0.0
 10
112.1811987561
 20
324.7669572982
 30
0.0
 10
112.1702950531
 20
324.8407542952
 30
0.0
  0
SPLINE
  5
4D2
100
AcDbEntity
  8
0
100
AcDbSpline
 62
7
  6
BYLAYER
 70
0
 71
3
 72
9
 73
5
 74
0
 42
0.0000001
 43
0.0000001
 44
0.0000000001
 40
0.0
 40
0.0
 40
0.0
 40
0.0
 40
0.2552371616
 40
1.0
 40
1.0
 40
1.0
 40
1.0
 10
113.003867263
 20
323.6288045236
 30
0.0
 10
112.950942561
 20
323.6798511541
 30
0.0
 10
112.746292357
 20
323.8826228902
 30
0.0
 10
112.5527486754
 20
324.0966863549
 30
0.0
 10
112.4163639914
 20
324.2623187967
 30
0.0
  0
SPLINE
  5
4D3
100
AcDbEntity
  8
0
100
AcDbSpline
 62
7
  6
BYLAYER
 70
0
 71
3
 72
9
 73
5
 74
0
 42
0.0000001
 43
0.0000001
 44
0.0000000001
 40
0.0
 40
0.0
 40
0.0
 40
0.0
 40
0.2551707188
 40
1.0
 40
1.0
 40
1.0
 40
1.0
 10
113.6934374078
 20
323.0305632571
 30
0.0
 10
113.6323030526
 20
323.0784684196
 30
0.0
 10
113.394999734
 20
323.269086132
 30
0.0
 10
113.1670434732
 20
323.4714187395
 30
0.0
 10
113.003867263
 20
323.6288045236
 30
0.0
  0
SPLINE
  5
4D4
100
AcDbEntity
  8
0
100
AcDbSpline
 62
7
  6
BYLAYER
 70
0
 71
3
 72
9
 73
5
 74
0
 42
0.0000001
 43
0.0000001
 44
0.0000000001
 40
0.0
 40
0.0
 40
0.0
 40
0.0
 40
0.2532145012
 40
1.0
 40
1.0
 40
1.0
 40
1.0
 10
114.0708207961
 20
322.9388318423
 30
0.0
 10
114.0530145081
 20
322.9373954569
 30
0.0
 10
113.9825122377
 20
322.934503644
 30
0.0
 10
113.9114518896
 20
322.9422608936
 30
0.0
 10
113.8602573175
 20
322.9547048714
 30
0.0
  0
SPLINE
  5
4D5
100
AcDbEntity
  8
0
100
AcDbSpline
 62
7
  6
BYLAYER
 70
0
 71
3
 72
9
 73
5
 74
0
 42
0.0000001
 43
0.0000001
 44
0.0000000001
 40
0.0
 40
0.0
 40
0.0
 40
0.0
 40
0.4686821413
 40
1.0
 40
1.0
 40
1.0
 40
1.0
 10
114.4801827639
 20
322.8468803195
 30
0.0
 10
114.4257481549
 20
322.8849670862
 30
0.0
 10
114.2891719633
 20
322.9362108647
 30
0.0
 10
114.1458914791
 20
322.9448875923
 30
0.0
 10
114.0708207961
 20
322.9388318423
 30
0.0
  0
SPLINE
  5
4D6
100
AcDbEntity
  8
0
100
AcDbSpline
 62
7
  6
BYLAYER
 70
0
 71
3
 72
8
 73
4
 74
0
 42
0.0000001
 43
0.0000001
 44
0.0000000001
 40
0.0
 40
0.0
 40
0.0
 40
0.0
 40
1.0
 40
1.0
 40
1.0
 40
1.0
 10
114.5450515774
 20
322.4772549501
 30
0.0
 10
114.5405717562
 20
322.4901761916
 30
0.0
 10
114.5378835465
 20
322.5038900858
 30
0.0
 10
114.5373663027
 20
322.5175560925
 30
0.0
  0
SPLINE
  5
4D7
100
AcDbEntity
  8
0
100
AcDbSpline
 62
7
  6
BYLAYER
 70
0
 71
3
 72
9
 73
5
 74
0
 42
0.0000001
 43
0.0000001
 44
0.0000000001
 40
0.0
 40
0.0
 40
0.0
 40
0.0
 40
0.2802757735
 40
1.0
 40
1.0
 40
1.0
 40
1.0
 10
114.6378577193
 20
322.3694481064
 30
0.0
 10
114.626619103
 20
322.3767726565
 30
0.0
 10
114.5881845892
 20
322.4050077629
 30
0.0
 10
114.5563357926
 20
322.4447076532
 30
0.0
 10
114.5450515774
 20
322.4772549501
 30
0.0
  0
SPLINE
  5
4D8
100
AcDbEntity
  8
0
100
AcDbSpline
 62
7
  6
BYLAYER
 70
0
 71
3
 72
9
 73
5
 74
0
 42
0.0000001
 43
0.0000001
 44
0.0000000001
 40
0.0
 40
0.0
 40
0.0
 40
0.0
 40
0.2412953819
 40
1.0
 40
1.0
 40
1.0
 40
1.0
 10
129.6166255389
 20
314.4185750575
 30
0.0
 10
129.6001855772
 20
314.4134347826
 30
0.0
 10
129.5310591206
 20
314.3953905092
 30
0.0
 10
129.4589446198
 20
314.3893672144
 30
0.0
 10
129.4048103386
 20
314.3910361283
 30
0.0
  0
SPLINE
  5
4D9
100
AcDbEntity
  8
0
100
AcDbSpline
 62
7
  6
BYLAYER
 70
0
 71
3
 72
9
 73
5
 74
0
 42
0.0000001
 43
0.0000001
 44
0.0000000001
 40
0.0
 40
0.0
 40
0.0
 40
0.0
 40
0.4965566634
 40
1.0
 40
1.0
 40
1.0
 40
1.0
 10
130.0741796322
 20
314.4083270351
 30
0.0
 10
130.0022921518
 20
314.4350398994
 30
0.0
 10
129.8469269855
 20
314.460718686
 30
0.0
 10
129.6908680905
 20
314.4416769616
 30
0.0
 10
129.6166255389
 20
314.4185750575
 30
0.0
  0
SPLINE
  5
4DA
100
AcDbEntity
  8
0
100
AcDbSpline
 62
7
  6
BYLAYER
 70
0
 71
3
 72
9
 73
5
 74
0
 42
0.0000001
 43
0.0000001
 44
0.0000000001
 40
0.0
 40
0.0
 40
0.0
 40
0.0
 40
0.2644988116
 40
1.0
 40
1.0
 40
1.0
 40
1.0
 10
130.3110285556
 20
314.0646130478
 30
0.0
 10
130.3069296772
 20
314.0701044425
 30
0.0
 10
130.2925076417
 20
314.0916167983
 30
0.0
 10
130.2829768549
 20
314.116629736
 30
0.0
 10
130.2801775609
 20
314.1354778767
 30
0.0
  0
SPLINE
  5
4DB
100
AcDbEntity
  8
0
100
AcDbSpline
 62
7
  6
BYLAYER
 70
0
 71
3
 72
9
 73
5
 74
0
 42
0.0000001
 43
0.0000001
 44
0.0000000001
 40
0.0
 40
0.0
 40
0.0
 40
0.0
 40
0.2469319429
 40
1.0
 40
1.0
 40
1.0
 40
1.0
 10
134.3757895537
 20
313.4849327658
 30
0.0
 10
134.323878918
 20
313.4750306485
 30
0.0
 10
134.112978368
 20
313.4385500877
 30
0.0
 10
133.8996513805
 20
313.4162706183
 30
0.0
 10
133.7387418742
 20
313.4071763213
 30
0.0
  0
SPLINE
  5
4DC
100
AcDbEntity
  8
0
100
AcDbSpline
 62
7
  6
BYLAYER
 70
0
 71
3
 72
11
 73
7
 74
0
 42
0.0000001
 43
0.0000001
 44
0.0000000001
 40
0.0
 40
0.0
 40
0.0
 40
0.0
 40
0.2146357478
 40
0.4503772866
 40
0.7120213265
 40
1.0
 40
1.0
 40
1.0
 40
1.0
 10
136.0200092498
 20
314.2676417665
 30
0.0
 10
136.0106069593
 20
314.2355949204
 30
0.0
 10
135.9802380596
 20
314.171235603
 30
0.0
 10
135.9085936707
 20
314.0855456439
 30
0.0
 10
135.8121388291
 20
314.0093880717
 30
0.0
 10
135.7368161102
 20
313.9680900336
 30
0.0
 10
135.6961639738
 20
313.9492397404
 30
0.0
  0
SPLINE
  5
4DD
100
AcDbEntity
  8
0
100
AcDbSpline
 62
7
  6
BYLAYER
 70
0
 71
3
 72
9
 73
5
 74
0
 42
0.0000001
 43
0.0000001
 44
0.0000000001
 40
0.0
 40
0.0
 40
0.0
 40
0.0
 40
0.5118166122
 40
1.0
 40
1.0
 40
1.0
 40
1.0
 10
149.2834803629
 20
321.9252646742
 30
0.0
 10
149.1756280392
 20
321.9147167703
 30
0.0
 10
148.9622823841
 20
321.9162799039
 30
0.0
 10
148.7533253803
 20
321.961864455
 30
0.0
 10
148.6560968001
 20
321.9969431986
 30
0.0
  0
SPLINE
  5
4DE
100
AcDbEntity
  8
0
100
AcDbSpline
 62
7
  6
BYLAYER
 70
0
 71
3
 72
9
 73
5
 74
0
 42
0.0000001
 43
0.0000001
 44
0.0000000001
 40
0.0
 40
0.0
 40
0.0
 40
0.0
 40
0.4663870088
 40
1.0
 40
1.0
 40
1.0
 40
1.0
 10
149.0696969201
 20
328.1940031701
 30
0.0
 10
149.0676855693
 20
328.21574643
 30
0.0
 10
149.0513156067
 20
328.2615367093
 30
0.0
 10
149.018855205
 20
328.296613245
 30
0.0
 10
148.999710074
 20
328.31266453
 30
0.0
  0
SPLINE
  5
4DF
100
AcDbEntity
  8
0
100
AcDbSpline
 62
7
  6
BYLAYER
 70
0
 71
3
 72
9
 73
5
 74
0
 42
0.0000001
 43
0.0000001
 44
0.0000000001
 40
0.0
 40
0.0
 40
0.0
 40
0.0
 40
0.5339031209
 40
1.0
 40
1.0
 40
1.0
 40
1.0
 10
149.4488685006
 20
327.6888124521
 30
0.0
 10
149.3770951001
 20
327.6860191254
 30
0.0
 10
149.2415840929
 20
327.6987339194
 30
0.0
 10
149.1135343502
 20
327.7511777969
 30
0.0
 10
149.0631508376
 20
327.7885072281
 30
0.0
  0
SPLINE
  5
4E0
100
AcDbEntity
  8
0
100
AcDbSpline
 62
7
  6
BYLAYER
 70
0
 71
3
 72
9
 73
5
 74
0
 42
0.0000001
 43
0.0000001
 44
0.0000000001
 40
0.0
 40
0.0
 40
0.0
 40
0.0
 40
0.2441253337
 40
1.0
 40
1.0
 40
1.0
 40
1.0
 10
149.6352653721
 20
327.6710377563
 30
0.0
 10
149.6204502549
 20
327.6747236588
 30
0.0
 10
149.5591798074
 20
327.6874026007
 30
0.0
 10
149.4960883471
 20
327.6909843058
 30
0.0
 10
149.4488685006
 20
327.6888124521
 30
0.0
  0
SPLINE
  5
4E1
100
AcDbEntity
  8
0
100
AcDbSpline
 62
7
  6
BYLAYER
 70
0
 71
3
 72
9
 73
5
 74
0
 42
0.0000001
 43
0.0000001
 44
0.0000000001
 40
0.0
 40
0.0
 40
0.0
 40
0.0
 40
0.2305290833
 40
1.0
 40
1.0
 40
1.0
 40
1.0
 10
149.7856551773
 20
327.60502217
 30
0.0
 10
149.7753657663
 20
327.6124054244
 30
0.0
 10
149.728780791
 20
327.6417073095
 30
0.0
 10
149.6762863637
 20
327.6608320068
 30
0.0
 10
149.6352653721
 20
327.6710377563
 30
0.0
  0
SPLINE
  5
4E2
100
AcDbEntity
  8
0
100
AcDbSpline
 62
7
  6
BYLAYER
 70
0
 71
3
 72
9
 73
5
 74
0
 42
0.0000001
 43
0.0000001
 44
0.0000000001
 40
0.0
 40
0.0
 40
0.0
 40
0.0
 40
0.2449524714
 40
1.0
 40
1.0
 40
1.0
 40
1.0
 10
150.1600241288
 20
327.2050279447
 30
0.0
 10
150.1314005898
 20
327.2394220612
 30
0.0
 10
150.0124368998
 20
327.3780695648
 30
0.0
 10
149.8853125238
 20
327.5096670936
 30
0.0
 10
149.7856551773
 20
327.60502217
 30
0.0
  0
SPLINE
  5
4E3
100
AcDbEntity
  8
0
100
AcDbSpline
 62
7
  6
BYLAYER
 70
0
 71
3
 72
9
 73
5
 74
0
 42
0.0000001
 43
0.0000001
 44
0.0000000001
 40
0.0
 40
0.0
 40
0.0
 40
0.0
 40
0.2452164937
 40
1.0
 40
1.0
 40
1.0
 40
1.0
 10
150.4669848512
 20
326.7863347182
 30
0.0
 10
150.444152745
 20
326.8221235978
 30
0.0
 10
150.3486093424
 20
326.9665109352
 30
0.0
 10
150.2436096237
 20
327.1045914035
 30
0.0
 10
150.1600241288
 20
327.2050279447
 30
0.0
  0
SPLINE
  5
4E4
100
AcDbEntity
  8
0
100
AcDbSpline
 62
7
  6
BYLAYER
 70
0
 71
3
 72
9
 73
5
 74
0
 42
0.0000001
 43
0.0000001
 44
0.0000000001
 40
0.0
 40
0.0
 40
0.0
 40
0.0
 40
0.2453105191
 40
1.0
 40
1.0
 40
1.0
 40
1.0
 10
150.6507821025
 20
326.4318333577
 30
0.0
 10
150.6382559894
 20
326.4620102014
 30
0.0
 10
150.5845115575
 20
326.5839020325
 30
0.0
 10
150.5202808294
 20
326.7011086943
 30
0.0
 10
150.4669848512
 20
326.7863347182
 30
0.0
  0
SPLINE
  5
4E5
100
AcDbEntity
  8
0
100
AcDbSpline
 62
7
  6
BYLAYER
 70
0
 71
3
 72
9
 73
5
 74
0
 42
0.0000001
 43
0.0000001
 44
0.0000000001
 40
0.0
 40
0.0
 40
0.0
 40
0.0
 40
0.2468477134
 40
1.0
 40
1.0
 40
1.0
 40
1.0
 10
150.7652657514
 20
326.0677418046
 30
0.0
 10
150.7586360955
 20
326.0984634709
 30
0.0
 10
150.7288672745
 20
326.2222792783
 30
0.0
 10
150.6875446368
 20
326.3432681944
 30
0.0
 10
150.6507821025
 20
326.4318333577
 30
0.0
  0
SPLINE
  5
4E6
100
AcDbEntity
  8
0
100
AcDbSpline
 62
7
  6
BYLAYER
 70
0
 71
3
 72
11
 73
7
 74
0
 42
0.0000001
 43
0.0000001
 44
0.0000000001
 40
0.0
 40
0.0
 40
0.0
 40
0.0
 40
0.2177159471
 40
0.4509403815
 40
0.7102937689
 40
1.0
 40
1.0
 40
1.0
 40
1.0
 10
115.7018635874
 20
332.4182187266
 30
0.0
 10
115.7018638071
 20
332.3877573572
 30
0.0
 10
115.7131448108
 20
332.3242490604
 30
0.0
 10
115.761256545
 20
332.2357396897
 30
0.0
 10
115.8374027737
 20
332.1557616198
 30
0.0
 10
115.9010770429
 20
332.1118918686
 30
0.0
 10
115.9361805177
 20
332.0916253265
 30
0.0
  0
SPLINE
  5
4E7
100
AcDbEntity
  8
0
100
AcDbSpline
 62
7
  6
BYLAYER
 70
0
 71
3
 72
9
 73
5
 74
0
 42
0.0000001
 43
0.0000001
 44
0.0000000001
 40
0.0
 40
0.0
 40
0.0
 40
0.0
 40
0.2254562211
 40
1.0
 40
1.0
 40
1.0
 40
1.0
 10
114.5450515774
 20
324.9267622015
 30
0.0
 10
114.5485916678
 20
324.9165514449
 30
0.0
 10
114.5692896999
 20
324.8729402403
 30
0.0
 10
114.6067534395
 20
324.8392269685
 30
0.0
 10
114.6378577193
 20
324.8189553578
 30
0.0
  0
SPLINE
  5
4E8
100
AcDbEntity
  8
0
100
AcDbSpline
 62
7
  6
BYLAYER
 70
0
 71
3
 72
10
 73
6
 74
0
 42
0.0000001
 43
0.0000001
 44
0.0000000001
 40
0.0
 40
0.0
 40
0.0
 40
0.0
 40
0.5401402921
 40
0.7762874494
 40
1.0
 40
1.0
 40
1.0
 40
1.0
 10
114.4801827639
 20
325.2963875709
 30
0.0
 10
114.5099089679
 20
325.2755887627
 30
0.0
 10
114.549362798
 20
325.2385130067
 30
0.0
 10
114.5783019635
 20
325.17712853
 30
0.0
 10
114.5830863407
 20
325.1460608646
 30
0.0
 10
114.5830889489
 20
325.1310346039
 30
0.0
  0
SPLINE
  5
4E9
100
AcDbEntity
  8
0
100
AcDbSpline
 62
7
  6
BYLAYER
 70
0
 71
3
 72
9
 73
5
 74
0
 42
0.0000001
 43
0.0000001
 44
0.0000000001
 40
0.0
 40
0.0
 40
0.0
 40
0.0
 40
0.7456440054
 40
1.0
 40
1.0
 40
1.0
 40
1.0
 10
114.5372710458
 20
324.972088707
 30
0.0
 10
114.5372718763
 20
324.960628333
 30
0.0
 10
114.5393081032
 20
324.9451681143
 30
0.0
 10
114.5437709658
 20
324.9304558962
 30
0.0
 10
114.5450515774
 20
324.9267622015
 30
0.0
  0
SPLINE
  5
4EA
100
AcDbEntity
  8
0
100
AcDbSpline
 62
7
  6
BYLAYER
 70
0
 71
3
 72
9
 73
5
 74
0
 42
0.0000001
 43
0.0000001
 44
0.0000000001
 40
0.0
 40
0.0
 40
0.0
 40
0.0
 40
0.5154328739
 40
1.0
 40
1.0
 40
1.0
 40
1.0
 10
115.7556602525
 20
329.8021924503
 30
0.0
 10
115.7387474402
 20
329.8274552614
 30
0.0
 10
115.7117075616
 20
329.8808273039
 30
0.0
 10
115.7018637935
 20
329.9401304877
 30
0.0
 10
115.7018635874
 20
329.9687114752
 30
0.0
  0
SPLINE
  5
4EB
100
AcDbEntity
  8
0
100
AcDbSpline
 62
7
  6
BYLAYER
 70
0
 71
3
 72
11
 73
7
 74
0
 42
0.0000001
 43
0.0000001
 44
0.0000000001
 40
0.0
 40
0.0
 40
0.0
 40
0.0
 40
0.2897060281
 40
0.5490591642
 40
0.7822835676
 40
1.0
 40
1.0
 40
1.0
 40
1.0
 10
119.4363509885
 20
333.214300489
 30
0.0
 10
119.4539025734
 20
333.2244338407
 30
0.0
 10
119.4857393916
 20
333.2463688665
 30
0.0
 10
119.5238119496
 20
333.2863581059
 30
0.0
 10
119.547867186
 20
333.3306129458
 30
0.0
 10
119.5535072083
 20
333.3623670918
 30
0.0
 10
119.5535070985
 20
333.3775977523
 30
0.0
  0
SPLINE
  5
4EC
100
AcDbEntity
  8
0
100
AcDbSpline
 62
7
  6
BYLAYER
 70
0
 71
3
 72
11
 73
7
 74
0
 42
0.0000001
 43
0.0000001
 44
0.0000000001
 40
0.0
 40
0.0
 40
0.0
 40
0.0
 40
0.2177164324
 40
0.4509408358
 40
0.7102939719
 40
1.0
 40
1.0
 40
1.0
 40
1.0
 10
118.4706702739
 20
332.561110241
 30
0.0
 10
118.4706701641
 20
332.5763409015
 30
0.0
 10
118.4763101863
 20
332.6080950475
 30
0.0
 10
118.5003654228
 20
332.6523498874
 30
0.0
 10
118.5384379807
 20
332.6923391268
 30
0.0
 10
118.570274799
 20
332.7142741526
 30
0.0
 10
118.5878263839
 20
332.7244075043
 30
0.0
  0
SPLINE
  5
4ED
100
AcDbEntity
  8
0
100
AcDbSpline
 62
7
  6
BYLAYER
 70
0
 71
3
 72
9
 73
5
 74
0
 42
0.0000001
 43
0.0000001
 44
0.0000000001
 40
0.0
 40
0.0
 40
0.0
 40
0.0
 40
0.4818346929
 40
1.0
 40
1.0
 40
1.0
 40
1.0
 10
130.2787305731
 20
316.6045133671
 30
0.0
 10
130.2787314487
 20
316.5888913341
 30
0.0
 10
130.2847226695
 20
316.5562581154
 30
0.0
 10
130.300979476
 20
316.5275833634
 30
0.0
 10
130.3110285556
 20
316.5141202992
 30
0.0
  0
SPLINE
  5
4EE
100
AcDbEntity
  8
0
100
AcDbSpline
 62
7
  6
BYLAYER
 70
0
 71
3
 72
9
 73
5
 74
0
 42
0.0000001
 43
0.0000001
 44
0.0000000001
 40
0.0
 40
0.0
 40
0.0
 40
0.0
 40
0.5313178587
 40
1.0
 40
1.0
 40
1.0
 40
1.0
 10
114.0708207963
 20
325.3883390937
 30
0.0
 10
114.1458914794
 20
325.3943948437
 30
0.0
 10
114.2891719634
 20
325.3857181161
 30
0.0
 10
114.4257481549
 20
325.3344743376
 30
0.0
 10
114.4801827639
 20
325.2963875709
 30
0.0
  0
SPLINE
  5
4EF
100
AcDbEntity
  8
0
100
AcDbSpline
 62
7
  6
BYLAYER
 70
0
 71
3
 72
9
 73
5
 74
0
 42
0.0000001
 43
0.0000001
 44
0.0000000001
 40
0.0
 40
0.0
 40
0.0
 40
0.0
 40
0.2445254536
 40
1.0
 40
1.0
 40
1.0
 40
1.0
 10
113.8602573175
 20
325.4042121228
 30
0.0
 10
113.8770212496
 20
325.4001372768
 30
0.0
 10
113.9462829457
 20
325.3864826784
 30
0.0
 10
114.0176921885
 20
325.3840533518
 30
0.0
 10
114.0708207963
 20
325.3883390937
 30
0.0
  0
SPLINE
  5
4F0
100
AcDbEntity
  8
0
100
AcDbSpline
 62
7
  6
BYLAYER
 70
0
 71
3
 72
11
 73
7
 74
0
 42
0.0000001
 43
0.0000001
 44
0.0000000001
 40
0.0
 40
0.0
 40
0.0
 40
0.0
 40
0.2897062311
 40
0.5490596185
 40
0.7822840529
 40
1.0
 40
1.0
 40
1.0
 40
1.0
 10
127.3559245636
 20
336.3169621772
 30
0.0
 10
127.373476301
 20
336.3068289062
 30
0.0
 10
127.4053134356
 20
336.2848940306
 30
0.0
 10
127.4433865499
 20
336.2449049956
 30
0.0
 10
127.467442417
 20
336.2006503103
 30
0.0
 10
127.4730829189
 20
336.1688961619
 30
0.0
 10
127.4730830287
 20
336.1536654772
 30
0.0
  0
SPLINE
  5
4F1
100
AcDbEntity
  8
0
100
AcDbSpline
 62
7
  6
BYLAYER
 70
0
 71
3
 72
11
 73
7
 74
0
 42
0.0000001
 43
0.0000001
 44
0.0000000001
 40
0.0
 40
0.0
 40
0.0
 40
0.0
 40
0.2218725418
 40
0.4567393373
 40
0.7144318325
 40
1.0
 40
1.0
 40
1.0
 40
1.0
 10
115.4363978821
 20
326.9169494119
 30
0.0
 10
115.4363942763
 20
326.8893474897
 30
0.0
 10
115.4454982955
 20
326.8322021573
 30
0.0
 10
115.4848167101
 20
326.7513248662
 30
0.0
 10
115.547780225
 20
326.6767435239
 30
0.0
 10
115.6012624986
 20
326.6346958621
 30
0.0
 10
115.6308849117
 20
326.6150845135
 30
0.0
  0
SPLINE
  5
4F2
100
AcDbEntity
  8
0
100
AcDbSpline
 62
7
  6
BYLAYER
 70
0
 71
3
 72
9
 73
5
 74
0
 42
0.0000001
 43
0.0000001
 44
0.0000000001
 40
0.0
 40
0.0
 40
0.0
 40
0.0
 40
0.5255657768
 40
1.0
 40
1.0
 40
1.0
 40
1.0
 10
126.0831277482
 20
336.9561383782
 30
0.0
 10
126.1344879146
 20
336.9561385017
 30
0.0
 10
126.2324744386
 20
336.9455166834
 30
0.0
 10
126.3258188319
 20
336.9116805444
 30
0.0
 10
126.3659709484
 20
336.8884992336
 30
0.0
  0
SPLINE
  5
4F3
100
AcDbEntity
  8
0
100
AcDbSpline
 62
7
  6
BYLAYER
 70
0
 71
3
 72
9
 73
5
 74
0
 42
0.0000001
 43
0.0000001
 44
0.0000000001
 40
0.0
 40
0.0
 40
0.0
 40
0.0
 40
0.4744336899
 40
1.0
 40
1.0
 40
1.0
 40
1.0
 10
125.8002855234
 20
336.8884978738
 30
0.0
 10
125.8404373431
 20
336.9116793993
 30
0.0
 10
125.9337813692
 20
336.9455160022
 30
0.0
 10
126.0317676377
 20
336.9561382547
 30
0.0
 10
126.0831277482
 20
336.9561383782
 30
0.0
  0
SPLINE
  5
4F4
100
AcDbEntity
  8
0
100
AcDbSpline
 62
7
  6
BYLAYER
 70
0
 71
3
 72
9
 73
5
 74
0
 42
0.0000001
 43
0.0000001
 44
0.0000000001
 40
0.0
 40
0.0
 40
0.0
 40
0.0
 40
0.4744336899
 40
1.0
 40
1.0
 40
1.0
 40
1.0
 10
137.3616024339
 20
317.9256100114
 30
0.0
 10
137.2812987946
 20
317.8792469604
 30
0.0
 10
137.0946107423
 20
317.8115737546
 30
0.0
 10
136.8986382055
 20
317.7903292496
 30
0.0
 10
136.7959179845
 20
317.7903290027
 30
0.0
  0
SPLINE
  5
4F5
100
AcDbEntity
  8
0
100
AcDbSpline
 62
7
  6
BYLAYER
 70
0
 71
3
 72
11
 73
7
 74
0
 42
0.0000001
 43
0.0000001
 44
0.0000000001
 40
0.0
 40
0.0
 40
0.0
 40
0.0
 40
0.2879786735
 40
0.5496227134
 40
0.7853642522
 40
1.0
 40
1.0
 40
1.0
 40
1.0
 10
135.6961639738
 20
316.3987469918
 30
0.0
 10
135.7368161102
 20
316.417597285
 30
0.0
 10
135.8121388291
 20
316.4588953231
 30
0.0
 10
135.9085936707
 20
316.5350528953
 30
0.0
 10
135.9802380596
 20
316.6207428544
 30
0.0
 10
136.0106069593
 20
316.6851021717
 30
0.0
 10
136.0200092498
 20
316.7171490179
 30
0.0
  0
SPLINE
  5
4F6
100
AcDbEntity
  8
0
100
AcDbSpline
 62
7
  6
BYLAYER
 70
0
 71
3
 72
9
 73
5
 74
0
 42
0.0000001
 43
0.0000001
 44
0.0000000001
 40
0.0
 40
0.0
 40
0.0
 40
0.0
 40
0.2585908371
 40
1.0
 40
1.0
 40
1.0
 40
1.0
 10
135.079504705
 20
316.1253337783
 30
0.0
 10
135.1343911021
 20
316.144634468
 30
0.0
 10
135.3452001786
 20
316.2232511617
 30
0.0
 10
135.5501085783
 20
316.3181620306
 30
0.0
 10
135.6961639738
 20
316.3987469918
 30
0.0
  0
SPLINE
  5
4F7
100
AcDbEntity
  8
0
100
AcDbSpline
 62
7
  6
BYLAYER
 70
0
 71
3
 72
9
 73
5
 74
0
 42
0.0000001
 43
0.0000001
 44
0.0000000001
 40
0.0
 40
0.0
 40
0.0
 40
0.0
 40
0.2557603202
 40
1.0
 40
1.0
 40
1.0
 40
1.0
 10
134.3757895537
 20
315.9344400172
 30
0.0
 10
134.4367885652
 20
315.9465583447
 30
0.0
 10
134.6744724973
 20
315.9979054281
 30
0.0
 10
134.908782045
 20
316.0652995027
 30
0.0
 10
135.079504705
 20
316.1253337783
 30
0.0
  0
SPLINE
  5
4F8
100
AcDbEntity
  8
0
100
AcDbSpline
 62
7
  6
BYLAYER
 70
0
 71
3
 72
9
 73
5
 74
0
 42
0.0000001
 43
0.0000001
 44
0.0000000001
 40
0.0
 40
0.0
 40
0.0
 40
0.0
 40
0.2526965357
 40
1.0
 40
1.0
 40
1.0
 40
1.0
 10
133.7387418742
 20
315.8566835727
 30
0.0
 10
133.7927356925
 20
315.8597351999
 30
0.0
 10
134.0061941623
 20
315.8752420035
 30
0.0
 10
134.2186905807
 20
315.9044728933
 30
0.0
 10
134.3757895537
 20
315.9344400172
 30
0.0
  0
SPLINE
  5
4F9
100
AcDbEntity
  8
0
100
AcDbSpline
 62
7
  6
BYLAYER
 70
0
 71
3
 72
9
 73
5
 74
0
 42
0.0000001
 43
0.0000001
 44
0.0000000001
 40
0.0
 40
0.0
 40
0.0
 40
0.0
 40
0.226150704
 40
1.0
 40
1.0
 40
1.0
 40
1.0
 10
130.3110285556
 20
316.5141202992
 30
0.0
 10
130.3175291555
 20
316.5054112436
 30
0.0
 10
130.3494608079
 20
316.4692679869
 30
0.0
 10
130.3913046635
 20
316.4429795181
 30
0.0
 10
130.4249759011
 20
316.4271955008
 30
0.0
  0
SPLINE
  5
4FA
100
AcDbEntity
  8
0
100
AcDbSpline
 62
7
  6
BYLAYER
 70
0
 71
3
 72
11
 73
7
 74
0
 42
0.0000001
 43
0.0000001
 44
0.0000000001
 40
0.0
 40
0.0
 40
0.0
 40
0.0
 40
0.2177159471
 40
0.4509403815
 40
0.7102937689
 40
1.0
 40
1.0
 40
1.0
 40
1.0
 10
123.4910963311
 20
337.0109650595
 30
0.0
 10
123.4910964409
 20
336.9957343747
 30
0.0
 10
123.4967369427
 20
336.9639802264
 30
0.0
 10
123.5207928099
 20
336.919725541
 30
0.0
 10
123.5588659242
 20
336.8797365061
 30
0.0
 10
123.5907030588
 20
336.8578016304
 30
0.0
 10
123.6082547962
 20
336.8476683594
 30
0.0
  0
SPLINE
  5
4FB
100
AcDbEntity
  8
0
100
AcDbSpline
 62
7
  6
BYLAYER
 70
0
 71
3
 72
11
 73
7
 74
0
 42
0.0000001
 43
0.0000001
 44
0.0000000001
 40
0.0
 40
0.0
 40
0.0
 40
0.0
 40
0.3001665598
 40
0.5641973456
 40
0.7932685561
 40
1.0
 40
1.0
 40
1.0
 40
1.0
 10
130.0741796322
 20
316.8578342865
 30
0.0
 10
130.1040375363
 20
316.8467393067
 30
0.0
 10
130.1586345225
 20
316.8211204164
 30
0.0
 10
130.2259206783
 20
316.7691430467
 30
0.0
 10
130.2700921733
 20
316.7077209492
 30
0.0
 10
130.2808425004
 20
316.6610644824
 30
0.0
 10
130.2808547578
 20
316.6391268328
 30
0.0
  0
SPLINE
  5
4FC
100
AcDbEntity
  8
0
100
AcDbSpline
 62
7
  6
BYLAYER
 70
0
 71
3
 72
9
 73
5
 74
0
 42
0.0000001
 43
0.0000001
 44
0.0000000001
 40
0.0
 40
0.0
 40
0.0
 40
0.0
 40
0.5034433366
 40
1.0
 40
1.0
 40
1.0
 40
1.0
 10
129.6166255389
 20
316.8680823089
 30
0.0
 10
129.6908680905
 20
316.891184213
 30
0.0
 10
129.8469269856
 20
316.9102259374
 30
0.0
 10
130.0022921518
 20
316.8845471507
 30
0.0
 10
130.0741796322
 20
316.8578342865
 30
0.0
  0
SPLINE
  5
4FD
100
AcDbEntity
  8
0
100
AcDbSpline
 62
7
  6
BYLAYER
 70
0
 71
3
 72
9
 73
5
 74
0
 42
0.0000001
 43
0.0000001
 44
0.0000000001
 40
0.0
 40
0.0
 40
0.0
 40
0.0
 40
0.2564492785
 40
1.0
 40
1.0
 40
1.0
 40
1.0
 10
129.4048103386
 20
316.8405433797
 30
0.0
 10
129.4231063217
 20
316.8399793301
 30
0.0
 10
129.4944818114
 20
316.8406234615
 30
0.0
 10
129.5659711577
 20
316.852244228
 30
0.0
 10
129.6166255389
 20
316.8680823089
 30
0.0
  0
SPLINE
  5
4FE
100
AcDbEntity
  8
0
100
AcDbSpline
 62
7
  6
BYLAYER
 70
0
 71
3
 72
9
 73
5
 74
0
 42
0.0000001
 43
0.0000001
 44
0.0000000001
 40
0.0
 40
0.0
 40
0.0
 40
0.0
 40
0.237769042
 40
1.0
 40
1.0
 40
1.0
 40
1.0
 10
129.1992793135
 20
316.8809487384
 30
0.0
 10
129.2147501931
 20
316.8747980726
 30
0.0
 10
129.281140272
 20
316.8523082319
 30
0.0
 10
129.3514639532
 20
316.8421880035
 30
0.0
 10
129.4048103386
 20
316.8405433797
 30
0.0
  0
SPLINE
  5
4FF
100
AcDbEntity
  8
0
100
AcDbSpline
 62
7
  6
BYLAYER
 70
0
 71
3
 72
9
 73
5
 74
0
 42
0.0000001
 43
0.0000001
 44
0.0000000001
 40
0.0
 40
0.0
 40
0.0
 40
0.0
 40
0.5222384812
 40
1.0
 40
1.0
 40
1.0
 40
1.0
 10
126.2047372079
 20
318.3994992534
 30
0.0
 10
126.1050570859
 20
318.3979736107
 30
0.0
 10
125.9133944069
 20
318.4152456699
 30
0.0
 10
125.7295578964
 20
318.4757497465
 30
0.0
 10
125.6486149116
 20
318.5177727973
 30
0.0
  0
SPLINE
  5
500
100
AcDbEntity
  8
0
100
AcDbSpline
 62
7
  6
BYLAYER
 70
0
 71
3
 72
9
 73
5
 74
0
 42
0.0000001
 43
0.0000001
 44
0.0000000001
 40
0.0
 40
0.0
 40
0.0
 40
0.0
 40
0.4744713384
 40
1.0
 40
1.0
 40
1.0
 40
1.0
 10
126.7492243697
 20
318.5346180488
 30
0.0
 10
126.6717972507
 20
318.4899157477
 30
0.0
 10
126.4923548593
 20
318.4236836516
 30
0.0
 10
126.3037513849
 20
318.4010147035
 30
0.0
 10
126.2047372079
 20
318.3994992534
 30
0.0
  0
SPLINE
  5
501
100
AcDbEntity
  8
0
100
AcDbSpline
 62
7
  6
BYLAYER
 70
0
 71
3
 72
9
 73
5
 74
0
 42
0.0000001
 43
0.0000001
 44
0.0000000001
 40
0.0
 40
0.0
 40
0.0
 40
0.0
 40
0.5255657768
 40
1.0
 40
1.0
 40
1.0
 40
1.0
 10
136.7959179845
 20
317.7903290027
 30
0.0
 10
136.6931976515
 20
317.7903287557
 30
0.0
 10
136.4972246035
 20
317.8115723923
 30
0.0
 10
136.3105358169
 20
317.8792446703
 30
0.0
 10
136.230231584
 20
317.9256072919
 30
0.0
  0
SPLINE
  5
502
100
AcDbEntity
  8
0
100
AcDbSpline
 62
7
  6
BYLAYER
 70
0
 71
3
 72
9
 73
5
 74
0
 42
0.0000001
 43
0.0000001
 44
0.0000000001
 40
0.0
 40
0.0
 40
0.0
 40
0.0
 40
0.2280681833
 40
1.0
 40
1.0
 40
1.0
 40
1.0
 10
113.6934374078
 20
325.4800705085
 30
0.0
 10
113.7044513944
 20
325.4714398978
 30
0.0
 10
113.7554282322
 20
325.437028801
 30
0.0
 10
113.8142369383
 20
325.4153983981
 30
0.0
 10
113.8602573175
 20
325.4042121228
 30
0.0
  0
SPLINE
  5
503
100
AcDbEntity
  8
0
100
AcDbSpline
 62
7
  6
BYLAYER
 70
0
 71
3
 72
9
 73
5
 74
0
 42
0.0000001
 43
0.0000001
 44
0.0000000001
 40
0.0
 40
0.0
 40
0.0
 40
0.0
 40
0.2449312445
 40
1.0
 40
1.0
 40
1.0
 40
1.0
 10
113.003867263
 20
326.078311775
 30
0.0
 10
113.0575268367
 20
326.0265563501
 30
0.0
 10
113.279484087
 20
325.8182451076
 30
0.0
 10
113.512535175
 20
325.6218263318
 30
0.0
 10
113.6934374078
 20
325.4800705085
 30
0.0
  0
SPLINE
  5
504
100
AcDbEntity
  8
0
100
AcDbSpline
 62
7
  6
BYLAYER
 70
0
 71
3
 72
9
 73
5
 74
0
 42
0.0000001
 43
0.0000001
 44
0.0000000001
 40
0.0
 40
0.0
 40
0.0
 40
0.0
 40
0.2449255914
 40
1.0
 40
1.0
 40
1.0
 40
1.0
 10
112.4163639914
 20
326.7118260481
 30
0.0
 10
112.4612163664
 20
326.6573550609
 30
0.0
 10
112.6477225736
 20
326.437752131
 30
0.0
 10
112.8472974831
 20
326.2293255626
 30
0.0
 10
113.003867263
 20
326.078311775
 30
0.0
  0
SPLINE
  5
505
100
AcDbEntity
  8
0
100
AcDbSpline
 62
7
  6
BYLAYER
 70
0
 71
3
 72
9
 73
5
 74
0
 42
0.0000001
 43
0.0000001
 44
0.0000000001
 40
0.0
 40
0.0
 40
0.0
 40
0.0
 40
0.5255186429
 40
1.0
 40
1.0
 40
1.0
 40
1.0
 10
149.0219991775
 20
328.0717131262
 30
0.0
 10
149.0366580017
 20
328.087340592
 30
0.0
 10
149.0608666309
 20
328.1212385103
 30
0.0
 10
149.0702603409
 20
328.1623414477
 30
0.0
 10
149.0702642325
 20
328.1816871324
 30
0.0
  0
SPLINE
  5
506
100
AcDbEntity
  8
0
100
AcDbSpline
 62
7
  6
BYLAYER
 70
0
 71
3
 72
11
 73
7
 74
0
 42
0.0000001
 43
0.0000001
 44
0.0000000001
 40
0.0
 40
0.0
 40
0.0
 40
0.0
 40
0.2897060281
 40
0.5490591642
 40
0.7822835676
 40
1.0
 40
1.0
 40
1.0
 40
1.0
 10
146.1277509079
 20
332.1722560294
 30
0.0
 10
146.1628540776
 20
332.1925227329
 30
0.0
 10
146.2265277141
 20
332.2363927844
 30
0.0
 10
146.3026728301
 20
332.3163712632
 30
0.0
 10
146.3507833029
 20
332.404880943
 30
0.0
 10
146.3620633474
 20
332.4683892352
 30
0.0
 10
146.3620631278
 20
332.498850556
 30
0.0
  0
SPLINE
  5
507
100
AcDbEntity
  8
0
100
AcDbSpline
 62
7
  6
BYLAYER
 70
0
 71
3
 72
11
 73
7
 74
0
 42
0.0000001
 43
0.0000001
 44
0.0000000001
 40
0.0
 40
0.0
 40
0.0
 40
0.0
 40
0.2177716243
 40
0.4509506744
 40
0.7102000518
 40
1.0
 40
1.0
 40
1.0
 40
1.0
 10
143.2685657315
 20
329.7442969138
 30
0.0
 10
143.2685648388
 20
329.8680796015
 30
0.0
 10
143.3142544241
 20
330.1261349044
 30
0.0
 10
143.5099282122
 20
330.4855331018
 30
0.0
 10
143.8190367235
 20
330.810600984
 30
0.0
 10
144.0778037296
 20
330.9887255389
 30
0.0
 10
144.2204591247
 20
331.0710871781
 30
0.0
  0
SPLINE
  5
508
100
AcDbEntity
  8
0
100
AcDbSpline
 62
7
  6
BYLAYER
 70
0
 71
3
 72
9
 73
5
 74
0
 42
0.0000001
 43
0.0000001
 44
0.0000000001
 40
0.0
 40
0.0
 40
0.0
 40
0.0
 40
0.2587446645
 40
1.0
 40
1.0
 40
1.0
 40
1.0
 10
150.6391778097
 20
325.3240555562
 30
0.0
 10
150.6560045597
 20
325.3534595955
 30
0.0
 10
150.7165520642
 20
325.4695646635
 30
0.0
 10
150.7576289332
 20
325.5961612271
 30
0.0
 10
150.7738525429
 20
325.6918505949
 30
0.0
  0
SPLINE
  5
509
100
AcDbEntity
  8
0
100
AcDbSpline
 62
7
  6
BYLAYER
 70
0
 71
3
 72
9
 73
5
 74
0
 42
0.0000001
 43
0.0000001
 44
0.0000000001
 40
0.0
 40
0.0
 40
0.0
 40
0.0
 40
0.2618850736
 40
1.0
 40
1.0
 40
1.0
 40
1.0
 10
150.3085412495
 20
324.917769643
 30
0.0
 10
150.3417847977
 20
324.9492814809
 30
0.0
 10
150.4650838522
 20
325.0733107479
 30
0.0
 10
150.5730828878
 20
325.2131568994
 30
0.0
 10
150.6391778097
 20
325.3240555562
 30
0.0
  0
SPLINE
  5
50A
100
AcDbEntity
  8
0
100
AcDbSpline
 62
7
  6
BYLAYER
 70
0
 71
3
 72
9
 73
5
 74
0
 42
0.0000001
 43
0.0000001
 44
0.0000000001
 40
0.0
 40
0.0
 40
0.0
 40
0.0
 40
0.2613528658
 40
1.0
 40
1.0
 40
1.0
 40
1.0
 10
149.8349740367
 20
324.561744061
 30
0.0
 10
149.8791985621
 20
324.5884618401
 30
0.0
 10
150.045948568
 20
324.6946380366
 30
0.0
 10
150.2025602488
 20
324.8173093644
 30
0.0
 10
150.3085412495
 20
324.917769643
 30
0.0
  0
SPLINE
  5
50B
100
AcDbEntity
  8
0
100
AcDbSpline
 62
7
  6
BYLAYER
 70
0
 71
3
 72
9
 73
5
 74
0
 42
0.0000001
 43
0.0000001
 44
0.0000000001
 40
0.0
 40
0.0
 40
0.0
 40
0.0
 40
0.5317168409
 40
1.0
 40
1.0
 40
1.0
 40
1.0
 10
149.2834803629
 20
324.3747719256
 30
0.0
 10
149.3870409941
 20
324.3849001041
 30
0.0
 10
149.580451019
 20
324.4235559596
 30
0.0
 10
149.7605636909
 20
324.5082540951
 30
0.0
 10
149.8349740367
 20
324.561744061
 30
0.0
  0
SPLINE
  5
50C
100
AcDbEntity
  8
0
100
AcDbSpline
 62
7
  6
BYLAYER
 70
0
 71
3
 72
9
 73
5
 74
0
 42
0.0000001
 43
0.0000001
 44
0.0000000001
 40
0.0
 40
0.0
 40
0.0
 40
0.0
 40
0.4881833878
 40
1.0
 40
1.0
 40
1.0
 40
1.0
 10
148.6560968001
 20
324.44645045
 30
0.0
 10
148.7533253802
 20
324.4113717064
 30
0.0
 10
148.9622823841
 20
324.3657871553
 30
0.0
 10
149.1756280392
 20
324.3642240217
 30
0.0
 10
149.2834803629
 20
324.3747719256
 30
0.0
  0
SPLINE
  5
50D
100
AcDbEntity
  8
0
100
AcDbSpline
 62
7
  6
BYLAYER
 70
0
 71
3
 72
11
 73
7
 74
0
 42
0.0000001
 43
0.0000001
 44
0.0000000001
 40
0.0
 40
0.0
 40
0.0
 40
0.0
 40
0.2177164324
 40
0.4509408358
 40
0.7102939719
 40
1.0
 40
1.0
 40
1.0
 40
1.0
 10
147.4246579909
 20
323.9267982768
 30
0.0
 10
147.4246582106
 20
323.896336956
 30
0.0
 10
147.4133781661
 20
323.8328286639
 30
0.0
 10
147.3652676933
 20
323.744318984
 30
0.0
 10
147.2891225773
 20
323.6643405053
 30
0.0
 10
147.2254489408
 20
323.6204704538
 30
0.0
 10
147.1903457711
 20
323.6002037503
 30
0.0
  0
SPLINE
  5
50E
100
AcDbEntity
  8
0
100
AcDbSpline
 62
7
  6
BYLAYER
 70
0
 71
3
 72
10
 73
6
 74
0
 42
0.0000001
 43
0.0000001
 44
0.0000000001
 40
0.0
 40
0.0
 40
0.0
 40
0.0
 40
0.2288687411
 40
0.4676725334
 40
1.0
 40
1.0
 40
1.0
 40
1.0
 10
146.3620631278
 20
330.0493433046
 30
0.0
 10
146.3620632936
 20
330.026352001
 30
0.0
 10
146.3557931984
 20
329.9791653363
 30
0.0
 10
146.3181746334
 20
329.88515738
 30
0.0
 10
146.2652321207
 20
329.8251299459
 30
0.0
 10
146.224535428
 20
329.7904395541
 30
0.0
  0
SPLINE
  5
50F
100
AcDbEntity
  8
0
100
AcDbSpline
 62
7
  6
BYLAYER
 70
0
 71
3
 72
9
 73
5
 74
0
 42
0.0000001
 43
0.0000001
 44
0.0000000001
 40
0.0
 40
0.0
 40
0.0
 40
0.0
 40
0.4890411276
 40
1.0
 40
1.0
 40
1.0
 40
1.0
 10
112.1702950531
 20
327.2902615466
 30
0.0
 10
112.1811987561
 20
327.2164645496
 30
0.0
 10
112.2193829444
 20
327.0675705712
 30
0.0
 10
112.2854070224
 20
326.9290199042
 30
0.0
 10
112.324701915
 20
326.8617087706
 30
0.0
  0
SPLINE
  5
510
100
AcDbEntity
  8
0
100
AcDbSpline
 62
7
  6
BYLAYER
 70
0
 71
3
 72
11
 73
7
 74
0
 42
0.0000001
 43
0.0000001
 44
0.0000000001
 40
0.0
 40
0.0
 40
0.0
 40
0.0
 40
0.2897060281
 40
0.5490591642
 40
0.7822835677
 40
1.0
 40
1.0
 40
1.0
 40
1.0
 10
147.1903457706
 20
326.0497110013
 30
0.0
 10
147.2254489404
 20
326.0699777049
 30
0.0
 10
147.289122577
 20
326.1138477564
 30
0.0
 10
147.3652676931
 20
326.1938262352
 30
0.0
 10
147.4133781661
 20
326.2823359151
 30
0.0
 10
147.4246582106
 20
326.3458442073
 30
0.0
 10
147.4246579909
 20
326.3763055282
 30
0.0
  0
SPLINE
  5
511
100
AcDbEntity
  8
0
100
AcDbSpline
 62
7
  6
BYLAYER
 70
0
 71
3
 72
9
 73
5
 74
0
 42
0.0000001
 43
0.0000001
 44
0.0000000001
 40
0.0
 40
0.0
 40
0.0
 40
0.0
 40
0.5255663101
 40
1.0
 40
1.0
 40
1.0
 40
1.0
 10
136.7959179845
 20
320.239836254
 30
0.0
 10
136.8986382055
 20
320.239836501
 30
0.0
 10
137.0946107423
 20
320.261081006
 30
0.0
 10
137.2812987945
 20
320.3287542118
 30
0.0
 10
137.3616024338
 20
320.3751172628
 30
0.0
  0
SPLINE
  5
512
100
AcDbEntity
  8
0
100
AcDbSpline
 62
7
  6
BYLAYER
 70
0
 71
3
 72
9
 73
5
 74
0
 42
0.0000001
 43
0.0000001
 44
0.0000000001
 40
0.0
 40
0.0
 40
0.0
 40
0.0
 40
0.4744342232
 40
1.0
 40
1.0
 40
1.0
 40
1.0
 10
136.230231584
 20
320.3751145433
 30
0.0
 10
136.3105358169
 20
320.3287519217
 30
0.0
 10
136.4972246035
 20
320.2610796437
 30
0.0
 10
136.6931976515
 20
320.2398360071
 30
0.0
 10
136.7959179845
 20
320.239836254
 30
0.0
  0
SPLINE
  5
513
100
AcDbEntity
  8
0
100
AcDbSpline
 62
7
  6
BYLAYER
 70
0
 71
3
 72
11
 73
7
 74
0
 42
0.0000001
 43
0.0000001
 44
0.0000000001
 40
0.0
 40
0.0
 40
0.0
 40
0.0
 40
0.266048701
 40
0.5253482745
 40
0.7716913235
 40
1.0
 40
1.0
 40
1.0
 40
1.0
 10
130.9622677817
 20
322.639294891
 30
0.0
 10
131.1739568648
 20
322.6392953998
 30
0.0
 10
131.5923577561
 20
322.6158215246
 30
0.0
 10
132.198807247
 20
322.5110137549
 30
0.0
 10
132.7590329885
 20
322.340746806
 30
0.0
 10
133.1030455649
 20
322.1805553887
 30
0.0
 10
133.2603687837
 20
322.0897268408
 30
0.0
  0
SPLINE
  5
514
100
AcDbEntity
  8
0
100
AcDbSpline
 62
7
  6
BYLAYER
 70
0
 71
3
 72
11
 73
7
 74
0
 42
0.0000001
 43
0.0000001
 44
0.0000000001
 40
0.0
 40
0.0
 40
0.0
 40
0.0
 40
0.2283083032
 40
0.4746511985
 40
0.7339508892
 40
1.0
 40
1.0
 40
1.0
 40
1.0
 10
128.664174706
 20
322.0897157929
 30
0.0
 10
128.8214966845
 20
322.1805451374
 30
0.0
 10
129.1655071532
 20
322.3407382729
 30
0.0
 10
129.725730483
 20
322.5110078848
 30
0.0
 10
130.332178486
 20
322.6158185342
 30
0.0
 10
130.750578814
 20
322.6392943821
 30
0.0
 10
130.9622677817
 20
322.639294891
 30
0.0
  0
SPLINE
  5
515
100
AcDbEntity
  8
0
100
AcDbSpline
 62
7
  6
BYLAYER
 70
0
 71
3
 72
9
 73
5
 74
0
 42
0.0000001
 43
0.0000001
 44
0.0000000001
 40
0.0
 40
0.0
 40
0.0
 40
0.0
 40
0.5255286616
 40
1.0
 40
1.0
 40
1.0
 40
1.0
 10
126.2047372079
 20
320.8490065048
 30
0.0
 10
126.3037513849
 20
320.8505219549
 30
0.0
 10
126.4923548593
 20
320.873190903
 30
0.0
 10
126.6717972507
 20
320.9394229991
 30
0.0
 10
126.7492243697
 20
320.9841253002
 30
0.0
  0
SPLINE
  5
516
100
AcDbEntity
  8
0
100
AcDbSpline
 62
7
  6
BYLAYER
 70
0
 71
3
 72
9
 73
5
 74
0
 42
0.0000001
 43
0.0000001
 44
0.0000000001
 40
0.0
 40
0.0
 40
0.0
 40
0.0
 40
0.4777615188
 40
1.0
 40
1.0
 40
1.0
 40
1.0
 10
125.6486149116
 20
320.9672800487
 30
0.0
 10
125.7295578964
 20
320.9252569979
 30
0.0
 10
125.9133944069
 20
320.8647529213
 30
0.0
 10
126.1050570859
 20
320.8474808621
 30
0.0
 10
126.2047372079
 20
320.8490065048
 30
0.0
  0
LINE
  5
517
100
AcDbEntity
  8
0
100
AcDbLine
 62
7
  6
BYLAYER
 10
115.6308849117
 20
326.6150845135
 11
115.7021654191
 21
326.567701999
  0
SPLINE
  5
518
100
AcDbEntity
  8
0
100
AcDbSpline
 62
7
  6
BYLAYER
 70
0
 71
3
 72
11
 73
7
 74
0
 42
0.0000001
 43
0.0000001
 44
0.0000000001
 40
0.0
 40
0.0
 40
0.0
 40
0.0
 40
0.2855041359
 40
0.543399385
 40
0.7782808259
 40
1.0
 40
1.0
 40
1.0
 40
1.0
 10
115.6325649326
 20
324.1644608387
 30
0.0
 10
115.6028275995
 20
324.1842150888
 30
0.0
 10
115.5490131738
 20
324.2263962598
 30
0.0
 10
115.4854080588
 20
324.3011103955
 30
0.0
 10
115.4455984219
 20
324.3822912202
 30
0.0
 10
115.436402518
 20
324.4397173726
 30
0.0
 10
115.436389823
 20
324.4674421093
 30
0.0
  0
SPLINE
  5
519
100
AcDbEntity
  8
0
100
AcDbSpline
 62
7
  6
BYLAYER
 70
0
 71
3
 72
11
 73
7
 74
0
 42
0.0000001
 43
0.0000001
 44
0.0000000001
 40
0.0
 40
0.0
 40
0.0
 40
0.0
 40
0.2899098314
 40
0.5492002083
 40
0.7823348475
 40
1.0
 40
1.0
 40
1.0
 40
1.0
 10
117.7039548305
 20
331.0710234402
 30
0.0
 10
117.8469519328
 20
330.9887818751
 30
0.0
 10
118.1063558986
 20
330.8108432412
 30
0.0
 10
118.4163230775
 20
330.4858462018
 30
0.0
 10
118.6126004873
 20
330.1263364024
 30
0.0
 10
118.6584486559
 20
329.8680903124
 30
0.0
 10
118.658449549
 20
329.7442377584
 30
0.0
  0
SPLINE
  5
51A
100
AcDbEntity
  8
0
100
AcDbSpline
 62
7
  6
BYLAYER
 70
0
 71
3
 72
9
 73
5
 74
0
 42
0.0000001
 43
0.0000001
 44
0.0000000001
 40
0.0
 40
0.0
 40
0.0
 40
0.0
 40
0.2326522614
 40
1.0
 40
1.0
 40
1.0
 40
1.0
 10
130.2663952011
 20
46.8453608713
 30
0.0
 10
130.2631506811
 20
46.8534975779
 30
0.0
 10
130.2465747328
 20
46.8874308004
 30
0.0
 10
130.2205579387
 20
46.9161673435
 30
0.0
 10
130.1984122892
 20
46.9347229563
 30
0.0
  0
SPLINE
  5
51B
100
AcDbEntity
  8
0
100
AcDbSpline
 62
7
  6
BYLAYER
 70
0
 71
3
 72
9
 73
5
 74
0
 42
0.0000001
 43
0.0000001
 44
0.0000000001
 40
0.0
 40
0.0
 40
0.0
 40
0.0
 40
0.2323670697
 40
1.0
 40
1.0
 40
1.0
 40
1.0
 10
130.1984122892
 20
46.9347229563
 30
0.0
 10
130.1896718988
 20
46.9420464397
 30
0.0
 10
130.1503210918
 20
46.9714826621
 30
0.0
 10
130.1055628777
 20
46.993224109
 30
0.0
 10
130.0702252632
 20
47.0062737099
 30
0.0
  0
SPLINE
  5
51C
100
AcDbEntity
  8
0
100
AcDbSpline
 62
7
  6
BYLAYER
 70
0
 71
3
 72
8
 73
4
 74
0
 42
0.0000001
 43
0.0000001
 44
0.0000000001
 40
0.0
 40
0.0
 40
0.0
 40
0.0
 40
1.0
 40
1.0
 40
1.0
 40
1.0
 10
136.0326431382
 20
46.9498956351
 30
0.0
 10
136.0326285354
 20
46.9179001
 30
0.0
 10
136.0273271529
 20
46.885568125
 30
0.0
 10
136.0175496831
 20
46.8551031358
 30
0.0
  0
SPLINE
  5
51D
100
AcDbEntity
  8
0
100
AcDbSpline
 62
7
  6
BYLAYER
 70
0
 71
3
 72
9
 73
5
 74
0
 42
0.0000001
 43
0.0000001
 44
0.0000000001
 40
0.0
 40
0.0
 40
0.0
 40
0.0
 40
0.2284768436
 40
1.0
 40
1.0
 40
1.0
 40
1.0
 10
136.0175496831
 20
46.8551031358
 30
0.0
 10
136.0109183171
 20
46.834440889
 30
0.0
 10
135.9728770725
 20
46.7468158006
 30
0.0
 10
135.9033639634
 20
46.6758789731
 30
0.0
 10
135.8446519107
 20
46.632032216
 30
0.0
  0
SPLINE
  5
51E
100
AcDbEntity
  8
0
100
AcDbSpline
 62
7
  6
BYLAYER
 70
0
 71
3
 72
9
 73
5
 74
0
 42
0.0000001
 43
0.0000001
 44
0.0000000001
 40
0.0
 40
0.0
 40
0.0
 40
0.0
 40
0.2611751313
 40
1.0
 40
1.0
 40
1.0
 40
1.0
 10
112.3247019148
 20
57.0076599097
 30
0.0
 10
112.3008344448
 20
57.0477918948
 30
0.0
 10
112.2173799456
 20
57.2059156844
 30
0.0
 10
112.1701835351
 20
57.3840357608
 30
0.0
 10
112.1624772965
 20
57.5158980737
 30
0.0
  0
SPLINE
  5
51F
100
AcDbEntity
  8
0
100
AcDbSpline
 62
7
  6
BYLAYER
 70
0
 71
3
 72
9
 73
5
 74
0
 42
0.0000001
 43
0.0000001
 44
0.0000000001
 40
0.0
 40
0.0
 40
0.0
 40
0.0
 40
0.2569022137
 40
1.0
 40
1.0
 40
1.0
 40
1.0
 10
112.9588907295
 20
56.2692603467
 30
0.0
 10
112.8999295904
 20
56.3282444877
 30
0.0
 10
112.6745942556
 20
56.5619471545
 30
0.0
 10
112.4665148069
 20
56.8125078295
 30
0.0
 10
112.3247019148
 20
57.0076599097
 30
0.0
  0
SPLINE
  5
520
100
AcDbEntity
  8
0
100
AcDbSpline
 62
7
  6
BYLAYER
 70
0
 71
3
 72
9
 73
5
 74
0
 42
0.0000001
 43
0.0000001
 44
0.0000000001
 40
0.0
 40
0.0
 40
0.0
 40
0.0
 40
0.2568485129
 40
1.0
 40
1.0
 40
1.0
 40
1.0
 10
113.7438999776
 20
55.586857647
 30
0.0
 10
113.6729773135
 20
55.6407766785
 30
0.0
 10
113.4001899275
 20
55.855034074
 30
0.0
 10
113.1411277497
 20
56.0869522323
 30
0.0
 10
112.9588907295
 20
56.2692603467
 30
0.0
  0
SPLINE
  5
521
100
AcDbEntity
  8
0
100
AcDbSpline
 62
7
  6
BYLAYER
 70
0
 71
3
 72
9
 73
5
 74
0
 42
0.0000001
 43
0.0000001
 44
0.0000000001
 40
0.0
 40
0.0
 40
0.0
 40
0.0
 40
0.2742355281
 40
1.0
 40
1.0
 40
1.0
 40
1.0
 10
113.8672989587
 20
55.5328846325
 30
0.0
 10
113.8551646424
 20
55.5353137296
 30
0.0
 10
113.8113715742
 20
55.5461424174
 30
0.0
 10
113.769721022
 20
55.5667112851
 30
0.0
 10
113.7438999776
 20
55.586857647
 30
0.0
  0
SPLINE
  5
522
100
AcDbEntity
  8
0
100
AcDbSpline
 62
7
  6
BYLAYER
 70
0
 71
3
 72
8
 73
4
 74
0
 42
0.0000001
 43
0.0000001
 44
0.0000000001
 40
0.0
 40
0.0
 40
0.0
 40
0.0
 40
1.0
 40
1.0
 40
1.0
 40
1.0
 10
114.0137420512
 20
55.5298128336
 30
0.0
 10
113.9654071457
 20
55.5229115654
 30
0.0
 10
113.9151742146
 20
55.5233007678
 30
0.0
 10
113.8672989587
 20
55.5328846325
 30
0.0
  0
SPLINE
  5
523
100
AcDbEntity
  8
0
100
AcDbSpline
 62
7
  6
BYLAYER
 70
0
 71
3
 72
9
 73
5
 74
0
 42
0.0000001
 43
0.0000001
 44
0.0000000001
 40
0.0
 40
0.0
 40
0.0
 40
0.0
 40
0.4706671118
 40
1.0
 40
1.0
 40
1.0
 40
1.0
 10
114.4767644284
 20
55.4443423332
 30
0.0
 10
114.4152226684
 20
55.4873262359
 30
0.0
 10
114.2591612364
 20
55.54059319
 30
0.0
 10
114.0970962159
 20
55.543205775
 30
0.0
 10
114.0137420512
 20
55.5298128336
 30
0.0
  0
SPLINE
  5
524
100
AcDbEntity
  8
0
100
AcDbSpline
 62
7
  6
BYLAYER
 70
0
 71
3
 72
8
 73
4
 74
0
 42
0.0000001
 43
0.0000001
 44
0.0000000001
 40
0.0
 40
0.0
 40
0.0
 40
0.0
 40
1.0
 40
1.0
 40
1.0
 40
1.0
 10
114.5730729212
 20
55.0071026744
 30
0.0
 10
114.5595063262
 20
55.0158200449
 30
0.0
 10
114.5468398817
 20
55.0263401213
 30
0.0
 10
114.5363235231
 20
55.038565147
 30
0.0
  0
SPLINE
  5
525
100
AcDbEntity
  8
0
100
AcDbSpline
 62
7
  6
BYLAYER
 70
0
 71
3
 72
8
 73
4
 74
0
 42
0.0000001
 43
0.0000001
 44
0.0000000001
 40
0.0
 40
0.0
 40
0.0
 40
0.0
 40
1.0
 40
1.0
 40
1.0
 40
1.0
 10
114.5363235231
 20
55.038565147
 30
0.0
 10
114.5246960435
 20
55.0520818255
 30
0.0
 10
114.5154746806
 20
55.0685108364
 30
0.0
 10
114.5113170302
 20
55.0858490261
 30
0.0
  0
SPLINE
  5
526
100
AcDbEntity
  8
0
100
AcDbSpline
 62
7
  6
BYLAYER
 70
0
 71
3
 72
9
 73
5
 74
0
 42
0.0000001
 43
0.0000001
 44
0.0000000001
 40
0.0
 40
0.0
 40
0.0
 40
0.0
 40
0.2542522072
 40
1.0
 40
1.0
 40
1.0
 40
1.0
 10
121.615668639
 20
50.8121426343
 30
0.0
 10
121.0055188214
 20
51.1445605757
 30
0.0
 10
118.6180119385
 20
52.4743438169
 30
0.0
 10
116.2807379926
 20
53.8947544251
 30
0.0
 10
114.5730729212
 20
55.0071026744
 30
0.0
  0
SPLINE
  5
527
100
AcDbEntity
  8
0
100
AcDbSpline
 62
7
  6
BYLAYER
 70
0
 71
3
 72
9
 73
5
 74
0
 42
0.0000001
 43
0.0000001
 44
0.0000000001
 40
0.0
 40
0.0
 40
0.0
 40
0.0
 40
0.2538496329
 40
1.0
 40
1.0
 40
1.0
 40
1.0
 10
129.2737417631
 20
46.9976995714
 30
0.0
 10
128.6146841653
 20
47.2974492792
 30
0.0
 10
126.0286651472
 20
48.5005844564
 30
0.0
 10
123.4844606829
 20
49.7939992438
 30
0.0
 10
121.615668639
 20
50.8121426343
 30
0.0
  0
SPLINE
  5
528
100
AcDbEntity
  8
0
100
AcDbSpline
 62
7
  6
BYLAYER
 70
0
 71
3
 72
9
 73
5
 74
0
 42
0.0000001
 43
0.0000001
 44
0.0000000001
 40
0.0
 40
0.0
 40
0.0
 40
0.0
 40
0.2606007706
 40
1.0
 40
1.0
 40
1.0
 40
1.0
 10
129.4194696782
 20
46.9707442104
 30
0.0
 10
129.4065527014
 20
46.9706472307
 30
0.0
 10
129.3570110765
 20
46.9729513348
 30
0.0
 10
129.3078226963
 20
46.9842189347
 30
0.0
 10
129.2737417631
 20
46.9976995714
 30
0.0
  0
SPLINE
  5
529
100
AcDbEntity
  8
0
100
AcDbSpline
 62
7
  6
BYLAYER
 70
0
 71
3
 72
9
 73
5
 74
0
 42
0.0000001
 43
0.0000001
 44
0.0000000001
 40
0.0
 40
0.0
 40
0.0
 40
0.0
 40
0.2367394967
 40
1.0
 40
1.0
 40
1.0
 40
1.0
 10
129.564540444
 20
46.9981371342
 30
0.0
 10
129.5536992565
 20
46.9937605627
 30
0.0
 10
129.5070815506
 20
46.9772881007
 30
0.0
 10
129.4571618715
 20
46.9710272005
 30
0.0
 10
129.4194696782
 20
46.9707442104
 30
0.0
  0
SPLINE
  5
52A
100
AcDbEntity
  8
0
100
AcDbSpline
 62
7
  6
BYLAYER
 70
0
 71
3
 72
9
 73
5
 74
0
 42
0.0000001
 43
0.0000001
 44
0.0000000001
 40
0.0
 40
0.0
 40
0.0
 40
0.0
 40
0.5027039345
 40
1.0
 40
1.0
 40
1.0
 40
1.0
 10
130.0702252632
 20
47.0062737099
 30
0.0
 10
129.9894806784
 20
47.0360913595
 30
0.0
 10
129.8161585485
 20
47.0605041407
 30
0.0
 10
129.6429490156
 20
47.0313385293
 30
0.0
 10
129.564540444
 20
46.9981371342
 30
0.0
  0
SPLINE
  5
52B
100
AcDbEntity
  8
0
100
AcDbSpline
 62
7
  6
BYLAYER
 70
0
 71
3
 72
8
 73
4
 74
0
 42
0.0000001
 43
0.0000001
 44
0.0000000001
 40
0.0
 40
0.0
 40
0.0
 40
0.0
 40
1.0
 40
1.0
 40
1.0
 40
1.0
 10
130.2865754576
 20
46.6514488402
 30
0.0
 10
130.2737972896
 20
46.6679823439
 30
0.0
 10
130.2644350283
 20
46.6893718649
 30
0.0
 10
130.2648812116
 20
46.7102629932
 30
0.0
  0
SPLINE
  5
52C
100
AcDbEntity
  8
0
100
AcDbSpline
 62
7
  6
BYLAYER
 70
0
 71
3
 72
9
 73
5
 74
0
 42
0.0000001
 43
0.0000001
 44
0.0000000001
 40
0.0
 40
0.0
 40
0.0
 40
0.0
 40
0.280550934
 40
1.0
 40
1.0
 40
1.0
 40
1.0
 10
130.3864881523
 20
46.5864156137
 30
0.0
 10
130.3758714019
 20
46.5900652948
 30
0.0
 10
130.3389095899
 20
46.6050372001
 30
0.0
 10
130.3041807221
 20
46.6286696197
 30
0.0
 10
130.2865754576
 20
46.6514488402
 30
0.0
  0
SPLINE
  5
52D
100
AcDbEntity
  8
0
100
AcDbSpline
 62
7
  6
BYLAYER
 70
0
 71
3
 72
9
 73
5
 74
0
 42
0.0000001
 43
0.0000001
 44
0.0000000001
 40
0.0
 40
0.0
 40
0.0
 40
0.0
 40
0.2576568954
 40
1.0
 40
1.0
 40
1.0
 40
1.0
 10
131.9887770482
 20
46.1531955902
 30
0.0
 10
131.8482187266
 20
46.1776732314
 30
0.0
 10
131.3049139663
 20
46.2846585209
 30
0.0
 10
130.7706577556
 20
46.4401781477
 30
0.0
 10
130.3864881523
 20
46.5864156137
 30
0.0
  0
SPLINE
  5
52E
100
AcDbEntity
  8
0
100
AcDbSpline
 62
7
  6
BYLAYER
 70
0
 71
3
 72
9
 73
5
 74
0
 42
0.0000001
 43
0.0000001
 44
0.0000000001
 40
0.0
 40
0.0
 40
0.0
 40
0.0
 40
0.2523506897
 40
1.0
 40
1.0
 40
1.0
 40
1.0
 10
133.7387418741
 20
46.0026347114
 30
0.0
 10
133.5908970534
 20
46.0028832087
 30
0.0
 10
133.0051311726
 20
46.0161296606
 30
0.0
 10
132.4203087239
 20
46.0780461618
 30
0.0
 10
131.9887770482
 20
46.1531955902
 30
0.0
  0
SPLINE
  5
52F
100
AcDbEntity
  8
0
100
AcDbSpline
 62
7
  6
BYLAYER
 70
0
 71
3
 72
9
 73
5
 74
0
 42
0.0000001
 43
0.0000001
 44
0.0000000001
 40
0.0
 40
0.0
 40
0.0
 40
0.0
 40
0.2425871814
 40
1.0
 40
1.0
 40
1.0
 40
1.0
 10
134.8993260097
 20
46.1972976325
 30
0.0
 10
134.8080288824
 20
46.1700114792
 30
0.0
 10
134.4279980371
 20
46.070060928
 30
0.0
 10
134.0358678134
 20
46.0177330044
 30
0.0
 10
133.7387418741
 20
46.0026347114
 30
0.0
  0
SPLINE
  5
530
100
AcDbEntity
  8
0
100
AcDbSpline
 62
7
  6
BYLAYER
 70
0
 71
3
 72
9
 73
5
 74
0
 42
0.0000001
 43
0.0000001
 44
0.0000000001
 40
0.0
 40
0.0
 40
0.0
 40
0.0
 40
0.2339435429
 40
1.0
 40
1.0
 40
1.0
 40
1.0
 10
135.8446519107
 20
46.632032216
 30
0.0
 10
135.7774339441
 20
46.5862579253
 30
0.0
 10
135.4808876012
 20
46.4041756776
 30
0.0
 10
135.1544716213
 20
46.2735535069
 30
0.0
 10
134.8993260097
 20
46.1972976325
 30
0.0
  0
SPLINE
  5
531
100
AcDbEntity
  8
0
100
AcDbSpline
 62
7
  6
BYLAYER
 70
0
 71
3
 72
9
 73
5
 74
0
 42
0.0000001
 43
0.0000001
 44
0.0000000001
 40
0.0
 40
0.0
 40
0.0
 40
0.0
 40
0.2349186692
 40
1.0
 40
1.0
 40
1.0
 40
1.0
 10
149.6837060376
 20
54.621966148
 30
0.0
 10
149.6399750629
 20
54.6024473646
 30
0.0
 10
149.4480290773
 20
54.5325926258
 30
0.0
 10
149.2405387457
 20
54.5093227963
 30
0.0
 10
149.0846489577
 20
54.5141777871
 30
0.0
  0
SPLINE
  5
532
100
AcDbEntity
  8
0
100
AcDbSpline
 62
7
  6
BYLAYER
 70
0
 71
3
 72
9
 73
5
 74
0
 42
0.0000001
 43
0.0000001
 44
0.0000000001
 40
0.0
 40
0.0
 40
0.0
 40
0.0
 40
0.2306319194
 40
1.0
 40
1.0
 40
1.0
 40
1.0
 10
150.4366913169
 20
55.1677461288
 30
0.0
 10
150.3887917102
 20
55.1143239088
 30
0.0
 10
150.1669272489
 20
54.8953864256
 30
0.0
 10
149.8986906121
 20
54.7271973926
 30
0.0
 10
149.6837060376
 20
54.621966148
 30
0.0
  0
SPLINE
  5
533
100
AcDbEntity
  8
0
100
AcDbSpline
 62
7
  6
BYLAYER
 70
0
 71
3
 72
9
 73
5
 74
0
 42
0.0000001
 43
0.0000001
 44
0.0000000001
 40
0.0
 40
0.0
 40
0.0
 40
0.0
 40
0.2362408478
 40
1.0
 40
1.0
 40
1.0
 40
1.0
 10
150.7738525428
 20
55.8378017337
 30
0.0
 10
150.7648768728
 20
55.7789190856
 30
0.0
 10
150.7059948178
 20
55.5327195773
 30
0.0
 10
150.5652426022
 20
55.3111188099
 30
0.0
 10
150.4366913169
 20
55.1677461288
 30
0.0
  0
SPLINE
  5
534
100
AcDbEntity
  8
0
100
AcDbSpline
 62
7
  6
BYLAYER
 70
0
 71
3
 72
8
 73
4
 74
0
 42
0.0000001
 43
0.0000001
 44
0.0000000001
 40
0.0
 40
0.0
 40
0.0
 40
0.0
 40
1.0
 40
1.0
 40
1.0
 40
1.0
 10
114.5330348677
 20
322.5650436552
 30
0.0
 10
114.5201237001
 20
322.5488901764
 30
0.0
 10
114.5099372046
 20
322.5280978696
 30
0.0
 10
114.5100547234
 20
322.5074189113
 30
0.0
  0
SPLINE
  5
535
100
AcDbEntity
  8
0
100
AcDbSpline
 62
7
  6
BYLAYER
 70
0
 71
3
 72
9
 73
5
 74
0
 42
0.0000001
 43
0.0000001
 44
0.0000000001
 40
0.0
 40
0.0
 40
0.0
 40
0.0
 40
0.2402182425
 40
1.0
 40
1.0
 40
1.0
 40
1.0
 10
148.5091518615
 20
322.0630877662
 30
0.0
 10
148.5221486834
 20
322.0558712328
 30
0.0
 10
148.5770250526
 20
322.027228155
 30
0.0
 10
148.6346253422
 20
322.0039210671
 30
0.0
 10
148.6791778949
 20
321.9888920619
 30
0.0
  0
SPLINE
  5
536
100
AcDbEntity
  8
0
100
AcDbSpline
 62
7
  6
BYLAYER
 70
0
 71
3
 72
8
 73
4
 74
0
 42
0.0000001
 43
0.0000001
 44
0.0000000001
 40
0.0
 40
0.0
 40
0.0
 40
0.0
 40
1.0
 40
1.0
 40
1.0
 40
1.0
 10
130.2655783283
 20
314.1148032884
 30
0.0
 10
130.2653147241
 20
314.1045023882
 30
0.0
 10
130.2669925879
 20
314.0939711175
 30
0.0
 10
130.2705130609
 20
314.084286888
 30
0.0
  0
SPLINE
  5
537
100
AcDbEntity
  8
0
100
AcDbSpline
 62
7
  6
BYLAYER
 70
0
 71
3
 72
8
 73
4
 74
0
 42
0.0000001
 43
0.0000001
 44
0.0000000001
 40
0.0
 40
0.0
 40
0.0
 40
0.0
 40
1.0
 40
1.0
 40
1.0
 40
1.0
 10
130.2705130609
 20
314.084286888
 30
0.0
 10
130.2742182102
 20
314.0740946456
 30
0.0
 10
130.279932223
 20
314.0645682372
 30
0.0
 10
130.2865639963
 20
314.0559874728
 30
0.0
  0
SPLINE
  5
538
100
AcDbEntity
  8
0
100
AcDbSpline
 62
7
  6
BYLAYER
 70
0
 71
3
 72
8
 73
4
 74
0
 42
0.0000001
 43
0.0000001
 44
0.0000000001
 40
0.0
 40
0.0
 40
0.0
 40
0.0
 40
1.0
 40
1.0
 40
1.0
 40
1.0
 10
135.8905384644
 20
314.0741870452
 30
0.0
 10
135.9143881263
 20
314.0956997667
 30
0.0
 10
135.9366384653
 20
314.1192420264
 30
0.0
 10
135.9561390631
 20
314.1447631989
 30
0.0
  0
SPLINE
  5
539
100
AcDbEntity
  8
0
100
AcDbSpline
 62
7
  6
BYLAYER
 70
0
 71
3
 72
8
 73
4
 74
0
 42
0.0000001
 43
0.0000001
 44
0.0000000001
 40
0.0
 40
0.0
 40
0.0
 40
0.0
 40
1.0
 40
1.0
 40
1.0
 40
1.0
 10
135.9561390631
 20
314.1447631989
 30
0.0
 10
135.9677290233
 20
314.1599314197
 30
0.0
 10
135.9783942103
 20
314.1758697354
 30
0.0
 10
135.9878236309
 20
314.1924675704
 30
0.0
  0
SPLINE
  5
53A
100
AcDbEntity
  8
0
100
AcDbSpline
 62
7
  6
BYLAYER
 70
0
 71
3
 72
8
 73
4
 74
0
 42
0.0000001
 43
0.0000001
 44
0.0000000001
 40
0.0
 40
0.0
 40
0.0
 40
0.0
 40
1.0
 40
1.0
 40
1.0
 40
1.0
 10
135.9878236309
 20
314.1924675704
 30
0.0
 10
136.0012996415
 20
314.2161882856
 30
0.0
 10
136.0123608909
 20
314.2415281658
 30
0.0
 10
136.0200243544
 20
314.2677111089
 30
0.0
  0
SPLINE
  5
53B
100
AcDbEntity
  8
0
100
AcDbSpline
 62
7
  6
BYLAYER
 70
0
 71
3
 72
8
 73
4
 74
0
 42
0.0000001
 43
0.0000001
 44
0.0000000001
 40
0.0
 40
0.0
 40
0.0
 40
0.0
 40
1.0
 40
1.0
 40
1.0
 40
1.0
 10
136.0200243544
 20
314.2677111089
 30
0.0
 10
136.0282304437
 20
314.295747984
 30
0.0
 10
136.0326298053
 20
314.3252241301
 30
0.0
 10
136.0326431382
 20
314.3544372451
 30
0.0
  0
SPLINE
  5
53C
100
AcDbEntity
  8
0
100
AcDbSpline
 62
7
  6
BYLAYER
 70
0
 71
3
 72
9
 73
5
 74
0
 42
0.0000001
 43
0.0000001
 44
0.0000000001
 40
0.0
 40
0.0
 40
0.0
 40
0.0
 40
0.2553413862
 40
1.0
 40
1.0
 40
1.0
 40
1.0
 10
135.2462510559
 20
313.7226284584
 30
0.0
 10
135.2738083715
 20
313.7336917564
 30
0.0
 10
135.3812089499
 20
313.7783037619
 30
0.0
 10
135.4864655328
 20
313.8281282815
 30
0.0
 10
135.5631516959
 20
313.8683640905
 30
0.0
  0
SPLINE
  5
53D
100
AcDbEntity
  8
0
100
AcDbSpline
 62
7
  6
BYLAYER
 70
0
 71
3
 72
8
 73
4
 74
0
 42
0.0000001
 43
0.0000001
 44
0.0000000001
 40
0.0
 40
0.0
 40
0.0
 40
0.0
 40
1.0
 40
1.0
 40
1.0
 40
1.0
 10
130.2865639963
 20
314.0559874728
 30
0.0
 10
130.2939537625
 20
314.0464259514
 30
0.0
 10
130.3027440883
 20
314.0378858432
 30
0.0
 10
130.3121704863
 20
314.0303244706
 30
0.0
  0
SPLINE
  5
53E
100
AcDbEntity
  8
0
100
AcDbSpline
 62
7
  6
BYLAYER
 70
0
 71
3
 72
8
 73
4
 74
0
 42
0.0000001
 43
0.0000001
 44
0.0000000001
 40
0.0
 40
0.0
 40
0.0
 40
0.0
 40
1.0
 40
1.0
 40
1.0
 40
1.0
 10
130.3121704863
 20
314.0303244706
 30
0.0
 10
130.322471085
 20
314.0220618592
 30
0.0
 10
130.3336788397
 20
314.0148614093
 30
0.0
 10
130.3453382772
 20
314.0086621676
 30
0.0
  0
SPLINE
  5
53F
100
AcDbEntity
  8
0
100
AcDbSpline
 62
7
  6
BYLAYER
 70
0
 71
3
 72
8
 73
4
 74
0
 42
0.0000001
 43
0.0000001
 44
0.0000000001
 40
0.0
 40
0.0
 40
0.0
 40
0.0
 40
1.0
 40
1.0
 40
1.0
 40
1.0
 10
130.3453382772
 20
314.0086621676
 30
0.0
 10
130.3593821761
 20
314.0011951245
 30
0.0
 10
130.3741760416
 20
313.9950849252
 30
0.0
 10
130.3892176706
 20
313.9899141199
 30
0.0
  0
SPLINE
  5
540
100
AcDbEntity
  8
0
100
AcDbSpline
 62
7
  6
BYLAYER
 70
0
 71
3
 72
9
 73
5
 74
0
 42
0.0000001
 43
0.0000001
 44
0.0000000001
 40
0.0
 40
0.0
 40
0.0
 40
0.0
 40
0.2720087139
 40
1.0
 40
1.0
 40
1.0
 40
1.0
 10
130.0704774981
 20
314.4110428833
 30
0.0
 10
130.0853009186
 20
314.4055688375
 30
0.0
 10
130.1387514219
 20
314.3829099134
 30
0.0
 10
130.1884701334
 20
314.3501190784
 30
0.0
 10
130.2183800677
 20
314.3202199862
 30
0.0
  0
SPLINE
  5
541
100
AcDbEntity
  8
0
100
AcDbSpline
 62
7
  6
BYLAYER
 70
0
 71
3
 72
8
 73
4
 74
0
 42
0.0000001
 43
0.0000001
 44
0.0000000001
 40
0.0
 40
0.0
 40
0.0
 40
0.0
 40
1.0
 40
1.0
 40
1.0
 40
1.0
 10
130.2183800677
 20
314.3202199862
 30
0.0
 10
130.2312737255
 20
314.3073310022
 30
0.0
 10
130.2430777302
 20
314.293133191
 30
0.0
 10
130.2527731677
 20
314.277693929
 30
0.0
  0
SPLINE
  5
542
100
AcDbEntity
  8
0
100
AcDbSpline
 62
7
  6
BYLAYER
 70
0
 71
3
 72
8
 73
4
 74
0
 42
0.0000001
 43
0.0000001
 44
0.0000000001
 40
0.0
 40
0.0
 40
0.0
 40
0.0
 40
1.0
 40
1.0
 40
1.0
 40
1.0
 10
130.2527731677
 20
314.277693929
 30
0.0
 10
130.2686548016
 20
314.2524036102
 30
0.0
 10
130.2786921747
 20
314.2218156559
 30
0.0
 10
130.2787501332
 20
314.1919522476
 30
0.0
  0
SPLINE
  5
543
100
AcDbEntity
  8
0
100
AcDbSpline
 62
7
  6
BYLAYER
 70
0
 71
3
 72
8
 73
4
 74
0
 42
0.0000001
 43
0.0000001
 44
0.0000000001
 40
0.0
 40
0.0
 40
0.0
 40
0.0
 40
1.0
 40
1.0
 40
1.0
 40
1.0
 10
129.557617825
 20
314.4010630455
 30
0.0
 10
129.5757089422
 20
314.4087235642
 30
0.0
 10
129.5942400632
 20
314.4153980845
 30
0.0
 10
129.6130119943
 20
314.4211934852
 30
0.0
  0
SPLINE
  5
544
100
AcDbEntity
  8
0
100
AcDbSpline
 62
7
  6
BYLAYER
 70
0
 71
3
 72
9
 73
5
 74
0
 42
0.0000001
 43
0.0000001
 44
0.0000000001
 40
0.0
 40
0.0
 40
0.0
 40
0.0
 40
0.2419233542
 40
1.0
 40
1.0
 40
1.0
 40
1.0
 10
129.6130119943
 20
314.4211934852
 30
0.0
 10
129.6323760148
 20
314.4271716798
 30
0.0
 10
129.7135716566
 20
314.4480997867
 30
0.0
 10
129.7984246663
 20
314.4537410536
 30
0.0
 10
129.8618536418
 20
314.4506588402
 30
0.0
  0
SPLINE
  5
545
100
AcDbEntity
  8
0
100
AcDbSpline
 62
7
  6
BYLAYER
 70
0
 71
3
 72
9
 73
5
 74
0
 42
0.0000001
 43
0.0000001
 44
0.0000000001
 40
0.0
 40
0.0
 40
0.0
 40
0.0
 40
0.2592791588
 40
1.0
 40
1.0
 40
1.0
 40
1.0
 10
129.9041026429
 20
314.4475205824
 30
0.0
 10
129.9187706338
 20
314.4460538709
 30
0.0
 10
129.975154284
 20
314.4388822597
 30
0.0
 10
130.0309719523
 20
314.4256316328
 30
0.0
 10
130.0704774981
 20
314.4110428833
 30
0.0
  0
SPLINE
  5
546
100
AcDbEntity
  8
0
100
AcDbSpline
 62
7
  6
BYLAYER
 70
0
 71
3
 72
9
 73
5
 74
0
 42
0.0000001
 43
0.0000001
 44
0.0000000001
 40
0.0
 40
0.0
 40
0.0
 40
0.0
 40
0.2606531675
 40
1.0
 40
1.0
 40
1.0
 40
1.0
 10
129.4215645876
 20
314.3753212047
 30
0.0
 10
129.4336341705
 20
314.3754118222
 30
0.0
 10
129.479886128
 20
314.3776951792
 30
0.0
 10
129.5258706572
 20
314.3882467604
 30
0.0
 10
129.557617825
 20
314.4010630455
 30
0.0
  0
SPLINE
  5
547
100
AcDbEntity
  8
0
100
AcDbSpline
 62
7
  6
BYLAYER
 70
0
 71
3
 72
8
 73
4
 74
0
 42
0.0000001
 43
0.0000001
 44
0.0000000001
 40
0.0
 40
0.0
 40
0.0
 40
0.0
 40
1.0
 40
1.0
 40
1.0
 40
1.0
 10
129.2765350469
 20
314.4009208988
 30
0.0
 10
129.3063941896
 20
314.3891101819
 30
0.0
 10
129.3382254791
 20
314.3817642619
 30
0.0
 10
129.3701281472
 20
314.3781199228
 30
0.0
  0
SPLINE
  5
548
100
AcDbEntity
  8
0
100
AcDbSpline
 62
7
  6
BYLAYER
 70
0
 71
3
 72
8
 73
4
 74
0
 42
0.0000001
 43
0.0000001
 44
0.0000000001
 40
0.0
 40
0.0
 40
0.0
 40
0.0
 40
1.0
 40
1.0
 40
1.0
 40
1.0
 10
114.5125863919
 20
322.4876349744
 30
0.0
 10
114.5174284327
 20
322.4674427473
 30
0.0
 10
114.5296471405
 20
322.4486386586
 30
0.0
 10
114.5445207236
 20
322.434149079
 30
0.0
  0
SPLINE
  5
549
100
AcDbEntity
  8
0
100
AcDbSpline
 62
7
  6
BYLAYER
 70
0
 71
3
 72
8
 73
4
 74
0
 42
0.0000001
 43
0.0000001
 44
0.0000000001
 40
0.0
 40
0.0
 40
0.0
 40
0.0
 40
1.0
 40
1.0
 40
1.0
 40
1.0
 10
114.5445207236
 20
322.434149079
 30
0.0
 10
114.5541581746
 20
322.4247604462
 30
0.0
 10
114.5650948558
 20
322.416682687
 30
0.0
 10
114.5764141177
 20
322.4094093659
 30
0.0
  0
SPLINE
  5
54A
100
AcDbEntity
  8
0
100
AcDbSpline
 62
7
  6
BYLAYER
 70
0
 71
3
 72
9
 73
5
 74
0
 42
0.0000001
 43
0.0000001
 44
0.0000000001
 40
0.0
 40
0.0
 40
0.0
 40
0.0
 40
0.2658527065
 40
1.0
 40
1.0
 40
1.0
 40
1.0
 10
114.4771886106
 20
322.8490863611
 30
0.0
 10
114.4839285088
 20
322.8443788726
 30
0.0
 10
114.508582609
 20
322.8257111668
 30
0.0
 10
114.5303309782
 20
322.8030727282
 30
0.0
 10
114.543556968
 20
322.7846207836
 30
0.0
  0
SPLINE
  5
54B
100
AcDbEntity
  8
0
100
AcDbSpline
 62
7
  6
BYLAYER
 70
0
 71
3
 72
8
 73
4
 74
0
 42
0.0000001
 43
0.0000001
 44
0.0000000001
 40
0.0
 40
0.0
 40
0.0
 40
0.0
 40
1.0
 40
1.0
 40
1.0
 40
1.0
 10
114.0698543568
 20
322.9418710793
 30
0.0
 10
114.137087176
 20
322.9468178102
 30
0.0
 10
114.2056403223
 20
322.9430601527
 30
0.0
 10
114.2717372738
 20
322.9297968525
 30
0.0
  0
SPLINE
  5
54C
100
AcDbEntity
  8
0
100
AcDbSpline
 62
7
  6
BYLAYER
 70
0
 71
3
 72
9
 73
5
 74
0
 42
0.0000001
 43
0.0000001
 44
0.0000000001
 40
0.0
 40
0.0
 40
0.0
 40
0.0
 40
0.2663051069
 40
1.0
 40
1.0
 40
1.0
 40
1.0
 10
114.344428271
 20
322.9111827046
 30
0.0
 10
114.3568647486
 20
322.9072764835
 30
0.0
 10
114.4030826607
 20
322.8912708595
 30
0.0
 10
114.4477452861
 20
322.86965108
 30
0.0
 10
114.4771886106
 20
322.8490863611
 30
0.0
  0
SPLINE
  5
54D
100
AcDbEntity
  8
0
100
AcDbSpline
 62
7
  6
BYLAYER
 70
0
 71
3
 72
8
 73
4
 74
0
 42
0.0000001
 43
0.0000001
 44
0.0000000001
 40
0.0
 40
0.0
 40
0.0
 40
0.0
 40
1.0
 40
1.0
 40
1.0
 40
1.0
 10
113.8672790299
 20
322.9373936502
 30
0.0
 10
113.9120361404
 20
322.9284339886
 30
0.0
 10
113.9589907781
 20
322.9277714499
 30
0.0
 10
114.0041776009
 20
322.9342232341
 30
0.0
  0
SPLINE
  5
54E
100
AcDbEntity
  8
0
100
AcDbSpline
 62
7
  6
BYLAYER
 70
0
 71
3
 72
9
 73
5
 74
0
 42
0.0000001
 43
0.0000001
 44
0.0000000001
 40
0.0
 40
0.0
 40
0.0
 40
0.0
 40
0.232262253
 40
1.0
 40
1.0
 40
1.0
 40
1.0
 10
113.7468422359
 20
322.9890103813
 30
0.0
 10
113.7519630785
 20
322.9850149446
 30
0.0
 10
113.7747054308
 20
322.9686905032
 30
0.0
 10
113.8005269501
 20
322.9569362152
 30
0.0
 10
113.8208285911
 20
322.9499518527
 30
0.0
  0
SPLINE
  5
54F
100
AcDbEntity
  8
0
100
AcDbSpline
 62
7
  6
BYLAYER
 70
0
 71
3
 72
8
 73
4
 74
0
 42
0.0000001
 43
0.0000001
 44
0.0000000001
 40
0.0
 40
0.0
 40
0.0
 40
0.0
 40
1.0
 40
1.0
 40
1.0
 40
1.0
 10
112.2416169114
 20
324.5782392062
 30
0.0
 10
112.2650339298
 20
324.5209519957
 30
0.0
 10
112.2930671466
 20
324.4653938375
 30
0.0
 10
112.3247019148
 20
324.4122015196
 30
0.0
  0
SPLINE
  5
550
100
AcDbEntity
  8
0
100
AcDbSpline
 62
7
  6
BYLAYER
 70
0
 71
3
 72
9
 73
5
 74
0
 42
0.0000001
 43
0.0000001
 44
0.0000000001
 40
0.0
 40
0.0
 40
0.0
 40
0.0
 40
0.2568567298
 40
1.0
 40
1.0
 40
1.0
 40
1.0
 10
150.4366913169
 20
322.5722877387
 30
0.0
 10
150.4520713314
 20
322.5894410009
 30
0.0
 10
150.5106285265
 20
322.6573860285
 30
0.0
 10
150.5637357483
 20
322.730095996
 30
0.0
 10
150.599178408
 20
322.7865479782
 30
0.0
  0
SPLINE
  5
551
100
AcDbEntity
  8
0
100
AcDbSpline
 62
7
  6
BYLAYER
 70
0
 71
3
 72
9
 73
5
 74
0
 42
0.0000001
 43
0.0000001
 44
0.0000000001
 40
0.0
 40
0.0
 40
0.0
 40
0.0
 40
0.2567512455
 40
1.0
 40
1.0
 40
1.0
 40
1.0
 10
149.9750556667
 20
322.1890310598
 30
0.0
 10
149.9975848215
 20
322.2033437993
 30
0.0
 10
150.0845057628
 20
322.2603710944
 30
0.0
 10
150.1680316383
 20
322.3226348726
 30
0.0
 10
150.2274781558
 20
322.3719923276
 30
0.0
  0
ENDSEC
  0
SECTION
  2
OBJECTS
  0
DICTIONARY
  5
C
100
AcDbDictionary
280
0
281
1
  3
ACAD_GROUP
350
D
  3
ACAD_MLINESTYLE
350
17
  3
ACAD_LAYOUT
350
1A
  3
ACAD_PLOTSETTINGS
350
19
  3
ACAD_PLOTSTYLENAME
350
E
  0
DICTIONARY
  5
D
102
{ACAD_REACTORS
330
C
102
}
100
AcDbDictionary
280
0
281
1
  0
ACDBDICTIONARYWDFLT
  5
E
102
{ACAD_REACTORS
330
C
102
}
100
AcDbDictionary
281
1
  3
Normal
350
F
100
AcDbDictionaryWithDefault
340
F
  0
DICTIONARY
  5
17
102
{ACAD_REACTORS
330
C
102
}
100
AcDbDictionary
280
0
281
1
  3
Standard
350
18
  0
DICTIONARY
  5
19
102
{ACAD_REACTORS
330
C
102
}
100
AcDbDictionary
281
1
  0
DICTIONARY
  5
1A
102
{ACAD_REACTORS
330
C
102
}
100
AcDbDictionary
281
1
  3
Model
350
552
  3
Layout1
350
553
  0
ACDBPLACEHOLDER
  5
F
102
{ACAD_REACTORS
330
E
102
}
  0
MLINESTYLE
  5
18
102
{ACAD_REACTORS
330
17
102
}
100
AcDbMlineStyle
  2
STANDARD
 70
0
  3

 62
256
 51
90.0
 52
90.0
 71
2
 49
0.5
 62
256
  6
BYLAYER
 49
-0.5
 62
256
  6
BYLAYER
  0
LAYOUT
  5
552
102
{ACAD_REACTORS
330
1A
102
}
100
AcDbPlotSettings
  1

  2
none_device
  4

  6

 40
0.0
 41
0.0
 42
0.0
 43
0.0
 44
210.0
 45
297.0
 46
0.0
 47
0.0
 48
0.0
 49
0.0
140
0.0
141
0.0
142
1.0
143
1.0
 70
1024
 72
1
 73
0
 74
0
  7

 75
0
147
1.0
148
0.0
149
0.0
100
AcDbLayout
  1
Model
 70
0
 71
0
 10
0.0
 20
0.0
 11
210.0
 21
297.0
 12
0.0
 22
0.0
 32
0.0
 14
0.0
 24
0.0
 34
0.0
 15
0.0
 25
0.0
 35
0.0
146
0.0
 13
0.0
 23
0.0
 33
0.0
 16
1.0
 26
0.0
 36
0.0
 17
0.0
 27
1.0
 37
0.0
 76
0
330
210
345
0
346
0
  0
LAYOUT
  5
553
102
{ACAD_REACTORS
330
1A
102
}
100
AcDbPlotSettings
  1

  2
none_device
  4

  6

 40
0.0
 41
0.0
 42
0.0
 43
0.0
 44
210.0
 45
297.0
 46
0.0
 47
0.0
 48
0.0
 49
0.0
140
0.0
141
0.0
142
1.0
143
1.0
 70
0
 72
1
 73
0
 74
0
  7

 75
0
147
1.0
148
0.0
149
0.0
100
AcDbLayout
  1
Layout1
 70
0
 71
1
 10
0.0
 20
0.0
 11
210.0
 21
297.0
 12
0.0
 22
0.0
 32
0.0
 14
0.0
 24
0.0
 34
0.0
 15
0.0
 25
0.0
 35
0.0
146
0.0
 13
0.0
 23
0.0
 33
0.0
 16
1.0
 26
0.0
 36
0.0
 17
0.0
 27
1.0
 37
0.0
 76
0
330
211
345
0
346
0
  0
ENDSEC
  0
EOF
