999
DXF file: C:\Users\sesa63760\Dev\_Creo\CAD\MCADDE0000162_3D-CAD\drw0001_1.dxf
999
Pro/ENGINEER 2019471 by Parametric Technology Corporation
  0
SECTION
  2
HEADER
  9
$ACADVER
  1
AC1024
  9
$DWGCODEPAGE
  3
ANSI_1252
  9
$EXTMAX
 10
314.8114005526
 20
445.2332664959
 30
0.0
  9
$EXTMIN
 10
0.0
 20
0.0
 30
0.0
  9
$LIMMIN
 10
0.0
 20
0.0
  9
$LIMMAX
 10
314.8114005526
 20
445.2332664959
  9
$VIEWCTR
 10
157.4057002763
 20
222.6166332479
  9
$VIEWSIZE
 40
445.2332664959
  9
$CLAYER
  8
0
  9
$LTSCALE
 40
29.0226129271
  9
$CELTYPE
  6
BYLAYER
  9
$DIMSCALE
 40
1.0
  9
$DIMASZ
 40
3.7477547685
  9
$DIMEXO
 40
1.0
  9
$DIMDLI
 40
20.0519871133
  9
$DIMEXE
 40
1.0
  9
$DIMCEN
 40
4.7491548426
  9
$DIMLFAC
 40
1.0
  9
$DIMBLK
  1
_FILLED
  9
$DIMALT
 70
0
  9
$DIMALTF
 40
0.0393700787
  9
$DIMTXT
 40
5.2468566759
  9
$DIMTOL
 70
1
  9
$DIMLIM
 70
0
  9
$DIMTFAC
 40
1.0
  9
$DIMTP
 40
0.01
  9
$DIMTM
 40
0.01
  9
$DIMGAP
 40
0.625
  9
$DIMDSEP
 70
46
  9
$AUNITS
 70
0
  9
$PDMODE
 70
3
  9
$PDSIZE
 40
0.3125
  9
$HANDSEED
  5
384
  9
$TILEMODE
 70
1
  9
$MEASUREMENT
 70
1
  9
$INSUNITS
 70
4
  0
ENDSEC
  0
SECTION
  2
CLASSES
  0
CLASS
  1
ACDBDICTIONARYWDFLT
  2
AcDbDictionaryWithDefault
  3
AutoCAD 2000
 90
0
 91
1
280
0
281
0
  0
CLASS
  1
ACDBPLACEHOLDER
  2
AcDbPlaceHolder
  3
AutoCAD 2000
 90
0
 91
1
280
0
281
0
  0
CLASS
  1
LAYOUT
  2
AcDbLayout
  3
AutoCAD 2000
 90
0
 91
0
280
0
281
0
  0
ENDSEC
  0
SECTION
  2
TABLES
  0
TABLE
  2
VPORT
  5
8
100
AcDbSymbolTable
 70
2
  0
VPORT
  5
1F4
100
AcDbSymbolTableRecord
100
AcDbViewportTableRecord
  2
*ACTIVE
 70
0
 10
0.0
 20
0.0
 11
1.0
 21
1.0
 12
157.4057002763
 22
222.6166332479
 13
0.0
 23
0.0
 14
1.0
 24
1.0
 15
0.0
 25
0.0
 16
0.0
 26
0.0
 36
1.0
 17
0.0
 27
0.0
 37
0.0
 40
445.2332664959
 41
0.7070707071
 42
50.0
 43
0.0
 44
0.0
 50
0.0
 51
0.0
 71
0
 72
100
 73
1
 74
1
 75
0
 76
0
 77
0
 78
0
  0
ENDTAB
  0
TABLE
  2
LTYPE
  5
5
100
AcDbSymbolTable
 70
6
  0
LTYPE
  5
14
100
AcDbSymbolTableRecord
100
AcDbLinetypeTableRecord
  2
BYBLOCK
 70
0
  3

 72
65
 73
0
 40
0.0
  0
LTYPE
  5
15
100
AcDbSymbolTableRecord
100
AcDbLinetypeTableRecord
  2
BYLAYER
 70
0
  3

 72
65
 73
0
 40
0.0
  0
LTYPE
  5
16
100
AcDbSymbolTableRecord
100
AcDbLinetypeTableRecord
  2
CONTINUOUS
 70
64
  3
Solid line
 72
65
 73
0
 40
0.0
  0
LTYPE
  5
1F5
100
AcDbSymbolTableRecord
100
AcDbLinetypeTableRecord
  2
CENTER
 70
64
  3
____ _ ____ _ ____ _ ____ _ ____ _ ____ _ ____
 72
65
 73
4
 40
0.6
 49
0.375
 74
0
 49
-0.075
 74
0
 49
0.075
 74
0
 49
-0.075
 74
0
  0
LTYPE
  5
1F6
100
AcDbSymbolTableRecord
100
AcDbLinetypeTableRecord
  2
HIDDEN
 70
64
  3
- - - - - - - - - - - - - - - - - - - -
 72
65
 73
2
 40
0.2
 49
0.1
 74
0
 49
-0.1
 74
0
  0
LTYPE
  5
1F7
100
AcDbSymbolTableRecord
100
AcDbLinetypeTableRecord
  2
PHANTOM
 70
64
  3
_____ _ _ _____ _ _ _____ _ _ _____
 72
65
 73
6
 40
0.8
 49
0.45
 74
0
 49
-0.05
 74
0
 49
0.1
 74
0
 49
-0.05
 74
0
 49
0.1
 74
0
 49
-0.05
 74
0
  0
LTYPE
  5
1F8
100
AcDbSymbolTableRecord
100
AcDbLinetypeTableRecord
  2
DOT
 70
64
  3
. . . . . . . . . . . . . . . . . . . .
 72
65
 73
2
 40
0.2
 49
0.1
 74
0
 49
-0.1
 74
0
  0
LTYPE
  5
1F9
100
AcDbSymbolTableRecord
100
AcDbLinetypeTableRecord
  2
DASHED
 70
64
  3
- - - - - - - - - - - - - - - - - - - -
 72
65
 73
2
 40
0.2
 49
0.1
 74
0
 49
-0.1
 74
0
  0
ENDTAB
  0
TABLE
  2
LAYER
  5
2
100
AcDbSymbolTable
 70
36
  0
LAYER
  5
10
100
AcDbSymbolTableRecord
100
AcDbLayerTableRecord
  2
0
 70
0
 62
7
  6
CONTINUOUS
370
-3
390
F
  0
LAYER
  5
1FA
100
AcDbSymbolTableRecord
100
AcDbLayerTableRecord
  2
DEFAULT_1
 70
0
 62
7
  6
CENTER
370
-3
390
F
  0
LAYER
  5
1FB
100
AcDbSymbolTableRecord
100
AcDbLayerTableRecord
  2
DEFAULT_2
 70
0
 62
7
  6
HIDDEN
370
-3
390
F
  0
LAYER
  5
1FC
100
AcDbSymbolTableRecord
100
AcDbLayerTableRecord
  2
DEFAULT_3
 70
0
 62
7
  6
PHANTOM
370
-3
390
F
  0
LAYER
  5
1FD
100
AcDbSymbolTableRecord
100
AcDbLayerTableRecord
  2
00_COMPONENTS
 70
0
 62
7
  6
CONTINUOUS
370
-3
390
F
  0
LAYER
  5
1FE
100
AcDbSymbolTableRecord
100
AcDbLayerTableRecord
  2
01_1_DEFAULT_DATUMS
 70
0
 62
7
  6
CONTINUOUS
370
-3
390
F
  0
LAYER
  5
1FF
100
AcDbSymbolTableRecord
100
AcDbLayerTableRecord
  2
01_PLANES
 70
0
 62
7
  6
CONTINUOUS
370
-3
390
F
  0
LAYER
  5
200
100
AcDbSymbolTableRecord
100
AcDbLayerTableRecord
  2
02_COORD_SYS
 70
0
 62
7
  6
CONTINUOUS
370
-3
390
F
  0
LAYER
  5
201
100
AcDbSymbolTableRecord
100
AcDbLayerTableRecord
  2
03_AXES
 70
0
 62
7
  6
CONTINUOUS
370
-3
390
F
  0
LAYER
  5
202
100
AcDbSymbolTableRecord
100
AcDbLayerTableRecord
  2
04_POINTS
 70
0
 62
7
  6
CONTINUOUS
370
-3
390
F
  0
LAYER
  5
203
100
AcDbSymbolTableRecord
100
AcDbLayerTableRecord
  2
05_CURVES
 70
0
 62
7
  6
CONTINUOUS
370
-3
390
F
  0
LAYER
  5
204
100
AcDbSymbolTableRecord
100
AcDbLayerTableRecord
  2
06_SURFS
 70
0
 62
7
  6
CONTINUOUS
370
-3
390
F
  0
LAYER
  5
205
100
AcDbSymbolTableRecord
100
AcDbLayerTableRecord
  2
07_COSMETICS
 70
0
 62
7
  6
CONTINUOUS
370
-3
390
F
  0
LAYER
  5
206
100
AcDbSymbolTableRecord
100
AcDbLayerTableRecord
  2
10_NOTES
 70
0
 62
7
  6
CONTINUOUS
370
-3
390
F
  0
LAYER
  5
207
100
AcDbSymbolTableRecord
100
AcDbLayerTableRecord
  2
11_NOTES_PUB
 70
0
 62
7
  6
CONTINUOUS
370
-3
390
F
  0
LAYER
  5
208
100
AcDbSymbolTableRecord
100
AcDbLayerTableRecord
  2
13_REF_GTOL
 70
0
 62
7
  6
CONTINUOUS
370
-3
390
F
  0
LAYER
  5
209
100
AcDbSymbolTableRecord
100
AcDbLayerTableRecord
  2
16_MISC
 70
0
 62
7
  6
CONTINUOUS
370
-3
390
F
  0
LAYER
  5
20A
100
AcDbSymbolTableRecord
100
AcDbLayerTableRecord
  2
17_NO_PRINT
 70
0
 62
7
  6
CONTINUOUS
370
-3
390
F
  0
LAYER
  5
20B
100
AcDbSymbolTableRecord
100
AcDbLayerTableRecord
  2
18_DATUM_CAMS_JOINTS
 70
0
 62
7
  6
CONTINUOUS
370
-3
390
F
  0
LAYER
  5
20C
100
AcDbSymbolTableRecord
100
AcDbLayerTableRecord
  2
19_DATUM_FUNCTIONAL
 70
0
 62
7
  6
CONTINUOUS
370
-3
390
F
  0
LAYER
  5
20D
100
AcDbSymbolTableRecord
100
AcDbLayerTableRecord
  2
20_DATUM_KINEMATIC_SCHEME
 70
0
 62
7
  6
CONTINUOUS
370
-3
390
F
  0
ENDTAB
  0
TABLE
  2
STYLE
  5
3
100
AcDbSymbolTable
 70
1
  0
STYLE
  5
11
100
AcDbSymbolTableRecord
100
AcDbTextStyleTableRecord
  2
STANDARD
 70
0
 40
0.0
 41
1.0
 50
0.0
 71
0
 42
0.2
  3
ARIAL.TTF
  4

  0
STYLE
  5
20E
100
AcDbSymbolTableRecord
100
AcDbTextStyleTableRecord
  2
TEXTSTYLE_1
 70
0
 40
0.0
 41
0.8
 50
0.0
 71
0
 42
0.2
  3
gdt
  4

  0
ENDTAB
  0
TABLE
  2
VIEW
  5
6
100
AcDbSymbolTable
 70
0
  0
ENDTAB
  0
TABLE
  2
UCS
  5
7
100
AcDbSymbolTable
 70
0
  0
ENDTAB
  0
TABLE
  2
APPID
  5
9
100
AcDbSymbolTable
 70
1
  0
APPID
  5
20F
100
AcDbSymbolTableRecord
100
AcDbRegAppTableRecord
  2
ACAD
 70
0
  0
ENDTAB
  0
TABLE
  2
BLOCK_RECORD
  5
1
100
AcDbSymbolTable
 70
0
  0
BLOCK_RECORD
  5
210
100
AcDbSymbolTableRecord
100
AcDbBlockTableRecord
  2
*Model_Space
  0
BLOCK_RECORD
  5
211
100
AcDbSymbolTableRecord
100
AcDbBlockTableRecord
  2
*Paper_Space
  0
BLOCK_RECORD
  5
212
100
AcDbSymbolTableRecord
100
AcDbBlockTableRecord
  2
_FILLED
  0
ENDTAB
  0
TABLE
  2
DIMSTYLE
  5
A
100
AcDbSymbolTable
 70
1
100
AcDbDimStyleTable
 71
0
  0
DIMSTYLE
105
213
100
AcDbSymbolTableRecord
100
AcDbDimStyleTableRecord
  2
STANDARD
 70
0
  3

  4

 40
1.0
 41
3.7477547685
 42
1.0
 43
0.38
 44
1.0
 45
0.0
 46
0.0
 47
0.01
 48
0.01
140
5.2468566759
141
0.09
142
0.0
143
25.4
144
1.0
145
0.0
146
1.0
147
0.625
 71
1
 72
0
 73
0
 74
0
 75
0
 76
0
 77
1
 78
8
 79
2
170
0
171
1
172
0
173
0
174
0
175
0
176
0
177
0
178
0
270
2
179
2
271
2
272
2
273
2
274
2
275
0
280
0
281
0
282
0
283
1
284
8
285
0
286
0
287
3
288
0
340
11
278
46
341
212
342
212
343
212
344
212
  0
ENDTAB
  0
ENDSEC
  0
SECTION
  2
BLOCKS
  0
BLOCK
  5
20
100
AcDbEntity
  8
0
100
AcDbBlockBegin
  2
*Model_Space
 70
0
 10
0.0
 20
0.0
 30
0.0
  3
*Model_Space
  1

  0
ENDBLK
  5
21
100
AcDbEntity
  8
0
100
AcDbBlockEnd
  0
BLOCK
  5
1C
100
AcDbEntity
  8
0
100
AcDbBlockBegin
  2
*Paper_Space
 70
0
 10
0.0
 20
0.0
 30
0.0
  3
*Paper_Space
  1

  0
ENDBLK
  5
1D
100
AcDbEntity
  8
0
100
AcDbBlockEnd
  0
BLOCK
  5
214
100
AcDbEntity
  8
0
100
AcDbBlockBegin
  2
_FILLED
 70
64
 10
0.0
 20
0.0
  3
_FILLED
  1

  0
SOLID
  5
215
100
AcDbEntity
  8
0
  6
BYBLOCK
 62
0
100
AcDbTrace
 10
0.0
 20
0.0
 11
-1.0
 21
0.25
 12
-1.0
 22
-0.25
 13
-1.0
 23
-0.25
  0
ENDBLK
  5
216
100
AcDbEntity
  8
0
  6
BYBLOCK
 62
0
100
AcDbBlockEnd
  0
ENDSEC
  0
SECTION
  2
ENTITIES
  0
LINE
  5
217
100
AcDbEntity
  8
0
100
AcDbLine
 62
7
  6
BYLAYER
 10
55.0210651731
 20
144.3556074004
 11
67.9634179573
 21
136.6809943644
  0
LWPOLYLINE
  5
218
100
AcDbEntity
  8
0
100
AcDbPolyline
 62
7
  6
BYLAYER
 90
3
 70
0
 10
88.0761978172
 20
119.66846741
 10
72.469862757
 20
131.5312361554
 10
68.0127618393
 20
136.7233529382
  0
LWPOLYLINE
  5
219
100
AcDbEntity
  8
0
100
AcDbPolyline
 62
7
  6
BYLAYER
 90
9
 70
0
 10
53.6492755132
 20
156.1596677238
 10
47.1563451299
 20
167.4092300087
 10
39.9804988315
 20
187.8932772765
 10
37.5470845219
 20
207.3354317552
 10
40.0470748435
 20
223.8698383341
 10
47.2181996467
 20
235.9322887077
 10
58.4027501586
 20
242.3722509521
 10
72.4065200583
 20
242.531504406
 10
88.0761978172
 20
236.3612742813
  0
LINE
  5
21A
100
AcDbEntity
  8
0
100
AcDbLine
 62
7
  6
BYLAYER
 10
108.8614152136
 20
115.143043299
 11
100.6209204299
 21
119.9005875506
  0
LINE
  5
21B
100
AcDbEntity
  8
0
100
AcDbLine
 62
7
  6
BYLAYER
 10
100.4479103387
 20
120.172284663
 11
108.8239991869
 21
115.3364569128
  0
LINE
  5
21C
100
AcDbEntity
  8
0
100
AcDbLine
 62
7
  6
BYLAYER
 10
99.5171874625
 20
121.0137395178
 11
100.394787303
 21
120.507068476
  0
LINE
  5
21D
100
AcDbEntity
  8
0
100
AcDbLine
 62
7
  6
BYLAYER
 10
108.8771222226
 20
115.6099009156
 11
109.7547220631
 21
115.1032298738
  0
LINE
  5
21E
100
AcDbEntity
  8
0
100
AcDbLine
 62
7
  6
BYLAYER
 10
109.7547220631
 20
116.7623627854
 11
108.8771222226
 21
117.2690338272
  0
LINE
  5
21F
100
AcDbEntity
  8
0
100
AcDbLine
 62
7
  6
BYLAYER
 10
100.394787303
 20
122.1662013876
 11
99.5171874625
 21
122.6728724294
  0
LINE
  5
220
100
AcDbEntity
  8
0
100
AcDbLine
 62
7
  6
BYLAYER
 10
108.8239991869
 20
117.6038176402
 11
100.4479103387
 21
122.4396453905
  0
LINE
  5
221
100
AcDbEntity
  8
0
100
AcDbLine
 62
7
  6
BYLAYER
 10
112.2992232653
 20
116.2895252322
 11
112.0543386744
 21
116.4309062182
  0
LINE
  5
222
100
AcDbEntity
  8
0
100
AcDbLine
 62
7
  6
BYLAYER
 10
112.2248952764
 20
116.5293765305
 11
112.4445328386
 21
116.4025715935
  0
LINE
  5
223
100
AcDbEntity
  8
0
100
AcDbLine
 62
7
  6
BYLAYER
 10
101.0222756068
 20
123.053207278
 11
109.2104140139
 21
118.3258903107
  0
LINE
  5
224
100
AcDbEntity
  8
0
100
AcDbLine
 62
7
  6
BYLAYER
 10
112.7286308562
 20
116.6266031953
 11
112.5609629344
 21
116.7234041251
  0
LINE
  5
225
100
AcDbEntity
  8
0
100
AcDbLine
 62
7
  6
BYLAYER
 10
102.9486042495
 20
124.0887887861
 11
111.1961990101
 21
119.3271454537
  0
LINE
  5
226
100
AcDbEntity
  8
0
100
AcDbLine
 62
7
  6
BYLAYER
 10
111.6620115543
 20
119.3129858635
 11
103.3096595924
 21
124.1351094261
  0
LINE
  5
227
100
AcDbEntity
  8
0
100
AcDbLine
 62
7
  6
BYLAYER
 10
104.015852831
 20
124.7830196985
 11
112.2027612831
 21
120.05641283
  0
LINE
  5
228
100
AcDbEntity
  8
0
100
AcDbLine
 62
7
  6
BYLAYER
 10
104.3034337505
 20
125.262122131
 11
112.1513149521
 21
120.7312419147
  0
LINE
  5
229
100
AcDbEntity
  8
0
100
AcDbLine
 62
7
  6
BYLAYER
 10
112.302157626
 20
121.1510807976
 11
104.6411093915
 21
125.5740863907
  0
LINE
  5
22A
100
AcDbEntity
  8
0
100
AcDbLine
 62
7
  6
BYLAYER
 10
112.5791652046
 20
121.1976255345
 11
104.8526328911
 21
125.6584401285
  0
LINE
  5
22B
100
AcDbEntity
  8
0
100
AcDbLine
 62
7
  6
BYLAYER
 10
115.4115527609
 20
120.0283160164
 11
114.5339529203
 21
120.5349870581
  0
LINE
  5
22C
100
AcDbEntity
  8
0
100
AcDbLine
 62
7
  6
BYLAYER
 10
105.2206054815
 20
125.9119290663
 11
105.1740181602
 21
125.9388256604
  0
LINE
  5
22D
100
AcDbEntity
  8
0
100
AcDbLine
 62
7
  6
BYLAYER
 10
117.5471202973
 20
119.5219543346
 11
119.5751685055
 21
118.3510866443
  0
LINE
  5
22E
100
AcDbEntity
  8
0
100
AcDbLine
 62
7
  6
BYLAYER
 10
105.7494766151
 20
126.4646682428
 11
112.7286308562
 21
122.4353428185
  0
LINE
  5
22F
100
AcDbEntity
  8
0
100
AcDbLine
 62
7
  6
BYLAYER
 10
112.4445328386
 20
122.7406068473
 11
105.8198293318
 21
126.5652946742
  0
LINE
  5
230
100
AcDbEntity
  8
0
100
AcDbLine
 62
7
  6
BYLAYER
 10
117.6912184624
 20
120.343798393
 11
120.9510668797
 21
118.461766609
  0
LINE
  5
231
100
AcDbEntity
  8
0
100
AcDbLine
 62
7
  6
BYLAYER
 10
106.3441858655
 20
126.8971825938
 11
112.2992232653
 21
123.4591179274
  0
LINE
  5
232
100
AcDbEntity
  8
0
100
AcDbLine
 62
7
  6
BYLAYER
 10
59.298479489
 20
146.1747912634
 11
60.7971188486
 21
145.2861215325
  0
LINE
  5
233
100
AcDbEntity
  8
0
100
AcDbLine
 62
7
  6
BYLAYER
 10
62.2895746906
 20
144.401118531
 11
63.7882140502
 21
143.5124488001
  0
LINE
  5
234
100
AcDbEntity
  8
0
100
AcDbLine
 62
7
  6
BYLAYER
 10
61.3274467265
 20
145.5923046479
 11
62.8199025685
 21
144.7073016464
  0
LINE
  5
235
100
AcDbEntity
  8
0
100
AcDbLine
 62
7
  6
BYLAYER
 10
60.6419767797
 20
146.9504551557
 11
65.1317113409
 21
144.2881126925
  0
LINE
  5
236
100
AcDbEntity
  8
0
100
AcDbLine
 62
7
  6
BYLAYER
 10
63.8490535793
 20
148.6616382636
 11
59.3593190181
 21
151.3239807268
  0
LINE
  5
237
100
AcDbEntity
  8
0
100
AcDbLine
 62
7
  6
BYLAYER
 10
112.5128923206
 20
123.7745996897
 11
106.7299899387
 21
127.1132844054
  0
LINE
  5
238
100
AcDbEntity
  8
0
100
AcDbLine
 62
7
  6
BYLAYER
 10
107.6283494055
 20
127.4797173509
 11
112.2803572739
 21
124.7939401162
  0
LINE
  5
239
100
AcDbEntity
  8
0
100
AcDbLine
 62
7
  6
BYLAYER
 10
121.5628891173
 20
119.8633184681
 11
118.0970707857
 21
121.8642643474
  0
LINE
  5
23A
100
AcDbEntity
  8
0
100
AcDbLine
 62
7
  6
BYLAYER
 10
119.3438457025
 20
124.7425648215
 11
121.5631056042
 21
123.4613035058
  0
LINE
  5
23B
100
AcDbEntity
  8
0
100
AcDbLine
 62
7
  6
BYLAYER
 10
46.6796944251
 20
174.5911009757
 11
129.4732787942
 21
126.7912841294
  0
LINE
  5
23C
100
AcDbEntity
  8
0
100
AcDbLine
 62
7
  6
BYLAYER
 10
85.5245369414
 20
123.4127319622
 11
81.9087770491
 21
131.929384716
  0
LWPOLYLINE
  5
23D
100
AcDbEntity
  8
0
100
AcDbPolyline
 62
7
  6
BYLAYER
 90
3
 70
0
 10
177.4381956357
 20
329.4033298849
 10
178.2162870825
 20
329.7184343178
 10
194.8895269298
 20
329.391865742
  0
LINE
  5
23E
100
AcDbEntity
  8
0
100
AcDbLine
 62
7
  6
BYLAYER
 10
50.3877707135
 20
177.8401378195
 11
130.4312512702
 21
131.6280582302
  0
LINE
  5
23F
100
AcDbEntity
  8
0
100
AcDbLine
 62
7
  6
BYLAYER
 10
86.8802083558
 20
143.3488378546
 11
90.4959682482
 21
134.8321851007
  0
LINE
  5
240
100
AcDbEntity
  8
0
100
AcDbLine
 62
7
  6
BYLAYER
 10
92.6197766678
 20
135.9571633007
 11
89.0040167755
 21
144.4738160543
  0
LINE
  5
241
100
AcDbEntity
  8
0
100
AcDbLine
 62
7
  6
BYLAYER
 10
168.2794871898
 20
325.6952914775
 11
175.8071228826
 21
330.4816212298
  0
LINE
  5
242
100
AcDbEntity
  8
0
100
AcDbLine
 62
7
  6
BYLAYER
 10
55.7006728323
 20
155.0517018373
 11
56.02938773
 21
155.7608857407
  0
LINE
  5
243
100
AcDbEntity
  8
0
100
AcDbLine
 62
7
  6
BYLAYER
 10
52.0724066225
 20
243.7543506611
 11
171.7620541498
 21
319.8571463297
  0
LINE
  5
244
100
AcDbEntity
  8
0
100
AcDbLine
 62
7
  6
BYLAYER
 10
219.4999550699
 20
327.3636246904
 11
227.7099687258
 21
331.1072393037
  0
LINE
  5
245
100
AcDbEntity
  8
0
100
AcDbLine
 62
7
  6
BYLAYER
 10
99.5171874625
 20
122.6728724294
 11
99.5171874625
 21
121.0137395178
  0
LINE
  5
246
100
AcDbEntity
  8
0
100
AcDbLine
 62
7
  6
BYLAYER
 10
57.9455401129
 20
153.7205306057
 11
57.6168252151
 21
153.0113467023
  0
LINE
  5
247
100
AcDbEntity
  8
0
100
AcDbLine
 62
7
  6
BYLAYER
 10
59.5142306773
 20
143.0689842443
 11
59.8429455751
 21
143.7781681477
  0
LINE
  5
248
100
AcDbEntity
  8
0
100
AcDbLine
 62
7
  6
BYLAYER
 10
63.5559124206
 20
150.3936674636
 11
63.8846273183
 21
151.102851367
  0
LINE
  5
249
100
AcDbEntity
  8
0
100
AcDbLine
 62
7
  6
BYLAYER
 10
61.7590979579
 20
141.7378130127
 11
61.4303830601
 21
141.0286291093
  0
LINE
  5
24A
100
AcDbEntity
  8
0
100
AcDbLine
 62
7
  6
BYLAYER
 10
65.8007797012
 20
149.062496232
 11
65.4720648034
 21
148.3533123286
  0
LINE
  5
24B
100
AcDbEntity
  8
0
100
AcDbLine
 62
7
  6
BYLAYER
 10
62.2439693796
 20
140.5412861092
 11
62.8222176198
 21
140.6591255259
  0
LINE
  5
24C
100
AcDbEntity
  8
0
100
AcDbLine
 62
7
  6
BYLAYER
 10
60.7971188486
 20
145.2861215325
 11
60.2188706084
 21
145.1682821157
  0
LINE
  5
24D
100
AcDbEntity
  8
0
100
AcDbLine
 62
7
  6
BYLAYER
 10
109.7547220631
 20
115.1032298738
 11
109.7547220631
 21
116.7623627854
  0
LINE
  5
24E
100
AcDbEntity
  8
0
100
AcDbLine
 62
7
  6
BYLAYER
 10
115.4115527609
 20
118.3691831048
 11
115.4115527609
 21
120.0283160164
  0
LINE
  5
24F
100
AcDbEntity
  8
0
100
AcDbLine
 62
7
  6
BYLAYER
 10
262.5704781756
 20
310.9809701058
 11
247.264344548
 21
304.0016558291
  0
LINE
  5
250
100
AcDbEntity
  8
0
100
AcDbLine
 62
7
  6
BYLAYER
 10
81.908777049
 20
139.7898900929
 11
85.5245369414
 21
144.131517404
  0
LINE
  5
251
100
AcDbEntity
  8
0
100
AcDbLine
 62
7
  6
BYLAYER
 10
87.148378859
 20
145.5451448682
 11
86.4309247788
 21
144.6836611631
  0
LINE
  5
252
100
AcDbEntity
  8
0
100
AcDbLine
 62
7
  6
BYLAYER
 10
278.2146580541
 20
291.3605210138
 11
263.6432848949
 21
282.9477850152
  0
LINE
  5
253
100
AcDbEntity
  8
0
100
AcDbLine
 62
7
  6
BYLAYER
 10
90.4959682482
 20
126.9716797239
 11
86.8802083558
 21
122.6300524128
  0
LINE
  5
254
100
AcDbEntity
  8
0
100
AcDbLine
 62
7
  6
BYLAYER
 10
89.0040167755
 20
123.3801189641
 11
92.6197766678
 21
127.7217462752
  0
LINE
  5
255
100
AcDbEntity
  8
0
100
AcDbLine
 62
7
  6
BYLAYER
 10
60.275121368
 20
161.098486257
 11
55.3253945075
 21
158.2407771799
  0
LINE
  5
256
100
AcDbEntity
  8
0
100
AcDbLine
 62
7
  6
BYLAYER
 10
57.4435677005
 20
156.5774219093
 11
56.0293600261
 21
155.7609336016
  0
LINE
  5
257
100
AcDbEntity
  8
0
100
AcDbLine
 62
7
  6
BYLAYER
 10
59.0310605935
 20
153.8277871491
 11
57.616852919
 21
153.0112988413
  0
LINE
  5
258
100
AcDbEntity
  8
0
100
AcDbLine
 62
7
  6
BYLAYER
 10
269.6455531879
 20
274.1631661795
 11
268.5173547673
 21
273.5118044057
  0
LINE
  5
259
100
AcDbEntity
  8
0
100
AcDbLine
 62
7
  6
BYLAYER
 10
87.2945492563
 20
145.6676028566
 11
87.148378859
 21
145.5451448682
  0
LINE
  5
25A
100
AcDbEntity
  8
0
100
AcDbLine
 62
7
  6
BYLAYER
 10
85.5245369414
 20
144.131517404
 11
85.63132645
 21
144.2209780414
  0
LINE
  5
25B
100
AcDbEntity
  8
0
100
AcDbLine
 62
7
  6
BYLAYER
 10
65.2988072888
 20
151.9193875357
 11
63.8845996144
 21
151.1028992279
  0
LINE
  5
25C
100
AcDbEntity
  8
0
100
AcDbLine
 62
7
  6
BYLAYER
 10
60.6419767797
 20
146.9504551557
 11
59.298479489
 21
146.1747912634
  0
LINE
  5
25D
100
AcDbEntity
  8
0
100
AcDbLine
 62
7
  6
BYLAYER
 10
66.8863001818
 20
149.1697527754
 11
65.4720925074
 21
148.3532644677
  0
LINE
  5
25E
100
AcDbEntity
  8
0
100
AcDbLine
 62
7
  6
BYLAYER
 10
60.7971188486
 20
145.2861215325
 11
61.3274467265
 21
145.5923046479
  0
LINE
  5
25F
100
AcDbEntity
  8
0
100
AcDbLine
 62
7
  6
BYLAYER
 10
61.2571255455
 20
144.5947043164
 11
59.8429178711
 21
143.7782160086
  0
LINE
  5
260
100
AcDbEntity
  8
0
100
AcDbLine
 62
7
  6
BYLAYER
 10
62.8199025685
 20
144.7073016464
 11
62.2895746906
 21
144.401118531
  0
LINE
  5
261
100
AcDbEntity
  8
0
100
AcDbLine
 62
7
  6
BYLAYER
 10
63.7882140502
 20
143.5124488001
 11
65.1317113409
 21
144.2881126925
  0
LINE
  5
262
100
AcDbEntity
  8
0
100
AcDbLine
 62
7
  6
BYLAYER
 10
62.8446184385
 20
141.8450695561
 11
61.4304107641
 21
141.0285812484
  0
LINE
  5
263
100
AcDbEntity
  8
0
100
AcDbLine
 62
7
  6
BYLAYER
 10
86.8802083558
 20
122.6300524128
 11
86.7734188472
 21
122.5405917754
  0
LINE
  5
264
100
AcDbEntity
  8
0
100
AcDbLine
 62
7
  6
BYLAYER
 10
88.8578463782
 20
123.2576609757
 11
89.0040167755
 21
123.3801189641
  0
LINE
  5
265
100
AcDbEntity
  8
0
100
AcDbLine
 62
7
  6
BYLAYER
 10
72.7713623264
 20
139.4542359955
 11
72.9131448178
 21
139.5387034415
  0
LINE
  5
266
100
AcDbEntity
  8
0
100
AcDbLine
 62
7
  6
BYLAYER
 10
72.9131448178
 20
139.5387034415
 11
67.9634179573
 21
136.6809943644
  0
LINE
  5
267
100
AcDbEntity
  8
0
100
AcDbLine
 62
7
  6
BYLAYER
 10
88.0178642052
 20
145.5998755991
 11
85.6308752071
 21
144.2217550848
  0
LINE
  5
268
100
AcDbEntity
  8
0
100
AcDbLine
 62
7
  6
BYLAYER
 10
88.9601978205
 20
144.5497131637
 11
86.8802083558
 21
143.3488378546
  0
LINE
  5
269
100
AcDbEntity
  8
0
100
AcDbLine
 62
7
  6
BYLAYER
 10
105.9440224615
 20
129.0622727148
 11
110.690239992
 21
132.5802029827
  0
LINE
  5
26A
100
AcDbEntity
  8
0
100
AcDbLine
 62
7
  6
BYLAYER
 10
84.3392910723
 20
134.3780600027
 11
82.0151153148
 21
133.0362045132
  0
LINE
  5
26B
100
AcDbEntity
  8
0
100
AcDbLine
 62
7
  6
BYLAYER
 10
84.9842911082
 20
133.9857298039
 11
82.8647481326
 21
132.7620184009
  0
LINE
  5
26C
100
AcDbEntity
  8
0
100
AcDbLine
 62
7
  6
BYLAYER
 10
90.4959682482
 20
134.8321851007
 11
92.5759577129
 21
136.0330604099
  0
LINE
  5
26D
100
AcDbEntity
  8
0
100
AcDbLine
 62
7
  6
BYLAYER
 10
92.7732553219
 20
135.1015438203
 11
90.3896299824
 21
133.7253653036
  0
LINE
  5
26E
100
AcDbEntity
  8
0
100
AcDbLine
 62
7
  6
BYLAYER
 10
110.690239992
 20
132.5802029827
 11
110.9730949754
 21
132.7658634344
  0
LINE
  5
26F
100
AcDbEntity
  8
0
100
AcDbLine
 62
7
  6
BYLAYER
 10
91.6812688369
 20
130.1444051585
 11
89.5399971646
 21
128.9081487616
  0
LINE
  5
270
100
AcDbEntity
  8
0
100
AcDbLine
 62
7
  6
BYLAYER
 10
92.8041237268
 20
128.3042859563
 11
90.4959682482
 21
126.9716797239
  0
LINE
  5
271
100
AcDbEntity
  8
0
100
AcDbLine
 62
7
  6
BYLAYER
 10
99.052776272
 20
131.6521119919
 11
96.4497939705
 21
130.1492884301
  0
LINE
  5
272
100
AcDbEntity
  8
0
100
AcDbLine
 62
7
  6
BYLAYER
 10
86.8802083558
 20
122.6300524128
 11
89.7677387856
 21
124.2971589324
  0
LINE
  5
273
100
AcDbEntity
  8
0
100
AcDbLine
 62
7
  6
BYLAYER
 10
89.7214708556
 20
124.2416026692
 11
86.7738700901
 21
122.539814732
  0
LINE
  5
274
100
AcDbEntity
  8
0
100
AcDbLine
 62
7
  6
BYLAYER
 10
110.9730949754
 20
132.7658634344
 11
111.8534439674
 21
133.274130128
  0
LINE
  5
275
100
AcDbEntity
  8
0
100
AcDbLine
 62
7
  6
BYLAYER
 10
105.1740181602
 20
125.9388256604
 11
99.5171874625
 21
122.6728724294
  0
LINE
  5
276
100
AcDbEntity
  8
0
100
AcDbLine
 62
7
  6
BYLAYER
 10
227.7099687258
 20
325.1261064404
 11
227.7099687258
 21
331.1072393037
  0
LINE
  5
277
100
AcDbEntity
  8
0
100
AcDbLine
 62
7
  6
BYLAYER
 10
272.0123777469
 20
285.3575626778
 11
266.6251185975
 21
277.3950674285
  0
LINE
  5
278
100
AcDbEntity
  8
0
100
AcDbLine
 62
7
  6
BYLAYER
 10
114.5339529203
 20
120.5349870582
 11
108.8771222226
 21
117.2690338272
  0
LINE
  5
279
100
AcDbEntity
  8
0
100
AcDbLine
 62
7
  6
BYLAYER
 10
115.4115527609
 20
120.0283160164
 11
109.7547220631
 21
116.7623627854
  0
LINE
  5
27A
100
AcDbEntity
  8
0
100
AcDbLine
 62
7
  6
BYLAYER
 10
106.2509304565
 20
126.8448198758
 11
106.3441858655
 21
126.8971825938
  0
LINE
  5
27B
100
AcDbEntity
  8
0
100
AcDbLine
 62
7
  6
BYLAYER
 10
271.4415969344
 20
277.2740224698
 11
269.6455531879
 21
274.1631661795
  0
LINE
  5
27C
100
AcDbEntity
  8
0
100
AcDbLine
 62
7
  6
BYLAYER
 10
115.4115527609
 20
118.3691831048
 11
109.7547220631
 21
115.1032298738
  0
LINE
  5
27D
100
AcDbEntity
  8
0
100
AcDbLine
 62
7
  6
BYLAYER
 10
113.3344391201
 20
116.8856742576
 11
112.4499716846
 21
116.3750297937
  0
LINE
  5
27E
100
AcDbEntity
  8
0
100
AcDbLine
 62
7
  6
BYLAYER
 10
119.823055355
 20
117.4371909127
 11
120.7098696138
 21
117.9491903074
  0
LINE
  5
27F
100
AcDbEntity
  8
0
100
AcDbLine
 62
7
  6
BYLAYER
 10
112.3341885767
 20
116.3082343473
 11
112.2992232653
 21
116.2895252322
  0
LINE
  5
280
100
AcDbEntity
  8
0
100
AcDbLine
 62
7
  6
BYLAYER
 10
119.1957851859
 20
124.6674718737
 11
120.8474774845
 21
125.5051728783
  0
LINE
  5
281
100
AcDbEntity
  8
0
100
AcDbLine
 62
7
  6
BYLAYER
 10
119.823055355
 20
117.4371909127
 11
119.5208404092
 21
117.2850630996
  0
LWPOLYLINE
  5
282
100
AcDbEntity
  8
0
100
AcDbPolyline
 62
7
  6
BYLAYER
 90
3
 70
0
 10
256.0727806472
 20
173.6319409989
 10
248.3046068173
 20
170.8607643997
 10
236.5120968358
 20
171.0917370976
  0
LINE
  5
283
100
AcDbEntity
  8
0
100
AcDbLine
 62
7
  6
BYLAYER
 10
127.006030668
 20
113.9647318841
 11
252.7581479089
 21
179.5669593098
  0
LINE
  5
284
100
AcDbEntity
  8
0
100
AcDbLine
 62
7
  6
BYLAYER
 10
256.0728157568
 20
173.6318781431
 11
263.9817380884
 21
177.7577961226
  0
LINE
  5
285
100
AcDbEntity
  8
0
100
AcDbLine
 62
7
  6
BYLAYER
 10
120.8474774845
 20
118.4038357231
 11
120.4046847005
 21
118.203769835
  0
LINE
  5
286
100
AcDbEntity
  8
0
100
AcDbLine
 62
7
  6
BYLAYER
 10
114.101102508
 20
114.9337112973
 11
119.5208404092
 21
117.2850630996
  0
LWPOLYLINE
  5
287
100
AcDbEntity
  8
0
100
AcDbPolyline
 62
7
  6
BYLAYER
 90
3
 70
0
 10
196.3586846864
 20
323.2572076508
 10
180.9906105747
 20
323.5816928113
 10
171.7626437799
 20
319.8561580652
  0
LINE
  5
288
100
AcDbEntity
  8
0
100
AcDbLine
 62
7
  6
BYLAYER
 10
271.4415969344
 20
284.5139352632
 11
271.4415969344
 21
277.2740224698
  0
LWPOLYLINE
  5
289
100
AcDbEntity
  8
0
100
AcDbPolyline
 62
7
  6
BYLAYER
 90
5
 70
0
 10
266.5880318213
 20
195.3242264057
 10
270.3892152299
 20
212.3349497103
 10
270.3932723515
 20
222.2142260709
 10
266.6072502083
 20
243.6112799662
 10
258.0927141944
 20
265.593865638
  0
LWPOLYLINE
  5
28A
100
AcDbEntity
  8
0
100
AcDbPolyline
 62
7
  6
BYLAYER
 90
3
 70
0
 10
271.0842766812
 20
190.7611449018
 10
261.8547237588
 20
177.5897373053
 10
256.0727806472
 20
173.6319409989
  0
LINE
  5
28B
100
AcDbEntity
  8
0
100
AcDbLine
 62
7
  6
BYLAYER
 10
265.328841827
 20
193.5327698562
 11
266.5880318213
 21
195.3242264057
  0
LINE
  5
28C
100
AcDbEntity
  8
0
100
AcDbLine
 62
7
  6
BYLAYER
 10
194.8895269298
 20
329.391865742
 11
213.2604469499
 21
321.9952498823
  0
LINE
  5
28D
100
AcDbEntity
  8
0
100
AcDbLine
 62
7
  6
BYLAYER
 10
213.2604469499
 20
316.4435735578
 11
196.3586846864
 21
323.2572076508
  0
LINE
  5
28E
100
AcDbEntity
  8
0
100
AcDbLine
 62
7
  6
BYLAYER
 10
213.2604469499
 20
321.9952498823
 11
231.587112921
 21
308.2207898206
  0
LINE
  5
28F
100
AcDbEntity
  8
0
100
AcDbLine
 62
7
  6
BYLAYER
 10
231.587112921
 20
308.2207898206
 11
248.2411956077
 21
289.3404383624
  0
LINE
  5
290
100
AcDbEntity
  8
0
100
AcDbLine
 62
7
  6
BYLAYER
 10
248.2411956077
 20
289.3404383624
 11
261.8222088319
 21
266.9448159815
  0
LWPOLYLINE
  5
291
100
AcDbEntity
  8
0
100
AcDbPolyline
 62
7
  6
BYLAYER
 90
4
 70
0
 10
258.0927141944
 20
265.593865638
 10
245.5935111145
 20
286.2341904663
 10
230.2039485589
 20
303.7021750958
 10
213.2604469499
 20
316.4435735578
  0
LWPOLYLINE
  5
292
100
AcDbEntity
  8
0
100
AcDbPolyline
 62
7
  6
BYLAYER
 90
4
 70
0
 10
261.8222088319
 20
266.9448159815
 10
271.0665624735
 20
243.1127645518
 10
275.1839638982
 20
219.920953074
 10
275.1876322205
 20
209.2112031462
  0
LINE
  5
293
100
AcDbEntity
  8
0
100
AcDbLine
 62
7
  6
BYLAYER
 10
275.1876322205
 20
209.2112031462
 11
271.0842766812
 21
190.7611449018
  0
LWPOLYLINE
  5
294
100
AcDbEntity
  8
0
100
AcDbPolyline
 62
7
  6
BYLAYER
 90
3
 70
0
 10
256.1687332666
 20
293.896994712
 10
239.4224705839
 20
312.9005798805
 10
220.9834350599
 20
326.7655103449
  0
LINE
  5
295
100
AcDbEntity
  8
0
100
AcDbLine
 62
7
  6
BYLAYER
 10
269.7804390626
 20
271.4266960614
 11
256.1687332666
 21
293.896994712
  0
LWPOLYLINE
  5
296
100
AcDbEntity
  8
0
100
AcDbPolyline
 62
7
  6
BYLAYER
 90
4
 70
0
 10
274.3815100207
 20
261.0449366377
 10
264.9713529151
 20
280.8811324978
 10
258.9953013079
 20
290.180672815
 10
256.9731442893
 20
292.5690673977
  0
LINE
  5
297
100
AcDbEntity
  8
0
100
AcDbLine
 62
7
  6
BYLAYER
 10
277.7789203936
 20
250.7841681991
 11
269.7804390626
 21
271.4266960614
  0
LINE
  5
298
100
AcDbEntity
  8
0
100
AcDbLine
 62
7
  6
BYLAYER
 10
227.7099687258
 20
331.1072393037
 11
219.9123988095
 21
335.6090665489
  0
LINE
  5
299
100
AcDbEntity
  8
0
100
AcDbLine
 62
7
  6
BYLAYER
 10
262.5704781756
 20
310.9809701058
 11
270.3680480918
 21
306.4791428606
  0
ARC
  5
29A
100
AcDbEntity
  8
0
100
AcDbCircle
 62
7
  6
BYLAYER
 10
62.5998590835
 20
144.0011858956
 40
2.9210309637
100
AcDbArc
 50
184.3644005188
 51
186.7808742984
  0
ARC
  5
29B
100
AcDbEntity
  8
0
100
AcDbCircle
 62
7
  6
BYLAYER
 10
62.9975593261
 20
143.3013772238
 40
2.9158667984
100
AcDbArc
 50
232.0148126194
 51
236.559707971
  0
ARC
  5
29C
100
AcDbEntity
  8
0
100
AcDbCircle
 62
7
  6
BYLAYER
 10
66.6339309318
 20
151.3254325721
 40
2.9133959463
100
AcDbArc
 50
184.344176168
 51
186.6210923123
  0
ARC
  5
29D
100
AcDbEntity
  8
0
100
AcDbCircle
 62
7
  6
BYLAYER
 10
62.263672779
 20
143.9780845529
 40
2.5840627795
100
AcDbArc
 50
179.3973406702
 51
184.4209246606
  0
ARC
  5
29E
100
AcDbEntity
  8
0
100
AcDbCircle
 62
7
  6
BYLAYER
 10
66.3015760506
 20
151.3028150171
 40
2.58028402
100
AcDbArc
 50
179.3975071997
 51
184.4024092361
  0
ARC
  5
29F
100
AcDbEntity
  8
0
100
AcDbCircle
 62
7
  6
BYLAYER
 10
61.1034924749
 20
141.8475557593
 40
2.2579858147
100
AcDbArc
 50
355.4863400517
 51
359.3551549174
  0
ARC
  5
2A0
100
AcDbEntity
  8
0
100
AcDbCircle
 62
7
  6
BYLAYER
 10
65.1929614811
 20
149.170769216
 40
2.2101852333
100
AcDbArc
 50
354.1620688715
 51
359.3793117744
  0
ARC
  5
2A1
100
AcDbEntity
  8
0
100
AcDbCircle
 62
7
  6
BYLAYER
 10
60.1195757286
 20
151.0298981099
 40
1.6684038435
100
AcDbArc
 50
157.4827149449
 51
160.7378955833
  0
ARC
  5
2A2
100
AcDbEntity
  8
0
100
AcDbCircle
 62
7
  6
BYLAYER
 10
61.3232885638
 20
144.5935464573
 40
1.0596543442
100
AcDbArc
 50
142.0616684317
 51
148.8431836261
  0
ARC
  5
2A3
100
AcDbEntity
  8
0
100
AcDbCircle
 62
7
  6
BYLAYER
 10
55.2877382457
 20
179.6671728188
 40
70.354630499
100
AcDbArc
 50
60.0003420461
 51
60.2955037892
  0
ARC
  5
2A4
100
AcDbEntity
  8
0
100
AcDbCircle
 62
7
  6
BYLAYER
 10
78.1945017381
 20
153.1466690856
 40
57.5626810103
100
AcDbArc
 50
357.2966893635
 51
359.2140399262
  0
ARC
  5
2A5
100
AcDbEntity
  8
0
100
AcDbCircle
 62
7
  6
BYLAYER
 10
61.8802408951
 20
182.4244559003
 40
56.9600121616
100
AcDbArc
 50
61.3396898374
 51
62.6765302164
  0
ARC
  5
2A6
100
AcDbEntity
  8
0
100
AcDbCircle
 62
7
  6
BYLAYER
 10
58.7786913434
 20
155.9834669458
 40
2.9133959463
100
AcDbArc
 50
184.344176168
 51
186.6210923123
  0
ARC
  5
2A7
100
AcDbEntity
  8
0
100
AcDbCircle
 62
7
  6
BYLAYER
 10
58.4463364623
 20
155.9608493908
 40
2.58028402
100
AcDbArc
 50
179.3975071997
 51
184.4024092361
  0
ARC
  5
2A8
100
AcDbEntity
  8
0
100
AcDbCircle
 62
7
  6
BYLAYER
 10
57.3377218928
 20
153.8288035897
 40
2.2101852333
100
AcDbArc
 50
354.1620688715
 51
359.3793117744
  0
ARC
  5
2A9
100
AcDbEntity
  8
0
100
AcDbCircle
 62
7
  6
BYLAYER
 10
57.5006278114
 20
156.5822292332
 40
1.0487911694
100
AcDbArc
 50
141.2756195345
 51
148.1412608513
  0
ARC
  5
2AA
100
AcDbEntity
  8
0
100
AcDbCircle
 62
7
  6
BYLAYER
 10
65.3558673997
 20
151.9241948595
 40
1.0487911694
100
AcDbArc
 50
141.2756195345
 51
148.1412608513
  0
ARC
  5
2AB
100
AcDbEntity
  8
0
100
AcDbCircle
 62
7
  6
BYLAYER
 10
106.7529898141
 20
142.5327699616
 40
27.6406567857
100
AcDbArc
 50
325.2843010574
 51
326.5341323925
  0
ARC
  5
2AC
100
AcDbEntity
  8
0
100
AcDbCircle
 62
7
  6
BYLAYER
 10
106.8397115719
 20
119.8955277308
 40
13.2455277758
100
AcDbArc
 50
15.9522473308
 51
21.1166758647
  0
ARC
  5
2AD
100
AcDbEntity
  8
0
100
AcDbCircle
 62
7
  6
BYLAYER
 10
117.3465219752
 20
105.460824132
 40
12.7501125155
100
AcDbArc
 50
129.0463031895
 51
129.6518471601
  0
ARC
  5
2AE
100
AcDbEntity
  8
0
100
AcDbCircle
 62
7
  6
BYLAYER
 10
103.5569537062
 20
119.7366658394
 40
8.6517181411
100
AcDbArc
 50
2.1179985087
 51
6.6011483016
  0
ARC
  5
2AF
100
AcDbEntity
  8
0
100
AcDbCircle
 62
7
  6
BYLAYER
 10
107.8064391907
 20
121.5115325682
 40
7.4794071835
100
AcDbArc
 50
187.7179873672
 51
190.3148974498
  0
ARC
  5
2B0
100
AcDbEntity
  8
0
100
AcDbCircle
 62
7
  6
BYLAYER
 10
101.465470335
 20
116.264569735
 40
7.4794071835
100
AcDbArc
 50
7.7179873672
 51
10.3148974499
  0
ARC
  5
2B1
100
AcDbEntity
  8
0
100
AcDbCircle
 62
7
  6
BYLAYER
 10
111.9728575175
 20
125.4924969372
 40
7.4606888039
100
AcDbArc
 50
179.0374684076
 51
179.3225473241
  0
ARC
  5
2B2
100
AcDbEntity
  8
0
100
AcDbCircle
 62
7
  6
BYLAYER
 10
111.8302849107
 20
125.4952666575
 40
7.3180897972
100
AcDbArc
 50
177.8497139839
 51
179.0403990497
  0
ARC
  5
2B3
100
AcDbEntity
  8
0
100
AcDbCircle
 62
7
  6
BYLAYER
 10
111.6461199604
 20
125.5019340273
 40
7.1338043665
100
AcDbArc
 50
177.1311160649
 51
177.8477274978
  0
ARC
  5
2B4
100
AcDbEntity
  8
0
100
AcDbCircle
 62
7
  6
BYLAYER
 10
111.3348613799
 20
125.5191787195
 40
6.8220729826
100
AcDbArc
 50
174.5915208621
 51
177.1449268368
  0
ARC
  5
2B5
100
AcDbEntity
  8
0
100
AcDbCircle
 62
7
  6
BYLAYER
 10
109.2790308643
 20
121.7343940755
 40
5.9416896449
100
AcDbArc
 50
123.5898708023
 51
125.6048330155
  0
ARC
  5
2B6
100
AcDbEntity
  8
0
100
AcDbCircle
 62
7
  6
BYLAYER
 10
98.9856610635
 20
125.1199692491
 40
5.2480651523
100
AcDbArc
 50
2.7039978389
 51
3.5055989761
  0
ARC
  5
2B7
100
AcDbEntity
  8
0
100
AcDbCircle
 62
7
  6
BYLAYER
 10
99.1755183752
 20
125.1286141785
 40
5.0580114062
100
AcDbArc
 50
1.3248659216
 51
2.7076389412
  0
ARC
  5
2B8
100
AcDbEntity
  8
0
100
AcDbCircle
 62
7
  6
BYLAYER
 10
108.4164026384
 20
122.4703938571
 40
4.9712248883
100
AcDbArc
 50
147.9502719296
 51
152.276676982
  0
ARC
  5
2B9
100
AcDbEntity
  8
0
100
AcDbCircle
 62
7
  6
BYLAYER
 10
108.7088175836
 20
122.5986648545
 40
4.9062693848
100
AcDbArc
 50
120.064309782
 51
123.6267074493
  0
ARC
  5
2BA
100
AcDbEntity
  8
0
100
AcDbCircle
 62
7
  6
BYLAYER
 10
108.168106382
 20
122.6236918309
 40
4.6794240027
100
AcDbArc
 50
145.6784615714
 51
147.9279118851
  0
ARC
  5
2BB
100
AcDbEntity
  8
0
100
AcDbCircle
 62
7
  6
BYLAYER
 10
108.231272973
 20
122.2624785616
 40
4.2403025072
100
AcDbArc
 50
6.4743302248
 51
16.3919177401
  0
ARC
  5
2BC
100
AcDbEntity
  8
0
100
AcDbCircle
 62
7
  6
BYLAYER
 10
104.4946724471
 20
121.5115828794
 40
4.1518169018
100
AcDbArc
 50
167.0834506782
 51
170.9282980384
  0
ARC
  5
2BD
100
AcDbEntity
  8
0
100
AcDbCircle
 62
7
  6
BYLAYER
 10
104.7772370785
 20
116.2645194238
 40
4.1518169018
100
AcDbArc
 50
347.0834506783
 51
350.9282980384
  0
ARC
  5
2BE
100
AcDbEntity
  8
0
100
AcDbCircle
 62
7
  6
BYLAYER
 10
108.3528347937
 20
122.3332069635
 40
4.1224601167
100
AcDbArc
 50
337.1330315871
 51
343.3362507119
  0
ARC
  5
2BF
100
AcDbEntity
  8
0
100
AcDbCircle
 62
7
  6
BYLAYER
 10
100.493816559
 20
125.1326822715
 40
3.2861487743
100
AcDbArc
 50
246.8432954325
 51
252.4608467939
  0
ARC
  5
2C0
100
AcDbEntity
  8
0
100
AcDbCircle
 62
7
  6
BYLAYER
 10
118.2523053643
 20
120.1127488553
 40
3.1040475688
100
AcDbArc
 50
308.5345732601
 51
315.3503768853
  0
ARC
  5
2C1
100
AcDbEntity
  8
0
100
AcDbCircle
 62
7
  6
BYLAYER
 10
118.3347423903
 20
120.010357446
 40
2.9725965988
100
AcDbArc
 50
300.0449963075
 51
308.5211500354
  0
ARC
  5
2C2
100
AcDbEntity
  8
0
100
AcDbCircle
 62
7
  6
BYLAYER
 10
113.1624470653
 20
130.6661374897
 40
2.9530490156
100
AcDbArc
 50
116.6795218778
 51
123.4754929025
  0
ARC
  5
2C3
100
AcDbEntity
  8
0
100
AcDbCircle
 62
7
  6
BYLAYER
 10
119.0988224159
 20
120.3827987442
 40
2.9530490156
100
AcDbArc
 50
296.6795218778
 51
303.4754929025
  0
ARC
  5
2C4
100
AcDbEntity
  8
0
100
AcDbCircle
 62
7
  6
BYLAYER
 10
120.0832265582
 20
121.9142568913
 40
2.3053308539
100
AcDbArc
 50
353.6680205733
 51
359.9324118046
  0
ARC
  5
2C5
100
AcDbEntity
  8
0
100
AcDbCircle
 62
7
  6
BYLAYER
 10
112.3005105031
 20
118.6727810392
 40
2.0645521902
100
AcDbArc
 50
300.0514864951
 51
312.9285458111
  0
ARC
  5
2C6
100
AcDbEntity
  8
0
100
AcDbCircle
 62
7
  6
BYLAYER
 10
111.4715710626
 20
118.1094272436
 40
1.9439563994
100
AcDbArc
 50
310.289514811
 51
312.5124501067
  0
ARC
  5
2C7
100
AcDbEntity
  8
0
100
AcDbCircle
 62
7
  6
BYLAYER
 10
120.5380799399
 20
121.9568614631
 40
1.8461784485
100
AcDbArc
 50
14.4478343224
 51
18.1606622912
  0
ARC
  5
2C8
100
AcDbEntity
  8
0
100
AcDbCircle
 62
7
  6
BYLAYER
 10
108.5183594866
 20
116.1122052404
 40
1.0842073322
100
AcDbArc
 50
306.7513716398
 51
309.6651630176
  0
ARC
  5
2C9
100
AcDbEntity
  8
0
100
AcDbCircle
 62
7
  6
BYLAYER
 10
104.6124077342
 20
126.2635051117
 40
0.6510082736
100
AcDbArc
 50
291.654821739
 51
294.9120106001
  0
ARC
  5
2CA
100
AcDbEntity
  8
0
100
AcDbCircle
 62
7
  6
BYLAYER
 10
112.0792527787
 20
116.7507062779
 40
0.510704636
100
AcDbArc
 50
299.950457279
 51
303.3409874856
  0
ARC
  5
2CB
100
AcDbEntity
  8
0
100
AcDbCircle
 62
7
  6
BYLAYER
 10
99.6657833823
 20
197.2031002832
 40
77.094666624
100
AcDbArc
 50
279.4337598733
 51
279.6425144325
  0
ARC
  5
2CC
100
AcDbEntity
  8
0
100
AcDbCircle
 62
7
  6
BYLAYER
 10
73.0325112164
 20
212.832654597
 40
26.7599025029
100
AcDbArc
 50
146.5026176601
 51
147.7963003805
  0
ARC
  5
2CD
100
AcDbEntity
  8
0
100
AcDbCircle
 62
7
  6
BYLAYER
 10
147.8625105112
 20
78.5822464448
 40
63.8460900302
100
AcDbArc
 50
132.6067311931
 51
132.7421160698
  0
ARC
  5
2CE
100
AcDbEntity
  8
0
100
AcDbCircle
 62
7
  6
BYLAYER
 10
175.0729507889
 20
228.5115582015
 40
123.1263571602
100
AcDbArc
 50
33.2918880374
 51
39.2889994142
  0
ARC
  5
2CF
100
AcDbEntity
  8
0
100
AcDbCircle
 62
7
  6
BYLAYER
 10
204.084066014
 20
336.7997580926
 40
26.3525600624
100
AcDbArc
 50
327.7102158201
 51
333.7058411006
  0
SPLINE
  5
2D0
100
AcDbEntity
  8
0
100
AcDbSpline
 62
7
  6
BYLAYER
 70
0
 71
3
 72
14
 73
10
 74
0
 42
0.0000001
 43
0.0000001
 44
0.0000000001
 40
0.0
 40
0.0
 40
0.0
 40
0.0
 40
0.2900083385
 40
0.4232412963
 40
0.5489706794
 40
0.6680305765
 40
0.7816972927
 40
0.8916762507
 40
1.0
 40
1.0
 40
1.0
 40
1.0
 10
220.9834350599
 20
326.7655103449
 30
0.0
 10
216.9971502556
 20
329.0669408845
 30
0.0
 10
210.8723107937
 20
331.9649996153
 30
0.0
 10
202.4713863525
 20
334.3367774809
 30
0.0
 10
196.5240798426
 20
335.2517217024
 30
0.0
 10
190.8157104313
 20
335.3386751078
 30
0.0
 10
185.4044193659
 20
334.5901158336
 30
0.0
 10
180.3528224369
 20
333.0084776151
 30
0.0
 10
177.2580181128
 20
331.404030615
 30
0.0
 10
175.8071900342
 20
330.4815088389
 30
0.0
  0
SPLINE
  5
2D1
100
AcDbEntity
  8
0
100
AcDbSpline
 62
7
  6
BYLAYER
 70
0
 71
3
 72
11
 73
7
 74
0
 42
0.0000001
 43
0.0000001
 44
0.0000000001
 40
0.0
 40
0.0
 40
0.0
 40
0.0
 40
0.2656534942
 40
0.5186324769
 40
0.7621044077
 40
1.0
 40
1.0
 40
1.0
 40
1.0
 10
155.294060662
 20
309.4759967384
 30
0.0
 10
156.0053702833
 20
311.2028753006
 30
0.0
 10
157.606910527
 20
314.4928498623
 30
0.0
 10
160.6236339676
 20
318.944351983
 30
0.0
 10
164.1635844223
 20
322.7319648184
 30
0.0
 10
166.8682265079
 20
324.7977508236
 30
0.0
 10
168.2795596191
 20
325.695170176
 30
0.0
  0
SPLINE
  5
2D2
100
AcDbEntity
  8
0
100
AcDbSpline
 62
7
  6
BYLAYER
 70
0
 71
3
 72
11
 73
7
 74
0
 42
0.0000001
 43
0.0000001
 44
0.0000000001
 40
0.0
 40
0.0
 40
0.0
 40
0.0
 40
0.2610909987
 40
0.52233031
 40
0.7719780404
 40
1.0
 40
1.0
 40
1.0
 40
1.0
 10
129.4756622336
 20
181.4323221815
 30
0.0
 10
127.3724142448
 20
186.8957134952
 30
0.0
 10
122.2849219705
 20
197.5044358812
 30
0.0
 10
112.5301062932
 20
211.8809800864
 30
0.0
 10
101.1746905781
 20
224.0378138291
 30
0.0
 10
92.526325448
 20
230.5022266543
 30
0.0
 10
88.099620176
 20
233.0604901811
 30
0.0
  0
SPLINE
  5
2D3
100
AcDbEntity
  8
0
100
AcDbSpline
 62
7
  6
BYLAYER
 70
0
 71
3
 72
15
 73
11
 74
0
 42
0.0000001
 43
0.0000001
 44
0.0000000001
 40
0.0
 40
0.0
 40
0.0
 40
0.0
 40
0.1323656465
 40
0.2757717937
 40
0.4231142676
 40
0.56647907
 40
0.6986589572
 40
0.8145759843
 40
0.9132251056
 40
1.0
 40
1.0
 40
1.0
 40
1.0
 10
104.223906183
 20
125.4408678478
 30
0.0
 10
104.1975159787
 20
125.8718725623
 30
0.0
 10
104.0355136386
 20
126.7644515149
 30
0.0
 10
103.5454529507
 20
128.0612214911
 30
0.0
 10
102.8336324283
 20
129.2928606412
 30
0.0
 10
101.9539667405
 20
130.3641202933
 30
0.0
 10
100.9726929108
 20
131.194545054
 30
0.0
 10
99.9579653689
 20
131.7211179097
 30
0.0
 10
98.9697870333
 20
131.8991022237
 30
0.0
 10
98.3589074314
 20
131.7361826288
 30
0.0
 10
98.1138064592
 20
131.594544513
 30
0.0
  0
SPLINE
  5
2D4
100
AcDbEntity
  8
0
100
AcDbSpline
 62
7
  6
BYLAYER
 70
0
 71
3
 72
16
 73
12
 74
0
 42
0.0000001
 43
0.0000001
 44
0.0000000001
 40
0.0
 40
0.0
 40
0.0
 40
0.0
 40
0.1280480002
 40
0.2688460547
 40
0.4153400912
 40
0.5594173056
 40
0.6934131641
 40
0.8115874565
 40
0.9120808345
 40
0.9570755623
 40
1.0
 40
1.0
 40
1.0
 40
1.0
 10
122.4168401971
 20
121.8952078093
 30
0.0
 10
122.4168401971
 20
122.6437565145
 30
0.0
 10
122.2105143832
 20
124.217194849
 30
0.0
 10
121.4381663651
 20
126.5309206186
 30
0.0
 10
120.245610778
 20
128.7662344645
 30
0.0
 10
118.7272969362
 20
130.7443933514
 30
0.0
 10
117.0001208097
 20
132.310632711
 30
0.0
 10
115.1955366717
 20
133.3455263307
 30
0.0
 10
113.6564389144
 20
133.6984525002
 30
0.0
 10
112.5515528631
 20
133.589803299
 30
0.0
 10
112.0607398209
 20
133.4174539537
 30
0.0
 10
111.8365290333
 20
133.3047810543
 30
0.0
  0
SPLINE
  5
2D5
100
AcDbEntity
  8
0
100
AcDbSpline
 62
7
  6
BYLAYER
 70
0
 71
3
 72
9
 73
5
 74
0
 42
0.0000001
 43
0.0000001
 44
0.0000000001
 40
0.0
 40
0.0
 40
0.0
 40
0.0
 40
0.2228291866
 40
1.0
 40
1.0
 40
1.0
 40
1.0
 10
92.6197766678
 20
127.7217462752
 30
0.0
 10
92.649555271
 20
127.7575029628
 30
0.0
 10
92.7641146122
 20
127.9341882305
 30
0.0
 10
92.7982549778
 20
128.1521564002
 30
0.0
 10
92.7982549778
 20
128.3144509884
 30
0.0
  0
SPLINE
  5
2D6
100
AcDbEntity
  8
0
100
AcDbSpline
 62
7
  6
BYLAYER
 70
0
 71
3
 72
11
 73
7
 74
0
 42
0.0000001
 43
0.0000001
 44
0.0000000001
 40
0.0
 40
0.0
 40
0.0
 40
0.0
 40
0.2504035385
 40
0.526289701
 40
0.7871120808
 40
1.0
 40
1.0
 40
1.0
 40
1.0
 10
92.7982549778
 20
128.3144509884
 30
0.0
 10
92.7982549778
 20
128.5393543119
 30
0.0
 10
92.6957329585
 20
129.0119099788
 30
0.0
 10
92.3589024164
 20
129.6419472005
 30
0.0
 10
91.8951496993
 20
130.139176304
 30
0.0
 10
91.5002240387
 20
130.3432528575
 30
0.0
 10
91.3112470558
 20
130.3723777868
 30
0.0
  0
SPLINE
  5
2D7
100
AcDbEntity
  8
0
100
AcDbSpline
 62
7
  6
BYLAYER
 70
0
 71
3
 72
9
 73
5
 74
0
 42
0.0000001
 43
0.0000001
 44
0.0000000001
 40
0.0
 40
0.0
 40
0.0
 40
0.0
 40
0.456657543
 40
1.0
 40
1.0
 40
1.0
 40
1.0
 10
91.3112470558
 20
130.3723777868
 30
0.0
 10
90.1739861832
 20
130.5476512086
 30
0.0
 10
87.7809454091
 20
131.5328690555
 30
0.0
 10
85.8089917731
 20
133.1394255536
 30
0.0
 10
84.8411485785
 20
134.1078063776
 30
0.0
  0
SPLINE
  5
2D8
100
AcDbEntity
  8
0
100
AcDbSpline
 62
7
  6
BYLAYER
 70
0
 71
3
 72
11
 73
7
 74
0
 42
0.0000001
 43
0.0000001
 44
0.0000000001
 40
0.0
 40
0.0
 40
0.0
 40
0.0
 40
0.3045503995
 40
0.5721382811
 40
0.7996114286
 40
1.0
 40
1.0
 40
1.0
 40
1.0
 10
84.8411485785
 20
134.1078063776
 30
0.0
 10
84.7477087603
 20
134.201298101
 30
0.0
 10
84.5561029332
 20
134.3622404247
 30
0.0
 10
84.2445166788
 20
134.523086405
 30
0.0
 10
83.9408998027
 20
134.5767272971
 30
0.0
 10
83.7535603734
 20
134.5264835577
 30
0.0
 10
83.6781964358
 20
134.4830730433
 30
0.0
  0
SPLINE
  5
2D9
100
AcDbEntity
  8
0
100
AcDbSpline
 62
7
  6
BYLAYER
 70
0
 71
3
 72
9
 73
5
 74
0
 42
0.0000001
 43
0.0000001
 44
0.0000000001
 40
0.0
 40
0.0
 40
0.0
 40
0.0
 40
0.2315316025
 40
1.0
 40
1.0
 40
1.0
 40
1.0
 10
92.7982549778
 20
135.158374249
 30
0.0
 10
92.7982549778
 20
135.221785096
 30
0.0
 10
92.7805661719
 20
135.4956100296
 30
0.0
 10
92.702024412
 20
135.7634348735
 30
0.0
 10
92.6197766678
 20
135.9571633007
 30
0.0
  0
SPLINE
  5
2DA
100
AcDbEntity
  8
0
100
AcDbSpline
 62
7
  6
BYLAYER
 70
0
 71
3
 72
13
 73
9
 74
0
 42
0.0000001
 43
0.0000001
 44
0.0000000001
 40
0.0
 40
0.0
 40
0.0
 40
0.0
 40
0.3013158027
 40
0.5821886048
 40
0.7055641283
 40
0.8147709596
 40
0.9112559295
 40
1.0
 40
1.0
 40
1.0
 40
1.0
 10
89.0040167755
 20
144.4738160543
 30
0.0
 10
88.9140685284
 20
144.6856824417
 30
0.0
 10
88.6865533479
 20
145.0736049616
 30
0.0
 10
88.300859551
 20
145.462139326
 30
0.0
 10
87.9604270226
 20
145.6614251224
 30
0.0
 10
87.719105237
 20
145.7401174199
 30
0.0
 10
87.4906623696
 20
145.7488886716
 30
0.0
 10
87.3527741163
 20
145.7023344732
 30
0.0
 10
87.2940614301
 20
145.6684478927
 30
0.0
  0
SPLINE
  5
2DB
100
AcDbEntity
  8
0
100
AcDbSpline
 62
7
  6
BYLAYER
 70
0
 71
3
 72
11
 73
7
 74
0
 42
0.0000001
 43
0.0000001
 44
0.0000000001
 40
0.0
 40
0.0
 40
0.0
 40
0.0
 40
0.2896413964
 40
0.5491107671
 40
0.7822355978
 40
1.0
 40
1.0
 40
1.0
 40
1.0
 10
95.4867233398
 20
128.0205838015
 30
0.0
 10
95.4867233398
 20
128.2561398555
 30
0.0
 10
95.5225279471
 20
128.7042232258
 30
0.0
 10
95.7038843393
 20
129.3198753752
 30
0.0
 10
96.0093785065
 20
129.8195646452
 30
0.0
 10
96.2964972462
 20
130.0606048691
 30
0.0
 10
96.4498356811
 20
130.1492164825
 30
0.0
  0
LINE
  5
2DC
100
AcDbEntity
  8
0
100
AcDbLine
 62
7
  6
BYLAYER
 10
120.9510668797
 20
125.5694358358
 11
120.8474774845
 21
125.5051728783
  0
SPLINE
  5
2DD
100
AcDbEntity
  8
0
100
AcDbSpline
 62
7
  6
BYLAYER
 70
0
 71
3
 72
11
 73
7
 74
0
 42
0.0000001
 43
0.0000001
 44
0.0000000001
 40
0.0
 40
0.0
 40
0.0
 40
0.0
 40
0.2399720265
 40
0.5037045304
 40
0.7623130618
 40
1.0
 40
1.0
 40
1.0
 40
1.0
 10
117.5471490417
 20
119.5220041225
 30
0.0
 10
117.5471490417
 20
119.8976713552
 30
0.0
 10
117.6448643521
 20
120.6865815502
 30
0.0
 10
118.0033385974
 20
121.8319827199
 30
0.0
 10
118.6152190042
 20
122.8697668734
 30
0.0
 10
119.2386637959
 20
123.3770829195
 30
0.0
 10
119.5751685055
 20
123.5358769931
 30
0.0
  0
SPLINE
  5
2DE
100
AcDbEntity
  8
0
100
AcDbSpline
 62
7
  6
BYLAYER
 70
0
 71
3
 72
9
 73
5
 74
0
 42
0.0000001
 43
0.0000001
 44
0.0000000001
 40
0.0
 40
0.0
 40
0.0
 40
0.0
 40
0.2434477412
 40
1.0
 40
1.0
 40
1.0
 40
1.0
 10
119.1957851859
 20
117.6575559766
 30
0.0
 10
119.2323651137
 20
117.7103316157
 30
0.0
 10
119.3766552624
 20
117.9312264645
 30
0.0
 10
119.497003602
 20
118.1674790723
 30
0.0
 10
119.5751685055
 20
118.3510866443
 30
0.0
  0
SPLINE
  5
2DF
100
AcDbEntity
  8
0
100
AcDbSpline
 62
7
  6
BYLAYER
 70
0
 71
3
 72
9
 73
5
 74
0
 42
0.0000001
 43
0.0000001
 44
0.0000000001
 40
0.0
 40
0.0
 40
0.0
 40
0.0
 40
0.2560683934
 40
1.0
 40
1.0
 40
1.0
 40
1.0
 10
104.5431600839
 20
126.1621976045
 30
0.0
 10
104.5489085437
 20
126.2227418967
 30
0.0
 10
104.5746338996
 20
126.458848996
 30
0.0
 10
104.6137400924
 20
126.6935632005
 30
0.0
 10
104.65127519
 20
126.8662148998
 30
0.0
  0
SPLINE
  5
2E0
100
AcDbEntity
  8
0
100
AcDbSpline
 62
7
  6
BYLAYER
 70
0
 71
3
 72
9
 73
5
 74
0
 42
0.0000001
 43
0.0000001
 44
0.0000000001
 40
0.0
 40
0.0
 40
0.0
 40
0.0
 40
0.5301458504
 40
1.0
 40
1.0
 40
1.0
 40
1.0
 10
104.65127519
 20
126.8662148998
 30
0.0
 10
104.7485234336
 20
127.313531561
 30
0.0
 10
105.039232301
 20
128.1433045636
 30
0.0
 10
105.6182220723
 20
128.8204928672
 30
0.0
 10
105.9440814411
 20
129.0621799568
 30
0.0
  0
SPLINE
  5
2E1
100
AcDbEntity
  8
0
100
AcDbSpline
 62
7
  6
BYLAYER
 70
0
 71
3
 72
8
 73
4
 74
0
 42
0.0000001
 43
0.0000001
 44
0.0000000001
 40
0.0
 40
0.0
 40
0.0
 40
0.0
 40
1.0
 40
1.0
 40
1.0
 40
1.0
 10
104.9613792675
 20
125.7121632647
 30
0.0
 10
104.9370280578
 20
125.6981036611
 30
0.0
 10
104.9121461136
 20
125.6848824045
 30
0.0
 10
104.886629308
 20
125.6730694244
 30
0.0
  0
SPLINE
  5
2E2
100
AcDbEntity
  8
0
100
AcDbSpline
 62
7
  6
BYLAYER
 70
0
 71
3
 72
9
 73
5
 74
0
 42
0.0000001
 43
0.0000001
 44
0.0000000001
 40
0.0
 40
0.0
 40
0.0
 40
0.0
 40
0.4996921295
 40
1.0
 40
1.0
 40
1.0
 40
1.0
 10
104.9614073854
 20
125.7121808854
 30
0.0
 10
105.0668199313
 20
125.7730426919
 30
0.0
 10
105.2607268882
 20
125.9234510287
 30
0.0
 10
105.435426227
 20
126.0933018439
 30
0.0
 10
105.5188947397
 20
126.1821022261
 30
0.0
  0
SPLINE
  5
2E3
100
AcDbEntity
  8
0
100
AcDbSpline
 62
7
  6
BYLAYER
 70
0
 71
3
 72
9
 73
5
 74
0
 42
0.0000001
 43
0.0000001
 44
0.0000000001
 40
0.0
 40
0.0
 40
0.0
 40
0.0
 40
0.6209618351
 40
1.0
 40
1.0
 40
1.0
 40
1.0
 10
105.5188947397
 20
126.1821022261
 30
0.0
 10
105.5706566239
 20
126.237170598
 30
0.0
 10
105.6505010891
 20
126.3285686924
 30
0.0
 10
105.7274874434
 20
126.4241137542
 30
0.0
 10
105.7494766151
 20
126.4646682428
 30
0.0
  0
LINE
  5
2E4
100
AcDbEntity
  8
0
100
AcDbLine
 62
7
  6
BYLAYER
 10
104.3034442049
 20
125.2621129778
 11
104.5301886211
 21
125.4718304882
  0
SPLINE
  5
2E5
100
AcDbEntity
  8
0
100
AcDbSpline
 62
7
  6
BYLAYER
 70
0
 71
3
 72
9
 73
5
 74
0
 42
0.0000001
 43
0.0000001
 44
0.0000000001
 40
0.0
 40
0.0
 40
0.0
 40
0.0
 40
0.2161589318
 40
1.0
 40
1.0
 40
1.0
 40
1.0
 10
103.3096595924
 20
124.1351094261
 30
0.0
 10
103.3234249895
 20
124.136748549
 30
0.0
 10
103.3865347296
 20
124.1491599133
 30
0.0
 10
103.4457223955
 20
124.1768225274
 30
0.0
 10
103.4892567551
 20
124.2019569516
 30
0.0
  0
SPLINE
  5
2E6
100
AcDbEntity
  8
0
100
AcDbSpline
 62
7
  6
BYLAYER
 70
0
 71
3
 72
9
 73
5
 74
0
 42
0.0000001
 43
0.0000001
 44
0.0000000001
 40
0.0
 40
0.0
 40
0.0
 40
0.0
 40
0.4982636827
 40
1.0
 40
1.0
 40
1.0
 40
1.0
 10
103.4892567551
 20
124.2019569516
 30
0.0
 10
103.6029835415
 20
124.2676167504
 30
0.0
 10
103.800735647
 20
124.4496271487
 30
0.0
 10
103.954278882
 20
124.6659946817
 30
0.0
 10
104.015852831
 20
124.7830196985
 30
0.0
  0
SPLINE
  5
2E7
100
AcDbEntity
  8
0
100
AcDbSpline
 62
7
  6
BYLAYER
 70
0
 71
3
 72
9
 73
5
 74
0
 42
0.0000001
 43
0.0000001
 44
0.0000000001
 40
0.0
 40
0.0
 40
0.0
 40
0.0
 40
0.4482301031
 40
1.0
 40
1.0
 40
1.0
 40
1.0
 10
101.0222769116
 20
123.0532065247
 30
0.0
 10
101.3400100212
 20
123.1359216618
 30
0.0
 10
102.0199501713
 20
123.4297057182
 30
0.0
 10
102.6279191593
 20
123.8428003552
 30
0.0
 10
102.9486042495
 20
124.0887887861
 30
0.0
  0
SPLINE
  5
2E8
100
AcDbEntity
  8
0
100
AcDbSpline
 62
7
  6
BYLAYER
 70
0
 71
3
 72
9
 73
5
 74
0
 42
0.0000001
 43
0.0000001
 44
0.0000000001
 40
0.0
 40
0.0
 40
0.0
 40
0.0
 40
0.4806256089
 40
1.0
 40
1.0
 40
1.0
 40
1.0
 10
100.4479103387
 20
122.4396453904
 30
0.0
 10
100.4744580025
 20
122.5550824654
 30
0.0
 10
100.6133171283
 20
122.7705398173
 30
0.0
 10
100.797088585
 20
122.9396092199
 30
0.0
 10
100.9079400478
 20
123.0036089593
 30
0.0
  0
SPLINE
  5
2E9
100
AcDbEntity
  8
0
100
AcDbSpline
 62
7
  6
BYLAYER
 70
0
 71
3
 72
9
 73
5
 74
0
 42
0.0000001
 43
0.0000001
 44
0.0000000001
 40
0.0
 40
0.0
 40
0.0
 40
0.0
 40
0.277944222
 40
1.0
 40
1.0
 40
1.0
 40
1.0
 10
100.9079400478
 20
123.0036089593
 30
0.0
 10
100.9179548744
 20
123.0093909876
 30
0.0
 10
100.9544662957
 20
123.0292748979
 30
0.0
 10
100.9932028541
 20
123.0456387979
 30
0.0
 10
101.0222756068
 20
123.053207278
 30
0.0
  0
SPLINE
  5
2EA
100
AcDbEntity
  8
0
100
AcDbSpline
 62
7
  6
BYLAYER
 70
0
 71
3
 72
8
 73
4
 74
0
 42
0.0000001
 43
0.0000001
 44
0.0000000001
 40
0.0
 40
0.0
 40
0.0
 40
0.0
 40
1.0
 40
1.0
 40
1.0
 40
1.0
 10
109.0823793811
 20
115.1872737933
 30
0.0
 10
109.1117285675
 20
115.2042184529
 30
0.0
 10
109.139928539
 20
115.2232261035
 30
0.0
 10
109.1670882024
 20
115.2434955118
 30
0.0
  0
SPLINE
  5
2EB
100
AcDbEntity
  8
0
100
AcDbSpline
 62
7
  6
BYLAYER
 70
0
 71
3
 72
13
 73
9
 74
0
 42
0.0000001
 43
0.0000001
 44
0.0000000001
 40
0.0
 40
0.0
 40
0.0
 40
0.0
 40
0.087181762
 40
0.1870578312
 40
0.3050130077
 40
0.4394658395
 40
0.7310642292
 40
1.0
 40
1.0
 40
1.0
 40
1.0
 10
61.4304013223
 20
141.0285974697
 30
0.0
 10
61.3506253259
 20
140.9825759986
 30
0.0
 10
61.1499133329
 20
140.9314472992
 30
0.0
 10
60.8272211333
 20
140.9972699959
 30
0.0
 10
60.4977374499
 20
141.1787580564
 30
0.0
 10
60.0665428786
 20
141.564357508
 30
0.0
 10
59.6637004042
 20
142.1931125368
 30
0.0
 10
59.5108741246
 20
142.7849004258
 30
0.0
 10
59.5142306773
 20
143.0689842443
 30
0.0
  0
SPLINE
  5
2EC
100
AcDbEntity
  8
0
100
AcDbSpline
 62
7
  6
BYLAYER
 70
0
 71
3
 72
9
 73
5
 74
0
 42
0.0000001
 43
0.0000001
 44
0.0000000001
 40
0.0
 40
0.0
 40
0.0
 40
0.0
 40
0.4565206005
 40
1.0
 40
1.0
 40
1.0
 40
1.0
 10
62.8222788855
 20
140.65901943
 30
0.0
 10
62.9773869385
 20
140.748621124
 30
0.0
 10
63.2523922949
 20
141.0621768031
 30
0.0
 10
63.3375701905
 20
141.4572816657
 30
0.0
 10
63.3544753721
 20
141.6698595698
 30
0.0
  0
SPLINE
  5
2ED
100
AcDbEntity
  8
0
100
AcDbSpline
 62
7
  6
BYLAYER
 70
0
 71
3
 72
11
 73
7
 74
0
 42
0.0000001
 43
0.0000001
 44
0.0000000001
 40
0.0
 40
0.0
 40
0.0
 40
0.0
 40
0.2184903915
 40
0.4519521645
 40
0.7112528614
 40
1.0
 40
1.0
 40
1.0
 40
1.0
 10
65.4060388896
 20
143.3375611634
 30
0.0
 10
65.5089226375
 20
143.3969412827
 30
0.0
 10
65.7017596357
 20
143.5576664807
 30
0.0
 10
65.9089092826
 20
143.8903631438
 30
0.0
 10
66.0341847073
 20
144.3002542804
 30
0.0
 10
66.0616463603
 20
144.5988957006
 30
0.0
 10
66.0635010954
 20
144.7558723002
 30
0.0
  0
SPLINE
  5
2EE
100
AcDbEntity
  8
0
100
AcDbSpline
 62
7
  6
BYLAYER
 70
0
 71
3
 72
9
 73
5
 74
0
 42
0.0000001
 43
0.0000001
 44
0.0000000001
 40
0.0
 40
0.0
 40
0.0
 40
0.0
 40
0.2668608216
 40
1.0
 40
1.0
 40
1.0
 40
1.0
 10
81.9087770491
 20
131.929384716
 30
0.0
 10
81.8879181171
 20
131.9785163746
 30
0.0
 10
81.817695308
 20
132.1656328903
 30
0.0
 10
81.7783863404
 20
132.3663163571
 30
0.0
 10
81.7783863404
 20
132.5129551819
 30
0.0
  0
SPLINE
  5
2EF
100
AcDbEntity
  8
0
100
AcDbSpline
 62
7
  6
BYLAYER
 70
0
 71
3
 72
9
 73
5
 74
0
 42
0.0000001
 43
0.0000001
 44
0.0000000001
 40
0.0
 40
0.0
 40
0.0
 40
0.0
 40
0.550789256
 40
1.0
 40
1.0
 40
1.0
 40
1.0
 10
81.7783863404
 20
132.5129551819
 30
0.0
 10
81.7783863404
 20
132.6221136306
 30
0.0
 10
81.8048977251
 20
132.8249059199
 30
0.0
 10
81.937987104
 20
132.9917404245
 30
0.0
 10
82.0151314012
 20
133.0361766119
 30
0.0
  0
SPLINE
  5
2F0
100
AcDbEntity
  8
0
100
AcDbSpline
 62
7
  6
BYLAYER
 70
0
 71
3
 72
13
 73
9
 74
0
 42
0.0000001
 43
0.0000001
 44
0.0000000001
 40
0.0
 40
0.0
 40
0.0
 40
0.0
 40
0.087181762
 40
0.1870578312
 40
0.3050130077
 40
0.4394658395
 40
0.7310642292
 40
1.0
 40
1.0
 40
1.0
 40
1.0
 10
65.4720830656
 20
148.353280689
 30
0.0
 10
65.3923070692
 20
148.3072592179
 30
0.0
 10
65.1915950761
 20
148.2561305185
 30
0.0
 10
64.8689028766
 20
148.3219532152
 30
0.0
 10
64.5394191932
 20
148.5034412757
 30
0.0
 10
64.1082246219
 20
148.8890407273
 30
0.0
 10
63.7053821475
 20
149.5177957561
 30
0.0
 10
63.5525558679
 20
150.1095836451
 30
0.0
 10
63.5559124206
 20
150.3936674636
 30
0.0
  0
SPLINE
  5
2F1
100
AcDbEntity
  8
0
100
AcDbSpline
 62
7
  6
BYLAYER
 70
0
 71
3
 72
9
 73
5
 74
0
 42
0.0000001
 43
0.0000001
 44
0.0000000001
 40
0.0
 40
0.0
 40
0.0
 40
0.0
 40
0.4585177725
 40
1.0
 40
1.0
 40
1.0
 40
1.0
 10
66.8639220987
 20
147.9837696601
 30
0.0
 10
67.0134717744
 20
148.0699536732
 30
0.0
 10
67.2802159521
 20
148.3664839288
 30
0.0
 10
67.3707418374
 20
148.7432017717
 30
0.0
 10
67.3916837859
 20
148.9459604262
 30
0.0
  0
SPLINE
  5
2F2
100
AcDbEntity
  8
0
100
AcDbSpline
 62
7
  6
BYLAYER
 70
0
 71
3
 72
13
 73
9
 74
0
 42
0.0000001
 43
0.0000001
 44
0.0000000001
 40
0.0
 40
0.0
 40
0.0
 40
0.0
 40
0.087181762
 40
0.1870578312
 40
0.3050130077
 40
0.4394658395
 40
0.7310642292
 40
1.0
 40
1.0
 40
1.0
 40
1.0
 10
57.6168434772
 20
153.0113150627
 30
0.0
 10
57.5370674809
 20
152.9652935916
 30
0.0
 10
57.3363554878
 20
152.9141648922
 30
0.0
 10
57.0136632883
 20
152.9799875889
 30
0.0
 10
56.6841796049
 20
153.1614756494
 30
0.0
 10
56.2529850336
 20
153.547075101
 30
0.0
 10
55.8501425592
 20
154.1758301298
 30
0.0
 10
55.6973162796
 20
154.7676180188
 30
0.0
 10
55.7006728323
 20
155.0517018373
 30
0.0
  0
SPLINE
  5
2F3
100
AcDbEntity
  8
0
100
AcDbSpline
 62
7
  6
BYLAYER
 70
0
 71
3
 72
10
 73
6
 74
0
 42
0.0000001
 43
0.0000001
 44
0.0000000001
 40
0.0
 40
0.0
 40
0.0
 40
0.0
 40
0.2814103677
 40
0.5438658458
 40
1.0
 40
1.0
 40
1.0
 40
1.0
 10
89.5399971646
 20
133.9995514159
 30
0.0
 10
89.0222400481
 20
134.5175961425
 30
0.0
 10
87.9631502448
 20
135.4651391107
 30
0.0
 10
85.8192327194
 20
136.9397676723
 30
0.0
 10
84.0380686881
 20
137.6725901539
 30
0.0
 10
82.8647481326
 20
137.8534210552
 30
0.0
  0
SPLINE
  5
2F4
100
AcDbEntity
  8
0
100
AcDbSpline
 62
7
  6
BYLAYER
 70
0
 71
3
 72
11
 73
7
 74
0
 42
0.0000001
 43
0.0000001
 44
0.0000000001
 40
0.0
 40
0.0
 40
0.0
 40
0.0
 40
0.212888437
 40
0.4737110749
 40
0.7495970443
 40
1.0
 40
1.0
 40
1.0
 40
1.0
 10
82.8647481326
 20
137.8534210552
 30
0.0
 10
82.7266870844
 20
137.8746988754
 30
0.0
 10
82.43816625
 20
138.023791326
 30
0.0
 10
82.0993629431
 20
138.387051981
 30
0.0
 10
81.8532854726
 20
138.8473374622
 30
0.0
 10
81.7783863404
 20
139.192571444
 30
0.0
 10
81.7783863404
 20
139.3568784423
 30
0.0
  0
SPLINE
  5
2F5
100
AcDbEntity
  8
0
100
AcDbSpline
 62
7
  6
BYLAYER
 70
0
 71
3
 72
9
 73
5
 74
0
 42
0.0000001
 43
0.0000001
 44
0.0000000001
 40
0.0
 40
0.0
 40
0.0
 40
0.0
 40
0.2830949137
 40
1.0
 40
1.0
 40
1.0
 40
1.0
 10
81.7783863404
 20
139.3568784423
 30
0.0
 10
81.7783863404
 20
139.3999902007
 30
0.0
 10
81.7870503761
 20
139.5513270817
 30
0.0
 10
81.8389103824
 20
139.705997623
 30
0.0
 10
81.908777049
 20
139.7898900929
 30
0.0
  0
SPLINE
  5
2F6
100
AcDbEntity
  8
0
100
AcDbSpline
 62
7
  6
BYLAYER
 70
0
 71
3
 72
9
 73
5
 74
0
 42
0.0000001
 43
0.0000001
 44
0.0000000001
 40
0.0
 40
0.0
 40
0.0
 40
0.0
 40
0.4585177725
 40
1.0
 40
1.0
 40
1.0
 40
1.0
 10
59.0086825104
 20
152.6418040338
 30
0.0
 10
59.1582321861
 20
152.7279880469
 30
0.0
 10
59.4249763637
 20
153.0245183025
 30
0.0
 10
59.5155022491
 20
153.4012361454
 30
0.0
 10
59.5364441976
 20
153.6039947999
 30
0.0
  0
SPLINE
  5
2F7
100
AcDbEntity
  8
0
100
AcDbSpline
 62
7
  6
BYLAYER
 70
0
 71
3
 72
9
 73
5
 74
0
 42
0.0000001
 43
0.0000001
 44
0.0000000001
 40
0.0
 40
0.0
 40
0.0
 40
0.0
 40
0.5263195592
 40
1.0
 40
1.0
 40
1.0
 40
1.0
 10
55.0210651731
 20
144.3556074004
 30
0.0
 10
54.2983863713
 20
145.6951692969
 30
0.0
 10
53.1851174369
 20
148.3891681762
 30
0.0
 10
52.7217848892
 20
151.2879599316
 30
0.0
 10
52.7379689177
 20
152.6577047311
 30
0.0
  0
SPLINE
  5
2F8
100
AcDbEntity
  8
0
100
AcDbSpline
 62
7
  6
BYLAYER
 70
0
 71
3
 72
11
 73
7
 74
0
 42
0.0000001
 43
0.0000001
 44
0.0000000001
 40
0.0
 40
0.0
 40
0.0
 40
0.0
 40
0.2889569663
 40
0.548009897
 40
0.7814689595
 40
1.0
 40
1.0
 40
1.0
 40
1.0
 10
52.7379689177
 20
152.6577047311
 30
0.0
 10
52.7452746373
 20
153.2760286247
 30
0.0
 10
52.852585807
 20
154.4515428361
 30
0.0
 10
53.3467583947
 20
156.0645969641
 30
0.0
 10
54.1619944874
 20
157.3733852264
 30
0.0
 10
54.9203812572
 20
158.006969164
 30
0.0
 10
55.3254227336
 20
158.2407282928
 30
0.0
  0
SPLINE
  5
2F9
100
AcDbEntity
  8
0
100
AcDbSpline
 62
7
  6
BYLAYER
 70
0
 71
3
 72
14
 73
10
 74
0
 42
0.0000001
 43
0.0000001
 44
0.0000000001
 40
0.0
 40
0.0
 40
0.0
 40
0.0
 40
0.2685953747
 40
0.4160587555
 40
0.5609646286
 40
0.6952775531
 40
0.8131251013
 40
0.9129046201
 40
1.0
 40
1.0
 40
1.0
 40
1.0
 10
59.5477774392
 20
153.8048610039
 30
0.0
 10
59.5532813038
 20
154.2706838342
 30
0.0
 10
59.3661956797
 20
154.9955187103
 30
0.0
 10
58.907526941
 20
155.854173314
 30
0.0
 10
58.4519499009
 20
156.4430662233
 30
0.0
 10
57.9348643204
 20
156.9046735546
 30
0.0
 10
57.394633284
 20
157.2025728825
 30
0.0
 10
56.865247089
 20
157.3106880953
 30
0.0
 10
56.5361713161
 20
157.2264643981
 30
0.0
 10
56.4052900278
 20
157.1510387938
 30
0.0
  0
SPLINE
  5
2FA
100
AcDbEntity
  8
0
100
AcDbSpline
 62
7
  6
BYLAYER
 70
0
 71
3
 72
14
 73
10
 74
0
 42
0.0000001
 43
0.0000001
 44
0.0000000001
 40
0.0
 40
0.0
 40
0.0
 40
0.0
 40
0.2685953747
 40
0.4160587555
 40
0.5609646286
 40
0.6952775531
 40
0.8131251013
 40
0.9129046201
 40
1.0
 40
1.0
 40
1.0
 40
1.0
 10
67.4030170275
 20
149.1468266302
 30
0.0
 10
67.4085208921
 20
149.6126494605
 30
0.0
 10
67.221435268
 20
150.3374843366
 30
0.0
 10
66.7627665293
 20
151.1961389403
 30
0.0
 10
66.3071894892
 20
151.7850318497
 30
0.0
 10
65.7901039088
 20
152.2466391809
 30
0.0
 10
65.2498728723
 20
152.5445385088
 30
0.0
 10
64.7204866773
 20
152.6526537216
 30
0.0
 10
64.3914109044
 20
152.5684300244
 30
0.0
 10
64.2605296161
 20
152.4930044201
 30
0.0
  0
SPLINE
  5
2FB
100
AcDbEntity
  8
0
100
AcDbSpline
 62
7
  6
BYLAYER
 70
0
 71
3
 72
11
 73
7
 74
0
 42
0.0000001
 43
0.0000001
 44
0.0000000001
 40
0.0
 40
0.0
 40
0.0
 40
0.0
 40
0.2903192445
 40
0.5501740414
 40
0.7829955207
 40
1.0
 40
1.0
 40
1.0
 40
1.0
 10
59.3593190181
 20
151.3239807268
 30
0.0
 10
59.2177424598
 20
151.4079334144
 30
0.0
 10
58.9357027573
 20
151.5459128407
 30
0.0
 10
58.501498487
 20
151.655802868
 30
0.0
 10
58.0934973471
 20
151.6488820005
 30
0.0
 10
57.8480507175
 20
151.5603682614
 30
0.0
 10
57.7414941788
 20
151.4988683636
 30
0.0
  0
SPLINE
  5
2FC
100
AcDbEntity
  8
0
100
AcDbSpline
 62
7
  6
BYLAYER
 70
0
 71
3
 72
9
 73
5
 74
0
 42
0.0000001
 43
0.0000001
 44
0.0000000001
 40
0.0
 40
0.0
 40
0.0
 40
0.0
 40
0.4787009562
 40
1.0
 40
1.0
 40
1.0
 40
1.0
 10
63.3613352842
 20
141.8221434109
 30
0.0
 10
63.3666822864
 20
142.2746900943
 30
0.0
 10
63.1296359521
 20
143.2197963151
 30
0.0
 10
62.6197469121
 20
144.0352098209
 30
0.0
 10
62.2895746906
 20
144.401118531
 30
0.0
  0
SPLINE
  5
2FD
100
AcDbEntity
  8
0
100
AcDbSpline
 62
7
  6
BYLAYER
 70
0
 71
3
 72
9
 73
5
 74
0
 42
0.0000001
 43
0.0000001
 44
0.0000000001
 40
0.0
 40
0.0
 40
0.0
 40
0.0
 40
0.4771406458
 40
1.0
 40
1.0
 40
1.0
 40
1.0
 10
66.0635010954
 20
144.7558723002
 30
0.0
 10
66.0696590033
 20
145.2770504706
 30
0.0
 10
65.8100414629
 20
146.3697980194
 30
0.0
 10
65.2440633462
 20
147.3236047277
 30
0.0
 10
64.8775225055
 20
147.7616314047
 30
0.0
  0
SPLINE
  5
2FE
100
AcDbEntity
  8
0
100
AcDbSpline
 62
7
  6
BYLAYER
 70
0
 71
3
 72
9
 73
5
 74
0
 42
0.0000001
 43
0.0000001
 44
0.0000000001
 40
0.0
 40
0.0
 40
0.0
 40
0.0
 40
0.2652323983
 40
1.0
 40
1.0
 40
1.0
 40
1.0
 10
64.8775225055
 20
147.7616314047
 30
0.0
 10
64.7997856178
 20
147.8545291853
 30
0.0
 10
64.494384946
 20
148.1938326327
 30
0.0
 10
64.1376920493
 20
148.4904801596
 30
0.0
 10
63.8490535793
 20
148.6616382636
 30
0.0
  0
SPLINE
  5
2FF
100
AcDbEntity
  8
0
100
AcDbSpline
 62
7
  6
BYLAYER
 70
0
 71
3
 72
11
 73
7
 74
0
 42
0.0000001
 43
0.0000001
 44
0.0000000001
 40
0.0
 40
0.0
 40
0.0
 40
0.0
 40
0.2003888349
 40
0.4278621369
 40
0.6954496438
 40
1.0
 40
1.0
 40
1.0
 40
1.0
 10
90.389613896
 20
133.7253932049
 30
0.0
 10
90.3345553226
 20
133.6936787013
 30
0.0
 10
90.1976906651
 20
133.6569725201
 30
0.0
 10
89.9758776824
 20
133.6961607964
 30
0.0
 10
89.7482424226
 20
133.8136697567
 30
0.0
 10
89.6082613838
 20
133.9312492765
 30
0.0
 10
89.5399971646
 20
133.9995514159
 30
0.0
  0
SPLINE
  5
300
100
AcDbEntity
  8
0
100
AcDbSpline
 62
7
  6
BYLAYER
 70
0
 71
3
 72
9
 73
5
 74
0
 42
0.0000001
 43
0.0000001
 44
0.0000000001
 40
0.0
 40
0.0
 40
0.0
 40
0.0
 40
0.4492108418
 40
1.0
 40
1.0
 40
1.0
 40
1.0
 10
92.4741991986
 20
134.442190789
 30
0.0
 10
92.5797941449
 20
134.5030147199
 30
0.0
 10
92.7619664265
 20
134.7313773022
 30
0.0
 10
92.7982549778
 20
135.0089585991
 30
0.0
 10
92.7982549778
 20
135.158374249
 30
0.0
  0
SPLINE
  5
301
100
AcDbEntity
  8
0
100
AcDbSpline
 62
7
  6
BYLAYER
 70
0
 71
3
 72
11
 73
7
 74
0
 42
0.0000001
 43
0.0000001
 44
0.0000000001
 40
0.0
 40
0.0
 40
0.0
 40
0.0
 40
0.183159013
 40
0.4153405866
 40
0.6974056343
 40
1.0
 40
1.0
 40
1.0
 40
1.0
 10
86.7737771007
 20
122.5399711906
 30
0.0
 10
86.6856230028
 20
122.4890923706
 30
0.0
 10
86.4342067845
 20
122.4655665844
 30
0.0
 10
86.0810193942
 20
122.6498122498
 30
0.0
 10
85.7565593922
 20
122.9737140984
 30
0.0
 10
85.5902501874
 20
123.2579493124
 30
0.0
 10
85.5245369414
 20
123.4127319622
 30
0.0
  0
SPLINE
  5
302
100
AcDbEntity
  8
0
100
AcDbSpline
 62
7
  6
BYLAYER
 70
0
 71
3
 72
9
 73
5
 74
0
 42
0.0000001
 43
0.0000001
 44
0.0000000001
 40
0.0
 40
0.0
 40
0.0
 40
0.0
 40
0.2331409655
 40
1.0
 40
1.0
 40
1.0
 40
1.0
 10
100.6208733005
 20
119.9004597743
 30
0.0
 10
100.5987887189
 20
119.9132230047
 30
0.0
 10
100.511278954
 20
119.9807850736
 30
0.0
 10
100.4629110434
 20
120.0897362433
 30
0.0
 10
100.4479103387
 20
120.172284663
 30
0.0
  0
SPLINE
  5
303
100
AcDbEntity
  8
0
100
AcDbSpline
 62
7
  6
BYLAYER
 70
0
 71
3
 72
9
 73
5
 74
0
 42
0.0000001
 43
0.0000001
 44
0.0000000001
 40
0.0
 40
0.0
 40
0.0
 40
0.0
 40
0.3983522063
 40
1.0
 40
1.0
 40
1.0
 40
1.0
 10
108.8613314894
 20
115.1429522725
 30
0.0
 10
108.8879807525
 20
115.1275376423
 30
0.0
 10
108.9732131966
 20
115.1297817929
 30
0.0
 10
109.0421110743
 20
115.1640250141
 30
0.0
 10
109.0823793811
 20
115.1872737933
 30
0.0
  0
SPLINE
  5
304
100
AcDbEntity
  8
0
100
AcDbSpline
 62
7
  6
BYLAYER
 70
0
 71
3
 72
11
 73
7
 74
0
 42
0.0000001
 43
0.0000001
 44
0.0000000001
 40
0.0
 40
0.0
 40
0.0
 40
0.0
 40
0.2186807321
 40
0.4539013094
 40
0.7132817364
 40
1.0
 40
1.0
 40
1.0
 40
1.0
 10
114.1010699857
 20
114.9337730518
 30
0.0
 10
113.8402190824
 20
114.8206704785
 30
0.0
 10
113.2590499655
 20
114.6704962881
 30
0.0
 10
112.3225829849
 20
114.6950622862
 30
0.0
 10
111.3326134298
 20
114.9524025059
 30
0.0
 10
110.6868213875
 20
115.2566339005
 30
0.0
 10
110.3620529454
 20
115.4396254388
 30
0.0
  0
SPLINE
  5
305
100
AcDbEntity
  8
0
100
AcDbSpline
 62
7
  6
BYLAYER
 70
0
 71
3
 72
10
 73
6
 74
0
 42
0.0000001
 43
0.0000001
 44
0.0000000001
 40
0.0
 40
0.0
 40
0.0
 40
0.0
 40
0.1967208193
 40
0.5458298777
 40
1.0
 40
1.0
 40
1.0
 40
1.0
 10
118.0512232731
 20
118.1572505361
 30
0.0
 10
117.9653459721
 20
118.2068284704
 30
0.0
 10
117.7565081785
 20
118.3994224362
 30
0.0
 10
117.5768246692
 20
118.8875529646
 30
0.0
 10
117.5471490417
 20
119.2930709858
 30
0.0
 10
117.5471490417
 20
119.5220041225
 30
0.0
  0
SPLINE
  5
306
100
AcDbEntity
  8
0
100
AcDbSpline
 62
7
  6
BYLAYER
 70
0
 71
3
 72
11
 73
7
 74
0
 42
0.0000001
 43
0.0000001
 44
0.0000000001
 40
0.0
 40
0.0
 40
0.0
 40
0.0
 40
0.2178054788
 40
0.4518778737
 40
0.7115422859
 40
1.0
 40
1.0
 40
1.0
 40
1.0
 10
120.7277331698
 20
117.9196464604
 30
0.0
 10
120.9994983006
 20
118.0993441129
 30
0.0
 10
121.5033844111
 20
118.5697710475
 30
0.0
 10
122.0365959058
 20
119.5055478918
 30
0.0
 10
122.3539071171
 20
120.6413205446
 30
0.0
 10
122.4168401971
 20
121.4637202195
 30
0.0
 10
122.4168401971
 20
121.8952078093
 30
0.0
  0
SPLINE
  5
307
100
AcDbEntity
  8
0
100
AcDbSpline
 62
7
  6
BYLAYER
 70
0
 71
3
 72
11
 73
7
 74
0
 42
0.0000001
 43
0.0000001
 44
0.0000000001
 40
0.0
 40
0.0
 40
0.0
 40
0.0
 40
0.2287134627
 40
0.491154893
 40
0.7584772039
 40
1.0
 40
1.0
 40
1.0
 40
1.0
 10
99.2015475755
 20
122.1112894402
 30
0.0
 10
98.6904503725
 20
122.3291628008
 30
0.0
 10
97.6987845765
 20
123.0416903114
 30
0.0
 10
96.5358708894
 20
124.4908030647
 30
0.0
 10
95.7247982888
 20
126.1973699341
 30
0.0
 10
95.4867233398
 20
127.4338689487
 30
0.0
 10
95.4867233398
 20
128.0205838015
 30
0.0
  0
SPLINE
  5
308
100
AcDbEntity
  8
0
100
AcDbSpline
 62
7
  6
BYLAYER
 70
0
 71
3
 72
9
 73
5
 74
0
 42
0.0000001
 43
0.0000001
 44
0.0000000001
 40
0.0
 40
0.0
 40
0.0
 40
0.0
 40
0.4775069864
 40
1.0
 40
1.0
 40
1.0
 40
1.0
 10
135.7580110706
 20
150.509503729
 30
0.0
 10
135.7561881251
 20
155.5525661615
 30
0.0
 10
134.517866171
 20
166.1231609771
 30
0.0
 10
131.4581659416
 20
176.2825758866
 30
0.0
 10
129.4756622336
 20
181.4323221815
 30
0.0
  0
SPLINE
  5
309
100
AcDbEntity
  8
0
100
AcDbSpline
 62
7
  6
BYLAYER
 70
0
 71
3
 72
13
 73
9
 74
0
 42
0.0000001
 43
0.0000001
 44
0.0000000001
 40
0.0
 40
0.0
 40
0.0
 40
0.0
 40
0.2809789233
 40
0.5374655076
 40
0.6580497285
 40
0.7745649252
 40
0.8880862661
 40
1.0
 40
1.0
 40
1.0
 40
1.0
 10
88.8010909398
 20
118.0662158926
 30
0.0
 10
92.049006628
 20
116.1910733171
 30
0.0
 10
98.5607006608
 20
113.0813789418
 30
0.0
 10
107.1658223542
 20
110.9448970387
 30
0.0
 10
113.7634014978
 20
110.6059935625
 30
0.0
 10
118.4420900396
 20
111.0175683003
 30
0.0
 10
122.8940669129
 20
112.0998939318
 30
0.0
 10
125.6816515329
 20
113.2738312207
 30
0.0
 10
127.006030668
 20
113.9647318841
 30
0.0
  0
SPLINE
  5
30A
100
AcDbEntity
  8
0
100
AcDbSpline
 62
7
  6
BYLAYER
 70
0
 71
3
 72
18
 73
14
 74
0
 42
0.0000001
 43
0.0000001
 44
0.0000000001
 40
0.0
 40
0.0
 40
0.0
 40
0.0
 40
0.0477172694
 40
0.0961646057
 40
0.1459649665
 40
0.1975995376
 40
0.2514916358
 40
0.3079424461
 40
0.4289670289
 40
0.5608181424
 40
0.7018801881
 40
0.8494166041
 40
1.0
 40
1.0
 40
1.0
 40
1.0
 10
52.0724066225
 20
243.7543506611
 30
0.0
 10
50.7700421158
 20
242.9262625015
 30
0.0
 10
48.2827422388
 20
241.0301518538
 30
0.0
 10
45.0371449319
 20
237.5752956112
 30
0.0
 10
42.29276513
 20
233.5571771125
 30
0.0
 10
40.0700189394
 20
229.0349232148
 30
0.0
 10
38.3750353593
 20
224.0640414765
 30
0.0
 10
36.7843391926
 20
216.7378946681
 30
0.0
 10
36.2083738932
 20
206.6853459223
 30
0.0
 10
37.5854386911
 20
193.9736929201
 30
0.0
 10
40.9258441373
 20
180.7503257452
 30
0.0
 10
46.0931527443
 20
167.4847862915
 30
0.0
 10
50.6203566746
 20
158.943026689
 30
0.0
 10
53.1432035791
 20
154.7770064825
 30
0.0
  0
SPLINE
  5
30B
100
AcDbEntity
  8
0
100
AcDbSpline
 62
7
  6
BYLAYER
 70
0
 71
3
 72
9
 73
5
 74
0
 42
0.0000001
 43
0.0000001
 44
0.0000000001
 40
0.0
 40
0.0
 40
0.0
 40
0.0
 40
0.5182627794
 40
1.0
 40
1.0
 40
1.0
 40
1.0
 10
67.2571593604
 20
135.8191160862
 30
0.0
 10
70.516972464
 20
132.2460754303
 30
0.0
 10
77.2577960267
 20
125.7457501021
 30
0.0
 10
84.9076262503
 20
120.3140579262
 30
0.0
 10
88.8010909398
 20
118.0662158926
 30
0.0
  0
SPLINE
  5
30C
100
AcDbEntity
  8
0
100
AcDbSpline
 62
7
  6
BYLAYER
 70
0
 71
3
 72
15
 73
11
 74
0
 42
0.0000001
 43
0.0000001
 44
0.0000000001
 40
0.0
 40
0.0
 40
0.0
 40
0.0
 40
0.0974002623
 40
0.1984795043
 40
0.3068845496
 40
0.4249866512
 40
0.553836082
 40
0.6933608663
 40
0.8426150745
 40
1.0
 40
1.0
 40
1.0
 40
1.0
 10
263.9817179664
 20
177.7578321241
 30
0.0
 10
266.2886535127
 20
178.9613918114
 30
0.0
 10
270.6793710193
 20
182.0638955273
 30
0.0
 10
275.9765586133
 20
188.4252186239
 30
0.0
 10
279.9204840718
 20
196.3123969329
 30
0.0
 10
282.4525013876
 20
205.5132785215
 30
0.0
 10
283.5465262043
 20
215.8181110509
 30
0.0
 10
283.1925685235
 20
226.999523802
 30
0.0
 10
281.4057159514
 20
238.8078648364
 30
0.0
 10
279.3324052406
 20
246.7495986781
 30
0.0
 10
278.0798230952
 20
250.7631754082
 30
0.0
  0
SPLINE
  5
30D
100
AcDbEntity
  8
0
100
AcDbSpline
 62
7
  6
BYLAYER
 70
0
 71
3
 72
9
 73
5
 74
0
 42
0.0000001
 43
0.0000001
 44
0.0000000001
 40
0.0
 40
0.0
 40
0.0
 40
0.0
 40
0.5234633595
 40
1.0
 40
1.0
 40
1.0
 40
1.0
 10
278.2146580541
 20
291.3605210138
 30
0.0
 10
277.3460198653
 20
290.1203194698
 30
0.0
 10
275.4777566427
 20
287.889687029
 30
0.0
 10
273.1956530895
 20
286.0645725629
 30
0.0
 10
272.0123777469
 20
285.3575626778
 30
0.0
  0
SPLINE
  5
30E
100
AcDbEntity
  8
0
100
AcDbSpline
 62
7
  6
BYLAYER
 70
0
 71
3
 72
9
 73
5
 74
0
 42
0.0000001
 43
0.0000001
 44
0.0000000001
 40
0.0
 40
0.0
 40
0.0
 40
0.0
 40
0.258958564
 40
1.0
 40
1.0
 40
1.0
 40
1.0
 10
208.1091368647
 20
331.9579288314
 30
0.0
 10
208.4643030342
 20
332.1476409852
 30
0.0
 10
209.8402962504
 20
332.8717047451
 30
0.0
 10
211.2373565592
 20
333.5566814148
 30
0.0
 10
212.2880107283
 20
334.0297766138
 30
0.0
  0
SPLINE
  5
30F
100
AcDbEntity
  8
0
100
AcDbSpline
 62
7
  6
BYLAYER
 70
0
 71
3
 72
9
 73
5
 74
0
 42
0.0000001
 43
0.0000001
 44
0.0000000001
 40
0.0
 40
0.0
 40
0.0
 40
0.0
 40
0.2535382797
 40
1.0
 40
1.0
 40
1.0
 40
1.0
 10
277.9924361731
 20
296.0961670692
 30
0.0
 10
278.0646539175
 20
295.7013313792
 30
0.0
 10
278.3026621593
 20
294.1364628445
 30
0.0
 10
278.3381856417
 20
292.5357984696
 30
0.0
 10
278.214658054
 20
291.3605210138
 30
0.0
  0
SPLINE
  5
310
100
AcDbEntity
  8
0
100
AcDbSpline
 62
7
  6
BYLAYER
 70
0
 71
3
 72
9
 73
5
 74
0
 42
0.0000001
 43
0.0000001
 44
0.0000000001
 40
0.0
 40
0.0
 40
0.0
 40
0.0
 40
0.5076191161
 40
1.0
 40
1.0
 40
1.0
 40
1.0
 10
219.9123988095
 20
335.6090665489
 30
0.0
 10
218.5943060676
 20
335.523095752
 30
0.0
 10
216.0051623846
 20
335.1824674642
 30
0.0
 10
213.4906700572
 20
334.4715800817
 30
0.0
 10
212.2880107283
 20
334.0297766138
 30
0.0
  0
SPLINE
  5
311
100
AcDbEntity
  8
0
100
AcDbSpline
 62
7
  6
BYLAYER
 70
0
 71
3
 72
14
 73
10
 74
0
 42
0.0000001
 43
0.0000001
 44
0.0000000001
 40
0.0
 40
0.0
 40
0.0
 40
0.0
 40
0.1084987372
 40
0.2186277274
 40
0.3323969316
 40
0.4514960565
 40
0.5771951669
 40
0.7103326163
 40
1.0
 40
1.0
 40
1.0
 40
1.0
 10
52.0724505975
 20
243.7542769433
 30
0.0
 10
53.2963587563
 20
244.5325248329
 30
0.0
 10
55.9056931764
 20
245.8874255684
 30
0.0
 10
60.1629671391
 20
247.2293679388
 30
0.0
 10
64.7223140398
 20
247.8739021297
 30
0.0
 10
69.531695812
 20
247.8188198442
 30
0.0
 10
74.5427876006
 20
247.0701470416
 30
0.0
 10
81.6215799076
 20
245.1075457967
 30
0.0
 10
86.7869668498
 20
242.695456423
 30
0.0
 10
90.1503453866
 20
240.7766864479
 30
0.0
  0
SPLINE
  5
312
100
AcDbEntity
  8
0
100
AcDbSpline
 62
7
  6
BYLAYER
 70
0
 71
3
 72
9
 73
5
 74
0
 42
0.0000001
 43
0.0000001
 44
0.0000000001
 40
0.0
 40
0.0
 40
0.0
 40
0.0
 40
0.4965592998
 40
1.0
 40
1.0
 40
1.0
 40
1.0
 10
168.2795596191
 20
325.695170176
 30
0.0
 10
169.6637794932
 20
326.575349131
 30
0.0
 10
172.6064776076
 20
328.1151200099
 30
0.0
 10
175.7638611218
 20
329.1413685163
 30
0.0
 10
177.3809871145
 20
329.5296705502
 30
0.0
  0
LINE
  5
313
100
AcDbEntity
  8
0
100
AcDbLine
 62
7
  6
BYLAYER
 10
120.8474774845
 20
118.4038357231
 11
120.9510668797
 21
118.461766609
  0
SPLINE
  5
314
100
AcDbEntity
  8
0
100
AcDbSpline
 62
7
  6
BYLAYER
 70
0
 71
3
 72
10
 73
6
 74
0
 42
0.0000001
 43
0.0000001
 44
0.0000000001
 40
0.0
 40
0.0
 40
0.0
 40
0.0
 40
0.4636371907
 40
0.7224718306
 40
1.0
 40
1.0
 40
1.0
 40
1.0
 10
129.8112258152
 20
127.2906027909
 30
0.0
 10
131.8779445905
 20
130.4161643348
 30
0.0
 10
134.1164986783
 20
135.9610782142
 30
0.0
 10
135.5305731411
 20
143.9231007759
 30
0.0
 10
135.7588218427
 20
148.2665543718
 30
0.0
 10
135.7580110706
 20
150.509503729
 30
0.0
  0
SPLINE
  5
315
100
AcDbEntity
  8
0
100
AcDbSpline
 62
7
  6
BYLAYER
 70
0
 71
3
 72
12
 73
8
 74
0
 42
0.0000001
 43
0.0000001
 44
0.0000000001
 40
0.0
 40
0.0
 40
0.0
 40
0.0
 40
0.4369980258
 40
0.5679093766
 40
0.7061279609
 40
0.8506074847
 40
1.0
 40
1.0
 40
1.0
 40
1.0
 10
46.3406326844
 20
228.7373437638
 30
0.0
 10
41.8677827785
 20
221.9716868245
 30
0.0
 10
39.8956450126
 20
210.7446608936
 30
0.0
 10
40.7248517798
 20
197.7295343955
 30
0.0
 10
41.9469684185
 20
190.1259156233
 30
0.0
 10
43.9172238036
 20
182.346880658
 30
0.0
 10
45.6835572447
 20
177.1786483441
 30
0.0
 10
46.6796944251
 20
174.5911009757
 30
0.0
  0
SPLINE
  5
316
100
AcDbEntity
  8
0
100
AcDbSpline
 62
7
  6
BYLAYER
 70
0
 71
3
 72
9
 73
5
 74
0
 42
0.0000001
 43
0.0000001
 44
0.0000000001
 40
0.0
 40
0.0
 40
0.0
 40
0.0
 40
0.4927328282
 40
1.0
 40
1.0
 40
1.0
 40
1.0
 10
121.5628891173
 20
123.4614284918
 30
0.0
 10
121.7310346974
 20
123.3585994632
 30
0.0
 10
122.0377491131
 20
123.0871483496
 30
0.0
 10
122.2290066511
 20
122.725070897
 30
0.0
 10
122.2922933502
 20
122.5322831994
 30
0.0
  0
SPLINE
  5
317
100
AcDbEntity
  8
0
100
AcDbSpline
 62
7
  6
BYLAYER
 70
0
 71
3
 72
9
 73
5
 74
0
 42
0.0000001
 43
0.0000001
 44
0.0000000001
 40
0.0
 40
0.0
 40
0.0
 40
0.0
 40
0.2450239527
 40
1.0
 40
1.0
 40
1.0
 40
1.0
 10
122.3258733656
 20
122.4174801022
 30
0.0
 10
122.3362861607
 20
122.3770997482
 30
0.0
 10
122.3733123719
 20
122.2109175104
 30
0.0
 10
122.3885558081
 20
122.0400289202
 30
0.0
 10
122.3885558081
 20
121.9115374394
 30
0.0
  0
SPLINE
  5
318
100
AcDbEntity
  8
0
100
AcDbSpline
 62
7
  6
BYLAYER
 70
0
 71
3
 72
9
 73
5
 74
0
 42
0.0000001
 43
0.0000001
 44
0.0000000001
 40
0.0
 40
0.0
 40
0.0
 40
0.0
 40
0.2452707115
 40
1.0
 40
1.0
 40
1.0
 40
1.0
 10
122.374493863
 20
121.6600040964
 30
0.0
 10
122.3706488865
 20
121.6250035869
 30
0.0
 10
122.3518975502
 20
121.482649512
 30
0.0
 10
122.3212129717
 20
121.3419254396
 30
0.0
 10
122.2922347375
 20
121.2375235287
 30
0.0
  0
SPLINE
  5
319
100
AcDbEntity
  8
0
100
AcDbSpline
 62
7
  6
BYLAYER
 70
0
 71
3
 72
8
 73
4
 74
0
 42
0.0000001
 43
0.0000001
 44
0.0000000001
 40
0.0
 40
0.0
 40
0.0
 40
0.0
 40
1.0
 40
1.0
 40
1.0
 40
1.0
 10
122.2922347375
 20
121.2375235287
 30
0.0
 10
122.2549789754
 20
121.1032995889
 30
0.0
 10
122.2079604118
 20
120.9715380557
 30
0.0
 10
122.1534677641
 20
120.8433405161
 30
0.0
  0
SPLINE
  5
31A
100
AcDbEntity
  8
0
100
AcDbSpline
 62
7
  6
BYLAYER
 70
0
 71
3
 72
9
 73
5
 74
0
 42
0.0000001
 43
0.0000001
 44
0.0000000001
 40
0.0
 40
0.0
 40
0.0
 40
0.0
 40
0.2430786606
 40
1.0
 40
1.0
 40
1.0
 40
1.0
 10
122.1534677641
 20
120.8433405161
 30
0.0
 10
122.1171387763
 20
120.7578741818
 30
0.0
 10
121.9537333537
 20
120.4122162891
 30
0.0
 10
121.7409197197
 20
120.0911981472
 30
0.0
 10
121.5628891173
 20
119.8633184681
 30
0.0
  0
SPLINE
  5
31B
100
AcDbEntity
  8
0
100
AcDbSpline
 62
7
  6
BYLAYER
 70
0
 71
3
 72
9
 73
5
 74
0
 42
0.0000001
 43
0.0000001
 44
0.0000000001
 40
0.0
 40
0.0
 40
0.0
 40
0.0
 40
0.2563584906
 40
1.0
 40
1.0
 40
1.0
 40
1.0
 10
120.950810789
 20
125.5695836865
 30
0.0
 10
121.0177130352
 20
125.3941839459
 30
0.0
 10
121.2650927621
 20
124.7049422349
 30
0.0
 10
121.4577140452
 20
123.9955602285
 30
0.0
 10
121.5631056042
 20
123.4613035058
 30
0.0
  0
SPLINE
  5
31C
100
AcDbEntity
  8
0
100
AcDbSpline
 62
7
  6
BYLAYER
 70
0
 71
3
 72
9
 73
5
 74
0
 42
0.0000001
 43
0.0000001
 44
0.0000000001
 40
0.0
 40
0.0
 40
0.0
 40
0.0
 40
0.2206413706
 40
1.0
 40
1.0
 40
1.0
 40
1.0
 10
112.4445328386
 20
116.4025715935
 30
0.0
 10
112.4397358281
 20
116.395530818
 30
0.0
 10
112.415820551
 20
116.3650947038
 30
0.0
 10
112.3850727328
 20
116.3406178056
 30
0.0
 10
112.3599465601
 20
116.3240562735
 30
0.0
  0
SPLINE
  5
31D
100
AcDbEntity
  8
0
100
AcDbSpline
 62
7
  6
BYLAYER
 70
0
 71
3
 72
11
 73
7
 74
0
 42
0.0000001
 43
0.0000001
 44
0.0000000001
 40
0.0
 40
0.0
 40
0.0
 40
0.0
 40
0.3157679029
 40
0.5855418358
 40
0.8087258332
 40
1.0
 40
1.0
 40
1.0
 40
1.0
 10
119.5751685055
 20
118.3510866443
 30
0.0
 10
119.424034111
 20
118.2797674458
 30
0.0
 10
119.136854194
 20
118.1610885355
 30
0.0
 10
118.7204651369
 20
118.0540353884
 30
0.0
 10
118.3544949795
 20
118.0394234804
 30
0.0
 10
118.1388923587
 20
118.1066381844
 30
0.0
 10
118.0512232731
 20
118.1572505361
 30
0.0
  0
SPLINE
  5
31E
100
AcDbEntity
  8
0
100
AcDbSpline
 62
7
  6
BYLAYER
 70
0
 71
3
 72
9
 73
5
 74
0
 42
0.0000001
 43
0.0000001
 44
0.0000000001
 40
0.0
 40
0.0
 40
0.0
 40
0.0
 40
0.254069092
 40
1.0
 40
1.0
 40
1.0
 40
1.0
 10
120.8483618483
 20
118.404097886
 30
0.0
 10
120.8192007371
 20
118.3612554582
 30
0.0
 10
120.7007793893
 20
118.1951505054
 30
0.0
 10
120.567558516
 20
118.0395167646
 30
0.0
 10
120.4605796023
 20
117.9313190033
 30
0.0
  0
LINE
  5
31F
100
AcDbEntity
  8
0
100
AcDbLine
 62
7
  6
BYLAYER
 10
120.4046827917
 20
118.2037711559
 11
119.1957851859
 21
117.6575559766
  0
SPLINE
  5
320
100
AcDbEntity
  8
0
100
AcDbSpline
 62
7
  6
BYLAYER
 70
0
 71
3
 72
13
 73
9
 74
0
 42
0.0000001
 43
0.0000001
 44
0.0000000001
 40
0.0
 40
0.0
 40
0.0
 40
0.0
 40
0.087181762
 40
0.1870578312
 40
0.3050130077
 40
0.4394658395
 40
0.7310642292
 40
1.0
 40
1.0
 40
1.0
 40
1.0
 10
59.8429273129
 20
143.7781997873
 30
0.0
 10
59.9227033092
 20
143.8242212584
 30
0.0
 10
60.1234153023
 20
143.8753499578
 30
0.0
 10
60.4461075019
 20
143.809527261
 30
0.0
 10
60.7755911853
 20
143.6280392006
 30
0.0
 10
61.2067857566
 20
143.2424397489
 30
0.0
 10
61.609628231
 20
142.6136847202
 30
0.0
 10
61.7624545106
 20
142.0218968311
 30
0.0
 10
61.7590979579
 20
141.7378130127
 30
0.0
  0
SPLINE
  5
321
100
AcDbEntity
  8
0
100
AcDbSpline
 62
7
  6
BYLAYER
 70
0
 71
3
 72
9
 73
5
 74
0
 42
0.0000001
 43
0.0000001
 44
0.0000000001
 40
0.0
 40
0.0
 40
0.0
 40
0.0
 40
0.5458479265
 40
1.0
 40
1.0
 40
1.0
 40
1.0
 10
88.1355916363
 20
123.3017992335
 30
0.0
 10
88.2564874333
 20
123.2394395155
 30
0.0
 10
88.4983880817
 20
123.1526568872
 30
0.0
 10
88.7603095856
 20
123.2002401066
 30
0.0
 10
88.8583342043
 20
123.2568159396
 30
0.0
  0
SPLINE
  5
322
100
AcDbEntity
  8
0
100
AcDbSpline
 62
7
  6
BYLAYER
 70
0
 71
3
 72
8
 73
4
 74
0
 42
0.0000001
 43
0.0000001
 44
0.0000000001
 40
0.0
 40
0.0
 40
0.0
 40
0.0
 40
1.0
 40
1.0
 40
1.0
 40
1.0
 10
62.8446074977
 20
141.8450880401
 30
0.0
 10
62.8943288836
 20
141.8737783623
 30
0.0
 10
62.9397085711
 20
141.9112270619
 30
0.0
 10
62.9780533193
 20
141.9539474444
 30
0.0
  0
SPLINE
  5
323
100
AcDbEntity
  8
0
100
AcDbSpline
 62
7
  6
BYLAYER
 70
0
 71
3
 72
9
 73
5
 74
0
 42
0.0000001
 43
0.0000001
 44
0.0000000001
 40
0.0
 40
0.0
 40
0.0
 40
0.0
 40
0.2229073499
 40
1.0
 40
1.0
 40
1.0
 40
1.0
 10
62.9780533193
 20
141.9539474444
 30
0.0
 10
63.0097953865
 20
141.9893116942
 30
0.0
 10
63.1327994818
 20
142.1657966326
 30
0.0
 10
63.1713483872
 20
142.3886487253
 30
0.0
 10
63.1733056323
 20
142.5543013204
 30
0.0
  0
SPLINE
  5
324
100
AcDbEntity
  8
0
100
AcDbSpline
 62
7
  6
BYLAYER
 70
0
 71
3
 72
10
 73
6
 74
0
 42
0.0000001
 43
0.0000001
 44
0.0000000001
 40
0.0
 40
0.0
 40
0.0
 40
0.0
 40
0.2191378392
 40
0.4532830735
 40
1.0
 40
1.0
 40
1.0
 40
1.0
 10
60.2188093427
 20
145.1683882116
 30
0.0
 10
60.1344649404
 20
145.1196647496
 30
0.0
 10
59.9763728346
 20
144.9877382558
 30
0.0
 10
59.7386407982
 20
144.6056486447
 30
0.0
 10
59.6826240425
 20
144.2482613455
 30
0.0
 10
59.679752944
 20
144.0052642308
 30
0.0
  0
SPLINE
  5
325
100
AcDbEntity
  8
0
100
AcDbSpline
 62
7
  6
BYLAYER
 70
0
 71
3
 72
9
 73
5
 74
0
 42
0.0000001
 43
0.0000001
 44
0.0000000001
 40
0.0
 40
0.0
 40
0.0
 40
0.0
 40
0.2347814159
 40
1.0
 40
1.0
 40
1.0
 40
1.0
 10
62.8554541082
 20
140.8434325376
 30
0.0
 10
62.8129975751
 20
140.8441417319
 30
0.0
 10
62.6323329975
 20
140.8571037693
 30
0.0
 10
62.4554683616
 20
140.9071086509
 30
0.0
 10
62.3270717033
 20
140.9587617976
 30
0.0
  0
SPLINE
  5
326
100
AcDbEntity
  8
0
100
AcDbSpline
 62
7
  6
BYLAYER
 70
0
 71
3
 72
9
 73
5
 74
0
 42
0.0000001
 43
0.0000001
 44
0.0000000001
 40
0.0
 40
0.0
 40
0.0
 40
0.0
 40
0.2371676636
 40
1.0
 40
1.0
 40
1.0
 40
1.0
 10
62.3270717033
 20
140.9587617976
 30
0.0
 10
62.2848173313
 20
140.9757604586
 30
0.0
 10
62.1092259006
 20
141.0537926986
 30
0.0
 10
61.9443108017
 20
141.1548208554
 30
0.0
 10
61.8253937523
 20
141.2403725375
 30
0.0
  0
SPLINE
  5
327
100
AcDbEntity
  8
0
100
AcDbSpline
 62
7
  6
BYLAYER
 70
0
 71
3
 72
8
 73
4
 74
0
 42
0.0000001
 43
0.0000001
 44
0.0000000001
 40
0.0
 40
0.0
 40
0.0
 40
0.0
 40
1.0
 40
1.0
 40
1.0
 40
1.0
 10
60.2195840501
 20
144.0609305623
 30
0.0
 10
60.2125264795
 20
144.1441976604
 30
0.0
 10
60.2090935325
 20
144.2278875221
 30
0.0
 10
60.2100808219
 20
144.3114473462
 30
0.0
  0
SPLINE
  5
328
100
AcDbEntity
  8
0
100
AcDbSpline
 62
7
  6
BYLAYER
 70
0
 71
3
 72
11
 73
7
 74
0
 42
0.0000001
 43
0.0000001
 44
0.0000000001
 40
0.0
 40
0.0
 40
0.0
 40
0.0
 40
0.2184903915
 40
0.4519521645
 40
0.7112528614
 40
1.0
 40
1.0
 40
1.0
 40
1.0
 10
57.7414941788
 20
151.4988683636
 30
0.0
 10
57.6386104308
 20
151.4394882442
 30
0.0
 10
57.4457734326
 20
151.2787630462
 30
0.0
 10
57.2386237857
 20
150.9460663831
 30
0.0
 10
57.113348361
 20
150.5361752465
 30
0.0
 10
57.085886708
 20
150.2375338264
 30
0.0
 10
57.0840319729
 20
150.0805572267
 30
0.0
  0
SPLINE
  5
329
100
AcDbEntity
  8
0
100
AcDbSpline
 62
7
  6
BYLAYER
 70
0
 71
3
 72
9
 73
5
 74
0
 42
0.0000001
 43
0.0000001
 44
0.0000000001
 40
0.0
 40
0.0
 40
0.0
 40
0.0
 40
0.2331810606
 40
1.0
 40
1.0
 40
1.0
 40
1.0
 10
65.8770036873
 20
143.9925196472
 30
0.0
 10
65.8155969996
 20
144.0041666529
 30
0.0
 10
65.554984458
 20
144.0684472667
 30
0.0
 10
65.308502612
 20
144.1832782303
 30
0.0
 10
65.1317113409
 20
144.2881126925
 30
0.0
  0
SPLINE
  5
32A
100
AcDbEntity
  8
0
100
AcDbSpline
 62
7
  6
BYLAYER
 70
0
 71
3
 72
9
 73
5
 74
0
 42
0.0000001
 43
0.0000001
 44
0.0000000001
 40
0.0
 40
0.0
 40
0.0
 40
0.0
 40
0.2643191617
 40
1.0
 40
1.0
 40
1.0
 40
1.0
 10
121.5628891173
 20
119.8633184681
 30
0.0
 10
121.5294492153
 20
119.732415266
 30
0.0
 10
121.3850063933
 20
119.2422499765
 30
0.0
 10
121.1628437817
 20
118.7725042395
 30
0.0
 10
120.9510430192
 20
118.4617803846
 30
0.0
  0
SPLINE
  5
32B
100
AcDbEntity
  8
0
100
AcDbSpline
 62
7
  6
BYLAYER
 70
0
 71
3
 72
9
 73
5
 74
0
 42
0.0000001
 43
0.0000001
 44
0.0000000001
 40
0.0
 40
0.0
 40
0.0
 40
0.0
 40
0.5404685104
 40
1.0
 40
1.0
 40
1.0
 40
1.0
 10
91.8222142656
 20
134.4533120711
 30
0.0
 10
91.9328058038
 20
134.4046191268
 30
0.0
 10
92.1539408333
 20
134.3410114637
 30
0.0
 10
92.3851713897
 20
134.390909724
 30
0.0
 10
92.4741991986
 20
134.442190789
 30
0.0
  0
SPLINE
  5
32C
100
AcDbEntity
  8
0
100
AcDbSpline
 62
7
  6
BYLAYER
 70
0
 71
3
 72
10
 73
6
 74
0
 42
0.0000001
 43
0.0000001
 44
0.0000000001
 40
0.0
 40
0.0
 40
0.0
 40
0.0
 40
0.2814103677
 40
0.5438658458
 40
1.0
 40
1.0
 40
1.0
 40
1.0
 10
82.8647481326
 20
132.7620184009
 30
0.0
 10
83.3825052491
 20
132.2439736743
 30
0.0
 10
84.4415950524
 20
131.2964307061
 30
0.0
 10
86.5855125778
 20
129.8218021445
 30
0.0
 10
88.3666766091
 20
129.0889796629
 30
0.0
 10
89.5399971646
 20
128.9081487616
 30
0.0
  0
SPLINE
  5
32D
100
AcDbEntity
  8
0
100
AcDbSpline
 62
7
  6
BYLAYER
 70
0
 71
3
 72
11
 73
7
 74
0
 42
0.0000001
 43
0.0000001
 44
0.0000000001
 40
0.0
 40
0.0
 40
0.0
 40
0.0
 40
0.212888437
 40
0.4737110749
 40
0.7495970443
 40
1.0
 40
1.0
 40
1.0
 40
1.0
 10
89.5399971646
 20
128.9081487616
 30
0.0
 10
89.6780582128
 20
128.8868709414
 30
0.0
 10
89.9665790472
 20
128.7377784908
 30
0.0
 10
90.305382354
 20
128.3745178358
 30
0.0
 10
90.5514598246
 20
127.9142323546
 30
0.0
 10
90.6263589568
 20
127.5689983728
 30
0.0
 10
90.6263589568
 20
127.4046913745
 30
0.0
  0
SPLINE
  5
32E
100
AcDbEntity
  8
0
100
AcDbSpline
 62
7
  6
BYLAYER
 70
0
 71
3
 72
9
 73
5
 74
0
 42
0.0000001
 43
0.0000001
 44
0.0000000001
 40
0.0
 40
0.0
 40
0.0
 40
0.0
 40
0.2830949137
 40
1.0
 40
1.0
 40
1.0
 40
1.0
 10
90.6263589568
 20
127.4046913745
 30
0.0
 10
90.6263589568
 20
127.3615796161
 30
0.0
 10
90.6176949211
 20
127.2102427351
 30
0.0
 10
90.5658349148
 20
127.0555721938
 30
0.0
 10
90.4959682482
 20
126.9716797239
 30
0.0
  0
SPLINE
  5
32F
100
AcDbEntity
  8
0
100
AcDbSpline
 62
7
  6
BYLAYER
 70
0
 71
3
 72
13
 73
9
 74
0
 42
0.0000001
 43
0.0000001
 44
0.0000000001
 40
0.0
 40
0.0
 40
0.0
 40
0.0
 40
0.087181762
 40
0.1870578312
 40
0.3050130077
 40
0.4394658395
 40
0.7310642292
 40
1.0
 40
1.0
 40
1.0
 40
1.0
 10
63.8846090562
 20
151.1028830066
 30
0.0
 10
63.9643850525
 20
151.1489044777
 30
0.0
 10
64.1650970456
 20
151.2000331771
 30
0.0
 10
64.4877892452
 20
151.1342104803
 30
0.0
 10
64.8172729285
 20
150.9527224199
 30
0.0
 10
65.2484674999
 20
150.5671229682
 30
0.0
 10
65.6513099743
 20
149.9383679395
 30
0.0
 10
65.8041362539
 20
149.3465800504
 30
0.0
 10
65.8007797012
 20
149.062496232
 30
0.0
  0
SPLINE
  5
330
100
AcDbEntity
  8
0
100
AcDbSpline
 62
7
  6
BYLAYER
 70
0
 71
3
 72
9
 73
5
 74
0
 42
0.0000001
 43
0.0000001
 44
0.0000000001
 40
0.0
 40
0.0
 40
0.0
 40
0.0
 40
0.2548196557
 40
1.0
 40
1.0
 40
1.0
 40
1.0
 10
116.0734074636
 20
118.8166362144
 30
0.0
 10
116.0734074636
 20
118.7595837935
 30
0.0
 10
116.070892402
 20
118.5357010731
 30
0.0
 10
116.0581808506
 20
118.3119050953
 30
0.0
 10
116.0424108371
 20
118.1458111606
 30
0.0
  0
SPLINE
  5
331
100
AcDbEntity
  8
0
100
AcDbSpline
 62
7
  6
BYLAYER
 70
0
 71
3
 72
11
 73
7
 74
0
 42
0.0000001
 43
0.0000001
 44
0.0000000001
 40
0.0
 40
0.0
 40
0.0
 40
0.0
 40
0.2853058915
 40
0.5414781165
 40
0.7756020725
 40
1.0
 40
1.0
 40
1.0
 40
1.0
 10
116.0424108371
 20
118.1458111606
 30
0.0
 10
116.0070758395
 20
117.7736536617
 30
0.0
 10
115.8803475573
 20
117.0701640363
 30
0.0
 10
115.4802684575
 20
116.1248169963
 30
0.0
 10
114.8863175683
 20
115.3833278942
 30
0.0
 10
114.3708285453
 20
115.0507379035
 30
0.0
 10
114.1010699857
 20
114.9337730518
 30
0.0
  0
SPLINE
  5
332
100
AcDbEntity
  8
0
100
AcDbSpline
 62
7
  6
BYLAYER
 70
0
 71
3
 72
15
 73
11
 74
0
 42
0.0000001
 43
0.0000001
 44
0.0000000001
 40
0.0
 40
0.0
 40
0.0
 40
0.0
 40
0.1365716065
 40
0.2819720125
 40
0.4292389143
 40
0.5711542609
 40
0.7013293245
 40
0.8155143093
 40
0.9132784229
 40
1.0
 40
1.0
 40
1.0
 40
1.0
 10
114.5339529203
 20
120.5349870581
 30
0.0
 10
114.4653270444
 20
121.0424108305
 30
0.0
 10
114.213463023
 20
122.0765240222
 30
0.0
 10
113.5756575038
 20
123.5608131565
 30
0.0
 10
112.7052373783
 20
124.9461813481
 30
0.0
 10
111.6639383098
 20
126.133827675
 30
0.0
 10
110.5233886034
 20
127.0414900615
 30
0.0
 10
109.3562421079
 20
127.6053982512
 30
0.0
 10
108.2266450592
 20
127.7791254564
 30
0.0
 10
107.5328306586
 20
127.5847019897
 30
0.0
 10
107.2511780679
 20
127.4222540359
 30
0.0
  0
SPLINE
  5
333
100
AcDbEntity
  8
0
100
AcDbSpline
 62
7
  6
BYLAYER
 70
0
 71
3
 72
8
 73
4
 74
0
 42
0.0000001
 43
0.0000001
 44
0.0000000001
 40
0.0
 40
0.0
 40
0.0
 40
0.0
 40
1.0
 40
1.0
 40
1.0
 40
1.0
 10
66.886289241
 20
149.1697712594
 30
0.0
 10
66.9360106269
 20
149.1984615816
 30
0.0
 10
66.9813903144
 20
149.2359102812
 30
0.0
 10
67.0197350626
 20
149.2786306637
 30
0.0
  0
SPLINE
  5
334
100
AcDbEntity
  8
0
100
AcDbSpline
 62
7
  6
BYLAYER
 70
0
 71
3
 72
9
 73
5
 74
0
 42
0.0000001
 43
0.0000001
 44
0.0000000001
 40
0.0
 40
0.0
 40
0.0
 40
0.0
 40
0.2229073499
 40
1.0
 40
1.0
 40
1.0
 40
1.0
 10
67.0197350626
 20
149.2786306637
 30
0.0
 10
67.0514771298
 20
149.3139949135
 30
0.0
 10
67.1744812251
 20
149.4904798519
 30
0.0
 10
67.2130301305
 20
149.7133319446
 30
0.0
 10
67.2149873756
 20
149.8789845397
 30
0.0
  0
SPLINE
  5
335
100
AcDbEntity
  8
0
100
AcDbSpline
 62
7
  6
BYLAYER
 70
0
 71
3
 72
10
 73
6
 74
0
 42
0.0000001
 43
0.0000001
 44
0.0000000001
 40
0.0
 40
0.0
 40
0.0
 40
0.0
 40
0.2190905544
 40
0.4533096748
 40
1.0
 40
1.0
 40
1.0
 40
1.0
 10
64.2605296161
 20
152.4930044201
 30
0.0
 10
64.1761533579
 20
152.4443792091
 30
0.0
 10
64.0180836293
 20
152.3123800048
 30
0.0
 10
63.7802459888
 20
151.9303810511
 30
0.0
 10
63.7243056316
 20
151.5729315148
 30
0.0
 10
63.7214346873
 20
151.3299474501
 30
0.0
  0
SPLINE
  5
336
100
AcDbEntity
  8
0
100
AcDbSpline
 62
7
  6
BYLAYER
 70
0
 71
3
 72
9
 73
5
 74
0
 42
0.0000001
 43
0.0000001
 44
0.0000000001
 40
0.0
 40
0.0
 40
0.0
 40
0.0
 40
0.2347800545
 40
1.0
 40
1.0
 40
1.0
 40
1.0
 10
66.8971880976
 20
148.1681148854
 30
0.0
 10
66.8547277224
 20
148.1688222288
 30
0.0
 10
66.6740453159
 20
148.1817787712
 30
0.0
 10
66.4971626001
 20
148.2317868435
 30
0.0
 10
66.3687534466
 20
148.2834450169
 30
0.0
  0
SPLINE
  5
337
100
AcDbEntity
  8
0
100
AcDbSpline
 62
7
  6
BYLAYER
 70
0
 71
3
 72
9
 73
5
 74
0
 42
0.0000001
 43
0.0000001
 44
0.0000000001
 40
0.0
 40
0.0
 40
0.0
 40
0.0
 40
0.2371676636
 40
1.0
 40
1.0
 40
1.0
 40
1.0
 10
66.3687534466
 20
148.2834450169
 30
0.0
 10
66.3264990746
 20
148.3004436779
 30
0.0
 10
66.1509076439
 20
148.3784759179
 30
0.0
 10
65.985992545
 20
148.4795040747
 30
0.0
 10
65.8670754956
 20
148.5650557568
 30
0.0
  0
SPLINE
  5
338
100
AcDbEntity
  8
0
100
AcDbSpline
 62
7
  6
BYLAYER
 70
0
 71
3
 72
8
 73
4
 74
0
 42
0.0000001
 43
0.0000001
 44
0.0000000001
 40
0.0
 40
0.0
 40
0.0
 40
0.0
 40
1.0
 40
1.0
 40
1.0
 40
1.0
 10
64.2612657933
 20
151.3856137816
 30
0.0
 10
64.2542082228
 20
151.4688808797
 30
0.0
 10
64.2507752758
 20
151.5525707414
 30
0.0
 10
64.2517625652
 20
151.6361305655
 30
0.0
  0
SPLINE
  5
339
100
AcDbEntity
  8
0
100
AcDbSpline
 62
7
  6
BYLAYER
 70
0
 71
3
 72
13
 73
9
 74
0
 42
0.0000001
 43
0.0000001
 44
0.0000000001
 40
0.0
 40
0.0
 40
0.0
 40
0.0
 40
0.087181762
 40
0.1870578312
 40
0.3050130077
 40
0.4394658395
 40
0.7310642292
 40
1.0
 40
1.0
 40
1.0
 40
1.0
 10
56.0293694679
 20
155.7609173803
 30
0.0
 10
56.1091454642
 20
155.8069388514
 30
0.0
 10
56.3098574573
 20
155.8580675508
 30
0.0
 10
56.6325496569
 20
155.792244854
 30
0.0
 10
56.9620333402
 20
155.6107567936
 30
0.0
 10
57.3932279116
 20
155.2251573419
 30
0.0
 10
57.796070386
 20
154.5964023131
 30
0.0
 10
57.9488966656
 20
154.0046144241
 30
0.0
 10
57.9455401129
 20
153.7205306057
 30
0.0
  0
SPLINE
  5
33A
100
AcDbEntity
  8
0
100
AcDbSpline
 62
7
  6
BYLAYER
 70
0
 71
3
 72
23
 73
19
 74
0
 42
0.0000001
 43
0.0000001
 44
0.0000000001
 40
0.0
 40
0.0
 40
0.0
 40
0.0
 40
0.0626227887
 40
0.1292495044
 40
0.1991587423
 40
0.2714554244
 40
0.3451287755
 40
0.4191051534
 40
0.4922973457
 40
0.5636534153
 40
0.6322071457
 40
0.6971328321
 40
0.7578078564
 40
0.8138872234
 40
0.8653928593
 40
0.912811494
 40
0.9571683591
 40
1.0
 40
1.0
 40
1.0
 40
1.0
 10
90.4646897593
 20
240.5962801063
 30
0.0
 10
93.1869182817
 20
239.0246362915
 30
0.0
 10
98.5939758413
 20
235.4058239846
 30
0.0
 10
106.2446990478
 20
228.9451439052
 30
0.0
 10
113.5509652784
 20
221.4058604007
 30
0.0
 10
120.353245936
 20
212.952486889
 30
0.0
 10
126.5045572647
 20
203.7682777295
 30
0.0
 10
131.8708812127
 20
194.0532275594
 30
0.0
 10
136.3354111027
 20
184.018842657
 30
0.0
 10
139.8010013848
 20
173.8833118398
 30
0.0
 10
142.1922981888
 20
163.86619786
 30
0.0
 10
143.4569231946
 20
154.1830281109
 30
0.0
 10
143.5656013365
 20
145.0400035591
 30
0.0
 10
142.5103333163
 20
136.6293002116
 30
0.0
 10
140.3016511536
 20
129.1273917254
 30
0.0
 10
136.9627583853
 20
122.6973957755
 30
0.0
 10
132.543196991
 20
117.5041332769
 30
0.0
 10
128.9121481752
 20
114.9591681885
 30
0.0
 10
127.0060288693
 20
113.9647351048
 30
0.0
  0
SPLINE
  5
33B
100
AcDbEntity
  8
0
100
AcDbSpline
 62
7
  6
BYLAYER
 70
0
 71
3
 72
8
 73
4
 74
0
 42
0.0000001
 43
0.0000001
 44
0.0000000001
 40
0.0
 40
0.0
 40
0.0
 40
0.0
 40
1.0
 40
1.0
 40
1.0
 40
1.0
 10
59.0310496527
 20
153.8278056331
 30
0.0
 10
59.0807710386
 20
153.8564959553
 30
0.0
 10
59.126150726
 20
153.8939446549
 30
0.0
 10
59.1644954742
 20
153.9366650374
 30
0.0
  0
SPLINE
  5
33C
100
AcDbEntity
  8
0
100
AcDbSpline
 62
7
  6
BYLAYER
 70
0
 71
3
 72
9
 73
5
 74
0
 42
0.0000001
 43
0.0000001
 44
0.0000000001
 40
0.0
 40
0.0
 40
0.0
 40
0.0
 40
0.2229073499
 40
1.0
 40
1.0
 40
1.0
 40
1.0
 10
59.1644954742
 20
153.9366650374
 30
0.0
 10
59.1962375415
 20
153.9720292872
 30
0.0
 10
59.3192416368
 20
154.1485142256
 30
0.0
 10
59.3577905422
 20
154.3713663182
 30
0.0
 10
59.3597477873
 20
154.5370189134
 30
0.0
  0
SPLINE
  5
33D
100
AcDbEntity
  8
0
100
AcDbSpline
 62
7
  6
BYLAYER
 70
0
 71
3
 72
10
 73
6
 74
0
 42
0.0000001
 43
0.0000001
 44
0.0000000001
 40
0.0
 40
0.0
 40
0.0
 40
0.0
 40
0.2190905544
 40
0.4533096748
 40
1.0
 40
1.0
 40
1.0
 40
1.0
 10
56.4052900278
 20
157.1510387938
 30
0.0
 10
56.3209137696
 20
157.1024135828
 30
0.0
 10
56.162844041
 20
156.9704143785
 30
0.0
 10
55.9250064005
 20
156.5884154248
 30
0.0
 10
55.8690660433
 20
156.2309658885
 30
0.0
 10
55.866195099
 20
155.9879818237
 30
0.0
  0
SPLINE
  5
33E
100
AcDbEntity
  8
0
100
AcDbSpline
 62
7
  6
BYLAYER
 70
0
 71
3
 72
9
 73
5
 74
0
 42
0.0000001
 43
0.0000001
 44
0.0000000001
 40
0.0
 40
0.0
 40
0.0
 40
0.0
 40
0.2668608216
 40
1.0
 40
1.0
 40
1.0
 40
1.0
 10
90.4959682482
 20
134.8321851007
 30
0.0
 10
90.5168271802
 20
134.7830534421
 30
0.0
 10
90.5870499892
 20
134.5959369265
 30
0.0
 10
90.6263589568
 20
134.3952534597
 30
0.0
 10
90.6263589568
 20
134.2486146348
 30
0.0
  0
SPLINE
  5
33F
100
AcDbEntity
  8
0
100
AcDbSpline
 62
7
  6
BYLAYER
 70
0
 71
3
 72
9
 73
5
 74
0
 42
0.0000001
 43
0.0000001
 44
0.0000000001
 40
0.0
 40
0.0
 40
0.0
 40
0.0
 40
0.550789256
 40
1.0
 40
1.0
 40
1.0
 40
1.0
 10
90.6263589568
 20
134.2486146348
 30
0.0
 10
90.6263589568
 20
134.1394561862
 30
0.0
 10
90.5998475721
 20
133.9366638969
 30
0.0
 10
90.4667581932
 20
133.7698293923
 30
0.0
 10
90.389613896
 20
133.7253932049
 30
0.0
  0
SPLINE
  5
340
100
AcDbEntity
  8
0
100
AcDbSpline
 62
7
  6
BYLAYER
 70
0
 71
3
 72
11
 73
7
 74
0
 42
0.0000001
 43
0.0000001
 44
0.0000000001
 40
0.0
 40
0.0
 40
0.0
 40
0.0
 40
0.2185036155
 40
0.4526079789
 40
0.7117530515
 40
1.0
 40
1.0
 40
1.0
 40
1.0
 10
72.9131448178
 20
139.5387034415
 30
0.0
 10
73.2984707329
 20
139.7820047797
 30
0.0
 10
74.0158641789
 20
140.4242609822
 30
0.0
 10
74.7835977579
 20
141.7157788095
 30
0.0
 10
75.2504076649
 20
143.2911626802
 30
0.0
 10
75.3521885101
 20
144.4353095025
 30
0.0
 10
75.3592910112
 20
145.0364338729
 30
0.0
  0
SPLINE
  5
341
100
AcDbEntity
  8
0
100
AcDbSpline
 62
7
  6
BYLAYER
 70
0
 71
3
 72
17
 73
13
 74
0
 42
0.0000001
 43
0.0000001
 44
0.0000000001
 40
0.0
 40
0.0
 40
0.0
 40
0.0
 40
0.1280305982
 40
0.2692778012
 40
0.4164124181
 40
0.5609601769
 40
0.6949352274
 40
0.8124827948
 40
0.8645492496
 40
0.9124433683
 40
0.9571284512
 40
1.0
 40
1.0
 40
1.0
 40
1.0
 10
75.3592910112
 20
145.0364338729
 30
0.0
 10
75.37191544
 20
146.1049098625
 30
0.0
 10
75.093016327
 20
148.358282073
 30
0.0
 10
73.9959202066
 20
151.6735860211
 30
0.0
 10
72.2851109314
 20
154.8758950189
 30
0.0
 10
70.099363378
 20
157.6997599174
 30
0.0
 10
67.6193069223
 20
159.9145896478
 30
0.0
 10
65.370405383
 20
161.1555149766
 30
0.0
 10
63.6096599483
 20
161.630968505
 30
0.0
 10
62.3974909639
 20
161.7239516964
 30
0.0
 10
61.2688081097
 20
161.560668841
 30
0.0
 10
60.5850568529
 20
161.2772758837
 30
0.0
 10
60.2751333339
 20
161.0984624849
 30
0.0
  0
SPLINE
  5
342
100
AcDbEntity
  8
0
100
AcDbSpline
 62
7
  6
BYLAYER
 70
0
 71
3
 72
9
 73
5
 74
0
 42
0.0000001
 43
0.0000001
 44
0.0000000001
 40
0.0
 40
0.0
 40
0.0
 40
0.0
 40
0.2347800545
 40
1.0
 40
1.0
 40
1.0
 40
1.0
 10
59.0419485092
 20
152.826149259
 30
0.0
 10
58.9994881341
 20
152.8268566025
 30
0.0
 10
58.8188057276
 20
152.8398131448
 30
0.0
 10
58.6419230118
 20
152.8898212172
 30
0.0
 10
58.5135138582
 20
152.9414793906
 30
0.0
  0
SPLINE
  5
343
100
AcDbEntity
  8
0
100
AcDbSpline
 62
7
  6
BYLAYER
 70
0
 71
3
 72
9
 73
5
 74
0
 42
0.0000001
 43
0.0000001
 44
0.0000000001
 40
0.0
 40
0.0
 40
0.0
 40
0.0
 40
0.2371676636
 40
1.0
 40
1.0
 40
1.0
 40
1.0
 10
58.5135138582
 20
152.9414793906
 30
0.0
 10
58.4712594863
 20
152.9584780516
 30
0.0
 10
58.2956680555
 20
153.0365102916
 30
0.0
 10
58.1307529567
 20
153.1375384484
 30
0.0
 10
58.0118359073
 20
153.2230901305
 30
0.0
  0
SPLINE
  5
344
100
AcDbEntity
  8
0
100
AcDbSpline
 62
7
  6
BYLAYER
 70
0
 71
3
 72
8
 73
4
 74
0
 42
0.0000001
 43
0.0000001
 44
0.0000000001
 40
0.0
 40
0.0
 40
0.0
 40
0.0
 40
1.0
 40
1.0
 40
1.0
 40
1.0
 10
56.406026205
 20
156.0436481552
 30
0.0
 10
56.3989686345
 20
156.1269152533
 30
0.0
 10
56.3955356875
 20
156.2106051151
 30
0.0
 10
56.3965229769
 20
156.2941649391
 30
0.0
  0
SPLINE
  5
345
100
AcDbEntity
  8
0
100
AcDbSpline
 62
7
  6
BYLAYER
 70
0
 71
3
 72
17
 73
13
 74
0
 42
0.0000001
 43
0.0000001
 44
0.0000000001
 40
0.0
 40
0.0
 40
0.0
 40
0.0
 40
0.0428716847
 40
0.0875334118
 40
0.1354310553
 40
0.1874982579
 40
0.3050430259
 40
0.4390193673
 40
0.5835702807
 40
0.7307111326
 40
0.8719670911
 40
1.0
 40
1.0
 40
1.0
 40
1.0
 10
55.3254227336
 20
158.2407282928
 30
0.0
 10
55.6353251127
 20
158.4195803719
 30
0.0
 10
56.3188203119
 20
158.7031753061
 30
0.0
 10
57.44741361
 20
158.8659055797
 30
0.0
 10
58.6594147022
 20
158.7733906688
 30
0.0
 10
60.4202423247
 20
158.2980309434
 30
0.0
 10
62.6691600706
 20
157.0571856116
 30
0.0
 10
65.1492911288
 20
154.8424098281
 30
0.0
 10
67.3351654316
 20
152.0185318404
 30
0.0
 10
69.0460950756
 20
148.8161139878
 30
0.0
 10
70.1432775241
 20
145.5006846877
 30
0.0
 10
70.4221888034
 20
143.2472197343
 30
0.0
 10
70.4095641507
 20
142.1787247958
 30
0.0
  0
SPLINE
  5
346
100
AcDbEntity
  8
0
100
AcDbSpline
 62
7
  6
BYLAYER
 70
0
 71
3
 72
11
 73
7
 74
0
 42
0.0000001
 43
0.0000001
 44
0.0000000001
 40
0.0
 40
0.0
 40
0.0
 40
0.0
 40
0.2292690953
 40
0.4852464447
 40
0.7462627942
 40
1.0
 40
1.0
 40
1.0
 40
1.0
 10
112.702836205
 20
121.242750166
 30
0.0
 10
112.791076064
 20
121.293691793
 30
0.0
 10
112.9356038406
 20
121.4742801993
 30
0.0
 10
112.9966735585
 20
121.809411553
 30
0.0
 10
112.9276931757
 20
122.1523707593
 30
0.0
 10
112.8046162167
 20
122.3520264194
 30
0.0
 10
112.7286308562
 20
122.4353428185
 30
0.0
  0
SPLINE
  5
347
100
AcDbEntity
  8
0
100
AcDbSpline
 62
7
  6
BYLAYER
 70
0
 71
3
 72
11
 73
7
 74
0
 42
0.0000001
 43
0.0000001
 44
0.0000000001
 40
0.0
 40
0.0
 40
0.0
 40
0.0
 40
0.2882469485
 40
0.5473920211
 40
0.7814963845
 40
1.0
 40
1.0
 40
1.0
 40
1.0
 10
70.4095641507
 20
142.1787247958
 30
0.0
 10
70.4024616496
 20
141.5776004254
 30
0.0
 10
70.3006808044
 20
140.4334536031
 30
0.0
 10
69.8338708974
 20
138.8580697324
 30
0.0
 10
69.0661373184
 20
137.5665519051
 30
0.0
 10
68.3487438724
 20
136.9242957026
 30
0.0
 10
67.9634179573
 20
136.6809943644
 30
0.0
  0
SPLINE
  5
348
100
AcDbEntity
  8
0
100
AcDbSpline
 62
7
  6
BYLAYER
 70
0
 71
3
 72
11
 73
7
 74
0
 42
0.0000001
 43
0.0000001
 44
0.0000000001
 40
0.0
 40
0.0
 40
0.0
 40
0.0
 40
0.2993282099
 40
0.5628460592
 40
0.7923099137
 40
1.0
 40
1.0
 40
1.0
 40
1.0
 10
57.3558018664
 20
153.0124818566
 30
0.0
 10
57.4951421385
 20
152.9007724211
 30
0.0
 10
57.7756249045
 20
152.7117030138
 30
0.0
 10
58.2198601608
 20
152.5368338712
 30
0.0
 10
58.6439329875
 20
152.4995184708
 30
0.0
 10
58.901318844
 20
152.5799314047
 30
0.0
 10
59.0086825104
 20
152.6418040338
 30
0.0
  0
SPLINE
  5
349
100
AcDbEntity
  8
0
100
AcDbSpline
 62
7
  6
BYLAYER
 70
0
 71
3
 72
11
 73
7
 74
0
 42
0.0000001
 43
0.0000001
 44
0.0000000001
 40
0.0
 40
0.0
 40
0.0
 40
0.0
 40
0.2993282099
 40
0.5628460592
 40
0.7923099137
 40
1.0
 40
1.0
 40
1.0
 40
1.0
 10
65.2110414547
 20
148.354447483
 30
0.0
 10
65.3503817268
 20
148.2427380474
 30
0.0
 10
65.6308644928
 20
148.0536686402
 30
0.0
 10
66.0750997492
 20
147.8787994975
 30
0.0
 10
66.4991725759
 20
147.8414840971
 30
0.0
 10
66.7565584323
 20
147.921897031
 30
0.0
 10
66.8639220987
 20
147.9837696601
 30
0.0
  0
SPLINE
  5
34A
100
AcDbEntity
  8
0
100
AcDbSpline
 62
7
  6
BYLAYER
 70
0
 71
3
 72
10
 73
6
 74
0
 42
0.0000001
 43
0.0000001
 44
0.0000000001
 40
0.0
 40
0.0
 40
0.0
 40
0.0
 40
0.4299586075
 40
0.7015345386
 40
1.0
 40
1.0
 40
1.0
 40
1.0
 10
107.6283494055
 20
127.4797173509
 30
0.0
 10
108.414767263
 20
127.6093749984
 30
0.0
 10
109.7735480914
 20
127.1535614367
 30
0.0
 10
111.2323649515
 20
126.0289361689
 30
0.0
 10
111.9461820875
 20
125.2348995149
 30
0.0
 10
112.2803572739
 20
124.7939401162
 30
0.0
  0
SPLINE
  5
34B
100
AcDbEntity
  8
0
100
AcDbSpline
 62
7
  6
BYLAYER
 70
0
 71
3
 72
9
 73
5
 74
0
 42
0.0000001
 43
0.0000001
 44
0.0000000001
 40
0.0
 40
0.0
 40
0.0
 40
0.0
 40
0.5242307554
 40
1.0
 40
1.0
 40
1.0
 40
1.0
 10
112.280129638
 20
124.7940715389
 30
0.0
 10
112.3947354002
 20
124.642844009
 30
0.0
 10
112.5783033593
 20
124.3353409463
 30
0.0
 10
112.6084246844
 20
123.9178784698
 30
0.0
 10
112.5128923206
 20
123.7745996897
 30
0.0
  0
SPLINE
  5
34C
100
AcDbEntity
  8
0
100
AcDbSpline
 62
7
  6
BYLAYER
 70
0
 71
3
 72
11
 73
7
 74
0
 42
0.0000001
 43
0.0000001
 44
0.0000000001
 40
0.0
 40
0.0
 40
0.0
 40
0.0
 40
0.2360095672
 40
0.4982892825
 40
0.761499413
 40
1.0
 40
1.0
 40
1.0
 40
1.0
 10
57.0840319729
 20
150.0805572267
 30
0.0
 10
57.0797064916
 20
149.7144675625
 30
0.0
 10
57.2101212304
 20
148.9394452904
 30
0.0
 10
57.6823557817
 20
147.8471160426
 30
0.0
 10
58.3798910503
 20
146.8781525458
 30
0.0
 10
58.9802439806
 20
146.3634999489
 30
0.0
 10
59.298479489
 20
146.1747912634
 30
0.0
  0
SPLINE
  5
34D
100
AcDbEntity
  8
0
100
AcDbSpline
 62
7
  6
BYLAYER
 70
0
 71
3
 72
9
 73
5
 74
0
 42
0.0000001
 43
0.0000001
 44
0.0000000001
 40
0.0
 40
0.0
 40
0.0
 40
0.0
 40
0.2758992343
 40
1.0
 40
1.0
 40
1.0
 40
1.0
 10
61.3907193371
 20
140.8682014317
 30
0.0
 10
61.4612579505
 20
140.8217086179
 30
0.0
 10
61.7239090244
 20
140.6654556759
 30
0.0
 10
62.0230203796
 20
140.5598211588
 30
0.0
 10
62.2439693796
 20
140.5412861092
 30
0.0
  0
SPLINE
  5
34E
100
AcDbEntity
  8
0
100
AcDbSpline
 62
7
  6
BYLAYER
 70
0
 71
3
 72
9
 73
5
 74
0
 42
0.0000001
 43
0.0000001
 44
0.0000000001
 40
0.0
 40
0.0
 40
0.0
 40
0.0
 40
0.2683691827
 40
1.0
 40
1.0
 40
1.0
 40
1.0
 10
106.7299899387
 20
127.1132844054
 30
0.0
 10
106.7796726729
 20
127.1407645158
 30
0.0
 10
106.9657295413
 20
127.2413024925
 30
0.0
 10
107.1568850893
 20
127.3336884676
 30
0.0
 10
107.3017173186
 20
127.3882926893
 30
0.0
  0
SPLINE
  5
34F
100
AcDbEntity
  8
0
100
AcDbSpline
 62
7
  6
BYLAYER
 70
0
 71
3
 72
9
 73
5
 74
0
 42
0.0000001
 43
0.0000001
 44
0.0000000001
 40
0.0
 40
0.0
 40
0.0
 40
0.0
 40
0.2764873997
 40
1.0
 40
1.0
 40
1.0
 40
1.0
 10
107.3017173186
 20
127.3882926893
 30
0.0
 10
107.3309929888
 20
127.3993301166
 30
0.0
 10
107.4375996765
 20
127.4372007912
 30
0.0
 10
107.5475675508
 20
127.4663987505
 30
0.0
 10
107.6283494055
 20
127.4797173509
 30
0.0
  0
SPLINE
  5
350
100
AcDbEntity
  8
0
100
AcDbSpline
 62
7
  6
BYLAYER
 70
0
 71
3
 72
11
 73
7
 74
0
 42
0.0000001
 43
0.0000001
 44
0.0000000001
 40
0.0
 40
0.0
 40
0.0
 40
0.0
 40
0.2903192445
 40
0.5501740414
 40
0.7829955207
 40
1.0
 40
1.0
 40
1.0
 40
1.0
 10
63.7882140502
 20
143.5124488001
 30
0.0
 10
63.9297906085
 20
143.4284961125
 30
0.0
 10
64.2118303111
 20
143.2905166863
 30
0.0
 10
64.6460345813
 20
143.1806266589
 30
0.0
 10
65.0540357213
 20
143.1875475265
 30
0.0
 10
65.2994823508
 20
143.2760612656
 30
0.0
 10
65.4060388896
 20
143.3375611634
 30
0.0
  0
SPLINE
  5
351
100
AcDbEntity
  8
0
100
AcDbSpline
 62
7
  6
BYLAYER
 70
0
 71
3
 72
9
 73
5
 74
0
 42
0.0000001
 43
0.0000001
 44
0.0000000001
 40
0.0
 40
0.0
 40
0.0
 40
0.0
 40
0.2759959443
 40
1.0
 40
1.0
 40
1.0
 40
1.0
 10
56.3965229769
 20
156.2941649391
 30
0.0
 10
56.3974727037
 20
156.3745456241
 30
0.0
 10
56.4154874146
 20
156.6645647232
 30
0.0
 10
56.4983595451
 20
156.9568106615
 30
0.0
 10
56.6098349174
 20
157.1358093422
 30
0.0
  0
SPLINE
  5
352
100
AcDbEntity
  8
0
100
AcDbSpline
 62
7
  6
BYLAYER
 70
0
 71
3
 72
9
 73
5
 74
0
 42
0.0000001
 43
0.0000001
 44
0.0000000001
 40
0.0
 40
0.0
 40
0.0
 40
0.0
 40
0.2291553985
 40
1.0
 40
1.0
 40
1.0
 40
1.0
 10
59.3597477873
 20
154.5370189134
 30
0.0
 10
59.360631772
 20
154.6118354779
 30
0.0
 10
59.3391092505
 20
154.9384981204
 30
0.0
 10
59.2346778526
 20
155.2563895063
 30
0.0
 10
59.1252146029
 20
155.4830286892
 30
0.0
  0
SPLINE
  5
353
100
AcDbEntity
  8
0
100
AcDbSpline
 62
7
  6
BYLAYER
 70
0
 71
3
 72
11
 73
7
 74
0
 42
0.0000001
 43
0.0000001
 44
0.0000000001
 40
0.0
 40
0.0
 40
0.0
 40
0.0
 40
0.3007146114
 40
0.5650342115
 40
0.7939580196
 40
1.0
 40
1.0
 40
1.0
 40
1.0
 10
58.4885431667
 20
156.3207653332
 30
0.0
 10
58.4012169641
 20
156.3943270456
 30
0.0
 10
58.2249957107
 20
156.5194244307
 30
0.0
 10
57.9441817083
 20
156.6372931486
 30
0.0
 10
57.6751882751
 20
156.6658547335
 30
0.0
 10
57.5113405453
 20
156.6165035193
 30
0.0
 10
57.4435786413
 20
156.5774034253
 30
0.0
  0
SPLINE
  5
354
100
AcDbEntity
  8
0
100
AcDbSpline
 62
7
  6
BYLAYER
 70
0
 71
3
 72
9
 73
5
 74
0
 42
0.0000001
 43
0.0000001
 44
0.0000000001
 40
0.0
 40
0.0
 40
0.0
 40
0.0
 40
0.2759959443
 40
1.0
 40
1.0
 40
1.0
 40
1.0
 10
64.2517625652
 20
151.6361305655
 30
0.0
 10
64.252712292
 20
151.7165112504
 30
0.0
 10
64.2707270029
 20
152.0065303495
 30
0.0
 10
64.3535991335
 20
152.2987762878
 30
0.0
 10
64.4650745058
 20
152.4777749685
 30
0.0
  0
SPLINE
  5
355
100
AcDbEntity
  8
0
100
AcDbSpline
 62
7
  6
BYLAYER
 70
0
 71
3
 72
9
 73
5
 74
0
 42
0.0000001
 43
0.0000001
 44
0.0000000001
 40
0.0
 40
0.0
 40
0.0
 40
0.0
 40
0.2291553985
 40
1.0
 40
1.0
 40
1.0
 40
1.0
 10
67.2149873756
 20
149.8789845397
 30
0.0
 10
67.2158713603
 20
149.9538011042
 30
0.0
 10
67.1943488388
 20
150.2804637467
 30
0.0
 10
67.0899174409
 20
150.5983551326
 30
0.0
 10
66.9804541912
 20
150.8249943155
 30
0.0
  0
SPLINE
  5
356
100
AcDbEntity
  8
0
100
AcDbSpline
 62
7
  6
BYLAYER
 70
0
 71
3
 72
11
 73
7
 74
0
 42
0.0000001
 43
0.0000001
 44
0.0000000001
 40
0.0
 40
0.0
 40
0.0
 40
0.0
 40
0.3007146114
 40
0.5650342115
 40
0.7939580196
 40
1.0
 40
1.0
 40
1.0
 40
1.0
 10
66.343782755
 20
151.6627309595
 30
0.0
 10
66.2564565524
 20
151.7362926719
 30
0.0
 10
66.080235299
 20
151.861390057
 30
0.0
 10
65.7994212966
 20
151.9792587749
 30
0.0
 10
65.5304278634
 20
152.0078203598
 30
0.0
 10
65.3665801336
 20
151.9584691456
 30
0.0
 10
65.2988182296
 20
151.9193690517
 30
0.0
  0
SPLINE
  5
357
100
AcDbEntity
  8
0
100
AcDbSpline
 62
7
  6
BYLAYER
 70
0
 71
3
 72
8
 73
4
 74
0
 42
0.0000001
 43
0.0000001
 44
0.0000000001
 40
0.0
 40
0.0
 40
0.0
 40
0.0
 40
1.0
 40
1.0
 40
1.0
 40
1.0
 10
112.7028241749
 20
121.2427431075
 30
0.0
 10
112.6648247752
 20
121.2208057283
 30
0.0
 10
112.6224240576
 20
121.2049738894
 30
0.0
 10
112.5791667899
 20
121.1976246193
 30
0.0
  0
SPLINE
  5
358
100
AcDbEntity
  8
0
100
AcDbSpline
 62
7
  6
BYLAYER
 70
0
 71
3
 72
11
 73
7
 74
0
 42
0.0000001
 43
0.0000001
 44
0.0000000001
 40
0.0
 40
0.0
 40
0.0
 40
0.0
 40
0.183159013
 40
0.4153405866
 40
0.6974056343
 40
1.0
 40
1.0
 40
1.0
 40
1.0
 10
85.6309681965
 20
144.2215986262
 30
0.0
 10
85.7191222944
 20
144.2724774461
 30
0.0
 10
85.9705385127
 20
144.2960032324
 30
0.0
 10
86.323725903
 20
144.111757567
 30
0.0
 10
86.6481859049
 20
143.7878557184
 30
0.0
 10
86.8144951098
 20
143.5036205043
 30
0.0
 10
86.8802083558
 20
143.3488378546
 30
0.0
  0
SPLINE
  5
359
100
AcDbEntity
  8
0
100
AcDbSpline
 62
7
  6
BYLAYER
 70
0
 71
3
 72
11
 73
7
 74
0
 42
0.0000001
 43
0.0000001
 44
0.0000000001
 40
0.0
 40
0.0
 40
0.0
 40
0.0
 40
0.2385008331
 40
0.5017110524
 40
0.7639906772
 40
1.0
 40
1.0
 40
1.0
 40
1.0
 10
60.6419767797
 20
146.9504551557
 30
0.0
 10
60.3237409428
 20
147.139164036
 30
0.0
 10
59.7233876794
 20
147.6538170895
 30
0.0
 10
59.0258524297
 20
148.6227810672
 30
0.0
 10
58.553618303
 20
149.7151100832
 30
0.0
 10
58.4232037868
 20
150.4901318339
 30
0.0
 10
58.4275292636
 20
150.8562211191
 30
0.0
  0
SPLINE
  5
35A
100
AcDbEntity
  8
0
100
AcDbSpline
 62
7
  6
BYLAYER
 70
0
 71
3
 72
9
 73
5
 74
0
 42
0.0000001
 43
0.0000001
 44
0.0000000001
 40
0.0
 40
0.0
 40
0.0
 40
0.0
 40
0.2661422373
 40
1.0
 40
1.0
 40
1.0
 40
1.0
 10
58.4275292636
 20
150.8562211191
 30
0.0
 10
58.4282998121
 20
150.9214369453
 30
0.0
 10
58.4394989324
 20
151.1661403285
 30
0.0
 10
58.4851874785
 20
151.4105370445
 30
0.0
 10
58.5445702197
 20
151.5802880006
 30
0.0
  0
SPLINE
  5
35B
100
AcDbEntity
  8
0
100
AcDbSpline
 62
7
  6
BYLAYER
 70
0
 71
3
 72
9
 73
5
 74
0
 42
0.0000001
 43
0.0000001
 44
0.0000000001
 40
0.0
 40
0.0
 40
0.0
 40
0.0
 40
0.2758331661
 40
1.0
 40
1.0
 40
1.0
 40
1.0
 10
60.2100808219
 20
144.3114473462
 30
0.0
 10
60.2110159429
 20
144.3905918584
 30
0.0
 10
60.2284120332
 20
144.6763941555
 30
0.0
 10
60.3087924677
 20
144.9640772743
 30
0.0
 10
60.4164846409
 20
145.1417927291
 30
0.0
  0
SPLINE
  5
35C
100
AcDbEntity
  8
0
100
AcDbSpline
 62
7
  6
BYLAYER
 70
0
 71
3
 72
11
 73
7
 74
0
 42
0.0000001
 43
0.0000001
 44
0.0000000001
 40
0.0
 40
0.0
 40
0.0
 40
0.0
 40
0.2003888349
 40
0.4278621369
 40
0.6954496438
 40
1.0
 40
1.0
 40
1.0
 40
1.0
 10
82.0151314012
 20
133.0361766119
 30
0.0
 10
82.0701899746
 20
133.0678911155
 30
0.0
 10
82.2070546321
 20
133.1045972966
 30
0.0
 10
82.4288676148
 20
133.0654090204
 30
0.0
 10
82.6565028746
 20
132.9479000601
 30
0.0
 10
82.7964839134
 20
132.8303205404
 30
0.0
 10
82.8647481326
 20
132.7620184009
 30
0.0
  0
SPLINE
  5
35D
100
AcDbEntity
  8
0
100
AcDbSpline
 62
7
  6
BYLAYER
 70
0
 71
3
 72
9
 73
5
 74
0
 42
0.0000001
 43
0.0000001
 44
0.0000000001
 40
0.0
 40
0.0
 40
0.0
 40
0.0
 40
0.2302972058
 40
1.0
 40
1.0
 40
1.0
 40
1.0
 10
63.1733056323
 20
142.5543013204
 30
0.0
 10
63.1740747133
 20
142.6193929428
 30
0.0
 10
63.1582217398
 20
142.9021830774
 30
0.0
 10
63.0782841153
 20
143.1791775556
 30
0.0
 10
62.9934767232
 20
143.3795332485
 30
0.0
  0
SPLINE
  5
35E
100
AcDbEntity
  8
0
100
AcDbSpline
 62
7
  6
BYLAYER
 70
0
 71
3
 72
9
 73
5
 74
0
 42
0.0000001
 43
0.0000001
 44
0.0000000001
 40
0.0
 40
0.0
 40
0.0
 40
0.0
 40
0.2593840478
 40
1.0
 40
1.0
 40
1.0
 40
1.0
 10
62.3347450464
 20
144.3099565898
 30
0.0
 10
62.3134150315
 20
144.328701816
 30
0.0
 10
62.2297254837
 20
144.3992730568
 30
0.0
 10
62.1400713793
 20
144.4629499298
 30
0.0
 10
62.0704695664
 20
144.5045373541
 30
0.0
  0
SPLINE
  5
35F
100
AcDbEntity
  8
0
100
AcDbSpline
 62
7
  6
BYLAYER
 70
0
 71
3
 72
9
 73
5
 74
0
 42
0.0000001
 43
0.0000001
 44
0.0000000001
 40
0.0
 40
0.0
 40
0.0
 40
0.0
 40
0.5522159666
 40
1.0
 40
1.0
 40
1.0
 40
1.0
 10
62.0704695664
 20
144.5045373541
 30
0.0
 10
61.9364825709
 20
144.5845952406
 30
0.0
 10
61.6688027974
 20
144.7008164019
 30
0.0
 10
61.3667607154
 20
144.6579413994
 30
0.0
 10
61.2571364863
 20
144.5946858324
 30
0.0
  0
SPLINE
  5
360
100
AcDbEntity
  8
0
100
AcDbSpline
 62
7
  6
BYLAYER
 70
0
 71
3
 72
8
 73
4
 74
0
 42
0.0000001
 43
0.0000001
 44
0.0000000001
 40
0.0
 40
0.0
 40
0.0
 40
0.0
 40
1.0
 40
1.0
 40
1.0
 40
1.0
 10
129.4754537696
 20
126.7893562903
 30
0.0
 10
129.6387871963
 20
127.5941517259
 30
0.0
 10
129.7956426
 20
128.4002485945
 30
0.0
 10
129.9549323559
 20
129.2058541277
 30
0.0
  0
SPLINE
  5
361
100
AcDbEntity
  8
0
100
AcDbSpline
 62
7
  6
BYLAYER
 70
0
 71
3
 72
8
 73
4
 74
0
 42
0.0000001
 43
0.0000001
 44
0.0000000001
 40
0.0
 40
0.0
 40
0.0
 40
0.0
 40
1.0
 40
1.0
 40
1.0
 40
1.0
 10
129.9549323559
 20
129.2058541277
 30
0.0
 10
130.1145444786
 20
130.0130900257
 30
0.0
 10
130.2759359513
 20
130.8199846095
 30
0.0
 10
130.4312512702
 20
131.6280582302
 30
0.0
  0
SPLINE
  5
362
100
AcDbEntity
  8
0
100
AcDbSpline
 62
7
  6
BYLAYER
 70
0
 71
3
 72
9
 73
5
 74
0
 42
0.0000001
 43
0.0000001
 44
0.0000000001
 40
0.0
 40
0.0
 40
0.0
 40
0.0
 40
0.5225529676
 40
1.0
 40
1.0
 40
1.0
 40
1.0
 10
112.2027612831
 20
120.05641283
 30
0.0
 10
112.2078415158
 20
119.9181681047
 30
0.0
 10
112.1502937718
 20
119.6489339647
 30
0.0
 10
111.9713979243
 20
119.4312965524
 30
0.0
 10
111.861934817
 20
119.3680983752
 30
0.0
  0
SPLINE
  5
363
100
AcDbEntity
  8
0
100
AcDbSpline
 62
7
  6
BYLAYER
 70
0
 71
3
 72
9
 73
5
 74
0
 42
0.0000001
 43
0.0000001
 44
0.0000000001
 40
0.0
 40
0.0
 40
0.0
 40
0.0
 40
0.2655678578
 40
1.0
 40
1.0
 40
1.0
 40
1.0
 10
111.861934817
 20
119.3680983752
 30
0.0
 10
111.8459271149
 20
119.3588563792
 30
0.0
 10
111.7838410872
 20
119.327472628
 30
0.0
 10
111.7131139348
 20
119.3117221625
 30
0.0
 10
111.6620115543
 20
119.3129858635
 30
0.0
  0
SPLINE
  5
364
100
AcDbEntity
  8
0
100
AcDbSpline
 62
7
  6
BYLAYER
 70
0
 71
3
 72
9
 73
5
 74
0
 42
0.0000001
 43
0.0000001
 44
0.0000000001
 40
0.0
 40
0.0
 40
0.0
 40
0.0
 40
0.4538421454
 40
1.0
 40
1.0
 40
1.0
 40
1.0
 10
83.6781964358
 20
134.4830730433
 30
0.0
 10
83.5807094847
 20
134.426919413
 30
0.0
 10
83.4093754575
 20
134.2251073747
 30
0.0
 10
83.3629699019
 20
133.9738531683
 30
0.0
 10
83.355973816
 20
133.8386468357
 30
0.0
  0
SPLINE
  5
365
100
AcDbEntity
  8
0
100
AcDbSpline
 62
7
  6
BYLAYER
 70
0
 71
3
 72
9
 73
5
 74
0
 42
0.0000001
 43
0.0000001
 44
0.0000000001
 40
0.0
 40
0.0
 40
0.0
 40
0.0
 40
0.4999370565
 40
1.0
 40
1.0
 40
1.0
 40
1.0
 10
50.3877707135
 20
177.8401378195
 30
0.0
 10
49.7665595919
 20
177.3020602956
 30
0.0
 10
48.5322743525
 20
176.2162460497
 30
0.0
 10
47.2924179551
 20
175.1367963927
 30
0.0
 10
46.6766487437
 20
174.5921872161
 30
0.0
  0
SPLINE
  5
366
100
AcDbEntity
  8
0
100
AcDbSpline
 62
7
  6
BYLAYER
 70
0
 71
3
 72
13
 73
9
 74
0
 42
0.0000001
 43
0.0000001
 44
0.0000000001
 40
0.0
 40
0.0
 40
0.0
 40
0.0
 40
0.2910377359
 40
0.4280674453
 40
0.5580406492
 40
0.6803077081
 40
0.794600931
 40
1.0
 40
1.0
 40
1.0
 40
1.0
 10
50.3896972996
 20
177.8395902889
 30
0.0
 10
48.7034081275
 20
182.4670273516
 30
0.0
 10
46.7047083949
 20
189.4726006108
 30
0.0
 10
45.3079781299
 20
198.8225285483
 30
0.0
 10
44.9493959889
 20
205.410590304
 30
0.0
 10
45.2679127741
 20
211.6213494669
 30
0.0
 10
46.5371310378
 20
218.9973488526
 30
0.0
 10
48.5384314559
 20
224.1517686967
 30
0.0
 10
50.3893853971
 20
227.0938338993
 30
0.0
  0
SPLINE
  5
367
100
AcDbEntity
  8
0
100
AcDbSpline
 62
7
  6
BYLAYER
 70
0
 71
3
 72
9
 73
5
 74
0
 42
0.0000001
 43
0.0000001
 44
0.0000000001
 40
0.0
 40
0.0
 40
0.0
 40
0.0
 40
0.3740923631
 40
1.0
 40
1.0
 40
1.0
 40
1.0
 10
112.9704536639
 20
116.9607790202
 30
0.0
 10
112.9797461359
 20
116.9399012347
 30
0.0
 10
112.9604929551
 20
116.8729957463
 30
0.0
 10
112.9249014247
 20
116.8259458576
 30
0.0
 10
112.9006971545
 20
116.7963471709
 30
0.0
  0
SPLINE
  5
368
100
AcDbEntity
  8
0
100
AcDbSpline
 62
7
  6
BYLAYER
 70
0
 71
3
 72
9
 73
5
 74
0
 42
0.0000001
 43
0.0000001
 44
0.0000000001
 40
0.0
 40
0.0
 40
0.0
 40
0.0
 40
0.2259055568
 40
1.0
 40
1.0
 40
1.0
 40
1.0
 10
112.9006971545
 20
116.7963471709
 30
0.0
 10
112.8927583803
 20
116.7866390785
 30
0.0
 10
112.8565279359
 20
116.744555194
 30
0.0
 10
112.8168563406
 20
116.7055386996
 30
0.0
 10
112.7852003744
 20
116.6764776582
 30
0.0
  0
SPLINE
  5
369
100
AcDbEntity
  8
0
100
AcDbSpline
 62
7
  6
BYLAYER
 70
0
 71
3
 72
9
 73
5
 74
0
 42
0.0000001
 43
0.0000001
 44
0.0000000001
 40
0.0
 40
0.0
 40
0.0
 40
0.0
 40
0.5251581709
 40
1.0
 40
1.0
 40
1.0
 40
1.0
 10
111.1961990101
 20
119.3271454536
 30
0.0
 10
110.9145518477
 20
119.0501313759
 30
0.0
 10
110.3036788674
 20
118.5904479483
 30
0.0
 10
109.5662659518
 20
118.356787332
 30
0.0
 10
109.2104078229
 20
118.325893885
 30
0.0
  0
SPLINE
  5
36A
100
AcDbEntity
  8
0
100
AcDbSpline
 62
7
  6
BYLAYER
 70
0
 71
3
 72
15
 73
11
 74
0
 42
0.0000001
 43
0.0000001
 44
0.0000000001
 40
0.0
 40
0.0
 40
0.0
 40
0.0
 40
0.117721667
 40
0.2312674346
 40
0.3440215999
 40
0.4595546584
 40
0.5809931902
 40
0.710708114
 40
0.8501683013
 40
1.0
 40
1.0
 40
1.0
 40
1.0
 10
50.7171331589
 20
227.6014150091
 30
0.0
 10
51.617888895
 20
228.9639030036
 30
0.0
 10
53.6437679984
 20
231.4848455938
 30
0.0
 10
57.3769737793
 20
234.5175187094
 30
0.0
 10
61.6616380376
 20
236.6409418094
 30
0.0
 10
66.4066930996
 20
237.8142650223
 30
0.0
 10
71.5201655158
 20
238.0274227802
 30
0.0
 10
76.9143940782
 20
237.2914135576
 30
0.0
 10
82.5050208563
 20
235.6295330383
 30
0.0
 10
86.1786898235
 20
233.9834643923
 30
0.0
 10
88.0256563389
 20
233.0293987095
 30
0.0
  0
SPLINE
  5
36B
100
AcDbEntity
  8
0
100
AcDbSpline
 62
7
  6
BYLAYER
 70
0
 71
3
 72
8
 73
4
 74
0
 42
0.0000001
 43
0.0000001
 44
0.0000000001
 40
0.0
 40
0.0
 40
0.0
 40
0.0
 40
1.0
 40
1.0
 40
1.0
 40
1.0
 10
109.2104140139
 20
118.3258903107
 30
0.0
 10
109.1657010924
 20
118.3220086058
 30
0.0
 10
109.1212574748
 20
118.3066357295
 30
0.0
 10
109.0823892455
 20
118.2841952809
 30
0.0
  0
SPLINE
  5
36C
100
AcDbEntity
  8
0
100
AcDbSpline
 62
7
  6
BYLAYER
 70
0
 71
3
 72
9
 73
5
 74
0
 42
0.0000001
 43
0.0000001
 44
0.0000000001
 40
0.0
 40
0.0
 40
0.0
 40
0.0
 40
0.2340518134
 40
1.0
 40
1.0
 40
1.0
 40
1.0
 10
109.0823892455
 20
118.2841952809
 30
0.0
 10
109.0315546895
 20
118.2548461118
 30
0.0
 10
108.8470527106
 20
118.0767243549
 30
0.0
 10
108.7896542116
 20
117.7928169906
 30
0.0
 10
108.8239991869
 20
117.6038176402
 30
0.0
  0
SPLINE
  5
36D
100
AcDbEntity
  8
0
100
AcDbSpline
 62
7
  6
BYLAYER
 70
0
 71
3
 72
16
 73
12
 74
0
 42
0.0000001
 43
0.0000001
 44
0.0000000001
 40
0.0
 40
0.0
 40
0.0
 40
0.0
 40
0.0430336193
 40
0.0871525082
 40
0.1844768893
 40
0.299986814
 40
0.4330485476
 40
0.5779941477
 40
0.7265952612
 40
0.8698926806
 40
1.0
 40
1.0
 40
1.0
 40
1.0
 10
105.9440814411
 20
129.0621799568
 30
0.0
 10
106.1352246463
 20
129.2039492271
 30
0.0
 10
106.5624617419
 20
129.440996308
 30
0.0
 10
107.5625842314
 20
129.6897511323
 30
0.0
 10
109.0173656052
 20
129.5072813707
 30
0.0
 10
110.7485901283
 20
128.6431430021
 30
0.0
 10
112.4266046697
 20
127.231879448
 30
0.0
 10
113.917262805
 20
125.3872301885
 30
0.0
 10
115.0975341971
 20
123.2654137028
 30
0.0
 10
115.8662795147
 20
121.0498101868
 30
0.0
 10
116.0734074636
 20
119.5361405832
 30
0.0
 10
116.0734074636
 20
118.8166362144
 30
0.0
  0
SPLINE
  5
36E
100
AcDbEntity
  8
0
100
AcDbSpline
 62
7
  6
BYLAYER
 70
0
 71
3
 72
9
 73
5
 74
0
 42
0.0000001
 43
0.0000001
 44
0.0000000001
 40
0.0
 40
0.0
 40
0.0
 40
0.0
 40
0.2459040485
 40
1.0
 40
1.0
 40
1.0
 40
1.0
 10
110.9730899554
 20
132.7658739465
 30
0.0
 10
111.0679013875
 20
132.8206462733
 30
0.0
 10
111.465737387
 20
133.0219303511
 30
0.0
 10
111.9080219991
 20
133.131064025
 30
0.0
 10
112.2422397655
 20
133.1634285987
 30
0.0
  0
SPLINE
  5
36F
100
AcDbEntity
  8
0
100
AcDbSpline
 62
7
  6
BYLAYER
 70
0
 71
3
 72
12
 73
8
 74
0
 42
0.0000001
 43
0.0000001
 44
0.0000000001
 40
0.0
 40
0.0
 40
0.0
 40
0.0
 40
0.1948098561
 40
0.3104169119
 40
0.4371604334
 40
0.713923387
 40
1.0
 40
1.0
 40
1.0
 40
1.0
 10
112.2422397655
 20
133.1634285987
 30
0.0
 10
113.0283484652
 20
133.2395528374
 30
0.0
 10
114.3191778341
 20
132.9384935656
 30
0.0
 10
115.8689354123
 20
132.0812883024
 30
0.0
 10
117.5373041163
 20
130.7821999121
 30
0.0
 10
119.3646480902
 20
128.6293486531
 30
0.0
 10
120.4352779893
 20
126.5893857989
 30
0.0
 10
120.8483618483
 20
125.5056498674
 30
0.0
  0
SPLINE
  5
370
100
AcDbEntity
  8
0
100
AcDbSpline
 62
7
  6
BYLAYER
 70
0
 71
3
 72
15
 73
11
 74
0
 42
0.0000001
 43
0.0000001
 44
0.0000000001
 40
0.0
 40
0.0
 40
0.0
 40
0.0
 40
0.0869302718
 40
0.1864000368
 40
0.3037880336
 40
0.4376004358
 40
0.582099273
 40
0.7294176325
 40
0.8711704074
 40
1.0
 40
1.0
 40
1.0
 40
1.0
 10
96.4498356811
 20
130.1492164825
 30
0.0
 10
96.6820460896
 20
130.283406837
 30
0.0
 10
97.2656574645
 20
130.4332698869
 30
0.0
 10
98.2048992183
 20
130.2452028867
 30
0.0
 10
99.1645100471
 20
129.7210547454
 30
0.0
 10
100.0846550636
 20
128.9062863876
 30
0.0
 10
100.8970058415
 20
127.8663815718
 30
0.0
 10
101.5366356427
 20
126.6842530224
 30
0.0
 10
101.9516370311
 20
125.4571555115
 30
0.0
 10
102.0628437837
 20
124.621406934
 30
0.0
 10
102.0628437837
 20
124.2239447845
 30
0.0
  0
SPLINE
  5
371
100
AcDbEntity
  8
0
100
AcDbSpline
 62
7
  6
BYLAYER
 70
0
 71
3
 72
28
 73
24
 74
0
 42
0.0000001
 43
0.0000001
 44
0.0000000001
 40
0.0
 40
0.0
 40
0.0
 40
0.0
 40
0.0665438695
 40
0.1383394102
 40
0.2139137129
 40
0.2914561041
 40
0.3689986574
 40
0.4445737729
 40
0.5163723236
 40
0.5829145359
 40
0.6432533041
 40
0.6972313783
 40
0.7221364352
 40
0.7459103635
 40
0.7688728539
 40
0.7914106416
 40
0.8139485562
 40
0.836910796
 40
0.8606842071
 40
0.8855895833
 40
0.9118622195
 40
0.9396587144
 40
1.0
 40
1.0
 40
1.0
 40
1.0
 10
88.0761978172
 20
236.3612742813
 30
0.0
 10
91.5354183577
 20
234.3641375523
 30
0.0
 10
98.3678307508
 20
229.5748298794
 30
0.0
 10
107.7686600815
 20
220.7793926505
 30
0.0
 10
116.4323333648
 20
210.3828618614
 30
0.0
 10
124.0321960103
 20
198.7746669932
 30
0.0
 10
130.2853540443
 20
186.3885781416
 30
0.0
 10
134.9573237704
 20
173.6880643092
 30
0.0
 10
137.8741379244
 20
161.1457971301
 30
0.0
 10
138.9237583339
 20
149.2188186934
 30
0.0
 10
138.0598669504
 20
138.3394173514
 30
0.0
 10
135.6681502683
 20
130.2408550904
 30
0.0
 10
132.7659963297
 20
124.7838380568
 30
0.0
 10
130.2063027818
 20
121.3073068911
 30
0.0
 10
127.2291686661
 20
118.377728962
 30
0.0
 10
123.863984998
 20
116.0288301925
 30
0.0
 10
120.1472414095
 20
114.2889047899
 30
0.0
 10
116.1216254488
 20
113.1752743569
 30
0.0
 10
111.8312050087
 20
112.696706189
 30
0.0
 10
107.3206450974
 20
112.8538115283
 30
0.0
 10
102.6329951419
 20
113.6398360876
 30
0.0
 10
96.0286983452
 20
115.5655013882
 30
0.0
 10
91.21298286
 20
117.857484691
 30
0.0
 10
88.0761978172
 20
119.66846741
 30
0.0
  0
SPLINE
  5
372
100
AcDbEntity
  8
0
100
AcDbSpline
 62
7
  6
BYLAYER
 70
0
 71
3
 72
9
 73
5
 74
0
 42
0.0000001
 43
0.0000001
 44
0.0000000001
 40
0.0
 40
0.0
 40
0.0
 40
0.0
 40
0.4867904943
 40
1.0
 40
1.0
 40
1.0
 40
1.0
 10
98.1138064592
 20
131.594544513
 30
0.0
 10
97.9687811746
 20
131.510737795
 30
0.0
 10
97.6955364261
 20
131.2924075687
 30
0.0
 10
97.4955751902
 20
131.0069590288
 30
0.0
 10
97.4115728448
 20
130.8516289547
 30
0.0
  0
SPLINE
  5
373
100
AcDbEntity
  8
0
100
AcDbSpline
 62
7
  6
BYLAYER
 70
0
 71
3
 72
15
 73
11
 74
0
 42
0.0000001
 43
0.0000001
 44
0.0000000001
 40
0.0
 40
0.0
 40
0.0
 40
0.0
 40
0.1519785792
 40
0.2931373051
 40
0.4238799267
 40
0.5455391247
 40
0.6604754254
 40
0.771976788
 40
0.8839011604
 40
1.0
 40
1.0
 40
1.0
 40
1.0
 10
88.099620176
 20
233.0604901811
 30
0.0
 10
86.0538272887
 20
234.2427864953
 30
0.0
 10
81.9758899764
 20
236.3074956866
 30
0.0
 10
75.7354365708
 20
238.4916777765
 30
0.0
 10
69.6907144233
 20
239.6089374695
 30
0.0
 10
63.9441303775
 20
239.6260888302
 30
0.0
 10
58.601913426
 20
238.5236211093
 30
0.0
 10
53.7785097946
 20
236.3063074437
 30
0.0
 10
49.5895373288
 20
233.0202373703
 30
0.0
 10
47.3360809036
 20
230.2430641197
 30
0.0
 10
46.3406326844
 20
228.7373437638
 30
0.0
  0
SPLINE
  5
374
100
AcDbEntity
  8
0
100
AcDbSpline
 62
7
  6
BYLAYER
 70
0
 71
3
 72
10
 73
6
 74
0
 42
0.0000001
 43
0.0000001
 44
0.0000000001
 40
0.0
 40
0.0
 40
0.0
 40
0.0
 40
0.2739022608
 40
0.5314764659
 40
1.0
 40
1.0
 40
1.0
 40
1.0
 10
135.6931242002
 20
150.4317731283
 30
0.0
 10
135.607867341
 20
148.6350711002
 30
0.0
 10
135.2733493717
 20
145.1514396801
 30
0.0
 10
133.9218832305
 20
138.7205921643
 30
0.0
 10
132.0673966134
 20
134.2342260088
 30
0.0
 10
130.4289926268
 20
131.6299269882
 30
0.0
  0
SPLINE
  5
375
100
AcDbEntity
  8
0
100
AcDbSpline
 62
7
  6
BYLAYER
 70
0
 71
3
 72
11
 73
7
 74
0
 42
0.0000001
 43
0.0000001
 44
0.0000000001
 40
0.0
 40
0.0
 40
0.0
 40
0.0
 40
0.2407716123
 40
0.4849601936
 40
0.73683024
 40
1.0
 40
1.0
 40
1.0
 40
1.0
 10
252.7581291301
 20
179.5669929016
 30
0.0
 10
254.1139963728
 20
180.2743738108
 30
0.0
 10
256.7286700549
 20
181.9358202936
 30
0.0
 10
260.2140823514
 20
185.0900020107
 30
0.0
 10
263.2358624467
 20
188.87261219
 30
0.0
 10
264.8810407464
 20
191.7149889115
 30
0.0
 10
265.6217393647
 20
193.2134891444
 30
0.0
  0
SPLINE
  5
376
100
AcDbEntity
  8
0
100
AcDbSpline
 62
7
  6
BYLAYER
 70
0
 71
3
 72
9
 73
5
 74
0
 42
0.0000001
 43
0.0000001
 44
0.0000000001
 40
0.0
 40
0.0
 40
0.0
 40
0.0
 40
0.3007344095
 40
1.0
 40
1.0
 40
1.0
 40
1.0
 10
108.8239991869
 20
115.3364569128
 30
0.0
 10
108.8205183501
 20
115.3213212074
 30
0.0
 10
108.8114038191
 20
115.2709648969
 30
0.0
 10
108.8113171438
 20
115.2156192923
 30
0.0
 10
108.8262686198
 20
115.1827477525
 30
0.0
  0
SPLINE
  5
377
100
AcDbEntity
  8
0
100
AcDbSpline
 62
7
  6
BYLAYER
 70
0
 71
3
 72
8
 73
4
 74
0
 42
0.0000001
 43
0.0000001
 44
0.0000000001
 40
0.0
 40
0.0
 40
0.0
 40
0.0
 40
1.0
 40
1.0
 40
1.0
 40
1.0
 10
108.8262686198
 20
115.1827477525
 30
0.0
 10
108.8335884556
 20
115.1666547413
 30
0.0
 10
108.8460277207
 20
115.1518043722
 30
0.0
 10
108.8613314894
 20
115.1429522725
 30
0.0
  0
ELLIPSE
  5
378
100
AcDbEntity
  8
0
100
AcDbEllipse
 62
7
  6
BYLAYER
 10
110.4119245535
 20
122.2227889594
 30
0.0
 11
-4.5805690088
 21
4.3550371831
 31
0.0
 40
0.2854524369
 41
0.0094359068
 42
0.0768004361
  0
ELLIPSE
  5
379
100
AcDbEntity
  8
0
100
AcDbEllipse
 62
7
  6
BYLAYER
 10
115.7760366846
 20
125.3197420559
 30
0.0
 11
16.6034385901
 21
3.6649841126
 31
0.0
 40
0.2019034606
 41
2.2434194043
 42
2.2604331775
  0
ELLIPSE
  5
37A
100
AcDbEntity
  8
0
100
AcDbEllipse
 62
7
  6
BYLAYER
 10
109.6970397585
 20
121.8100524943
 30
0.0
 11
10.1767556703
 21
-0.7667626352
 31
0.0
 40
0.2347729988
 41
2.2668804844
 42
2.313327467
  0
ELLIPSE
  5
37B
100
AcDbEntity
  8
0
100
AcDbEllipse
 62
7
  6
BYLAYER
 10
97.735587827
 20
114.9041462244
 30
0.0
 11
16.3361517058
 21
14.0032496678
 31
0.0
 40
0.218385681
 41
0.8138973157
 42
0.8412649121
  0
ELLIPSE
  5
37C
100
AcDbEntity
  8
0
100
AcDbEllipse
 62
7
  6
BYLAYER
 10
110.4119245535
 20
122.2227889594
 30
0.0
 11
-4.5805690088
 21
4.3550371831
 31
0.0
 40
0.2854524369
 41
-1.8157065963
 42
-1.748342067
  0
ELLIPSE
  5
37D
100
AcDbEntity
  8
0
100
AcDbEllipse
 62
7
  6
BYLAYER
 10
97.735587827
 20
114.9041462244
 30
0.0
 11
16.3361517058
 21
14.0032496678
 31
0.0
 40
0.218385681
 41
-0.687776211
 42
-0.6604086147
  0
ELLIPSE
  5
37E
100
AcDbEntity
  8
0
100
AcDbEllipse
 62
7
  6
BYLAYER
 10
676.4729194876
 20
517.7238487032
 30
0.0
 11
495.9374145553
 21
222.6808303434
 31
0.0
 40
0.0895415683
 41
2.6983310602
 42
2.7390456005
  0
ELLIPSE
  5
37F
100
AcDbEntity
  8
0
100
AcDbEllipse
 62
7
  6
BYLAYER
 10
676.4729194876
 20
517.7238487032
 30
0.0
 11
495.9374145553
 21
222.6808303434
 31
0.0
 40
0.0895415683
 41
-2.6444824673
 42
-2.5692566435
  0
ELLIPSE
  5
380
100
AcDbEntity
  8
0
100
AcDbEllipse
 62
7
  6
BYLAYER
 10
109.6970397585
 20
121.8100524943
 30
0.0
 11
10.1767556703
 21
-0.7667626352
 31
0.0
 40
0.2347729988
 41
-1.4052824397
 42
-1.3588354572
  0
ELLIPSE
  5
381
100
AcDbEntity
  8
0
100
AcDbEllipse
 62
7
  6
BYLAYER
 10
110.4119245535
 20
122.2227889594
 30
0.0
 11
0.4972639617
 21
6.5998702387
 31
0.0
 40
0.7151876898
 41
3.6891146302
 42
3.7564791596
  0
ENDSEC
  0
SECTION
  2
OBJECTS
  0
DICTIONARY
  5
C
100
AcDbDictionary
280
0
281
1
  3
ACAD_GROUP
350
D
  3
ACAD_MLINESTYLE
350
17
  3
ACAD_LAYOUT
350
1A
  3
ACAD_PLOTSETTINGS
350
19
  3
ACAD_PLOTSTYLENAME
350
E
  0
DICTIONARY
  5
D
102
{ACAD_REACTORS
330
C
102
}
100
AcDbDictionary
280
0
281
1
  0
ACDBDICTIONARYWDFLT
  5
E
102
{ACAD_REACTORS
330
C
102
}
100
AcDbDictionary
281
1
  3
Normal
350
F
100
AcDbDictionaryWithDefault
340
F
  0
DICTIONARY
  5
17
102
{ACAD_REACTORS
330
C
102
}
100
AcDbDictionary
280
0
281
1
  3
Standard
350
18
  0
DICTIONARY
  5
19
102
{ACAD_REACTORS
330
C
102
}
100
AcDbDictionary
281
1
  0
DICTIONARY
  5
1A
102
{ACAD_REACTORS
330
C
102
}
100
AcDbDictionary
281
1
  3
Model
350
382
  3
Layout1
350
383
  0
ACDBPLACEHOLDER
  5
F
102
{ACAD_REACTORS
330
E
102
}
  0
MLINESTYLE
  5
18
102
{ACAD_REACTORS
330
17
102
}
100
AcDbMlineStyle
  2
STANDARD
 70
0
  3

 62
256
 51
90.0
 52
90.0
 71
2
 49
0.5
 62
256
  6
BYLAYER
 49
-0.5
 62
256
  6
BYLAYER
  0
LAYOUT
  5
382
102
{ACAD_REACTORS
330
1A
102
}
100
AcDbPlotSettings
  1

  2
none_device
  4

  6

 40
0.0
 41
0.0
 42
0.0
 43
0.0
 44
210.0
 45
297.0
 46
0.0
 47
0.0
 48
0.0
 49
0.0
140
0.0
141
0.0
142
1.0
143
1.0
 70
1024
 72
1
 73
0
 74
0
  7

 75
0
147
1.0
148
0.0
149
0.0
100
AcDbLayout
  1
Model
 70
0
 71
0
 10
0.0
 20
0.0
 11
210.0
 21
297.0
 12
0.0
 22
0.0
 32
0.0
 14
0.0
 24
0.0
 34
0.0
 15
0.0
 25
0.0
 35
0.0
146
0.0
 13
0.0
 23
0.0
 33
0.0
 16
1.0
 26
0.0
 36
0.0
 17
0.0
 27
1.0
 37
0.0
 76
0
330
210
345
0
346
0
  0
LAYOUT
  5
383
102
{ACAD_REACTORS
330
1A
102
}
100
AcDbPlotSettings
  1

  2
none_device
  4

  6

 40
0.0
 41
0.0
 42
0.0
 43
0.0
 44
210.0
 45
297.0
 46
0.0
 47
0.0
 48
0.0
 49
0.0
140
0.0
141
0.0
142
1.0
143
1.0
 70
0
 72
1
 73
0
 74
0
  7

 75
0
147
1.0
148
0.0
149
0.0
100
AcDbLayout
  1
Layout1
 70
0
 71
1
 10
0.0
 20
0.0
 11
210.0
 21
297.0
 12
0.0
 22
0.0
 32
0.0
 14
0.0
 24
0.0
 34
0.0
 15
0.0
 25
0.0
 35
0.0
146
0.0
 13
0.0
 23
0.0
 33
0.0
 16
1.0
 26
0.0
 36
0.0
 17
0.0
 27
1.0
 37
0.0
 76
0
330
211
345
0
346
0
  0
ENDSEC
  0
EOF
