999
DXF file: C:\Users\sesa63760\Dev\_Creo\CAD\MCADPD0004455_3D-CAD\drw0001_5.dxf
999
Pro/ENGINEER 2019471 by Parametric Technology Corporation
  0
SECTION
  2
HEADER
  9
$ACADVER
  1
AC1024
  9
$DWGCODEPAGE
  3
ANSI_1252
  9
$EXTMAX
 10
150.886140526
 20
213.3961130296
 30
0.0
  9
$EXTMIN
 10
0.0
 20
0.0
 30
0.0
  9
$LIMMIN
 10
0.0
 20
0.0
  9
$LIMMAX
 10
150.886140526
 20
213.3961130296
  9
$VIEWCTR
 10
75.443070263
 20
106.6980565148
  9
$VIEWSIZE
 40
213.3961130296
  9
$CLAYER
  8
0
  9
$LTSCALE
 40
13.9102651456
  9
$CELTYPE
  6
BYLAYER
  9
$DIMSCALE
 40
1.0
  9
$DIMASZ
 40
1.7962635777
  9
$DIMEXO
 40
1.0
  9
$DIMDLI
 40
9.6107286461
  9
$DIMEXE
 40
1.0
  9
$DIMCEN
 40
2.2762252056
  9
$DIMLFAC
 40
1.0
  9
$DIMBLK
  1
_FILLED
  9
$DIMALT
 70
0
  9
$DIMALTF
 40
0.0393700787
  9
$DIMTXT
 40
2.5147690088
  9
$DIMTOL
 70
1
  9
$DIMLIM
 70
0
  9
$DIMTFAC
 40
1.0
  9
$DIMTP
 40
0.01
  9
$DIMTM
 40
0.01
  9
$DIMGAP
 40
0.625
  9
$DIMDSEP
 70
46
  9
$AUNITS
 70
0
  9
$PDMODE
 70
3
  9
$PDSIZE
 40
0.3125
  9
$HANDSEED
  5
28F
  9
$TILEMODE
 70
1
  9
$MEASUREMENT
 70
1
  9
$INSUNITS
 70
4
  0
ENDSEC
  0
SECTION
  2
CLASSES
  0
CLASS
  1
ACDBDICTIONARYWDFLT
  2
AcDbDictionaryWithDefault
  3
AutoCAD 2000
 90
0
 91
1
280
0
281
0
  0
CLASS
  1
ACDBPLACEHOLDER
  2
AcDbPlaceHolder
  3
AutoCAD 2000
 90
0
 91
1
280
0
281
0
  0
CLASS
  1
LAYOUT
  2
AcDbLayout
  3
AutoCAD 2000
 90
0
 91
0
280
0
281
0
  0
ENDSEC
  0
SECTION
  2
TABLES
  0
TABLE
  2
VPORT
  5
8
100
AcDbSymbolTable
 70
2
  0
VPORT
  5
1F4
100
AcDbSymbolTableRecord
100
AcDbViewportTableRecord
  2
*ACTIVE
 70
0
 10
0.0
 20
0.0
 11
1.0
 21
1.0
 12
75.443070263
 22
106.6980565148
 13
0.0
 23
0.0
 14
1.0
 24
1.0
 15
0.0
 25
0.0
 16
0.0
 26
0.0
 36
1.0
 17
0.0
 27
0.0
 37
0.0
 40
213.3961130296
 41
0.7070707071
 42
50.0
 43
0.0
 44
0.0
 50
0.0
 51
0.0
 71
0
 72
100
 73
1
 74
1
 75
0
 76
0
 77
0
 78
0
  0
ENDTAB
  0
TABLE
  2
LTYPE
  5
5
100
AcDbSymbolTable
 70
6
  0
LTYPE
  5
14
100
AcDbSymbolTableRecord
100
AcDbLinetypeTableRecord
  2
BYBLOCK
 70
0
  3

 72
65
 73
0
 40
0.0
  0
LTYPE
  5
15
100
AcDbSymbolTableRecord
100
AcDbLinetypeTableRecord
  2
BYLAYER
 70
0
  3

 72
65
 73
0
 40
0.0
  0
LTYPE
  5
16
100
AcDbSymbolTableRecord
100
AcDbLinetypeTableRecord
  2
CONTINUOUS
 70
64
  3
Solid line
 72
65
 73
0
 40
0.0
  0
LTYPE
  5
1F5
100
AcDbSymbolTableRecord
100
AcDbLinetypeTableRecord
  2
CENTER
 70
64
  3
____ _ ____ _ ____ _ ____ _ ____ _ ____ _ ____
 72
65
 73
4
 40
0.6
 49
0.375
 74
0
 49
-0.075
 74
0
 49
0.075
 74
0
 49
-0.075
 74
0
  0
LTYPE
  5
1F6
100
AcDbSymbolTableRecord
100
AcDbLinetypeTableRecord
  2
HIDDEN
 70
64
  3
- - - - - - - - - - - - - - - - - - - -
 72
65
 73
2
 40
0.2
 49
0.1
 74
0
 49
-0.1
 74
0
  0
LTYPE
  5
1F7
100
AcDbSymbolTableRecord
100
AcDbLinetypeTableRecord
  2
PHANTOM
 70
64
  3
_____ _ _ _____ _ _ _____ _ _ _____
 72
65
 73
6
 40
0.8
 49
0.45
 74
0
 49
-0.05
 74
0
 49
0.1
 74
0
 49
-0.05
 74
0
 49
0.1
 74
0
 49
-0.05
 74
0
  0
LTYPE
  5
1F8
100
AcDbSymbolTableRecord
100
AcDbLinetypeTableRecord
  2
DOT
 70
64
  3
. . . . . . . . . . . . . . . . . . . .
 72
65
 73
2
 40
0.2
 49
0.1
 74
0
 49
-0.1
 74
0
  0
LTYPE
  5
1F9
100
AcDbSymbolTableRecord
100
AcDbLinetypeTableRecord
  2
DASHED
 70
64
  3
- - - - - - - - - - - - - - - - - - - -
 72
65
 73
2
 40
0.2
 49
0.1
 74
0
 49
-0.1
 74
0
  0
ENDTAB
  0
TABLE
  2
LAYER
  5
2
100
AcDbSymbolTable
 70
36
  0
LAYER
  5
10
100
AcDbSymbolTableRecord
100
AcDbLayerTableRecord
  2
0
 70
0
 62
7
  6
CONTINUOUS
370
-3
390
F
  0
LAYER
  5
1FA
100
AcDbSymbolTableRecord
100
AcDbLayerTableRecord
  2
DEFAULT_1
 70
0
 62
7
  6
CENTER
370
-3
390
F
  0
LAYER
  5
1FB
100
AcDbSymbolTableRecord
100
AcDbLayerTableRecord
  2
DEFAULT_2
 70
0
 62
7
  6
HIDDEN
370
-3
390
F
  0
LAYER
  5
1FC
100
AcDbSymbolTableRecord
100
AcDbLayerTableRecord
  2
DEFAULT_3
 70
0
 62
7
  6
PHANTOM
370
-3
390
F
  0
LAYER
  5
1FD
100
AcDbSymbolTableRecord
100
AcDbLayerTableRecord
  2
00_COMPONENTS
 70
0
 62
7
  6
CONTINUOUS
370
-3
390
F
  0
LAYER
  5
1FE
100
AcDbSymbolTableRecord
100
AcDbLayerTableRecord
  2
01_1_DEFAULT_DATUMS
 70
0
 62
7
  6
CONTINUOUS
370
-3
390
F
  0
LAYER
  5
1FF
100
AcDbSymbolTableRecord
100
AcDbLayerTableRecord
  2
01_PLANES
 70
0
 62
7
  6
CONTINUOUS
370
-3
390
F
  0
LAYER
  5
200
100
AcDbSymbolTableRecord
100
AcDbLayerTableRecord
  2
02_COORD_SYS
 70
0
 62
7
  6
CONTINUOUS
370
-3
390
F
  0
LAYER
  5
201
100
AcDbSymbolTableRecord
100
AcDbLayerTableRecord
  2
03_AXES
 70
0
 62
7
  6
CONTINUOUS
370
-3
390
F
  0
LAYER
  5
202
100
AcDbSymbolTableRecord
100
AcDbLayerTableRecord
  2
04_POINTS
 70
0
 62
7
  6
CONTINUOUS
370
-3
390
F
  0
LAYER
  5
203
100
AcDbSymbolTableRecord
100
AcDbLayerTableRecord
  2
05_CURVES
 70
0
 62
7
  6
CONTINUOUS
370
-3
390
F
  0
LAYER
  5
204
100
AcDbSymbolTableRecord
100
AcDbLayerTableRecord
  2
06_SURFS
 70
0
 62
7
  6
CONTINUOUS
370
-3
390
F
  0
LAYER
  5
205
100
AcDbSymbolTableRecord
100
AcDbLayerTableRecord
  2
07_COSMETICS
 70
0
 62
7
  6
CONTINUOUS
370
-3
390
F
  0
LAYER
  5
206
100
AcDbSymbolTableRecord
100
AcDbLayerTableRecord
  2
10_NOTES
 70
0
 62
7
  6
CONTINUOUS
370
-3
390
F
  0
LAYER
  5
207
100
AcDbSymbolTableRecord
100
AcDbLayerTableRecord
  2
11_NOTES_PUB
 70
0
 62
7
  6
CONTINUOUS
370
-3
390
F
  0
LAYER
  5
208
100
AcDbSymbolTableRecord
100
AcDbLayerTableRecord
  2
13_REF_GTOL
 70
0
 62
7
  6
CONTINUOUS
370
-3
390
F
  0
LAYER
  5
209
100
AcDbSymbolTableRecord
100
AcDbLayerTableRecord
  2
16_MISC
 70
0
 62
7
  6
CONTINUOUS
370
-3
390
F
  0
LAYER
  5
20A
100
AcDbSymbolTableRecord
100
AcDbLayerTableRecord
  2
17_NO_PRINT
 70
0
 62
7
  6
CONTINUOUS
370
-3
390
F
  0
LAYER
  5
20B
100
AcDbSymbolTableRecord
100
AcDbLayerTableRecord
  2
18_DATUM_CAMS_JOINTS
 70
0
 62
7
  6
CONTINUOUS
370
-3
390
F
  0
LAYER
  5
20C
100
AcDbSymbolTableRecord
100
AcDbLayerTableRecord
  2
19_DATUM_FUNCTIONAL
 70
0
 62
7
  6
CONTINUOUS
370
-3
390
F
  0
LAYER
  5
20D
100
AcDbSymbolTableRecord
100
AcDbLayerTableRecord
  2
20_DATUM_KINEMATIC_SCHEME
 70
0
 62
7
  6
CONTINUOUS
370
-3
390
F
  0
ENDTAB
  0
TABLE
  2
STYLE
  5
3
100
AcDbSymbolTable
 70
1
  0
STYLE
  5
11
100
AcDbSymbolTableRecord
100
AcDbTextStyleTableRecord
  2
STANDARD
 70
0
 40
0.0
 41
1.0
 50
0.0
 71
0
 42
0.2
  3
ARIAL.TTF
  4

  0
STYLE
  5
20E
100
AcDbSymbolTableRecord
100
AcDbTextStyleTableRecord
  2
TEXTSTYLE_1
 70
0
 40
0.0
 41
0.8
 50
0.0
 71
0
 42
0.2
  3
gdt
  4

  0
ENDTAB
  0
TABLE
  2
VIEW
  5
6
100
AcDbSymbolTable
 70
0
  0
ENDTAB
  0
TABLE
  2
UCS
  5
7
100
AcDbSymbolTable
 70
0
  0
ENDTAB
  0
TABLE
  2
APPID
  5
9
100
AcDbSymbolTable
 70
1
  0
APPID
  5
20F
100
AcDbSymbolTableRecord
100
AcDbRegAppTableRecord
  2
ACAD
 70
0
  0
ENDTAB
  0
TABLE
  2
BLOCK_RECORD
  5
1
100
AcDbSymbolTable
 70
0
  0
BLOCK_RECORD
  5
210
100
AcDbSymbolTableRecord
100
AcDbBlockTableRecord
  2
*Model_Space
  0
BLOCK_RECORD
  5
211
100
AcDbSymbolTableRecord
100
AcDbBlockTableRecord
  2
*Paper_Space
  0
BLOCK_RECORD
  5
212
100
AcDbSymbolTableRecord
100
AcDbBlockTableRecord
  2
_FILLED
  0
ENDTAB
  0
TABLE
  2
DIMSTYLE
  5
A
100
AcDbSymbolTable
 70
1
100
AcDbDimStyleTable
 71
0
  0
DIMSTYLE
105
213
100
AcDbSymbolTableRecord
100
AcDbDimStyleTableRecord
  2
STANDARD
 70
0
  3

  4

 40
1.0
 41
1.7962635777
 42
1.0
 43
0.38
 44
1.0
 45
0.0
 46
0.0
 47
0.01
 48
0.01
140
2.5147690088
141
0.09
142
0.0
143
25.4
144
1.0
145
0.0
146
1.0
147
0.625
 71
1
 72
0
 73
0
 74
0
 75
0
 76
0
 77
1
 78
8
 79
2
170
0
171
1
172
0
173
0
174
0
175
0
176
0
177
0
178
0
270
2
179
2
271
2
272
2
273
2
274
2
275
0
280
0
281
0
282
0
283
1
284
8
285
0
286
0
287
3
288
0
340
11
278
46
341
212
342
212
343
212
344
212
  0
ENDTAB
  0
ENDSEC
  0
SECTION
  2
BLOCKS
  0
BLOCK
  5
20
100
AcDbEntity
  8
0
100
AcDbBlockBegin
  2
*Model_Space
 70
0
 10
0.0
 20
0.0
 30
0.0
  3
*Model_Space
  1

  0
ENDBLK
  5
21
100
AcDbEntity
  8
0
100
AcDbBlockEnd
  0
BLOCK
  5
1C
100
AcDbEntity
  8
0
100
AcDbBlockBegin
  2
*Paper_Space
 70
0
 10
0.0
 20
0.0
 30
0.0
  3
*Paper_Space
  1

  0
ENDBLK
  5
1D
100
AcDbEntity
  8
0
100
AcDbBlockEnd
  0
BLOCK
  5
214
100
AcDbEntity
  8
0
100
AcDbBlockBegin
  2
_FILLED
 70
64
 10
0.0
 20
0.0
  3
_FILLED
  1

  0
SOLID
  5
215
100
AcDbEntity
  8
0
  6
BYBLOCK
 62
0
100
AcDbTrace
 10
0.0
 20
0.0
 11
-1.0
 21
0.25
 12
-1.0
 22
-0.25
 13
-1.0
 23
-0.25
  0
ENDBLK
  5
216
100
AcDbEntity
  8
0
  6
BYBLOCK
 62
0
100
AcDbBlockEnd
  0
ENDSEC
  0
SECTION
  2
ENTITIES
  0
LINE
  5
217
100
AcDbEntity
  8
0
100
AcDbLine
 62
7
  6
BYLAYER
 10
87.7883929057
 20
24.3592512676
 11
51.88843252
 21
24.3592512676
  0
LINE
  5
218
100
AcDbEntity
  8
0
100
AcDbLine
 62
7
  6
BYLAYER
 10
24.18843252
 20
44.1592512676
 11
17.58843252
 21
44.1592512676
  0
LINE
  5
219
100
AcDbEntity
  8
0
100
AcDbLine
 62
7
  6
BYLAYER
 10
24.38843252
 20
44.2504712512
 11
27.3877091624
 21
44.2504712512
  0
LINE
  5
21A
100
AcDbEntity
  8
0
100
AcDbLine
 62
7
  6
BYLAYER
 10
24.18843252
 20
44.4577391938
 11
24.38843252
 21
44.4577391938
  0
LINE
  5
21B
100
AcDbEntity
  8
0
100
AcDbLine
 62
7
  6
BYLAYER
 10
17.58843252
 20
44.9317640532
 11
22.98843252
 21
44.9317640532
  0
LINE
  5
21C
100
AcDbEntity
  8
0
100
AcDbLine
 62
7
  6
BYLAYER
 10
27.8012270742
 20
45.2842577238
 11
17.58843252
 21
45.2842577238
  0
LINE
  5
21D
100
AcDbEntity
  8
0
100
AcDbLine
 62
7
  6
BYLAYER
 10
113.8749549907
 20
45.3592512676
 11
85.7645219532
 21
45.3592512676
  0
LINE
  5
21E
100
AcDbEntity
  8
0
100
AcDbLine
 62
7
  6
BYLAYER
 10
17.8767841683
 20
88.7464400923
 11
17.998646204
 21
87.9592512676
  0
LINE
  5
21F
100
AcDbEntity
  8
0
100
AcDbLine
 62
7
  6
BYLAYER
 10
18.9040850676
 20
86.2592512676
 11
18.78843252
 21
87.9592512676
  0
LINE
  5
220
100
AcDbEntity
  8
0
100
AcDbLine
 62
7
  6
BYLAYER
 10
17.58843252
 20
154.9216431897
 11
17.58843252
 21
124.3626649984
  0
LINE
  5
221
100
AcDbEntity
  8
0
100
AcDbLine
 62
7
  6
BYLAYER
 10
17.58843252
 20
44.1592512676
 11
17.58843252
 21
89.1592512676
  0
LINE
  5
222
100
AcDbEntity
  8
0
100
AcDbLine
 62
7
  6
BYLAYER
 10
17.68843252
 20
154.9216431897
 11
17.68843252
 21
155.7592080897
  0
LINE
  5
223
100
AcDbEntity
  8
0
100
AcDbLine
 62
7
  6
BYLAYER
 10
19.18843252
 20
155.7592080897
 11
19.18843252
 21
154.9216431897
  0
LINE
  5
224
100
AcDbEntity
  8
0
100
AcDbLine
 62
7
  6
BYLAYER
 10
19.38843252
 20
87.9592512676
 11
19.38843252
 21
86.2592512676
  0
LINE
  5
225
100
AcDbEntity
  8
0
100
AcDbLine
 62
7
  6
BYLAYER
 10
22.38843252
 20
86.2592512676
 11
22.38843252
 21
87.7592512676
  0
LINE
  5
226
100
AcDbEntity
  8
0
100
AcDbLine
 62
7
  6
BYLAYER
 10
22.98843252
 20
44.1592512676
 11
22.98843252
 21
44.9317640532
  0
LINE
  5
227
100
AcDbEntity
  8
0
100
AcDbLine
 62
7
  6
BYLAYER
 10
22.98843252
 20
84.9592512676
 11
22.98843252
 21
86.2592512676
  0
LINE
  5
228
100
AcDbEntity
  8
0
100
AcDbLine
 62
7
  6
BYLAYER
 10
22.3344442828
 20
122.4552949043
 11
23.2524337997
 21
124.4620626853
  0
LINE
  5
229
100
AcDbEntity
  8
0
100
AcDbLine
 62
7
  6
BYLAYER
 10
28.38843252
 20
48.7413001719
 11
51.88843252
 21
48.6180110541
  0
LINE
  5
22A
100
AcDbEntity
  8
0
100
AcDbLine
 62
7
  6
BYLAYER
 10
24.2397219099
 20
88.8280936952
 11
22.7420110034
 21
93.4375738956
  0
LINE
  5
22B
100
AcDbEntity
  8
0
100
AcDbLine
 62
7
  6
BYLAYER
 10
24.18843252
 20
84.9592512676
 11
24.18843252
 21
86.2592512676
  0
LINE
  5
22C
100
AcDbEntity
  8
0
100
AcDbLine
 62
7
  6
BYLAYER
 10
24.38843252
 20
44.2504712512
 11
24.38843252
 21
44.4577391939
  0
LINE
  5
22D
100
AcDbEntity
  8
0
100
AcDbLine
 62
7
  6
BYLAYER
 10
24.38843252
 20
84.9592512676
 11
24.38843252
 21
88.9662022761
  0
LINE
  5
22E
100
AcDbEntity
  8
0
100
AcDbLine
 62
7
  6
BYLAYER
 10
24.4023262331
 20
124.4620626853
 11
24.4023262331
 21
88.9662022761
  0
LINE
  5
22F
100
AcDbEntity
  8
0
100
AcDbLine
 62
7
  6
BYLAYER
 10
28.38843252
 20
46.7522595421
 11
28.38843252
 21
48.7413001719
  0
LINE
  5
230
100
AcDbEntity
  8
0
100
AcDbLine
 62
7
  6
BYLAYER
 10
17.58843252
 20
57.1370971461
 11
51.88843252
 21
57.1370971461
  0
LINE
  5
231
100
AcDbEntity
  8
0
100
AcDbLine
 62
7
  6
BYLAYER
 10
51.88843252
 20
65.8592512676
 11
113.8749549907
 21
65.8592512676
  0
LINE
  5
232
100
AcDbEntity
  8
0
100
AcDbLine
 62
7
  6
BYLAYER
 10
113.9884305127
 20
66.0592512676
 11
63.08843252
 21
66.0592512676
  0
LINE
  5
233
100
AcDbEntity
  8
0
100
AcDbLine
 62
7
  6
BYLAYER
 10
113.6925266902
 20
68.7701057122
 11
113.8608882367
 21
68.7701057122
  0
LINE
  5
234
100
AcDbEntity
  8
0
100
AcDbLine
 62
7
  6
BYLAYER
 10
113.7098274467
 20
68.306517503
 11
113.8490929822
 21
68.3063161394
  0
LINE
  5
235
100
AcDbEntity
  8
0
100
AcDbLine
 62
7
  6
BYLAYER
 10
22.142120892
 20
93.4375738956
 11
17.8767841683
 21
88.7464400923
  0
LINE
  5
236
100
AcDbEntity
  8
0
100
AcDbLine
 62
7
  6
BYLAYER
 10
108.8249006635
 20
78.1592512676
 11
121.5434345216
 21
78.1592512676
  0
LINE
  5
237
100
AcDbEntity
  8
0
100
AcDbLine
 62
7
  6
BYLAYER
 10
51.88843252
 20
65.8592512676
 11
51.88843252
 21
24.3592512676
  0
LINE
  5
238
100
AcDbEntity
  8
0
100
AcDbLine
 62
7
  6
BYLAYER
 10
51.88843252
 20
148.0592512676
 11
51.88843252
 21
189.5592512676
  0
LINE
  5
239
100
AcDbEntity
  8
0
100
AcDbLine
 62
7
  6
BYLAYER
 10
51.590487711
 20
151.4592413089
 11
51.5987084754
 21
154.9216431897
  0
LINE
  5
23A
100
AcDbEntity
  8
0
100
AcDbLine
 62
7
  6
BYLAYER
 10
27.3877091624
 20
44.2504712512
 11
28.38843252
 21
46.7522595421
  0
LINE
  5
23B
100
AcDbEntity
  8
0
100
AcDbLine
 62
7
  6
BYLAYER
 10
20.58843252
 20
84.9592512676
 11
17.58843252
 21
81.9592512676
  0
LINE
  5
23C
100
AcDbEntity
  8
0
100
AcDbLine
 62
7
  6
BYLAYER
 10
110.6357274067
 20
81.1592512676
 11
129.4883826337
 21
81.1592512676
  0
LINE
  5
23D
100
AcDbEntity
  8
0
100
AcDbLine
 62
7
  6
BYLAYER
 10
20.58843252
 20
84.9592512676
 11
24.38843252
 21
84.9592512676
  0
LINE
  5
23E
100
AcDbEntity
  8
0
100
AcDbLine
 62
7
  6
BYLAYER
 10
24.18843252
 20
86.2592512676
 11
22.38843252
 21
86.2592512676
  0
LINE
  5
23F
100
AcDbEntity
  8
0
100
AcDbLine
 62
7
  6
BYLAYER
 10
19.38843252
 20
86.2592512676
 11
17.58843252
 21
86.2592512676
  0
LINE
  5
240
100
AcDbEntity
  8
0
100
AcDbLine
 62
7
  6
BYLAYER
 10
63.08843252
 20
65.8592512676
 11
63.08843252
 21
147.8728136727
  0
LINE
  5
241
100
AcDbEntity
  8
0
100
AcDbLine
 62
7
  6
BYLAYER
 10
17.998646204
 20
87.9592512676
 11
19.38843252
 21
87.9592512676
  0
LINE
  5
242
100
AcDbEntity
  8
0
100
AcDbLine
 62
7
  6
BYLAYER
 10
22.7348426815
 20
87.9592512676
 11
24.38843252
 21
87.9592512676
  0
LINE
  5
243
100
AcDbEntity
  8
0
100
AcDbLine
 62
7
  6
BYLAYER
 10
24.4023262331
 20
88.9662022761
 11
24.38843252
 21
88.9662022761
  0
LINE
  5
244
100
AcDbEntity
  8
0
100
AcDbLine
 62
7
  6
BYLAYER
 10
24.4023262331
 20
89.1592512676
 11
24.1321222921
 21
89.1592512676
  0
LINE
  5
245
100
AcDbEntity
  8
0
100
AcDbLine
 62
7
  6
BYLAYER
 10
18.2521259811
 20
89.1592512676
 11
17.58843252
 21
89.1592512676
  0
LINE
  5
246
100
AcDbEntity
  8
0
100
AcDbLine
 62
7
  6
BYLAYER
 10
127.48843252
 20
92.2592512676
 11
137.4884187652
 21
92.2592512676
  0
LINE
  5
247
100
AcDbEntity
  8
0
100
AcDbLine
 62
7
  6
BYLAYER
 10
22.7420110034
 20
93.4375738956
 11
22.142120892
 21
93.4375738956
  0
LINE
  5
248
100
AcDbEntity
  8
0
100
AcDbLine
 62
7
  6
BYLAYER
 10
22.38843252
 20
87.7592512676
 11
24.2397219099
 21
88.8280936952
  0
LINE
  5
249
100
AcDbEntity
  8
0
100
AcDbLine
 62
7
  6
BYLAYER
 10
136.2063406659
 20
94.9063654587
 11
131.78843252
 21
94.9063654587
  0
LINE
  5
24A
100
AcDbEntity
  8
0
100
AcDbLine
 62
7
  6
BYLAYER
 10
17.58843252
 20
124.3626649984
 11
21.7580322606
 21
122.4552949043
  0
LINE
  5
24B
100
AcDbEntity
  8
0
100
AcDbLine
 62
7
  6
BYLAYER
 10
137.4884011097
 20
108.3592512676
 11
131.78843252
 21
108.3592512676
  0
LINE
  5
24C
100
AcDbEntity
  8
0
100
AcDbLine
 62
7
  6
BYLAYER
 10
85.7645219532
 20
45.3592512676
 11
85.7645219532
 21
24.3592512676
  0
LINE
  5
24D
100
AcDbEntity
  8
0
100
AcDbLine
 62
7
  6
BYLAYER
 10
85.7645219532
 20
168.5592512676
 11
85.7645219532
 21
189.5592512676
  0
LINE
  5
24E
100
AcDbEntity
  8
0
100
AcDbLine
 62
7
  6
BYLAYER
 10
86.0294687347
 20
189.5592512676
 11
86.0294687347
 21
168.5592512676
  0
LINE
  5
24F
100
AcDbEntity
  8
0
100
AcDbLine
 62
7
  6
BYLAYER
 10
86.0294687347
 20
45.3592512676
 11
86.0294687347
 21
24.3592512676
  0
LINE
  5
250
100
AcDbEntity
  8
0
100
AcDbLine
 62
7
  6
BYLAYER
 10
87.78843252
 20
189.5592512676
 11
87.78843252
 21
168.5592512676
  0
LINE
  5
251
100
AcDbEntity
  8
0
100
AcDbLine
 62
7
  6
BYLAYER
 10
87.78843252
 20
45.3592512676
 11
87.78843252
 21
24.3592512676
  0
LINE
  5
252
100
AcDbEntity
  8
0
100
AcDbLine
 62
7
  6
BYLAYER
 10
127.48843252
 20
121.6592512676
 11
137.4884011097
 21
121.6592512676
  0
LINE
  5
253
100
AcDbEntity
  8
0
100
AcDbLine
 62
7
  6
BYLAYER
 10
21.7580322606
 20
122.4552949043
 11
22.3344442828
 21
122.4552949043
  0
LINE
  5
254
100
AcDbEntity
  8
0
100
AcDbLine
 62
7
  6
BYLAYER
 10
23.2524337997
 20
124.4620626853
 11
24.4023262331
 21
124.4620626853
  0
LINE
  5
255
100
AcDbEntity
  8
0
100
AcDbLine
 62
7
  6
BYLAYER
 10
110.6357274067
 20
132.7592512676
 11
129.4883826337
 21
132.7592512676
  0
LINE
  5
256
100
AcDbEntity
  8
0
100
AcDbLine
 62
7
  6
BYLAYER
 10
110.6357274067
 20
132.7592512676
 11
110.6357274067
 21
81.1592512676
  0
LINE
  5
257
100
AcDbEntity
  8
0
100
AcDbLine
 62
7
  6
BYLAYER
 10
111.7048021586
 20
65.8592512676
 11
111.7048021586
 21
45.3592512676
  0
LINE
  5
258
100
AcDbEntity
  8
0
100
AcDbLine
 62
7
  6
BYLAYER
 10
111.7048021586
 20
148.0592512676
 11
111.7048021586
 21
168.5592512676
  0
LINE
  5
259
100
AcDbEntity
  8
0
100
AcDbLine
 62
7
  6
BYLAYER
 10
111.88843252
 20
168.5592512676
 11
111.88843252
 21
148.0592512676
  0
LINE
  5
25A
100
AcDbEntity
  8
0
100
AcDbLine
 62
7
  6
BYLAYER
 10
111.88843252
 20
65.8592512676
 11
111.88843252
 21
45.3592512676
  0
LINE
  5
25B
100
AcDbEntity
  8
0
100
AcDbLine
 62
7
  6
BYLAYER
 10
111.98843252
 20
147.8592512676
 11
111.98843252
 21
66.0592512676
  0
LINE
  5
25C
100
AcDbEntity
  8
0
100
AcDbLine
 62
7
  6
BYLAYER
 10
121.5434345216
 20
135.7592512676
 11
110.9713347616
 21
135.7592512676
  0
LINE
  5
25D
100
AcDbEntity
  8
0
100
AcDbLine
 62
7
  6
BYLAYER
 10
113.709822062
 20
145.6121912684
 11
113.7098270798
 21
147.8592512676
  0
LINE
  5
25E
100
AcDbEntity
  8
0
100
AcDbLine
 62
7
  6
BYLAYER
 10
113.7098270798
 20
66.0592512676
 11
113.7098276251
 21
68.3063112665
  0
LINE
  5
25F
100
AcDbEntity
  8
0
100
AcDbLine
 62
7
  6
BYLAYER
 10
113.8490929822
 20
68.3063161394
 11
113.8490983899
 21
66.0592512676
  0
LINE
  5
260
100
AcDbEntity
  8
0
100
AcDbLine
 62
7
  6
BYLAYER
 10
113.8490983899
 20
147.8592512676
 11
113.8490982049
 21
145.6121912699
  0
LINE
  5
261
100
AcDbEntity
  8
0
100
AcDbLine
 62
7
  6
BYLAYER
 10
113.8750085851
 20
168.5592512676
 11
113.8750085851
 21
148.0592512676
  0
LINE
  5
262
100
AcDbEntity
  8
0
100
AcDbLine
 62
7
  6
BYLAYER
 10
113.8750085851
 20
65.8592512676
 11
113.8750085851
 21
45.3592512676
  0
LINE
  5
263
100
AcDbEntity
  8
0
100
AcDbLine
 62
7
  6
BYLAYER
 10
113.98843252
 20
66.0592512676
 11
113.98843252
 21
78.1592512676
  0
LINE
  5
264
100
AcDbEntity
  8
0
100
AcDbLine
 62
7
  6
BYLAYER
 10
113.98843252
 20
135.7592512676
 11
113.98843252
 21
147.8592512676
  0
LINE
  5
265
100
AcDbEntity
  8
0
100
AcDbLine
 62
7
  6
BYLAYER
 10
113.8490982049
 20
145.6121912699
 11
113.7098223549
 21
145.6119892763
  0
LINE
  5
266
100
AcDbEntity
  8
0
100
AcDbLine
 62
7
  6
BYLAYER
 10
113.8608860557
 20
145.1483995391
 11
113.6925259505
 21
145.1483995391
  0
LINE
  5
267
100
AcDbEntity
  8
0
100
AcDbLine
 62
7
  6
BYLAYER
 10
63.08843252
 20
147.8592512676
 11
113.9884305127
 21
147.8592512676
  0
LINE
  5
268
100
AcDbEntity
  8
0
100
AcDbLine
 62
7
  6
BYLAYER
 10
63.08843252
 20
147.8728136727
 11
49.8678861088
 21
147.8728136727
  0
LINE
  5
269
100
AcDbEntity
  8
0
100
AcDbLine
 62
7
  6
BYLAYER
 10
51.88843252
 20
148.0592512676
 11
113.8749549907
 21
148.0592512676
  0
LINE
  5
26A
100
AcDbEntity
  8
0
100
AcDbLine
 62
7
  6
BYLAYER
 10
50.0883865183
 20
151.459249276
 11
51.590487711
 21
151.4592413089
  0
LINE
  5
26B
100
AcDbEntity
  8
0
100
AcDbLine
 62
7
  6
BYLAYER
 10
51.5987084754
 20
154.9216431897
 11
17.58843252
 21
154.9216431897
  0
LINE
  5
26C
100
AcDbEntity
  8
0
100
AcDbLine
 62
7
  6
BYLAYER
 10
127.48843252
 20
132.7592512676
 11
127.48843252
 21
121.6592512676
  0
LINE
  5
26D
100
AcDbEntity
  8
0
100
AcDbLine
 62
7
  6
BYLAYER
 10
127.48843252
 20
92.2592512676
 11
127.48843252
 21
81.1592512676
  0
LINE
  5
26E
100
AcDbEntity
  8
0
100
AcDbLine
 62
7
  6
BYLAYER
 10
127.5570191821
 20
132.7592512676
 11
127.5570191821
 21
121.6592512676
  0
LINE
  5
26F
100
AcDbEntity
  8
0
100
AcDbLine
 62
7
  6
BYLAYER
 10
127.5570191821
 20
92.2592512676
 11
127.5570191821
 21
81.1592512676
  0
LINE
  5
270
100
AcDbEntity
  8
0
100
AcDbLine
 62
7
  6
BYLAYER
 10
129.48843252
 20
132.7592512676
 11
129.48843252
 21
121.6592512676
  0
LINE
  5
271
100
AcDbEntity
  8
0
100
AcDbLine
 62
7
  6
BYLAYER
 10
129.48843252
 20
92.2592512676
 11
129.48843252
 21
81.1592512676
  0
LINE
  5
272
100
AcDbEntity
  8
0
100
AcDbLine
 62
7
  6
BYLAYER
 10
129.68843252
 20
121.6592512676
 11
129.68843252
 21
92.2592512676
  0
LINE
  5
273
100
AcDbEntity
  8
0
100
AcDbLine
 62
7
  6
BYLAYER
 10
131.78843252
 20
94.9063654587
 11
131.78843252
 21
108.3592512676
  0
LINE
  5
274
100
AcDbEntity
  8
0
100
AcDbLine
 62
7
  6
BYLAYER
 10
17.68843252
 20
155.7592512676
 11
19.18843252
 21
155.7592512676
  0
LINE
  5
275
100
AcDbEntity
  8
0
100
AcDbLine
 62
7
  6
BYLAYER
 10
135.5258329615
 20
92.2592512676
 11
135.5258329615
 21
121.6592512676
  0
LINE
  5
276
100
AcDbEntity
  8
0
100
AcDbLine
 62
7
  6
BYLAYER
 10
136.206340666
 20
121.6592512676
 11
136.206340666
 21
92.2592512676
  0
LINE
  5
277
100
AcDbEntity
  8
0
100
AcDbLine
 62
7
  6
BYLAYER
 10
137.48843252
 20
92.2592512676
 11
137.48843252
 21
121.6592512676
  0
LINE
  5
278
100
AcDbEntity
  8
0
100
AcDbLine
 62
7
  6
BYLAYER
 10
85.7645219532
 20
168.5592512676
 11
113.8749549907
 21
168.5592512676
  0
LINE
  5
279
100
AcDbEntity
  8
0
100
AcDbLine
 62
7
  6
BYLAYER
 10
51.88843252
 20
189.5592512676
 11
87.7883929057
 21
189.5592512676
  0
ARC
  5
27A
100
AcDbEntity
  8
0
100
AcDbCircle
 62
7
  6
BYLAYER
 10
121.5434345216
 20
127.7592512676
 40
8.0
100
AcDbArc
 50
38.6821874535
 51
90.0
  0
ARC
  5
27B
100
AcDbEntity
  8
0
100
AcDbCircle
 62
7
  6
BYLAYER
 10
121.5434345216
 20
86.1592512676
 40
8.0
100
AcDbArc
 50
270.0
 51
321.3178125465
  0
ARC
  5
27C
100
AcDbEntity
  8
0
100
AcDbCircle
 62
7
  6
BYLAYER
 10
50.08843252
 20
149.6592512676
 40
1.8
100
AcDbArc
 50
90.0014642795
 51
262.9621047318
  0
SPLINE
  5
27D
100
AcDbEntity
  8
0
100
AcDbSpline
 62
7
  6
BYLAYER
 70
0
 71
3
 72
23
 73
19
 74
0
 42
0.0000001
 43
0.0000001
 44
0.0000000001
 40
0.0
 40
0.0
 40
0.0
 40
0.0
 40
0.0018447983
 40
0.0057254781
 40
0.011895856
 40
0.020396166
 40
0.0312316034
 40
0.0443855159
 40
0.07751214
 40
0.1194846881
 40
0.1699125281
 40
0.2283033448
 40
0.2941164827
 40
0.366710399
 40
0.4454096609
 40
0.6179810292
 40
0.805273249
 40
1.0
 40
1.0
 40
1.0
 40
1.0
 10
129.4139838227
 20
90.909251248
 30
0.0
 10
129.4119811285
 20
90.9092507471
 30
0.0
 10
129.4076027809
 20
90.9030576299
 30
0.0
 10
129.4040084767
 20
90.8915302538
 30
0.0
 10
129.3991551955
 20
90.8715120236
 30
0.0
 10
129.3945717153
 20
90.844383681
 30
0.0
 10
129.3896572715
 20
90.8093834858
 30
0.0
 10
129.3825141717
 20
90.7478204862
 30
0.0
 10
129.3737708767
 20
90.6523816684
 30
0.0
 10
129.363776893
 20
90.5164833843
 30
0.0
 10
129.3538386681
 20
90.353081057
 30
0.0
 10
129.3441366853
 20
90.1637499378
 30
0.0
 10
129.3348613837
 20
89.9503074272
 30
0.0
 10
129.3261811999
 20
89.7147774962
 30
0.0
 10
129.3153089111
 20
89.3633598926
 30
0.0
 10
129.3044781786
 20
88.8873747338
 30
0.0
 10
129.2964481727
 20
88.2853631077
 30
0.0
 10
129.2946224019
 20
87.870644645
 30
0.0
 10
129.2946224019
 20
87.6592512676
 30
0.0
  0
SPLINE
  5
27E
100
AcDbEntity
  8
0
100
AcDbSpline
 62
7
  6
BYLAYER
 70
0
 71
3
 72
23
 73
19
 74
0
 42
0.0000001
 43
0.0000001
 44
0.0000000001
 40
0.0
 40
0.0
 40
0.0
 40
0.0
 40
0.0018447983
 40
0.0057254781
 40
0.011895856
 40
0.020396166
 40
0.0312316034
 40
0.0443855159
 40
0.07751214
 40
0.1194846881
 40
0.1699125281
 40
0.2283033448
 40
0.2941164827
 40
0.366710399
 40
0.4454096609
 40
0.6179810292
 40
0.805273249
 40
1.0
 40
1.0
 40
1.0
 40
1.0
 10
129.4139838227
 20
129.509251248
 30
0.0
 10
129.4119811285
 20
129.5092507471
 30
0.0
 10
129.4076027809
 20
129.5030576299
 30
0.0
 10
129.4040084767
 20
129.4915302538
 30
0.0
 10
129.3991551955
 20
129.4715120236
 30
0.0
 10
129.3945717153
 20
129.444383681
 30
0.0
 10
129.3896572715
 20
129.4093834858
 30
0.0
 10
129.3825141717
 20
129.3478204862
 30
0.0
 10
129.3737708767
 20
129.2523816684
 30
0.0
 10
129.363776893
 20
129.1164833843
 30
0.0
 10
129.3538386681
 20
128.953081057
 30
0.0
 10
129.3441366853
 20
128.7637499378
 30
0.0
 10
129.3348613837
 20
128.5503074272
 30
0.0
 10
129.3261811999
 20
128.3147774962
 30
0.0
 10
129.3153089111
 20
127.9633598926
 30
0.0
 10
129.3044781786
 20
127.4873747338
 30
0.0
 10
129.2964481727
 20
126.8853631077
 30
0.0
 10
129.2946224019
 20
126.470644645
 30
0.0
 10
129.2946224019
 20
126.2592512676
 30
0.0
  0
SPLINE
  5
27F
100
AcDbEntity
  8
0
100
AcDbSpline
 62
7
  6
BYLAYER
 70
0
 71
3
 72
23
 73
19
 74
0
 42
0.0000001
 43
0.0000001
 44
0.0000000001
 40
0.0
 40
0.0
 40
0.0
 40
0.0
 40
0.1947278056
 40
0.3820183973
 40
0.5545883199
 40
0.6332864245
 40
0.7058796056
 40
0.7716923667
 40
0.830083401
 40
0.8805125857
 40
0.9224855014
 40
0.955613543
 40
0.9687678169
 40
0.9796031226
 40
0.9881036761
 40
0.9942744737
 40
0.9981553934
 40
1.0
 40
1.0
 40
1.0
 40
1.0
 10
129.2946224019
 20
87.6592512676
 30
0.0
 10
129.2946224019
 20
87.4478567168
 30
0.0
 10
129.2964480896
 20
87.0331388194
 30
0.0
 10
129.3044785201
 20
86.4311293087
 30
0.0
 10
129.3153092847
 20
85.9551486831
 30
0.0
 10
129.3261810553
 20
85.6037346425
 30
0.0
 10
129.334860388
 20
85.3682071151
 30
0.0
 10
129.3441346535
 20
85.1547655013
 30
0.0
 10
129.3538363316
 20
84.9654330531
 30
0.0
 10
129.3637742625
 20
84.8020285822
 30
0.0
 10
129.3737687597
 20
84.6661269167
 30
0.0
 10
129.3825124371
 20
84.5706857621
 30
0.0
 10
129.3896558518
 20
84.5091210191
 30
0.0
 10
129.3945708042
 20
84.4741203046
 30
0.0
 10
129.3991543817
 20
84.4469915759
 30
0.0
 10
129.4040083287
 20
84.4269720206
 30
0.0
 10
129.4076017946
 20
84.4154448115
 30
0.0
 10
129.4119811015
 20
84.4092507976
 30
0.0
 10
129.4139835878
 20
84.409251286
 30
0.0
  0
SPLINE
  5
280
100
AcDbEntity
  8
0
100
AcDbSpline
 62
7
  6
BYLAYER
 70
0
 71
3
 72
23
 73
19
 74
0
 42
0.0000001
 43
0.0000001
 44
0.0000000001
 40
0.0
 40
0.0
 40
0.0
 40
0.0
 40
0.1947278056
 40
0.3820183973
 40
0.5545883199
 40
0.6332864245
 40
0.7058796056
 40
0.7716923667
 40
0.830083401
 40
0.8805125857
 40
0.9224855014
 40
0.955613543
 40
0.9687678169
 40
0.9796031226
 40
0.9881036761
 40
0.9942744737
 40
0.9981553934
 40
1.0
 40
1.0
 40
1.0
 40
1.0
 10
129.2946224019
 20
126.2592512676
 30
0.0
 10
129.2946224019
 20
126.0478567168
 30
0.0
 10
129.2964480896
 20
125.6331388194
 30
0.0
 10
129.3044785201
 20
125.0311293087
 30
0.0
 10
129.3153092847
 20
124.5551486831
 30
0.0
 10
129.3261810553
 20
124.2037346425
 30
0.0
 10
129.334860388
 20
123.9682071151
 30
0.0
 10
129.3441346535
 20
123.7547655013
 30
0.0
 10
129.3538363316
 20
123.5654330531
 30
0.0
 10
129.3637742625
 20
123.4020285822
 30
0.0
 10
129.3737687597
 20
123.2661269167
 30
0.0
 10
129.3825124371
 20
123.1706857621
 30
0.0
 10
129.3896558518
 20
123.1091210191
 30
0.0
 10
129.3945708042
 20
123.0741203046
 30
0.0
 10
129.3991543817
 20
123.0469915759
 30
0.0
 10
129.4040083287
 20
123.0269720206
 30
0.0
 10
129.4076017946
 20
123.0154448115
 30
0.0
 10
129.4119811015
 20
123.0092507976
 30
0.0
 10
129.4139835878
 20
123.009251286
 30
0.0
  0
SPLINE
  5
281
100
AcDbEntity
  8
0
100
AcDbSpline
 62
7
  6
BYLAYER
 70
0
 71
3
 72
23
 73
19
 74
0
 42
0.0000001
 43
0.0000001
 44
0.0000000001
 40
0.0
 40
0.0
 40
0.0
 40
0.0
 40
0.1948319263
 40
0.3822238956
 40
0.5548819645
 40
0.6336135327
 40
0.7062296114
 40
0.7720518441
 40
0.8304364299
 40
0.8808418948
 40
0.9227734606
 40
0.9558433913
 40
0.9689629503
 40
0.9797602716
 40
0.988220099
 40
0.9943482036
 40
0.9981863004
 40
1.0
 40
1.0
 40
1.0
 40
1.0
 10
129.4772962011
 20
87.6592512676
 30
0.0
 10
129.4772962011
 20
87.8706031543
 30
0.0
 10
129.4768678023
 20
88.2852363202
 30
0.0
 10
129.4748341822
 20
88.8871642876
 30
0.0
 10
129.4717142155
 20
89.3631418535
 30
0.0
 10
129.468052156
 20
89.7146017244
 30
0.0
 10
129.4648220838
 20
89.9501638826
 30
0.0
 10
129.460994944
 20
90.1636424809
 30
0.0
 10
129.4565308714
 20
90.353007748
 30
0.0
 10
129.4514238425
 20
90.5164353194
 30
0.0
 10
129.4456574789
 20
90.6523469625
 30
0.0
 10
129.4400010775
 20
90.7478033996
 30
0.0
 10
129.4349060255
 20
90.8093829672
 30
0.0
 10
129.4311638174
 20
90.8443787515
 30
0.0
 10
129.4275207827
 20
90.8714954769
 30
0.0
 10
129.4233216867
 20
90.8915108585
 30
0.0
 10
129.4201997169
 20
90.9030280379
 30
0.0
 10
129.4159513073
 20
90.9092517401
 30
0.0
 10
129.4139838227
 20
90.909251248
 30
0.0
  0
SPLINE
  5
282
100
AcDbEntity
  8
0
100
AcDbSpline
 62
7
  6
BYLAYER
 70
0
 71
3
 72
23
 73
19
 74
0
 42
0.0000001
 43
0.0000001
 44
0.0000000001
 40
0.0
 40
0.0
 40
0.0
 40
0.0
 40
0.001813878
 40
0.0056517795
 40
0.0117795181
 40
0.0202391482
 40
0.0310366357
 40
0.0441558923
 40
0.077224549
 40
0.1191558361
 40
0.1695600836
 40
0.2279444706
 40
0.2937670126
 40
0.3663837174
 40
0.4451163086
 40
0.6177756029
 40
0.8051690646
 40
1.0
 40
1.0
 40
1.0
 40
1.0
 10
129.4139835878
 20
84.409251286
 30
0.0
 10
129.4159512657
 20
84.4092517659
 30
0.0
 10
129.4201985849
 20
84.4154747604
 30
0.0
 10
129.4233216956
 20
84.4269920135
 30
0.0
 10
129.4275203665
 20
84.4470062422
 30
0.0
 10
129.4311635947
 20
84.4741226601
 30
0.0
 10
129.4349053752
 20
84.5091180682
 30
0.0
 10
129.440000487
 20
84.5706961105
 30
0.0
 10
129.4456570145
 20
84.6661505025
 30
0.0
 10
129.4514228292
 20
84.8020591518
 30
0.0
 10
129.4565306716
 20
84.9654848355
 30
0.0
 10
129.4609950099
 20
85.1548488785
 30
0.0
 10
129.4648220732
 20
85.3683282541
 30
0.0
 10
129.4680519541
 20
85.6038925143
 30
0.0
 10
129.471713906
 20
85.9553554665
 30
0.0
 10
129.4748342685
 20
86.4313370366
 30
0.0
 10
129.4768677108
 20
87.0332668136
 30
0.0
 10
129.4772962011
 20
87.4479004786
 30
0.0
 10
129.4772962011
 20
87.6592512676
 30
0.0
  0
SPLINE
  5
283
100
AcDbEntity
  8
0
100
AcDbSpline
 62
7
  6
BYLAYER
 70
0
 71
3
 72
23
 73
19
 74
0
 42
0.0000001
 43
0.0000001
 44
0.0000000001
 40
0.0
 40
0.0
 40
0.0
 40
0.0
 40
0.1948319263
 40
0.3822238956
 40
0.5548819645
 40
0.6336135327
 40
0.7062296114
 40
0.7720518441
 40
0.8304364299
 40
0.8808418948
 40
0.9227734606
 40
0.9558433913
 40
0.9689629503
 40
0.9797602716
 40
0.988220099
 40
0.9943482036
 40
0.9981863004
 40
1.0
 40
1.0
 40
1.0
 40
1.0
 10
129.4772962011
 20
126.2592512676
 30
0.0
 10
129.4772962011
 20
126.4706031543
 30
0.0
 10
129.4768678023
 20
126.8852363202
 30
0.0
 10
129.4748341822
 20
127.4871642876
 30
0.0
 10
129.4717142155
 20
127.9631418535
 30
0.0
 10
129.468052156
 20
128.3146017244
 30
0.0
 10
129.4648220838
 20
128.5501638826
 30
0.0
 10
129.460994944
 20
128.7636424809
 30
0.0
 10
129.4565308714
 20
128.953007748
 30
0.0
 10
129.4514238425
 20
129.1164353194
 30
0.0
 10
129.4456574789
 20
129.2523469625
 30
0.0
 10
129.4400010775
 20
129.3478033996
 30
0.0
 10
129.4349060255
 20
129.4093829672
 30
0.0
 10
129.4311638174
 20
129.4443787515
 30
0.0
 10
129.4275207827
 20
129.4714954769
 30
0.0
 10
129.4233216867
 20
129.4915108585
 30
0.0
 10
129.4201997169
 20
129.5030280379
 30
0.0
 10
129.4159513073
 20
129.5092517401
 30
0.0
 10
129.4139838227
 20
129.509251248
 30
0.0
  0
SPLINE
  5
284
100
AcDbEntity
  8
0
100
AcDbSpline
 62
7
  6
BYLAYER
 70
0
 71
3
 72
23
 73
19
 74
0
 42
0.0000001
 43
0.0000001
 44
0.0000000001
 40
0.0
 40
0.0
 40
0.0
 40
0.0
 40
0.001813878
 40
0.0056517795
 40
0.0117795181
 40
0.0202391482
 40
0.0310366357
 40
0.0441558923
 40
0.077224549
 40
0.1191558361
 40
0.1695600836
 40
0.2279444706
 40
0.2937670126
 40
0.3663837174
 40
0.4451163086
 40
0.6177756029
 40
0.8051690646
 40
1.0
 40
1.0
 40
1.0
 40
1.0
 10
129.4139835878
 20
123.009251286
 30
0.0
 10
129.4159512657
 20
123.0092517659
 30
0.0
 10
129.4201985849
 20
123.0154747604
 30
0.0
 10
129.4233216956
 20
123.0269920135
 30
0.0
 10
129.4275203665
 20
123.0470062422
 30
0.0
 10
129.4311635947
 20
123.0741226601
 30
0.0
 10
129.4349053752
 20
123.1091180682
 30
0.0
 10
129.440000487
 20
123.1706961105
 30
0.0
 10
129.4456570145
 20
123.2661505025
 30
0.0
 10
129.4514228292
 20
123.4020591518
 30
0.0
 10
129.4565306716
 20
123.5654848355
 30
0.0
 10
129.4609950099
 20
123.7548488785
 30
0.0
 10
129.4648220732
 20
123.9683282541
 30
0.0
 10
129.4680519541
 20
124.2038925143
 30
0.0
 10
129.471713906
 20
124.5553554665
 30
0.0
 10
129.4748342685
 20
125.0313370366
 30
0.0
 10
129.4768677108
 20
125.6332668136
 30
0.0
 10
129.4772962011
 20
126.0479004786
 30
0.0
 10
129.4772962011
 20
126.2592512676
 30
0.0
  0
SPLINE
  5
285
100
AcDbEntity
  8
0
100
AcDbSpline
 62
7
  6
BYLAYER
 70
0
 71
3
 72
18
 73
14
 74
0
 42
0.0000001
 43
0.0000001
 44
0.0000000001
 40
0.0
 40
0.0
 40
0.0
 40
0.0
 40
0.0070231969
 40
0.018465331
 40
0.0356569843
 40
0.0593055421
 40
0.0902446453
 40
0.1297271165
 40
0.2411077417
 40
0.4172810545
 40
0.6713464047
 40
0.8731942199
 40
1.0
 40
1.0
 40
1.0
 40
1.0
 10
113.785444279
 20
70.8592510603
 30
0.0
 10
113.7804952093
 20
70.8592497832
 30
0.0
 10
113.7684934647
 20
70.8510718933
 30
0.0
 10
113.7561738973
 20
70.8293216383
 30
0.0
 10
113.7422809986
 20
70.7949925358
 30
0.0
 10
113.7283988409
 20
70.7463397122
 30
0.0
 10
113.7139035446
 20
70.6816155844
 30
0.0
 10
113.6918839131
 20
70.5553796084
 30
0.0
 10
113.6651850289
 20
70.3263120444
 30
0.0
 10
113.6411938237
 20
69.9452557621
 30
0.0
 10
113.6377431375
 20
69.4995457957
 30
0.0
 10
113.6570875128
 20
69.0892045641
 30
0.0
 10
113.6802075462
 20
68.8586145427
 30
0.0
 10
113.6925266902
 20
68.7701109654
 30
0.0
  0
SPLINE
  5
286
100
AcDbEntity
  8
0
100
AcDbSpline
 62
7
  6
BYLAYER
 70
0
 71
3
 72
10
 73
6
 74
0
 42
0.0000001
 43
0.0000001
 44
0.0000000001
 40
0.0
 40
0.0
 40
0.0
 40
0.0
 40
0.6029768561
 40
0.8379720049
 40
1.0
 40
1.0
 40
1.0
 40
1.0
 10
113.7098271698
 20
68.3063260104
 30
0.0
 10
113.7098271698
 20
68.3996466185
 30
0.0
 10
113.7082250957
 20
68.5293873138
 30
0.0
 10
113.7008357442
 20
68.6839558593
 30
0.0
 10
113.6959843443
 20
68.7452739842
 30
0.0
 10
113.6925266902
 20
68.7701109654
 30
0.0
  0
SPLINE
  5
287
100
AcDbEntity
  8
0
100
AcDbSpline
 62
7
  6
BYLAYER
 70
0
 71
3
 72
10
 73
6
 74
0
 42
0.0000001
 43
0.0000001
 44
0.0000000001
 40
0.0
 40
0.0
 40
0.0
 40
0.0
 40
0.1620182058
 40
0.3970102307
 40
1.0
 40
1.0
 40
1.0
 40
1.0
 10
113.6925259505
 20
145.1483857383
 30
0.0
 10
113.6959837432
 20
145.1732216181
 30
0.0
 10
113.7008356998
 20
145.2345387894
 30
0.0
 10
113.7082253904
 20
145.389110065
 30
0.0
 10
113.7098271308
 20
145.5188545751
 30
0.0
 10
113.7098271308
 20
145.612178831
 30
0.0
  0
SPLINE
  5
288
100
AcDbEntity
  8
0
100
AcDbSpline
 62
7
  6
BYLAYER
 70
0
 71
3
 72
18
 73
14
 74
0
 42
0.0000001
 43
0.0000001
 44
0.0000000001
 40
0.0
 40
0.0
 40
0.0
 40
0.0
 40
0.1268068718
 40
0.3286573582
 40
0.5827213783
 40
0.7588923519
 40
0.8702731632
 40
0.9097547187
 40
0.9406944209
 40
0.9643425424
 40
0.9815330848
 40
0.9929778559
 40
1.0
 40
1.0
 40
1.0
 40
1.0
 10
113.6925259505
 20
145.1483857383
 30
0.0
 10
113.6802068789
 20
145.059881569
 30
0.0
 10
113.6570868486
 20
144.8292893859
 30
0.0
 10
113.6377430462
 20
144.4189472938
 30
0.0
 10
113.6411940617
 20
143.9732390029
 30
0.0
 10
113.6651856993
 20
143.5921860174
 30
0.0
 10
113.6918835951
 20
143.3631210951
 30
0.0
 10
113.7139038807
 20
143.2368854623
 30
0.0
 10
113.7283992566
 20
143.1721623159
 30
0.0
 10
113.7422793047
 20
143.1235091308
 30
0.0
 10
113.7561781352
 20
143.0891823334
 30
0.0
 10
113.7684892571
 20
143.0674271263
 30
0.0
 10
113.7804959601
 20
143.0592496457
 30
0.0
 10
113.7854442769
 20
143.0592518919
 30
0.0
  0
SPLINE
  5
289
100
AcDbEntity
  8
0
100
AcDbSpline
 62
7
  6
BYLAYER
 70
0
 71
3
 72
19
 73
15
 74
0
 42
0.0000001
 43
0.0000001
 44
0.0000000001
 40
0.0
 40
0.0
 40
0.0
 40
0.0
 40
0.126819989
 40
0.329175424
 40
0.583962105
 40
0.760473121
 40
0.8222677377
 40
0.8717466106
 40
0.9110457189
 40
0.9417419863
 40
0.965104661
 40
0.9819872629
 40
0.9931360965
 40
1.0
 40
1.0
 40
1.0
 40
1.0
 10
113.86088097
 20
68.7701088383
 30
0.0
 10
113.8689824924
 20
68.8588184119
 30
0.0
 10
113.8827576041
 20
69.0897113112
 30
0.0
 10
113.8929785018
 20
69.4998102312
 30
0.0
 10
113.8911954127
 20
69.9449568704
 30
0.0
 10
113.8794486437
 20
70.2911876119
 30
0.0
 10
113.8660123836
 20
70.492897371
 30
0.0
 10
113.8564471841
 20
70.5982381641
 30
0.0
 10
113.846313349
 20
70.6815624939
 30
0.0
 10
113.8355369769
 20
70.7462722867
 30
0.0
 10
113.8246155081
 20
70.7949255402
 30
0.0
 10
113.812835037
 20
70.8292062749
 30
0.0
 10
113.8019388293
 20
70.8511175384
 30
0.0
 10
113.7902655055
 20
70.8592523044
 30
0.0
 10
113.785444279
 20
70.8592510603
 30
0.0
  0
SPLINE
  5
28A
100
AcDbEntity
  8
0
100
AcDbSpline
 62
7
  6
BYLAYER
 70
0
 71
3
 72
19
 73
15
 74
0
 42
0.0000001
 43
0.0000001
 44
0.0000000001
 40
0.0
 40
0.0
 40
0.0
 40
0.0
 40
0.0068648067
 40
0.0180108518
 40
0.0348945508
 40
0.0582575795
 40
0.0889532766
 40
0.1282529961
 40
0.1777312615
 40
0.2395257107
 40
0.4160375681
 40
0.6708249109
 40
0.8731800022
 40
1.0
 40
1.0
 40
1.0
 40
1.0
 10
113.7854442769
 20
143.0592518919
 30
0.0
 10
113.7902661361
 20
143.0592540808
 30
0.0
 10
113.801934872
 20
143.0673879186
 30
0.0
 10
113.8128389137
 20
143.0892951453
 30
0.0
 10
113.8246137946
 20
143.1235772021
 30
0.0
 10
113.8355373392
 20
143.1722301594
 30
0.0
 10
113.8463133306
 20
143.236940502
 30
0.0
 10
113.8564469391
 20
143.3202643384
 30
0.0
 10
113.8660123754
 20
143.4256049937
 30
0.0
 10
113.8794485754
 20
143.6273147266
 30
0.0
 10
113.8911954971
 20
143.9735463022
 30
0.0
 10
113.8929785035
 20
144.4186936171
 30
0.0
 10
113.8827575307
 20
144.828792634
 30
0.0
 10
113.8689824674
 20
145.0596852307
 30
0.0
 10
113.8608808883
 20
145.1483947775
 30
0.0
  0
SPLINE
  5
28B
100
AcDbEntity
  8
0
100
AcDbSpline
 62
7
  6
BYLAYER
 70
0
 71
3
 72
10
 73
6
 74
0
 42
0.0000001
 43
0.0000001
 44
0.0000000001
 40
0.0
 40
0.0
 40
0.0
 40
0.0
 40
0.1618056745
 40
0.3968169904
 40
1.0
 40
1.0
 40
1.0
 40
1.0
 10
113.86088097
 20
68.7701088383
 30
0.0
 10
113.8586045593
 20
68.745185789
 30
0.0
 10
113.8553418006
 20
68.6838699454
 30
0.0
 10
113.8502567088
 20
68.5292899775
 30
0.0
 10
113.8490984209
 20
68.3996223242
 30
0.0
 10
113.8490983859
 20
68.3063268503
 30
0.0
  0
SPLINE
  5
28C
100
AcDbEntity
  8
0
100
AcDbSpline
 62
7
  6
BYLAYER
 70
0
 71
3
 72
10
 73
6
 74
0
 42
0.0000001
 43
0.0000001
 44
0.0000000001
 40
0.0
 40
0.0
 40
0.0
 40
0.0
 40
0.603176841
 40
0.838189958
 40
1.0
 40
1.0
 40
1.0
 40
1.0
 10
113.8490983582
 20
145.612189162
 30
0.0
 10
113.8490983583
 20
145.5188921518
 30
0.0
 10
113.850256623
 20
145.3892217126
 30
0.0
 10
113.8553417439
 20
145.2346376156
 30
0.0
 10
113.8586044494
 20
145.1733191734
 30
0.0
 10
113.8608808883
 20
145.1483947775
 30
0.0
  0
ENDSEC
  0
SECTION
  2
OBJECTS
  0
DICTIONARY
  5
C
100
AcDbDictionary
280
0
281
1
  3
ACAD_GROUP
350
D
  3
ACAD_MLINESTYLE
350
17
  3
ACAD_LAYOUT
350
1A
  3
ACAD_PLOTSETTINGS
350
19
  3
ACAD_PLOTSTYLENAME
350
E
  0
DICTIONARY
  5
D
102
{ACAD_REACTORS
330
C
102
}
100
AcDbDictionary
280
0
281
1
  0
ACDBDICTIONARYWDFLT
  5
E
102
{ACAD_REACTORS
330
C
102
}
100
AcDbDictionary
281
1
  3
Normal
350
F
100
AcDbDictionaryWithDefault
340
F
  0
DICTIONARY
  5
17
102
{ACAD_REACTORS
330
C
102
}
100
AcDbDictionary
280
0
281
1
  3
Standard
350
18
  0
DICTIONARY
  5
19
102
{ACAD_REACTORS
330
C
102
}
100
AcDbDictionary
281
1
  0
DICTIONARY
  5
1A
102
{ACAD_REACTORS
330
C
102
}
100
AcDbDictionary
281
1
  3
Model
350
28D
  3
Layout1
350
28E
  0
ACDBPLACEHOLDER
  5
F
102
{ACAD_REACTORS
330
E
102
}
  0
MLINESTYLE
  5
18
102
{ACAD_REACTORS
330
17
102
}
100
AcDbMlineStyle
  2
STANDARD
 70
0
  3

 62
256
 51
90.0
 52
90.0
 71
2
 49
0.5
 62
256
  6
BYLAYER
 49
-0.5
 62
256
  6
BYLAYER
  0
LAYOUT
  5
28D
102
{ACAD_REACTORS
330
1A
102
}
100
AcDbPlotSettings
  1

  2
none_device
  4

  6

 40
0.0
 41
0.0
 42
0.0
 43
0.0
 44
210.0
 45
297.0
 46
0.0
 47
0.0
 48
0.0
 49
0.0
140
0.0
141
0.0
142
1.0
143
1.0
 70
1024
 72
1
 73
0
 74
0
  7

 75
0
147
1.0
148
0.0
149
0.0
100
AcDbLayout
  1
Model
 70
0
 71
0
 10
0.0
 20
0.0
 11
210.0
 21
297.0
 12
0.0
 22
0.0
 32
0.0
 14
0.0
 24
0.0
 34
0.0
 15
0.0
 25
0.0
 35
0.0
146
0.0
 13
0.0
 23
0.0
 33
0.0
 16
1.0
 26
0.0
 36
0.0
 17
0.0
 27
1.0
 37
0.0
 76
0
330
210
345
0
346
0
  0
LAYOUT
  5
28E
102
{ACAD_REACTORS
330
1A
102
}
100
AcDbPlotSettings
  1

  2
none_device
  4

  6

 40
0.0
 41
0.0
 42
0.0
 43
0.0
 44
210.0
 45
297.0
 46
0.0
 47
0.0
 48
0.0
 49
0.0
140
0.0
141
0.0
142
1.0
143
1.0
 70
0
 72
1
 73
0
 74
0
  7

 75
0
147
1.0
148
0.0
149
0.0
100
AcDbLayout
  1
Layout1
 70
0
 71
1
 10
0.0
 20
0.0
 11
210.0
 21
297.0
 12
0.0
 22
0.0
 32
0.0
 14
0.0
 24
0.0
 34
0.0
 15
0.0
 25
0.0
 35
0.0
146
0.0
 13
0.0
 23
0.0
 33
0.0
 16
1.0
 26
0.0
 36
0.0
 17
0.0
 27
1.0
 37
0.0
 76
0
330
211
345
0
346
0
  0
ENDSEC
  0
EOF
