999
DXF file: C:\2D\Gen2D\CAD\LC1F2600MD_3D-CAD\drw0001_1.dxf
999
Pro/ENGINEER 2019471 by Parametric Technology Corporation
  0
SECTION
  2
HEADER
  9
$ACADVER
  1
AC1024
  9
$DWGCODEPAGE
  3
ANSI_1252
  9
$EXTMAX
 10
612.7445411614
 20
866.5958510711
 30
0.0
  9
$EXTMIN
 10
-0.0
 20
0.0
 30
0.0
  9
$LIMMIN
 10
-0.0
 20
0.0
  9
$LIMMAX
 10
612.7445411614
 20
866.5958510711
  9
$VIEWCTR
 10
306.3722705807
 20
433.2979255356
  9
$VIEWSIZE
 40
866.5958510711
  9
$CLAYER
  8
0
  9
$LTSCALE
 40
56.4892110328
  9
$CELTYPE
  6
BYLAYER
  9
$DIMSCALE
 40
1.0
  9
$DIMASZ
 40
7.294577871
  9
$DIMEXO
 40
1.0
  9
$DIMDLI
 40
39.0289094408
  9
$DIMEXE
 40
1.0
  9
$DIMCEN
 40
9.2436890781
  9
$DIMLFAC
 40
1.0
  9
$DIMBLK
  1
_FILLED
  9
$DIMALT
 70
0
  9
$DIMALTF
 40
0.0393700787
  9
$DIMTXT
 40
10.2124090194
  9
$DIMTOL
 70
1
  9
$DIMLIM
 70
0
  9
$DIMTFAC
 40
1.0
  9
$DIMTP
 40
0.01
  9
$DIMTM
 40
0.01
  9
$DIMGAP
 40
0.625
  9
$DIMDSEP
 70
46
  9
$AUNITS
 70
0
  9
$PDMODE
 70
3
  9
$PDSIZE
 40
0.3125
  9
$HANDSEED
  5
4E2
  9
$TILEMODE
 70
1
  9
$MEASUREMENT
 70
1
  9
$INSUNITS
 70
4
  0
ENDSEC
  0
SECTION
  2
CLASSES
  0
CLASS
  1
ACDBDICTIONARYWDFLT
  2
AcDbDictionaryWithDefault
  3
AutoCAD 2000
 90
0
 91
1
280
0
281
0
  0
CLASS
  1
ACDBPLACEHOLDER
  2
AcDbPlaceHolder
  3
AutoCAD 2000
 90
0
 91
1
280
0
281
0
  0
CLASS
  1
LAYOUT
  2
AcDbLayout
  3
AutoCAD 2000
 90
0
 91
0
280
0
281
0
  0
ENDSEC
  0
SECTION
  2
TABLES
  0
TABLE
  2
VPORT
  5
8
100
AcDbSymbolTable
 70
2
  0
VPORT
  5
1F4
100
AcDbSymbolTableRecord
100
AcDbViewportTableRecord
  2
*ACTIVE
 70
0
 10
0.0
 20
0.0
 11
1.0
 21
1.0
 12
306.3722705807
 22
433.2979255356
 13
0.0
 23
0.0
 14
1.0
 24
1.0
 15
0.0
 25
0.0
 16
0.0
 26
0.0
 36
1.0
 17
0.0
 27
0.0
 37
0.0
 40
866.5958510711
 41
0.7070707071
 42
50.0
 43
0.0
 44
0.0
 50
0.0
 51
0.0
 71
0
 72
100
 73
1
 74
1
 75
0
 76
0
 77
0
 78
0
  0
ENDTAB
  0
TABLE
  2
LTYPE
  5
5
100
AcDbSymbolTable
 70
6
  0
LTYPE
  5
14
100
AcDbSymbolTableRecord
100
AcDbLinetypeTableRecord
  2
BYBLOCK
 70
0
  3

 72
65
 73
0
 40
0.0
  0
LTYPE
  5
15
100
AcDbSymbolTableRecord
100
AcDbLinetypeTableRecord
  2
BYLAYER
 70
0
  3

 72
65
 73
0
 40
0.0
  0
LTYPE
  5
16
100
AcDbSymbolTableRecord
100
AcDbLinetypeTableRecord
  2
CONTINUOUS
 70
64
  3
Solid line
 72
65
 73
0
 40
0.0
  0
LTYPE
  5
1F5
100
AcDbSymbolTableRecord
100
AcDbLinetypeTableRecord
  2
CENTER
 70
64
  3
____ _ ____ _ ____ _ ____ _ ____ _ ____ _ ____
 72
65
 73
4
 40
0.6
 49
0.375
 74
0
 49
-0.075
 74
0
 49
0.075
 74
0
 49
-0.075
 74
0
  0
LTYPE
  5
1F6
100
AcDbSymbolTableRecord
100
AcDbLinetypeTableRecord
  2
HIDDEN
 70
64
  3
- - - - - - - - - - - - - - - - - - - -
 72
65
 73
2
 40
0.2
 49
0.1
 74
0
 49
-0.1
 74
0
  0
LTYPE
  5
1F7
100
AcDbSymbolTableRecord
100
AcDbLinetypeTableRecord
  2
PHANTOM
 70
64
  3
_____ _ _ _____ _ _ _____ _ _ _____
 72
65
 73
6
 40
0.8
 49
0.45
 74
0
 49
-0.05
 74
0
 49
0.1
 74
0
 49
-0.05
 74
0
 49
0.1
 74
0
 49
-0.05
 74
0
  0
LTYPE
  5
1F8
100
AcDbSymbolTableRecord
100
AcDbLinetypeTableRecord
  2
DOT
 70
64
  3
. . . . . . . . . . . . . . . . . . . .
 72
65
 73
2
 40
0.2
 49
0.1
 74
0
 49
-0.1
 74
0
  0
LTYPE
  5
1F9
100
AcDbSymbolTableRecord
100
AcDbLinetypeTableRecord
  2
DASHED
 70
64
  3
- - - - - - - - - - - - - - - - - - - -
 72
65
 73
2
 40
0.2
 49
0.1
 74
0
 49
-0.1
 74
0
  0
ENDTAB
  0
TABLE
  2
LAYER
  5
2
100
AcDbSymbolTable
 70
36
  0
LAYER
  5
10
100
AcDbSymbolTableRecord
100
AcDbLayerTableRecord
  2
0
 70
0
 62
7
  6
CONTINUOUS
370
-3
390
F
  0
LAYER
  5
1FA
100
AcDbSymbolTableRecord
100
AcDbLayerTableRecord
  2
DEFAULT_1
 70
0
 62
7
  6
CENTER
370
-3
390
F
  0
LAYER
  5
1FB
100
AcDbSymbolTableRecord
100
AcDbLayerTableRecord
  2
DEFAULT_2
 70
0
 62
8
  6
HIDDEN
370
-3
390
F
  0
LAYER
  5
1FC
100
AcDbSymbolTableRecord
100
AcDbLayerTableRecord
  2
DEFAULT_3
 70
0
 62
7
  6
PHANTOM
370
-3
390
F
  0
LAYER
  5
1FD
100
AcDbSymbolTableRecord
100
AcDbLayerTableRecord
  2
00_COMPONENTS
 70
0
 62
7
  6
CONTINUOUS
370
-3
390
F
  0
LAYER
  5
1FE
100
AcDbSymbolTableRecord
100
AcDbLayerTableRecord
  2
00_COMPONENTS_1
 70
0
 62
7
  6
CONTINUOUS
370
-3
390
F
  0
LAYER
  5
1FF
100
AcDbSymbolTableRecord
100
AcDbLayerTableRecord
  2
00_COMPONENTS_2
 70
0
 62
7
  6
CONTINUOUS
370
-3
390
F
  0
LAYER
  5
200
100
AcDbSymbolTableRecord
100
AcDbLayerTableRecord
  2
00_COMPONENTS_3
 70
0
 62
7
  6
CONTINUOUS
370
-3
390
F
  0
LAYER
  5
201
100
AcDbSymbolTableRecord
100
AcDbLayerTableRecord
  2
00_COMPONENTS_4
 70
0
 62
7
  6
CONTINUOUS
370
-3
390
F
  0
LAYER
  5
202
100
AcDbSymbolTableRecord
100
AcDbLayerTableRecord
  2
00_COMPONENTS_5
 70
0
 62
7
  6
CONTINUOUS
370
-3
390
F
  0
LAYER
  5
203
100
AcDbSymbolTableRecord
100
AcDbLayerTableRecord
  2
01_1_DEFAULT_DATUMS
 70
0
 62
7
  6
CONTINUOUS
370
-3
390
F
  0
LAYER
  5
204
100
AcDbSymbolTableRecord
100
AcDbLayerTableRecord
  2
01_PLANES
 70
0
 62
7
  6
CONTINUOUS
370
-3
390
F
  0
LAYER
  5
205
100
AcDbSymbolTableRecord
100
AcDbLayerTableRecord
  2
02_COORD_SYS
 70
0
 62
7
  6
CONTINUOUS
370
-3
390
F
  0
LAYER
  5
206
100
AcDbSymbolTableRecord
100
AcDbLayerTableRecord
  2
03_AXES
 70
0
 62
7
  6
CONTINUOUS
370
-3
390
F
  0
LAYER
  5
207
100
AcDbSymbolTableRecord
100
AcDbLayerTableRecord
  2
04_POINTS
 70
0
 62
7
  6
CONTINUOUS
370
-3
390
F
  0
LAYER
  5
208
100
AcDbSymbolTableRecord
100
AcDbLayerTableRecord
  2
05_CURVES
 70
0
 62
7
  6
CONTINUOUS
370
-3
390
F
  0
LAYER
  5
209
100
AcDbSymbolTableRecord
100
AcDbLayerTableRecord
  2
06_SURFS
 70
0
 62
7
  6
CONTINUOUS
370
-3
390
F
  0
LAYER
  5
20A
100
AcDbSymbolTableRecord
100
AcDbLayerTableRecord
  2
07_COSMETICS
 70
0
 62
7
  6
CONTINUOUS
370
-3
390
F
  0
LAYER
  5
20B
100
AcDbSymbolTableRecord
100
AcDbLayerTableRecord
  2
10_NOTES
 70
0
 62
7
  6
CONTINUOUS
370
-3
390
F
  0
LAYER
  5
20C
100
AcDbSymbolTableRecord
100
AcDbLayerTableRecord
  2
11_NOTES_PUB
 70
0
 62
7
  6
CONTINUOUS
370
-3
390
F
  0
LAYER
  5
20D
100
AcDbSymbolTableRecord
100
AcDbLayerTableRecord
  2
13_REF_GTOL
 70
0
 62
7
  6
CONTINUOUS
370
-3
390
F
  0
LAYER
  5
20E
100
AcDbSymbolTableRecord
100
AcDbLayerTableRecord
  2
16_MISC
 70
0
 62
7
  6
CONTINUOUS
370
-3
390
F
  0
LAYER
  5
20F
100
AcDbSymbolTableRecord
100
AcDbLayerTableRecord
  2
17_NO_PRINT
 70
0
 62
7
  6
CONTINUOUS
370
-3
390
F
  0
LAYER
  5
210
100
AcDbSymbolTableRecord
100
AcDbLayerTableRecord
  2
18_DATUM_CAMS_JOINTS
 70
0
 62
7
  6
CONTINUOUS
370
-3
390
F
  0
LAYER
  5
211
100
AcDbSymbolTableRecord
100
AcDbLayerTableRecord
  2
19_DATUM_FUNCTIONAL
 70
0
 62
7
  6
CONTINUOUS
370
-3
390
F
  0
LAYER
  5
212
100
AcDbSymbolTableRecord
100
AcDbLayerTableRecord
  2
20_DATUM_KINEMATIC_SCHEME
 70
0
 62
7
  6
CONTINUOUS
370
-3
390
F
  0
ENDTAB
  0
TABLE
  2
STYLE
  5
3
100
AcDbSymbolTable
 70
1
  0
STYLE
  5
11
100
AcDbSymbolTableRecord
100
AcDbTextStyleTableRecord
  2
STANDARD
 70
0
 40
0.0
 41
0.8
 50
0.0
 71
0
 42
0.2
  3
txt
  4

  0
STYLE
  5
213
100
AcDbSymbolTableRecord
100
AcDbTextStyleTableRecord
  2
TEXTSTYLE_1
 70
0
 40
0.0
 41
0.8
 50
0.0
 71
0
 42
0.2
  3
gdt
  4

  0
ENDTAB
  0
TABLE
  2
VIEW
  5
6
100
AcDbSymbolTable
 70
0
  0
ENDTAB
  0
TABLE
  2
UCS
  5
7
100
AcDbSymbolTable
 70
0
  0
ENDTAB
  0
TABLE
  2
APPID
  5
9
100
AcDbSymbolTable
 70
1
  0
APPID
  5
214
100
AcDbSymbolTableRecord
100
AcDbRegAppTableRecord
  2
ACAD
 70
0
  0
ENDTAB
  0
TABLE
  2
BLOCK_RECORD
  5
1
100
AcDbSymbolTable
 70
0
  0
BLOCK_RECORD
  5
215
100
AcDbSymbolTableRecord
100
AcDbBlockTableRecord
  2
*Model_Space
  0
BLOCK_RECORD
  5
216
100
AcDbSymbolTableRecord
100
AcDbBlockTableRecord
  2
*Paper_Space
  0
BLOCK_RECORD
  5
217
100
AcDbSymbolTableRecord
100
AcDbBlockTableRecord
  2
_FILLED
  0
ENDTAB
  0
TABLE
  2
DIMSTYLE
  5
A
100
AcDbSymbolTable
 70
1
100
AcDbDimStyleTable
 71
0
  0
DIMSTYLE
105
218
100
AcDbSymbolTableRecord
100
AcDbDimStyleTableRecord
  2
STANDARD
 70
0
  3

  4

 40
1.0
 41
7.294577871
 42
1.0
 43
0.38
 44
1.0
 45
0.0
 46
0.0
 47
0.01
 48
0.01
140
10.2124090194
141
0.09
142
0.0
143
25.4
144
1.0
145
0.0
146
1.0
147
0.625
 71
1
 72
0
 73
0
 74
0
 75
0
 76
0
 77
1
 78
8
 79
2
170
0
171
1
172
0
173
0
174
0
175
0
176
0
177
0
178
0
270
2
179
2
271
2
272
2
273
2
274
2
275
0
280
0
281
0
282
0
283
1
284
8
285
0
286
0
287
3
288
0
340
11
278
46
341
217
342
217
343
217
344
217
  0
ENDTAB
  0
ENDSEC
  0
SECTION
  2
BLOCKS
  0
BLOCK
  5
20
100
AcDbEntity
  8
0
100
AcDbBlockBegin
  2
*Model_Space
 70
0
 10
0.0
 20
0.0
 30
0.0
  3
*Model_Space
  1

  0
ENDBLK
  5
21
100
AcDbEntity
  8
0
100
AcDbBlockEnd
  0
BLOCK
  5
1C
100
AcDbEntity
  8
0
100
AcDbBlockBegin
  2
*Paper_Space
 70
0
 10
0.0
 20
0.0
 30
0.0
  3
*Paper_Space
  1

  0
ENDBLK
  5
1D
100
AcDbEntity
  8
0
100
AcDbBlockEnd
  0
BLOCK
  5
219
100
AcDbEntity
  8
0
100
AcDbBlockBegin
  2
_FILLED
 70
64
 10
0.0
 20
0.0
  3
_FILLED
  1

  0
SOLID
  5
21A
100
AcDbEntity
  8
0
  6
BYBLOCK
 62
0
100
AcDbTrace
 10
0.0
 20
0.0
 11
-1.0
 21
0.25
 12
-1.0
 22
-0.25
 13
-1.0
 23
-0.25
  0
ENDBLK
  5
21B
100
AcDbEntity
  8
0
  6
BYBLOCK
 62
0
100
AcDbBlockEnd
  0
ENDSEC
  0
SECTION
  2
ENTITIES
  0
LINE
  5
21C
100
AcDbEntity
  8
00_COMPONENTS_4
100
AcDbLine
 62
7
  6
CONTINUOUS
 10
162.1605115039
 20
659.7080053667
 11
156.5036808062
 21
656.4420521358
  0
LINE
  5
21D
100
AcDbEntity
  8
00_COMPONENTS
100
AcDbLine
 62
7
  6
CONTINUOUS
 10
71.0854165681
 20
391.1609100882
 11
71.0854165681
 21
567.5254321882
  0
LINE
  5
21E
100
AcDbEntity
  8
00_COMPONENTS
100
AcDbLine
 62
7
  6
CONTINUOUS
 10
138.9954163148
 20
609.803400771
 11
79.0627024772
 21
571.5745522096
  0
LINE
  5
21F
100
AcDbEntity
  8
00_COMPONENTS
100
AcDbLine
 62
7
  6
CONTINUOUS
 10
84.1965732739
 20
568.6105775771
 11
144.1292871115
 21
606.8394261385
  0
LINE
  5
220
100
AcDbEntity
  8
00_COMPONENTS
100
AcDbLine
 62
7
  6
CONTINUOUS
 10
149.4017306584
 20
615.8114532953
 11
138.9954163148
 21
609.803400771
  0
LINE
  5
221
100
AcDbEntity
  8
00_COMPONENTS
100
AcDbLine
 62
7
  6
CONTINUOUS
 10
78.5807172426
 20
571.8528202192
 11
71.0854165681
 21
567.5254321882
  0
LINE
  5
222
100
AcDbEntity
  8
00_COMPONENTS_4
100
AcDbLine
 62
7
  6
CONTINUOUS
 10
196.8088880361
 20
639.7042083952
 11
191.1520573384
 21
636.4382551643
  0
LINE
  5
223
100
AcDbEntity
  8
00_COMPONENTS_4
100
AcDbLine
 62
7
  6
CONTINUOUS
 10
198.2231074864
 20
638.8877268862
 11
192.5662767887
 21
635.6217736552
  0
LINE
  5
224
100
AcDbEntity
  8
00_COMPONENTS
100
AcDbLine
 62
7
  6
CONTINUOUS
 10
148.7254738295
 20
609.4930199376
 11
144.1292871115
 21
606.8394261385
  0
LINE
  5
225
100
AcDbEntity
  8
00_COMPONENTS
100
AcDbLine
 62
7
  6
CONTINUOUS
 10
148.7254738295
 20
601.3279957663
 11
88.1267718475
 21
566.3415277055
  0
LINE
  5
226
100
AcDbEntity
  8
00_COMPONENTS_3
100
AcDbLine
 62
7
  6
CONTINUOUS
 10
175.0828590594
 20
613.6872654133
 11
174.3406240446
 21
613.2587383857
  0
LINE
  5
227
100
AcDbEntity
  8
00_COMPONENTS
100
AcDbLine
 62
7
  6
CONTINUOUS
 10
182.3132122695
 20
584.7944253945
 11
122.3804984319
 21
546.565576833
  0
LINE
  5
228
100
AcDbEntity
  8
00_COMPONENTS_3
100
AcDbLine
 62
7
  6
CONTINUOUS
 10
230.0777117161
 20
626.5365502595
 11
238.209405844
 21
631.231358029
  0
LINE
  5
229
100
AcDbEntity
  8
00_COMPONENTS_4
100
AcDbLine
 62
7
  6
CONTINUOUS
 10
232.8714840186
 20
618.8839299147
 11
227.2146533209
 21
615.6179766837
  0
LINE
  5
22A
100
AcDbEntity
  8
00_COMPONENTS_2
100
AcDbLine
 62
7
  6
CONTINUOUS
 10
197.5164099165
 20
593.5730578931
 11
289.4399087543
 21
646.6447978964
  0
LINE
  5
22B
100
AcDbEntity
  8
00_COMPONENTS
100
AcDbLine
 62
7
  6
CONTINUOUS
 10
186.9094234259
 20
587.448033303
 11
182.3132122695
 21
584.7944253945
  0
LINE
  5
22C
100
AcDbEntity
  8
00_COMPONENTS_4
100
AcDbLine
 62
7
  6
CONTINUOUS
 10
148.7254738295
 20
611.9425554077
 11
156.5036808062
 21
656.4420521358
  0
LINE
  5
22D
100
AcDbEntity
  8
00_COMPONENTS
100
AcDbLine
 62
7
  6
CONTINUOUS
 10
126.2696019202
 20
544.3202526832
 11
186.2023157578
 21
582.5491012446
  0
LINE
  5
22E
100
AcDbEntity
  8
00_COMPONENTS
100
AcDbLine
 62
7
  6
CONTINUOUS
 10
191.1520838338
 20
579.6914159629
 11
131.2193699962
 21
541.4625674015
  0
LINE
  5
22F
100
AcDbEntity
  8
00_COMPONENTS
100
AcDbLine
 62
7
  6
CONTINUOUS
 10
135.1084734845
 20
539.2172432516
 11
195.0411873221
 21
577.4460918131
  0
LINE
  5
230
100
AcDbEntity
  8
00_COMPONENTS_2
100
AcDbLine
 62
7
  6
CONTINUOUS
 10
200.3448488171
 20
591.940094875
 11
292.2683476549
 21
645.0118348783
  0
LINE
  5
231
100
AcDbEntity
  8
00_COMPONENTS
100
AcDbLine
 62
7
  6
CONTINUOUS
 10
190.7985269143
 20
585.2027091531
 11
186.2023157578
 21
582.5491012446
  0
LINE
  5
232
100
AcDbEntity
  8
00_COMPONENTS_4
100
AcDbLine
 62
7
  6
CONTINUOUS
 10
192.5662767887
 20
585.8150979916
 11
191.1520573384
 21
584.9986028851
  0
LINE
  5
233
100
AcDbEntity
  8
00_COMPONENTS
100
AcDbLine
 62
7
  6
CONTINUOUS
 10
195.7482949903
 20
582.3450238715
 11
191.1520838338
 21
579.6914159629
  0
LINE
  5
234
100
AcDbEntity
  8
00_COMPONENTS
100
AcDbLine
 62
7
  6
CONTINUOUS
 10
197.5164099165
 20
578.8751537139
 11
195.0411873221
 21
577.4460918131
  0
LINE
  5
235
100
AcDbEntity
  8
00_COMPONENTS_3
100
AcDbLine
 62
7
  6
CONTINUOUS
 10
298.2783181159
 20
633.9877666705
 11
301.1067334648
 21
635.620743286
  0
LINE
  5
236
100
AcDbEntity
  8
00_COMPONENTS
100
AcDbLine
 62
7
  6
CONTINUOUS
 10
197.5164099165
 20
570.7101295426
 11
139.0386720581
 21
536.94819338
  0
LINE
  5
237
100
AcDbEntity
  8
00_COMPONENTS_2
100
AcDbLine
 62
7
  6
CONTINUOUS
 10
197.5164099165
 20
281.6691345496
 11
200.3448488171
 21
280.0361715315
  0
LINE
  5
238
100
AcDbEntity
  8
00_COMPONENTS_2
100
AcDbLine
 62
7
  6
CONTINUOUS
 10
299.3402103377
 20
222.8824658987
 11
302.1686492383
 21
221.2495028806
  0
LINE
  5
239
100
AcDbEntity
  8
00_COMPONENTS_4
100
AcDbLine
 62
7
  6
CONTINUOUS
 10
148.7254738295
 20
599.6950191508
 11
148.7254738295
 21
611.9425554077
  0
LINE
  5
23A
100
AcDbEntity
  8
00_COMPONENTS_2
100
AcDbLine
 62
7
  6
CONTINUOUS
 10
200.3448488171
 20
551.1149740186
 11
197.5164334683
 21
549.3108330892
  0
LINE
  5
23B
100
AcDbEntity
  8
00_COMPONENTS_4
100
AcDbLine
 62
7
  6
CONTINUOUS
 10
263.984311925
 20
600.9213367158
 11
258.3274812273
 21
597.6553834848
  0
LINE
  5
23C
100
AcDbEntity
  8
00_COMPONENTS_3
100
AcDbLine
 62
7
  6
CONTINUOUS
 10
312.2437351876
 20
612.4928308319
 11
315.0721505364
 21
614.1258074474
  0
LINE
  5
23D
100
AcDbEntity
  8
00_COMPONENTS_2
100
AcDbLine
 62
7
  6
CONTINUOUS
 10
197.5164099165
 20
564.9954732936
 11
194.6879945677
 21
563.5336609919
  0
LINE
  5
23E
100
AcDbEntity
  8
00_COMPONENTS_2
100
AcDbLine
 62
7
  6
CONTINUOUS
 10
197.5164334683
 20
561.9006979738
 11
200.3448488171
 21
563.3625102755
  0
LINE
  5
23F
100
AcDbEntity
  8
00_COMPONENTS_2
100
AcDbLine
 62
7
  6
CONTINUOUS
 10
194.6879945677
 20
308.4425782198
 11
197.5164334683
 21
306.8096152017
  0
LINE
  5
240
100
AcDbEntity
  8
00_COMPONENTS_2
100
AcDbLine
 62
7
  6
CONTINUOUS
 10
296.5117949889
 20
249.6559095689
 11
299.3402338894
 21
248.0229465508
  0
LINE
  5
241
100
AcDbEntity
  8
00_COMPONENTS
100
AcDbLine
 62
7
  6
CONTINUOUS
 10
336.9586732234
 20
237.6623863885
 11
223.8211171999
 21
302.9809071118
  0
LINE
  5
242
100
AcDbEntity
  8
00_COMPONENTS
100
AcDbLine
 62
7
  6
CONTINUOUS
 10
184.2229725916
 20
325.8423893649
 11
71.0854165681
 21
391.1609100882
  0
LINE
  5
243
100
AcDbEntity
  8
00_COMPONENTS_2
100
AcDbLine
 62
7
  6
CONTINUOUS
 10
194.6879945677
 20
321.0324431044
 11
197.5164334683
 21
319.3994800863
  0
LINE
  5
244
100
AcDbEntity
  8
00_COMPONENTS
100
AcDbLine
 62
7
  6
CONTINUOUS
 10
376.9810624701
 20
217.4953053529
 11
339.5042470373
 21
239.1320653425
  0
LINE
  5
245
100
AcDbEntity
  8
00_COMPONENTS
100
AcDbLine
 62
7
  6
CONTINUOUS
 10
223.8211171999
 20
305.9202405444
 11
186.7685464056
 21
327.3120683189
  0
LINE
  5
246
100
AcDbEntity
  8
00_COMPONENTS_3
100
AcDbLine
 62
7
  6
CONTINUOUS
 10
230.0777117161
 20
626.5365502595
 11
228.1632162314
 21
621.6021880938
  0
LINE
  5
247
100
AcDbEntity
  8
00_COMPONENTS
100
AcDbLine
 62
7
  6
CONTINUOUS
 10
197.5164099165
 20
532.6238381262
 11
173.2923986425
 21
517.1722425076
  0
LINE
  5
248
100
AcDbEntity
  8
00_COMPONENTS
100
AcDbLine
 62
7
  6
CONTINUOUS
 10
177.1815021308
 20
514.9269183577
 11
197.5164099165
 21
527.8977995422
  0
LINE
  5
249
100
AcDbEntity
  8
00_COMPONENTS
100
AcDbLine
 62
7
  6
CONTINUOUS
 10
242.0639840444
 20
550.2980816375
 11
182.1312702068
 21
512.069233076
  0
LINE
  5
24A
100
AcDbEntity
  8
00_COMPONENTS
100
AcDbLine
 62
7
  6
CONTINUOUS
 10
186.0203737317
 20
509.8239089051
 11
245.9530875693
 21
548.0527574665
  0
LINE
  5
24B
100
AcDbEntity
  8
00_COMPONENTS_2
100
AcDbLine
 62
7
  6
CONTINUOUS
 10
205.5532299763
 20
527.0092298776
 11
200.3448488171
 21
523.8972095112
  0
LINE
  5
24C
100
AcDbEntity
  8
00_COMPONENTS_3
100
AcDbLine
 62
7
  6
CONTINUOUS
 10
333.6691598595
 20
613.5553169068
 11
336.4975752084
 21
615.1882935223
  0
LINE
  5
24D
100
AcDbEntity
  8
00_COMPONENTS
100
AcDbLine
 62
7
  6
CONTINUOUS
 10
250.9460994332
 20
555.4261427378
 11
242.0639840444
 21
550.2980816375
  0
LINE
  5
24E
100
AcDbEntity
  8
00_COMPONENTS_4
100
AcDbLine
 62
7
  6
CONTINUOUS
 10
298.6326884572
 20
580.9175397443
 11
292.9758577595
 21
577.6515865133
  0
LINE
  5
24F
100
AcDbEntity
  8
00_COMPONENTS_4
100
AcDbLine
 62
7
  6
CONTINUOUS
 10
300.0469079075
 20
580.1010582353
 11
294.3900772098
 21
576.8351050043
  0
LINE
  5
250
100
AcDbEntity
  8
00_COMPONENTS
100
AcDbLine
 62
7
  6
CONTINUOUS
 10
250.5492742507
 20
550.7063512445
 11
245.9530875693
 21
548.0527574665
  0
LINE
  5
251
100
AcDbEntity
  8
00_COMPONENTS_4
100
AcDbLine
 62
7
  6
CONTINUOUS
 10
430.8622541632
 20
209.002783718
 11
396.8595063247
 21
228.633835222
  0
LINE
  5
252
100
AcDbEntity
  8
00_COMPONENTS_4
100
AcDbLine
 62
7
  6
CONTINUOUS
 10
184.0809600869
 20
589.0810104303
 11
184.0809600869
 21
585.8150289805
  0
LINE
  5
253
100
AcDbEntity
  8
00_COMPONENTS
100
AcDbLine
 62
7
  6
CONTINUOUS
 10
184.2229725916
 20
502.2069114649
 11
184.2229725916
 21
325.8423893649
  0
LINE
  5
254
100
AcDbEntity
  8
00_COMPONENTS
100
AcDbLine
 62
7
  6
CONTINUOUS
 10
186.7685464056
 20
503.6765904189
 11
186.7685464056
 21
327.3120683189
  0
LINE
  5
255
100
AcDbEntity
  8
00_COMPONENTS_4
100
AcDbLine
 62
7
  6
CONTINUOUS
 10
191.1520573384
 20
636.4382551643
 11
191.1520573384
 21
584.9986028851
  0
LINE
  5
256
100
AcDbEntity
  8
00_COMPONENTS_4
100
AcDbLine
 62
7
  6
CONTINUOUS
 10
192.5662767887
 20
584.1821213761
 11
192.5662767887
 21
635.6217736552
  0
LINE
  5
257
100
AcDbEntity
  8
00_COMPONENTS_2
100
AcDbLine
 62
7
  6
CONTINUOUS
 10
194.6879945677
 20
321.0324431044
 11
194.6879945677
 21
308.4425782198
  0
LINE
  5
258
100
AcDbEntity
  8
00_COMPONENTS_2
100
AcDbLine
 62
7
  6
CONTINUOUS
 10
194.6879945677
 20
550.9437961073
 11
194.6879945677
 21
563.5336609919
  0
LINE
  5
259
100
AcDbEntity
  8
00_COMPONENTS_4
100
AcDbLine
 62
7
  6
CONTINUOUS
 10
196.8088880361
 20
639.7042083952
 11
196.8088880361
 21
638.0712317797
  0
LINE
  5
25A
100
AcDbEntity
  8
00_COMPONENTS_2
100
AcDbLine
 62
7
  6
CONTINUOUS
 10
197.5164099165
 20
564.9954732936
 11
197.5164099165
 21
593.5730578931
  0
LINE
  5
25B
100
AcDbEntity
  8
00_COMPONENTS_2
100
AcDbLine
 62
7
  6
CONTINUOUS
 10
197.5164334683
 20
319.3994800863
 11
197.5164099165
 21
281.6691345496
  0
LINE
  5
25C
100
AcDbEntity
  8
00_COMPONENTS_2
100
AcDbLine
 62
7
  6
CONTINUOUS
 10
197.5164099165
 20
525.5301725292
 11
197.5164334683
 21
561.9006979738
  0
LINE
  5
25D
100
AcDbEntity
  8
00_COMPONENTS_2
100
AcDbLine
 62
7
  6
CONTINUOUS
 10
200.3448488171
 20
308.6137561311
 11
200.3448488171
 21
280.0361715315
  0
LINE
  5
25E
100
AcDbEntity
  8
00_COMPONENTS_2
100
AcDbLine
 62
7
  6
CONTINUOUS
 10
200.3448488171
 20
523.8972095112
 11
200.3448488171
 21
551.1149740186
  0
LINE
  5
25F
100
AcDbEntity
  8
00_COMPONENTS_2
100
AcDbLine
 62
7
  6
CONTINUOUS
 10
200.3448488171
 20
563.3625102755
 11
200.3448488171
 21
591.940094875
  0
LINE
  5
260
100
AcDbEntity
  8
00_COMPONENTS_3
100
AcDbLine
 62
7
  6
CONTINUOUS
 10
298.2783181159
 20
612.1808690208
 11
292.2683476549
 21
604.7043393751
  0
LINE
  5
261
100
AcDbEntity
  8
00_COMPONENTS
100
AcDbLine
 62
7
  6
CONTINUOUS
 10
250.5492742507
 20
542.5413270732
 11
189.9505723052
 21
507.5548590334
  0
LINE
  5
262
100
AcDbEntity
  8
00_COMPONENTS
100
AcDbLine
 62
7
  6
CONTINUOUS
 10
186.7685464056
 20
503.6765904189
 11
184.2229725916
 21
502.2069114649
  0
LINE
  5
263
100
AcDbEntity
  8
00_COMPONENTS
100
AcDbLine
 62
7
  6
CONTINUOUS
 10
223.8211171999
 20
302.9809071118
 11
223.8211171999
 21
479.3454292118
  0
LINE
  5
264
100
AcDbEntity
  8
00_COMPONENTS
100
AcDbLine
 62
7
  6
CONTINUOUS
 10
224.2453618384
 20
482.0398304293
 11
224.2453618384
 21
479.590365506
  0
LINE
  5
265
100
AcDbEntity
  8
00_COMPONENTS
100
AcDbLine
 62
7
  6
CONTINUOUS
 10
284.1370126906
 20
526.0077567435
 11
224.204298853
 21
487.7789081821
  0
LINE
  5
266
100
AcDbEntity
  8
00_COMPONENTS
100
AcDbLine
 62
7
  6
CONTINUOUS
 10
229.1950886989
 20
484.7236675339
 11
289.2708834874
 21
523.0437821111
  0
LINE
  5
267
100
AcDbEntity
  8
00_COMPONENTS_4
100
AcDbLine
 62
7
  6
CONTINUOUS
 10
334.6952844397
 20
560.0972612638
 11
329.038453742
 21
556.8313080328
  0
LINE
  5
268
100
AcDbEntity
  8
00_COMPONENTS_2
100
AcDbLine
 62
7
  6
CONTINUOUS
 10
299.3402103377
 20
534.7863892422
 11
391.2637091755
 21
587.8581292455
  0
LINE
  5
269
100
AcDbEntity
  8
00_COMPONENTS
100
AcDbLine
 62
7
  6
CONTINUOUS
 10
288.7332238471
 20
528.6613646521
 11
284.1370126906
 21
526.0077567435
  0
LINE
  5
26A
100
AcDbEntity
  8
00_COMPONENTS_2
100
AcDbLine
 62
7
  6
CONTINUOUS
 10
302.1686492383
 20
533.1534262241
 11
394.0921480761
 21
586.2251662274
  0
LINE
  5
26B
100
AcDbEntity
  8
00_COMPONENTS_4
100
AcDbLine
 62
7
  6
CONTINUOUS
 10
294.3900772098
 20
527.0284293407
 11
292.9758577595
 21
526.2119342342
  0
LINE
  5
26C
100
AcDbEntity
  8
00_COMPONENTS
100
AcDbLine
 62
7
  6
CONTINUOUS
 10
294.3900772098
 20
525.9993323425
 11
289.2708834874
 21
523.0437821111
  0
LINE
  5
26D
100
AcDbEntity
  8
00_COMPONENTS
100
AcDbLine
 62
7
  6
CONTINUOUS
 10
296.327328103
 20
524.2770057031
 11
291.7311169465
 21
521.6233977946
  0
LINE
  5
26E
100
AcDbEntity
  8
00_COMPONENTS
100
AcDbLine
 62
7
  6
CONTINUOUS
 10
229.1950886989
 20
484.8975395064
 11
229.1950886989
 21
482.4480745831
  0
LINE
  5
26F
100
AcDbEntity
  8
00_COMPONENTS_4
100
AcDbLine
 62
7
  6
CONTINUOUS
 10
250.5492742507
 20
553.1558867568
 11
258.3274812273
 21
597.6553834848
  0
LINE
  5
270
100
AcDbEntity
  8
00_COMPONENTS_3
100
AcDbLine
 62
7
  6
CONTINUOUS
 10
326.5981214874
 20
582.9518988151
 11
333.6691598595
 21
591.7484192571
  0
LINE
  5
271
100
AcDbEntity
  8
00_COMPONENTS_3
100
AcDbLine
 62
7
  6
CONTINUOUS
 10
336.4975752084
 20
591.4957643112
 11
329.4265368363
 21
582.6992438693
  0
LINE
  5
272
100
AcDbEntity
  8
00_COMPONENTS
100
AcDbLine
 62
7
  6
CONTINUOUS
 10
291.7311169465
 20
521.6233977946
 11
231.7984031089
 21
483.3945492332
  0
LINE
  5
273
100
AcDbEntity
  8
00_COMPONENTS
100
AcDbLine
 62
7
  6
CONTINUOUS
 10
236.9322739057
 20
480.4305746007
 11
296.8649877433
 21
518.6594231622
  0
LINE
  5
274
100
AcDbEntity
  8
00_COMPONENTS
100
AcDbLine
 62
7
  6
CONTINUOUS
 10
229.1950886989
 20
484.8975395064
 11
224.2453618384
 21
482.0398304293
  0
LINE
  5
275
100
AcDbEntity
  8
00_COMPONENTS
100
AcDbLine
 62
7
  6
CONTINUOUS
 10
231.3164178743
 20
483.6728172428
 11
223.8211171999
 21
479.3454292118
  0
LINE
  5
276
100
AcDbEntity
  8
00_COMPONENTS
100
AcDbLine
 62
7
  6
CONTINUOUS
 10
299.3402103377
 20
520.088485063
 11
296.8649877433
 21
518.6594231622
  0
LINE
  5
277
100
AcDbEntity
  8
00_COMPONENTS
100
AcDbLine
 62
7
  6
CONTINUOUS
 10
299.3402103377
 20
511.9234608917
 11
240.8624724792
 21
478.1615247291
  0
LINE
  5
278
100
AcDbEntity
  8
00_COMPONENTS_4
100
AcDbLine
 62
7
  6
CONTINUOUS
 10
365.8081123462
 20
542.1346680649
 11
360.1512816485
 21
538.8687148339
  0
LINE
  5
279
100
AcDbEntity
  8
00_COMPONENTS_2
100
AcDbLine
 62
7
  6
CONTINUOUS
 10
299.3402103377
 20
506.2088046426
 11
296.5117949889
 21
504.746992341
  0
LINE
  5
27A
100
AcDbEntity
  8
00_COMPONENTS_2
100
AcDbLine
 62
7
  6
CONTINUOUS
 10
299.3402338894
 20
503.1140293229
 11
302.1686492383
 21
504.5758416246
  0
LINE
  5
27B
100
AcDbEntity
  8
00_COMPONENTS_4
100
AcDbLine
 62
7
  6
CONTINUOUS
 10
250.5492742507
 20
540.9083504998
 11
250.5492742507
 21
553.1558867568
  0
LINE
  5
27C
100
AcDbEntity
  8
00_COMPONENTS_2
100
AcDbLine
 62
7
  6
CONTINUOUS
 10
302.1686492383
 20
492.3283053676
 11
299.3402338894
 21
490.5241644383
  0
LINE
  5
27D
100
AcDbEntity
  8
00_COMPONENTS_3
100
AcDbLine
 62
7
  6
CONTINUOUS
 10
485.026740762
 20
274.486726426
 11
459.4013671666
 21
289.2812080735
  0
LINE
  5
27E
100
AcDbEntity
  8
00_COMPONENTS_3
100
AcDbLine
 62
7
  6
CONTINUOUS
 10
485.0350197779
 20
279.5810325759
 11
450.2090172828
 21
299.6873796249
  0
LINE
  5
27F
100
AcDbEntity
  8
00_COMPONENTS_3
100
AcDbLine
 62
7
  6
CONTINUOUS
 10
473.3595392238
 20
288.6531947831
 11
470.5311003232
 21
290.2861578012
  0
LINE
  5
280
100
AcDbEntity
  8
00_COMPONENTS_3
100
AcDbLine
 62
7
  6
CONTINUOUS
 10
460.6315641712
 20
296.0015283645
 11
457.8031252706
 21
297.6344913825
  0
LINE
  5
281
100
AcDbEntity
  8
00_COMPONENTS_3
100
AcDbLine
 62
7
  6
CONTINUOUS
 10
470.5311003232
 20
294.3685653465
 11
464.1670833573
 21
298.0427491338
  0
LINE
  5
282
100
AcDbEntity
  8
00_COMPONENTS_3
100
AcDbLine
 62
7
  6
CONTINUOUS
 10
449.8554653642
 20
306.305378709
 11
457.8031252706
 21
301.7168989279
  0
LINE
  5
283
100
AcDbEntity
  8
00_COMPONENTS_3
100
AcDbLine
 62
7
  6
CONTINUOUS
 10
475.5515499321
 20
291.470072986
 11
484.6814678593
 21
286.19903166
  0
LINE
  5
284
100
AcDbEntity
  8
00_COMPONENTS_3
100
AcDbLine
 62
7
  6
CONTINUOUS
 10
485.0350197779
 20
285.9949025283
 11
484.6814678593
 21
286.19903166
  0
LINE
  5
285
100
AcDbEntity
  8
00_COMPONENTS_4
100
AcDbLine
 62
7
  6
CONTINUOUS
 10
227.2146533209
 20
615.6179766837
 11
227.8719304844
 21
611.0987212502
  0
LINE
  5
286
100
AcDbEntity
  8
00_COMPONENTS_4
100
AcDbLine
 62
7
  6
CONTINUOUS
 10
233.5287611821
 20
614.3646744812
 11
232.8714840186
 21
618.8839299147
  0
LINE
  5
287
100
AcDbEntity
  8
00_COMPONENTS_4
100
AcDbLine
 62
7
  6
CONTINUOUS
 10
285.9047605081
 20
530.2943417794
 11
285.9047605081
 21
527.0283603296
  0
LINE
  5
288
100
AcDbEntity
  8
00_COMPONENTS
100
AcDbLine
 62
7
  6
CONTINUOUS
 10
299.3402103377
 20
473.8371694753
 11
275.1161990636
 21
458.3855738566
  0
LINE
  5
289
100
AcDbEntity
  8
00_COMPONENTS
100
AcDbLine
 62
7
  6
CONTINUOUS
 10
279.0053025519
 20
456.1402497068
 11
299.3402103377
 21
469.1111308913
  0
LINE
  5
28A
100
AcDbEntity
  8
00_COMPONENTS
100
AcDbLine
 62
7
  6
CONTINUOUS
 10
343.8877844656
 20
491.5114129866
 11
283.955070628
 21
453.2825644251
  0
LINE
  5
28B
100
AcDbEntity
  8
00_COMPONENTS
100
AcDbLine
 62
7
  6
CONTINUOUS
 10
287.8441741163
 20
451.0372402753
 11
347.7768879539
 21
489.2660888367
  0
LINE
  5
28C
100
AcDbEntity
  8
00_COMPONENTS_2
100
AcDbLine
 62
7
  6
CONTINUOUS
 10
307.3770303975
 20
468.2225612267
 11
302.1686492383
 21
465.1105408602
  0
LINE
  5
28D
100
AcDbEntity
  8
00_COMPONENTS
100
AcDbLine
 62
7
  6
CONTINUOUS
 10
352.7698998544
 20
496.6394740869
 11
343.8877844656
 21
491.5114129866
  0
LINE
  5
28E
100
AcDbEntity
  8
00_COMPONENTS_4
100
AcDbLine
 62
7
  6
CONTINUOUS
 10
400.4564888784
 20
522.1308710934
 11
394.7996581807
 21
518.8649178624
  0
LINE
  5
28F
100
AcDbEntity
  8
00_COMPONENTS_4
100
AcDbLine
 62
7
  6
CONTINUOUS
 10
401.8707083287
 20
521.3143895843
 11
396.213877631
 21
518.0484363534
  0
LINE
  5
290
100
AcDbEntity
  8
00_COMPONENTS
100
AcDbLine
 62
7
  6
CONTINUOUS
 10
352.3730746719
 20
491.9196826358
 11
347.7768879539
 21
489.2660888367
  0
LINE
  5
291
100
AcDbEntity
  8
00_COMPONENTS
100
AcDbLine
 62
7
  6
CONTINUOUS
 10
352.3730746719
 20
483.7546584645
 11
291.7743726898
 21
448.7681904036
  0
LINE
  5
292
100
AcDbEntity
  8
00_COMPONENTS_3
100
AcDbLine
 62
7
  6
CONTINUOUS
 10
468.0562251171
 20
297.8387948336
 11
460.9851278657
 21
301.9212023788
  0
LINE
  5
293
100
AcDbEntity
  8
00_COMPONENTS_3
100
AcDbLine
 62
7
  6
CONTINUOUS
 10
470.5311003232
 20
297.6346795553
 11
469.116880873
 21
298.4511610644
  0
LINE
  5
294
100
AcDbEntity
  8
00_COMPONENTS_3
100
AcDbLine
 62
7
  6
CONTINUOUS
 10
460.9851278657
 20
303.1459246424
 11
460.6315641712
 21
303.3500501186
  0
LINE
  5
295
100
AcDbEntity
  8
00_COMPONENTS_3
100
AcDbLine
 62
7
  6
CONTINUOUS
 10
457.8031252706
 20
305.3912643453
 11
459.1466337484
 21
304.6156069117
  0
LINE
  5
296
100
AcDbEntity
  8
00_COMPONENTS_3
100
AcDbLine
 62
7
  6
CONTINUOUS
 10
472.0160307461
 20
297.1856251794
 11
473.3595392238
 21
296.4099677458
  0
LINE
  5
297
100
AcDbEntity
  8
00_COMPONENTS_3
100
AcDbLine
 62
7
  6
CONTINUOUS
 10
460.9851278657
 20
303.554207213
 11
468.0562251171
 21
299.4717996678
  0
LINE
  5
298
100
AcDbEntity
  8
00_COMPONENTS_3
100
AcDbLine
 62
7
  6
CONTINUOUS
 10
459.1466337484
 20
305.8403605374
 11
462.0457836215
 21
304.1665734438
  0
LINE
  5
299
100
AcDbEntity
  8
00_COMPONENTS_3
100
AcDbLine
 62
7
  6
CONTINUOUS
 10
469.116880873
 20
300.0841658986
 11
472.0160307461
 21
298.4103788051
  0
LINE
  5
29A
100
AcDbEntity
  8
00_COMPONENTS_3
100
AcDbLine
 62
7
  6
CONTINUOUS
 10
459.8537263985
 20
306.5751723915
 11
460.1365519597
 21
306.4118866716
  0
LINE
  5
29B
100
AcDbEntity
  8
00_COMPONENTS_3
100
AcDbLine
 62
7
  6
CONTINUOUS
 10
474.066631874
 20
298.3695332256
 11
475.4101403518
 21
297.593875792
  0
LINE
  5
29C
100
AcDbEntity
  8
00_COMPONENTS_3
100
AcDbLine
 62
7
  6
CONTINUOUS
 10
460.3262331869
 20
306.4397779134
 11
463.6850043813
 21
304.5006343294
  0
LINE
  5
29D
100
AcDbEntity
  8
00_COMPONENTS_3
100
AcDbLine
 62
7
  6
CONTINUOUS
 10
466.8669981445
 20
302.6635509341
 11
470.2257693389
 21
300.7244073501
  0
LINE
  5
29E
100
AcDbEntity
  8
00_COMPONENTS_3
100
AcDbLine
 62
7
  6
CONTINUOUS
 10
465.4372239662
 20
306.2909762892
 11
466.8669981445
 21
305.4655144569
  0
LINE
  5
29F
100
AcDbEntity
  8
00_COMPONENTS_3
100
AcDbLine
 62
7
  6
CONTINUOUS
 10
472.6523756205
 20
302.1254007772
 11
475.5515499321
 21
300.4515995745
  0
LINE
  5
2A0
100
AcDbEntity
  8
00_COMPONENTS_3
100
AcDbLine
 62
7
  6
CONTINUOUS
 10
484.6814678593
 20
295.588809457
 11
473.0059365927
 21
302.3295280812
  0
LINE
  5
2A1
100
AcDbEntity
  8
00_COMPONENTS_3
100
AcDbLine
 62
7
  6
CONTINUOUS
 10
466.8669981445
 20
305.8737656655
 11
465.4372239662
 21
306.6992274978
  0
LINE
  5
2A2
100
AcDbEntity
  8
00_COMPONENTS_3
100
AcDbLine
 62
7
  6
CONTINUOUS
 10
460.3262331869
 20
309.6499926448
 11
449.8554653642
 21
315.695156506
  0
LINE
  5
2A3
100
AcDbEntity
  8
00_COMPONENTS_3
100
AcDbLine
 62
7
  6
CONTINUOUS
 10
465.4840034984
 20
307.3763794466
 11
466.8669981445
 21
306.5779251788
  0
LINE
  5
2A4
100
AcDbEntity
  8
00_COMPONENTS_3
100
AcDbLine
 62
7
  6
CONTINUOUS
 10
460.3262331869
 20
311.7470436248
 11
463.6850043813
 21
309.8079000408
  0
LINE
  5
2A5
100
AcDbEntity
  8
00_COMPONENTS_3
100
AcDbLine
 62
7
  6
CONTINUOUS
 10
466.8669981445
 20
307.9708166454
 11
470.2257693389
 21
306.0316730615
  0
LINE
  5
2A6
100
AcDbEntity
  8
00_COMPONENTS_3
100
AcDbLine
 62
7
  6
CONTINUOUS
 10
485.3885716965
 20
297.4112772818
 11
474.4201714279
 21
303.74374287
  0
LINE
  5
2A7
100
AcDbEntity
  8
00_COMPONENTS_3
100
AcDbLine
 62
7
  6
CONTINUOUS
 10
460.4419827742
 20
311.8138712813
 11
450.5625692014
 21
317.5176243309
  0
LINE
  5
2A8
100
AcDbEntity
  8
00_COMPONENTS_3
100
AcDbLine
 62
7
  6
CONTINUOUS
 10
472.2281613084
 20
306.7795247134
 11
469.1875894903
 21
308.5349599578
  0
LINE
  5
2A9
100
AcDbEntity
  8
00_COMPONENTS_3
100
AcDbLine
 62
7
  6
CONTINUOUS
 10
462.5407580739
 20
312.3724230503
 11
459.5001862558
 21
314.1278582948
  0
LINE
  5
2AA
100
AcDbEntity
  8
00_COMPONENTS_3
100
AcDbLine
 62
7
  6
CONTINUOUS
 10
469.1875894903
 20
308.6543128902
 11
468.6192177294
 21
308.9824550558
  0
LINE
  5
2AB
100
AcDbEntity
  8
00_COMPONENTS_3
100
AcDbLine
 62
7
  6
CONTINUOUS
 10
465.4372239662
 20
310.8195384511
 11
463.8462270846
 21
311.7380801488
  0
LINE
  5
2AC
100
AcDbEntity
  8
00_COMPONENTS_3
100
AcDbLine
 62
7
  6
CONTINUOUS
 10
494.006959494
 20
295.4481567141
 11
498.0099911022
 21
293.1369392576
  0
LINE
  5
2AD
100
AcDbEntity
  8
00_COMPONENTS_3
100
AcDbLine
 62
7
  6
CONTINUOUS
 10
465.4840034984
 20
312.6836451579
 11
469.1875894903
 21
310.5454271615
  0
LINE
  5
2AE
100
AcDbEntity
  8
00_COMPONENTS_3
100
AcDbLine
 62
7
  6
CONTINUOUS
 10
485.3885716966
 20
301.931351694
 11
474.6096106898
 21
308.1544469476
  0
LINE
  5
2AF
100
AcDbEntity
  8
00_COMPONENTS_3
100
AcDbLine
 62
7
  6
CONTINUOUS
 10
459.5001862558
 20
316.877679866
 11
450.5625692014
 21
322.037698743
  0
LINE
  5
2B0
100
AcDbEntity
  8
00_COMPONENTS_3
100
AcDbLine
 62
7
  6
CONTINUOUS
 10
469.1875894903
 20
311.4742620284
 11
465.0863047271
 21
313.8420863231
  0
LINE
  5
2B1
100
AcDbEntity
  8
00_COMPONENTS_3
100
AcDbLine
 62
7
  6
CONTINUOUS
 10
484.6814678593
 20
302.9373312111
 11
475.1272779874
 21
308.4533205172
  0
LINE
  5
2B2
100
AcDbEntity
  8
00_COMPONENTS_3
100
AcDbLine
 62
7
  6
CONTINUOUS
 10
469.1875894903
 20
311.882523691
 11
465.4398747529
 21
314.0462188541
  0
LINE
  5
2B3
100
AcDbEntity
  8
00_COMPONENTS_3
100
AcDbLine
 62
7
  6
CONTINUOUS
 10
459.5001862558
 20
317.4754220279
 11
449.8554653642
 21
323.0436782602
  0
LINE
  5
2B4
100
AcDbEntity
  8
00_COMPONENTS_3
100
AcDbLine
 62
7
  6
CONTINUOUS
 10
474.0666195093
 20
311.5151853731
 11
475.4808389596
 21
310.698703864
  0
LINE
  5
2B5
100
AcDbEntity
  8
00_COMPONENTS_3
100
AcDbLine
 62
7
  6
CONTINUOUS
 10
459.5001862558
 20
323.1093848832
 11
462.5407580739
 21
321.3539496388
  0
LINE
  5
2B6
100
AcDbEntity
  8
00_COMPONENTS_3
100
AcDbLine
 62
7
  6
CONTINUOUS
 10
469.1875894903
 20
317.5164865463
 11
472.2281613084
 21
315.7610513018
  0
LINE
  5
2B7
100
AcDbEntity
  8
00_COMPONENTS_3
100
AcDbLine
 62
7
  6
CONTINUOUS
 10
462.6821652991
 20
323.3135137588
 11
461.2679458488
 21
324.1299952679
  0
LINE
  5
2B8
100
AcDbEntity
  8
00_COMPONENTS_3
100
AcDbLine
 62
7
  6
CONTINUOUS
 10
472.5817014512
 20
317.5981431955
 11
473.9959209015
 21
316.7816616865
  0
LINE
  5
2B9
100
AcDbEntity
  8
00_COMPONENTS_2
100
AcDbLine
 62
7
  6
CONTINUOUS
 10
292.2683476549
 20
645.0118348783
 11
292.2683476549
 21
584.5919104944
  0
LINE
  5
2BA
100
AcDbEntity
  8
00_COMPONENTS_4
100
AcDbLine
 62
7
  6
CONTINUOUS
 10
292.9758577595
 20
577.6515865133
 11
292.9758577595
 21
526.2119342342
  0
LINE
  5
2BB
100
AcDbEntity
  8
00_COMPONENTS_4
100
AcDbLine
 62
7
  6
CONTINUOUS
 10
294.3900772098
 20
525.3954527251
 11
294.3900772098
 21
576.8351050043
  0
LINE
  5
2BC
100
AcDbEntity
  8
00_COMPONENTS_2
100
AcDbLine
 62
7
  6
CONTINUOUS
 10
296.5117949889
 20
261.0138741439
 11
296.5117949889
 21
249.6559095689
  0
LINE
  5
2BD
100
AcDbEntity
  8
00_COMPONENTS_2
100
AcDbLine
 62
7
  6
CONTINUOUS
 10
296.5117949889
 20
492.1571274564
 11
296.5117949889
 21
504.746992341
  0
LINE
  5
2BE
100
AcDbEntity
  8
00_COMPONENTS_3
100
AcDbLine
 62
7
  6
CONTINUOUS
 10
298.2783181159
 20
612.1808690208
 11
298.2783181159
 21
633.9877666705
  0
LINE
  5
2BF
100
AcDbEntity
  8
00_COMPONENTS_4
100
AcDbLine
 62
7
  6
CONTINUOUS
 10
298.6326884572
 20
580.9175397443
 11
298.6326884572
 21
579.2845631288
  0
LINE
  5
2C0
100
AcDbEntity
  8
00_COMPONENTS_2
100
AcDbLine
 62
7
  6
CONTINUOUS
 10
299.3402103377
 20
506.2088046426
 11
299.3402103377
 21
534.7863892422
  0
LINE
  5
2C1
100
AcDbEntity
  8
00_COMPONENTS_2
100
AcDbLine
 62
7
  6
CONTINUOUS
 10
299.3402338894
 20
259.3809111258
 11
299.3402103377
 21
222.8824658987
  0
LINE
  5
2C2
100
AcDbEntity
  8
00_COMPONENTS_2
100
AcDbLine
 62
7
  6
CONTINUOUS
 10
299.3402103377
 20
466.7435038783
 11
299.3402338894
 21
503.1140293229
  0
LINE
  5
2C3
100
AcDbEntity
  8
00_COMPONENTS_2
100
AcDbLine
 62
7
  6
CONTINUOUS
 10
302.1686492383
 20
249.8270874801
 11
302.1686492383
 21
221.2495028806
  0
LINE
  5
2C4
100
AcDbEntity
  8
00_COMPONENTS_2
100
AcDbLine
 62
7
  6
CONTINUOUS
 10
302.1686492383
 20
465.1105408602
 11
302.1686492383
 21
492.3283053676
  0
LINE
  5
2C5
100
AcDbEntity
  8
00_COMPONENTS_2
100
AcDbLine
 62
7
  6
CONTINUOUS
 10
302.1686492383
 20
504.5758416246
 11
302.1686492383
 21
533.1534262241
  0
LINE
  5
2C6
100
AcDbEntity
  8
00_COMPONENTS_3
100
AcDbLine
 62
7
  6
CONTINUOUS
 10
312.2437351876
 20
621.8023907373
 11
312.2437351876
 21
612.4928308319
  0
LINE
  5
2C7
100
AcDbEntity
  8
00_COMPONENTS_3
100
AcDbLine
 62
7
  6
CONTINUOUS
 10
467.9846521512
 20
536.0099855857
 11
470.8130675001
 21
537.6429622011
  0
LINE
  5
2C8
100
AcDbEntity
  8
00_COMPONENTS_3
100
AcDbLine
 62
7
  6
CONTINUOUS
 10
484.6814678593
 20
312.3271090081
 11
449.8554653642
 21
332.4334560571
  0
LINE
  5
2C9
100
AcDbEntity
  8
00_COMPONENTS_3
100
AcDbLine
 62
7
  6
CONTINUOUS
 10
485.0350197779
 20
312.9394822936
 11
450.2090172828
 21
333.0458293426
  0
LINE
  5
2CA
100
AcDbEntity
  8
00_COMPONENTS_3
100
AcDbLine
 62
7
  6
CONTINUOUS
 10
505.5601710369
 20
303.211429748
 11
508.3004118573
 21
301.6293867633
  0
LINE
  5
2CB
100
AcDbEntity
  8
00_COMPONENTS_3
100
AcDbLine
 62
7
  6
CONTINUOUS
 10
509.5632026978
 20
310.1449224576
 11
510.9640367077
 21
309.3361688614
  0
LINE
  5
2CC
100
AcDbEntity
  8
00_COMPONENTS
100
AcDbLine
 62
7
  6
CONTINUOUS
 10
71.0854165681
 20
567.5254321882
 11
184.2229725916
 21
502.2069114649
  0
LINE
  5
2CD
100
AcDbEntity
  8
00_COMPONENTS
100
AcDbLine
 62
7
  6
CONTINUOUS
 10
223.8211171999
 20
479.3454292118
 11
336.9586732234
 21
414.0269084886
  0
LINE
  5
2CE
100
AcDbEntity
  8
00_COMPONENTS_3
100
AcDbLine
 62
7
  6
CONTINUOUS
 10
508.3004118573
 20
316.0632466635
 11
510.9640367077
 21
314.525318565
  0
LINE
  5
2CF
100
AcDbEntity
  8
00_COMPONENTS
100
AcDbLine
 62
7
  6
CONTINUOUS
 10
186.7685464056
 20
503.6765904189
 11
224.2453618384
 21
482.0398304293
  0
LINE
  5
2D0
100
AcDbEntity
  8
00_COMPONENTS
100
AcDbLine
 62
7
  6
CONTINUOUS
 10
339.5042470373
 20
415.4965874425
 11
376.9810624701
 21
393.8598274529
  0
LINE
  5
2D1
100
AcDbEntity
  8
00_COMPONENTS
100
AcDbLine
 62
7
  6
CONTINUOUS
 10
78.5807172426
 20
571.8528202192
 11
229.1950886989
 21
484.8975395064
  0
LINE
  5
2D2
100
AcDbEntity
  8
00_COMPONENTS
100
AcDbLine
 62
7
  6
CONTINUOUS
 10
231.3164178743
 20
483.6728172428
 11
381.9307893306
 21
396.71753653
  0
LINE
  5
2D3
100
AcDbEntity
  8
00_COMPONENTS_3
100
AcDbLine
 62
7
  6
CONTINUOUS
 10
315.0721505364
 20
621.7323623668
 11
315.0721505364
 21
614.1258074474
  0
LINE
  5
2D4
100
AcDbEntity
  8
00_COMPONENTS_3
100
AcDbLine
 62
7
  6
CONTINUOUS
 10
319.6683873016
 20
608.2063029094
 11
319.6683873016
 21
617.5158628149
  0
LINE
  5
2D5
100
AcDbEntity
  8
00_COMPONENTS_3
100
AcDbLine
 62
7
  6
CONTINUOUS
 10
326.5981214874
 20
580.201263714
 11
326.5981214874
 21
582.9518988151
  0
LINE
  5
2D6
100
AcDbEntity
  8
00_COMPONENTS_3
100
AcDbLine
 62
7
  6
CONTINUOUS
 10
329.4265368363
 20
582.6992438693
 11
329.4265368363
 21
578.5683142932
  0
LINE
  5
2D7
100
AcDbEntity
  8
00_COMPONENTS_3
100
AcDbLine
 62
7
  6
CONTINUOUS
 10
333.6691598595
 20
591.7484192571
 11
333.6691598595
 21
613.5553169068
  0
LINE
  5
2D8
100
AcDbEntity
  8
00_COMPONENTS
100
AcDbLine
 62
7
  6
CONTINUOUS
 10
385.9608131118
 20
467.2210880926
 11
326.0280992742
 21
428.9922395312
  0
LINE
  5
2D9
100
AcDbEntity
  8
00_COMPONENTS
100
AcDbLine
 62
7
  6
CONTINUOUS
 10
329.9172027625
 20
426.7469153813
 11
389.8499166001
 21
464.9757639427
  0
LINE
  5
2DA
100
AcDbEntity
  8
00_COMPONENTS
100
AcDbLine
 62
7
  6
CONTINUOUS
 10
394.7996846762
 20
462.1180786611
 11
334.8669708385
 21
423.8892300997
  0
LINE
  5
2DB
100
AcDbEntity
  8
00_COMPONENTS_4
100
AcDbLine
 62
7
  6
CONTINUOUS
 10
436.5190848609
 20
501.3105926128
 11
430.8622541632
 21
498.0446393819
  0
LINE
  5
2DC
100
AcDbEntity
  8
00_COMPONENTS
100
AcDbLine
 62
7
  6
CONTINUOUS
 10
390.5570242683
 20
469.8746960011
 11
385.9608131118
 21
467.2210880926
  0
LINE
  5
2DD
100
AcDbEntity
  8
00_COMPONENTS
100
AcDbLine
 62
7
  6
CONTINUOUS
 10
394.4461277566
 20
467.6293718513
 11
389.8499166001
 21
464.9757639427
  0
LINE
  5
2DE
100
AcDbEntity
  8
00_COMPONENTS_4
100
AcDbLine
 62
7
  6
CONTINUOUS
 10
396.213877631
 20
468.2417606897
 11
394.7996581807
 21
467.4252655832
  0
LINE
  5
2DF
100
AcDbEntity
  8
00_COMPONENTS_3
100
AcDbLine
 62
7
  6
CONTINUOUS
 10
481.9500692229
 20
514.515049747
 11
484.7784845717
 21
516.1480263625
  0
LINE
  5
2E0
100
AcDbEntity
  8
00_COMPONENTS
100
AcDbLine
 62
7
  6
CONTINUOUS
 10
399.3958958326
 20
464.7716865696
 11
394.7996846762
 21
462.1180786611
  0
LINE
  5
2E1
100
AcDbEntity
  8
00_COMPONENTS
100
AcDbLine
 62
7
  6
CONTINUOUS
 10
418.5406371133
 20
471.3341563882
 11
417.7283412531
 21
470.865179954
  0
LINE
  5
2E2
100
AcDbEntity
  8
00_COMPONENTS
100
AcDbLine
 62
7
  6
CONTINUOUS
 10
403.2849871198
 20
462.5263553333
 11
398.688788201
 21
459.8727544901
  0
LINE
  5
2E3
100
AcDbEntity
  8
00_COMPONENTS_3
100
AcDbLine
 62
7
  6
CONTINUOUS
 10
504.1124489286
 20
390.4082962708
 11
500.8504231326
 21
391.3594899704
  0
LINE
  5
2E4
100
AcDbEntity
  8
00_COMPONENTS_3
100
AcDbLine
 62
7
  6
CONTINUOUS
 10
505.1021459338
 20
400.3383340092
 11
508.3641717298
 21
399.3871403096
  0
LINE
  5
2E5
100
AcDbEntity
  8
00_COMPONENTS_3
100
AcDbLine
 62
7
  6
CONTINUOUS
 10
473.3595392238
 20
345.8083639822
 11
470.5311003232
 21
347.4413270002
  0
LINE
  5
2E6
100
AcDbEntity
  8
00_COMPONENTS_3
100
AcDbLine
 62
7
  6
CONTINUOUS
 10
460.6315641712
 20
353.1566975635
 11
457.8031252706
 21
354.7896605816
  0
LINE
  5
2E7
100
AcDbEntity
  8
00_COMPONENTS_3
100
AcDbLine
 62
7
  6
CONTINUOUS
 10
470.5311003232
 20
351.5237345456
 11
464.1670833573
 21
355.1979183329
  0
LINE
  5
2E8
100
AcDbEntity
  8
00_COMPONENTS_3
100
AcDbLine
 62
7
  6
CONTINUOUS
 10
449.8554653642
 20
363.4605479081
 11
457.8031252706
 21
358.872068127
  0
LINE
  5
2E9
100
AcDbEntity
  8
00_COMPONENTS_3
100
AcDbLine
 62
7
  6
CONTINUOUS
 10
475.5515499321
 20
348.6252421851
 11
484.6814678593
 21
343.354200859
  0
LINE
  5
2EA
100
AcDbEntity
  8
00_COMPONENTS_3
100
AcDbLine
 62
7
  6
CONTINUOUS
 10
485.0350197779
 20
343.1500717274
 11
484.6814678593
 21
343.354200859
  0
LINE
  5
2EB
100
AcDbEntity
  8
00_COMPONENTS_3
100
AcDbLine
 62
7
  6
CONTINUOUS
 10
468.0562251171
 20
354.9939640326
 11
460.9851278657
 21
359.0763715778
  0
LINE
  5
2EC
100
AcDbEntity
  8
00_COMPONENTS_3
100
AcDbLine
 62
7
  6
CONTINUOUS
 10
512.6578663458
 20
330.01808901
 11
521.9729571776
 21
324.6401404762
  0
LINE
  5
2ED
100
AcDbEntity
  8
00_COMPONENTS_3
100
AcDbLine
 62
7
  6
CONTINUOUS
 10
470.5311003232
 20
354.7898487544
 11
469.116880873
 21
355.6063302634
  0
LINE
  5
2EE
100
AcDbEntity
  8
00_COMPONENTS_3
100
AcDbLine
 62
7
  6
CONTINUOUS
 10
460.9851278657
 20
360.3010938414
 11
460.6315641712
 21
360.5052193177
  0
LINE
  5
2EF
100
AcDbEntity
  8
00_COMPONENTS_3
100
AcDbLine
 62
7
  6
CONTINUOUS
 10
457.8031252706
 20
362.5464335443
 11
459.1466337484
 21
361.7707761107
  0
LINE
  5
2F0
100
AcDbEntity
  8
00_COMPONENTS_3
100
AcDbLine
 62
7
  6
CONTINUOUS
 10
472.0160307461
 20
354.3407943785
 11
473.3595392238
 21
353.5651369449
  0
LINE
  5
2F1
100
AcDbEntity
  8
00_COMPONENTS_3
100
AcDbLine
 62
7
  6
CONTINUOUS
 10
460.9851278657
 20
360.7093764121
 11
468.0562251171
 21
356.6269688669
  0
LINE
  5
2F2
100
AcDbEntity
  8
00_COMPONENTS_3
100
AcDbLine
 62
7
  6
CONTINUOUS
 10
459.1466337484
 20
362.9955297364
 11
462.0457836215
 21
361.3217426429
  0
LINE
  5
2F3
100
AcDbEntity
  8
00_COMPONENTS_3
100
AcDbLine
 62
7
  6
CONTINUOUS
 10
469.116880873
 20
357.2393350977
 11
472.0160307461
 21
355.5655480042
  0
LINE
  5
2F4
100
AcDbEntity
  8
00_COMPONENTS_3
100
AcDbLine
 62
7
  6
CONTINUOUS
 10
470.2257693389
 20
357.4713253406
 11
466.8669981445
 21
359.4104689246
  0
LINE
  5
2F5
100
AcDbEntity
  8
00_COMPONENTS_3
100
AcDbLine
 62
7
  6
CONTINUOUS
 10
463.6850043813
 20
361.24755232
 11
460.3262331869
 21
363.1866959039
  0
LINE
  5
2F6
100
AcDbEntity
  8
00_COMPONENTS_3
100
AcDbLine
 62
7
  6
CONTINUOUS
 10
524.6597887944
 20
326.1913741738
 11
529.9632217062
 21
323.1295050233
  0
LINE
  5
2F7
100
AcDbEntity
  8
00_COMPONENTS_3
100
AcDbLine
 62
7
  6
CONTINUOUS
 10
459.8537263985
 20
363.7303415906
 11
460.1365519597
 21
363.5670558707
  0
LINE
  5
2F8
100
AcDbEntity
  8
00_COMPONENTS_3
100
AcDbLine
 62
7
  6
CONTINUOUS
 10
474.066631874
 20
355.5247024247
 11
475.4101403518
 21
354.7490449911
  0
LINE
  5
2F9
100
AcDbEntity
  8
00_COMPONENTS_3
100
AcDbLine
 62
7
  6
CONTINUOUS
 10
465.4372239661
 20
363.4461454883
 11
466.8669981445
 21
362.620683656
  0
LINE
  5
2FA
100
AcDbEntity
  8
00_COMPONENTS_3
100
AcDbLine
 62
7
  6
CONTINUOUS
 10
473.0059365927
 20
359.0764460717
 11
475.5515499321
 21
357.6067687735
  0
LINE
  5
2FB
100
AcDbEntity
  8
00_COMPONENTS_3
100
AcDbLine
 62
7
  6
CONTINUOUS
 10
484.6814678593
 20
352.743978656
 11
473.3594975649
 21
359.2805733757
  0
LINE
  5
2FC
100
AcDbEntity
  8
00_COMPONENTS_3
100
AcDbLine
 62
7
  6
CONTINUOUS
 10
466.8669981445
 20
363.0289348646
 11
465.4372239661
 21
363.8543966969
  0
LINE
  5
2FD
100
AcDbEntity
  8
00_COMPONENTS_3
100
AcDbLine
 62
7
  6
CONTINUOUS
 10
460.3262331869
 20
366.8051618439
 11
449.8554653642
 21
372.8503257051
  0
LINE
  5
2FE
100
AcDbEntity
  8
00_COMPONENTS_3
100
AcDbLine
 62
7
  6
CONTINUOUS
 10
466.8669981445
 20
363.3248431693
 11
465.4840034984
 21
364.1232974371
  0
LINE
  5
2FF
100
AcDbEntity
  8
00_COMPONENTS_3
100
AcDbLine
 62
7
  6
CONTINUOUS
 10
470.2257693389
 20
362.778591052
 11
466.8669981445
 21
364.717734636
  0
LINE
  5
300
100
AcDbEntity
  8
00_COMPONENTS_3
100
AcDbLine
 62
7
  6
CONTINUOUS
 10
463.6850043813
 20
366.5548180313
 11
460.3262331869
 21
368.4939616153
  0
LINE
  5
301
100
AcDbEntity
  8
00_COMPONENTS_3
100
AcDbLine
 62
7
  6
CONTINUOUS
 10
485.3885716965
 20
354.5664464809
 11
474.7737233465
 21
360.6947933915
  0
LINE
  5
302
100
AcDbEntity
  8
00_COMPONENTS_3
100
AcDbLine
 62
7
  6
CONTINUOUS
 10
460.7955437464
 20
368.7649165758
 11
450.5625692014
 21
374.6727935299
  0
LINE
  5
303
100
AcDbEntity
  8
00_COMPONENTS_3
100
AcDbLine
 62
7
  6
CONTINUOUS
 10
463.8462270846
 20
368.4849981393
 11
465.4372239661
 21
367.5664564416
  0
LINE
  5
304
100
AcDbEntity
  8
00_COMPONENTS_3
100
AcDbLine
 62
7
  6
CONTINUOUS
 10
468.6192177293
 20
365.7293730463
 11
470.2102146109
 21
364.8108313486
  0
LINE
  5
305
100
AcDbEntity
  8
00_COMPONENTS_3
100
AcDbLine
 62
7
  6
CONTINUOUS
 10
472.2281613084
 20
363.9346939125
 11
469.1875894903
 21
365.6901291569
  0
LINE
  5
306
100
AcDbEntity
  8
00_COMPONENTS_3
100
AcDbLine
 62
7
  6
CONTINUOUS
 10
462.5407580739
 20
369.5275922494
 11
459.4939383133
 21
371.2866346635
  0
LINE
  5
307
100
AcDbEntity
  8
00_COMPONENTS_3
100
AcDbLine
 62
7
  6
CONTINUOUS
 10
469.1875894903
 20
367.292345152
 11
465.4840034984
 21
369.4305631484
  0
LINE
  5
308
100
AcDbEntity
  8
00_COMPONENTS_3
100
AcDbLine
 62
7
  6
CONTINUOUS
 10
485.3885716966
 20
359.0865208931
 11
474.7737233465
 21
365.2148678036
  0
LINE
  5
309
100
AcDbEntity
  8
00_COMPONENTS_3
100
AcDbLine
 62
7
  6
CONTINUOUS
 10
459.4939383133
 20
374.0364562347
 11
450.5625692014
 21
379.1928679421
  0
LINE
  5
30A
100
AcDbEntity
  8
00_COMPONENTS_3
100
AcDbLine
 62
7
  6
CONTINUOUS
 10
469.1875894903
 20
368.5200329929
 11
464.9915617225
 21
370.9425559494
  0
LINE
  5
30B
100
AcDbEntity
  8
00_COMPONENTS_2
100
AcDbLine
 62
7
  6
CONTINUOUS
 10
302.1686492383
 20
465.1105408602
 11
299.3402103377
 21
466.7435038783
  0
LINE
  5
30C
100
AcDbEntity
  8
00_COMPONENTS_2
100
AcDbLine
 62
7
  6
CONTINUOUS
 10
200.3448488171
 20
523.8972095112
 11
197.5164099165
 21
525.5301725292
  0
LINE
  5
30D
100
AcDbEntity
  8
00_COMPONENTS_3
100
AcDbLine
 62
7
  6
CONTINUOUS
 10
484.6814678593
 20
360.0925004102
 11
475.1272779874
 21
365.6084897163
  0
LINE
  5
30E
100
AcDbEntity
  8
00_COMPONENTS_3
100
AcDbLine
 62
7
  6
CONTINUOUS
 10
469.1875894903
 20
369.0376928901
 11
465.4398747529
 21
371.2013880532
  0
LINE
  5
30F
100
AcDbEntity
  8
00_COMPONENTS_3
100
AcDbLine
 62
7
  6
CONTINUOUS
 10
459.4939383133
 20
374.6341983967
 11
449.8554653642
 21
380.1988474592
  0
LINE
  5
310
100
AcDbEntity
  8
00_COMPONENTS_3
100
AcDbLine
 62
7
  6
CONTINUOUS
 10
474.0666195093
 20
368.6703545721
 11
475.4808389597
 21
367.8538730631
  0
LINE
  5
311
100
AcDbEntity
  8
00_COMPONENTS_3
100
AcDbLine
 62
7
  6
CONTINUOUS
 10
336.4975752084
 20
615.1882935223
 11
336.4975752084
 21
591.4957643112
  0
LINE
  5
312
100
AcDbEntity
  8
00_COMPONENTS
100
AcDbLine
 62
7
  6
CONTINUOUS
 10
336.9586732234
 20
414.0269084886
 11
336.9586732234
 21
237.6623863885
  0
LINE
  5
313
100
AcDbEntity
  8
00_COMPONENTS
100
AcDbLine
 62
7
  6
CONTINUOUS
 10
339.5042470373
 20
415.4965874425
 11
339.5042470373
 21
239.1320653425
  0
LINE
  5
314
100
AcDbEntity
  8
00_COMPONENTS_4
100
AcDbLine
 62
7
  6
CONTINUOUS
 10
352.3730746719
 20
482.1216818489
 11
352.3730746719
 21
494.3692181059
  0
LINE
  5
315
100
AcDbEntity
  8
00_COMPONENTS_4
100
AcDbLine
 62
7
  6
CONTINUOUS
 10
352.3730746719
 20
494.3692181059
 11
360.1512816485
 21
538.8687148339
  0
LINE
  5
316
100
AcDbEntity
  8
00_COMPONENTS
100
AcDbLine
 62
7
  6
CONTINUOUS
 10
338.7560743634
 20
421.6439059287
 11
398.688788201
 21
459.8727544901
  0
LINE
  5
317
100
AcDbEntity
  8
00_COMPONENTS_2
100
AcDbLine
 62
7
  6
CONTINUOUS
 10
200.3448488171
 20
308.6137561311
 11
197.5164334683
 21
306.8096152017
  0
LINE
  5
318
100
AcDbEntity
  8
00_COMPONENTS_3
100
AcDbLine
 62
7
  6
CONTINUOUS
 10
503.3754938948
 20
515.5775358219
 11
506.2039092437
 21
517.2105124374
  0
LINE
  5
319
100
AcDbEntity
  8
00_COMPONENTS
100
AcDbLine
 62
7
  6
CONTINUOUS
 10
403.2849748825
 20
454.3613240968
 11
342.686272937
 21
419.3748560571
  0
LINE
  5
31A
100
AcDbEntity
  8
00_COMPONENTS
100
AcDbLine
 62
7
  6
CONTINUOUS
 10
339.5042470373
 20
415.4965874425
 11
336.9586732234
 21
414.0269084886
  0
LINE
  5
31B
100
AcDbEntity
  8
00_COMPONENTS
100
AcDbLine
 62
7
  6
CONTINUOUS
 10
186.7685464056
 20
327.3120683189
 11
184.2229725916
 21
325.8423893649
  0
LINE
  5
31C
100
AcDbEntity
  8
00_COMPONENTS_3
100
AcDbLine
 62
7
  6
CONTINUOUS
 10
459.4939383133
 20
380.2681612519
 11
462.5407580739
 21
378.5091188378
  0
LINE
  5
31D
100
AcDbEntity
  8
00_COMPONENTS_3
100
AcDbLine
 62
7
  6
CONTINUOUS
 10
469.1875894903
 20
374.6716557453
 11
472.2281613084
 21
372.9162205009
  0
LINE
  5
31E
100
AcDbEntity
  8
00_COMPONENTS_3
100
AcDbLine
 62
7
  6
CONTINUOUS
 10
462.6821652991
 20
380.4686829579
 11
461.2616979063
 21
381.2887716366
  0
LINE
  5
31F
100
AcDbEntity
  8
00_COMPONENTS_3
100
AcDbLine
 62
7
  6
CONTINUOUS
 10
472.5817014512
 20
374.7533123946
 11
473.9959209015
 21
373.9368308856
  0
LINE
  5
320
100
AcDbEntity
  8
00_COMPONENTS_3
100
AcDbLine
 62
7
  6
CONTINUOUS
 10
484.6814678593
 20
369.4822782072
 11
449.8554653642
 21
389.5886252562
  0
LINE
  5
321
100
AcDbEntity
  8
00_COMPONENTS_3
100
AcDbLine
 62
7
  6
CONTINUOUS
 10
485.0350197779
 20
370.0946514927
 11
450.2090172828
 21
390.2009985417
  0
LINE
  5
322
100
AcDbEntity
  8
00_COMPONENTS_3
100
AcDbLine
 62
7
  6
CONTINUOUS
 10
485.0350197779
 20
376.5085214452
 11
450.2090172828
 21
396.6148684942
  0
LINE
  5
323
100
AcDbEntity
  8
00_COMPONENTS_3
100
AcDbLine
 62
7
  6
CONTINUOUS
 10
485.0268025853
 20
378.5544693089
 11
486.802779371
 21
377.5291318298
  0
LINE
  5
324
100
AcDbEntity
  8
00_COMPONENTS_3
100
AcDbLine
 62
7
  6
CONTINUOUS
 10
485.0267999546
 20
378.9192727717
 11
452.2927091432
 21
397.8178813697
  0
LINE
  5
325
100
AcDbEntity
  8
00_COMPONENTS_2
100
AcDbLine
 62
7
  6
CONTINUOUS
 10
299.3402338894
 20
490.5241644383
 11
296.5117949889
 21
492.1571274564
  0
LINE
  5
326
100
AcDbEntity
  8
00_COMPONENTS_2
100
AcDbLine
 62
7
  6
CONTINUOUS
 10
197.5164334683
 20
549.3108330892
 11
194.6879945677
 21
550.9437961073
  0
LINE
  5
327
100
AcDbEntity
  8
00_COMPONENTS_3
100
AcDbLine
 62
7
  6
CONTINUOUS
 10
551.1763456545
 20
347.216140951
 11
550.1156810668
 21
347.8285020827
  0
LINE
  5
328
100
AcDbEntity
  8
00_COMPONENTS_4
100
AcDbLine
 62
7
  6
CONTINUOUS
 10
329.038453742
 20
556.8313080328
 11
329.6957309056
 21
552.3120525993
  0
LINE
  5
329
100
AcDbEntity
  8
00_COMPONENTS_4
100
AcDbLine
 62
7
  6
CONTINUOUS
 10
335.3525616033
 20
555.5780058303
 11
334.6952844397
 21
560.0972612638
  0
LINE
  5
32A
100
AcDbEntity
  8
00_COMPONENTS
100
AcDbLine
 62
7
  6
CONTINUOUS
 10
376.9810624701
 20
393.8598274529
 11
376.9810624701
 21
217.4953053529
  0
LINE
  5
32B
100
AcDbEntity
  8
00_COMPONENTS
100
AcDbLine
 62
7
  6
CONTINUOUS
 10
436.8727133224
 20
437.8277537671
 11
376.9399994848
 21
399.5989052057
  0
LINE
  5
32C
100
AcDbEntity
  8
00_COMPONENTS_4
100
AcDbLine
 62
7
  6
CONTINUOUS
 10
444.2972918375
 20
447.8297992853
 11
438.6404611398
 21
444.5638460544
  0
LINE
  5
32D
100
AcDbEntity
  8
00_COMPONENTS
100
AcDbLine
 62
7
  6
CONTINUOUS
 10
457.0251726832
 20
449.4627121526
 11
436.8727133224
 21
437.8277537671
  0
LINE
  5
32E
100
AcDbEntity
  8
00_COMPONENTS
100
AcDbLine
 62
7
  6
CONTINUOUS
 10
462.15904348
 20
446.4987375202
 11
442.0065841192
 21
434.8637791347
  0
LINE
  5
32F
100
AcDbEntity
  8
00_COMPONENTS
100
AcDbLine
 62
7
  6
CONTINUOUS
 10
381.9307893306
 20
396.71753653
 11
376.9810624701
 21
393.8598274529
  0
LINE
  5
330
100
AcDbEntity
  8
00_COMPONENTS_2
100
AcDbLine
 62
7
  6
CONTINUOUS
 10
196.2484798281
 20
321.838950024
 11
194.6879945677
 21
321.0324431044
  0
LINE
  5
331
100
AcDbEntity
  8
00_COMPONENTS_2
100
AcDbLine
 62
7
  6
CONTINUOUS
 10
197.5164334683
 20
319.3994800863
 11
199.0769187287
 21
320.2059870059
  0
LINE
  5
332
100
AcDbEntity
  8
00_COMPONENTS_2
100
AcDbLine
 62
7
  6
CONTINUOUS
 10
299.3402338894
 20
503.1140293229
 11
296.5117949889
 21
504.746992341
  0
LINE
  5
333
100
AcDbEntity
  8
00_COMPONENTS_2
100
AcDbLine
 62
7
  6
CONTINUOUS
 10
197.5164334683
 20
561.9006979738
 11
194.6879945677
 21
563.5336609919
  0
LINE
  5
334
100
AcDbEntity
  8
00_COMPONENTS_2
100
AcDbLine
 62
7
  6
CONTINUOUS
 10
302.1686492383
 20
504.5758416246
 11
299.3402103377
 21
506.2088046426
  0
LINE
  5
335
100
AcDbEntity
  8
00_COMPONENTS_2
100
AcDbLine
 62
7
  6
CONTINUOUS
 10
200.3448488171
 20
563.3625102755
 11
197.5164099165
 21
564.9954732936
  0
LINE
  5
336
100
AcDbEntity
  8
00_COMPONENTS_3
100
AcDbLine
 62
7
  6
CONTINUOUS
 10
500.8504231326
 20
391.3594899704
 11
497.991027716
 21
393.010325337
  0
LINE
  5
337
100
AcDbEntity
  8
00_COMPONENTS_3
100
AcDbLine
 62
7
  6
CONTINUOUS
 10
485.026740762
 20
402.8409063987
 11
459.4013671666
 21
417.6353880463
  0
LINE
  5
338
100
AcDbEntity
  8
00_COMPONENTS_4
100
AcDbLine
 62
7
  6
CONTINUOUS
 10
433.1771427526
 20
435.470486782
 11
403.2849748825
 21
452.7283475234
  0
LINE
  5
339
100
AcDbEntity
  8
00_COMPONENTS_4
100
AcDbLine
 62
7
  6
CONTINUOUS
 10
382.265242542
 20
464.8638211074
 11
352.3730746719
 21
482.1216818489
  0
LINE
  5
33A
100
AcDbEntity
  8
00_COMPONENTS_4
100
AcDbLine
 62
7
  6
CONTINUOUS
 10
280.4414421208
 20
523.6504897583
 11
250.5492742507
 21
540.9083504998
  0
LINE
  5
33B
100
AcDbEntity
  8
00_COMPONENTS_4
100
AcDbLine
 62
7
  6
CONTINUOUS
 10
178.6176416997
 20
582.4371584093
 11
148.7254738295
 21
599.6950191508
  0
LINE
  5
33C
100
AcDbEntity
  8
00_COMPONENTS_3
100
AcDbLine
 62
7
  6
CONTINUOUS
 10
501.3452716351
 20
396.3245088396
 11
499.4111834016
 21
397.4411299405
  0
LINE
  5
33D
100
AcDbEntity
  8
00_COMPONENTS_3
100
AcDbLine
 62
7
  6
CONTINUOUS
 10
521.9729571776
 20
385.0613193438
 11
512.6578663458
 21
390.4392678775
  0
LINE
  5
33E
100
AcDbEntity
  8
00_COMPONENTS
100
AcDbLine
 62
7
  6
CONTINUOUS
 10
442.0065841192
 20
434.8637791347
 11
436.8727133224
 21
437.8277537671
  0
LINE
  5
33F
100
AcDbEntity
  8
00_COMPONENTS
100
AcDbLine
 62
7
  6
CONTINUOUS
 10
398.688788201
 20
459.8727544901
 11
394.7996846762
 21
462.1180786611
  0
LINE
  5
340
100
AcDbEntity
  8
00_COMPONENTS
100
AcDbLine
 62
7
  6
CONTINUOUS
 10
389.8499166001
 20
464.9757639427
 11
385.9608131118
 21
467.2210880926
  0
LINE
  5
341
100
AcDbEntity
  8
00_COMPONENTS
100
AcDbLine
 62
7
  6
CONTINUOUS
 10
347.7768879539
 20
489.2660888367
 11
343.8877844656
 21
491.5114129866
  0
LINE
  5
342
100
AcDbEntity
  8
00_COMPONENTS
100
AcDbLine
 62
7
  6
CONTINUOUS
 10
296.8649877433
 20
518.6594231622
 11
291.7311169465
 21
521.6233977946
  0
LINE
  5
343
100
AcDbEntity
  8
00_COMPONENTS
100
AcDbLine
 62
7
  6
CONTINUOUS
 10
289.2708834874
 20
523.0437821111
 11
284.1370126906
 21
526.0077567435
  0
LINE
  5
344
100
AcDbEntity
  8
00_COMPONENTS
100
AcDbLine
 62
7
  6
CONTINUOUS
 10
245.9530875693
 20
548.0527574665
 11
242.0639840444
 21
550.2980816375
  0
LINE
  5
345
100
AcDbEntity
  8
00_COMPONENTS
100
AcDbLine
 62
7
  6
CONTINUOUS
 10
195.0411873221
 20
577.4460918131
 11
191.1520838338
 21
579.6914159629
  0
LINE
  5
346
100
AcDbEntity
  8
00_COMPONENTS
100
AcDbLine
 62
7
  6
CONTINUOUS
 10
186.2023157578
 20
582.5491012446
 11
182.3132122695
 21
584.7944253945
  0
LINE
  5
347
100
AcDbEntity
  8
00_COMPONENTS
100
AcDbLine
 62
7
  6
CONTINUOUS
 10
144.1292871115
 20
606.8394261385
 11
138.9954163148
 21
609.803400771
  0
LINE
  5
348
100
AcDbEntity
  8
00_COMPONENTS_3
100
AcDbLine
 62
7
  6
CONTINUOUS
 10
505.1021459338
 20
400.3383340092
 11
502.6957083653
 21
401.7276599564
  0
LINE
  5
349
100
AcDbEntity
  8
00_COMPONENTS_3
100
AcDbLine
 62
7
  6
CONTINUOUS
 10
508.3641717298
 20
399.3871403096
 11
503.3084315585
 21
402.3060072249
  0
LINE
  5
34A
100
AcDbEntity
  8
00_COMPONENTS_3
100
AcDbLine
 62
7
  6
CONTINUOUS
 10
449.8554653642
 20
323.0436782602
 11
450.5625692014
 21
322.0376987431
  0
LINE
  5
34B
100
AcDbEntity
  8
00_COMPONENTS_3
100
AcDbLine
 62
7
  6
CONTINUOUS
 10
485.3885716965
 20
301.931351694
 11
484.6814678593
 21
302.9373312111
  0
LINE
  5
34C
100
AcDbEntity
  8
00_COMPONENTS_3
100
AcDbLine
 62
7
  6
CONTINUOUS
 10
454.5716249298
 20
297.1686839061
 11
459.4013671666
 21
289.2812080735
  0
LINE
  5
34D
100
AcDbEntity
  8
00_COMPONENTS
100
AcDbLine
 62
7
  6
CONTINUOUS
 10
381.9307893306
 20
396.71753653
 11
381.9307893306
 21
220.35301443
  0
LINE
  5
34E
100
AcDbEntity
  8
00_COMPONENTS_4
100
AcDbLine
 62
7
  6
CONTINUOUS
 10
387.7285609292
 20
471.5076731285
 11
387.7285609292
 21
468.2416916787
  0
LINE
  5
34F
100
AcDbEntity
  8
00_COMPONENTS_2
100
AcDbLine
 62
7
  6
CONTINUOUS
 10
394.0921480761
 20
586.2251662274
 11
394.0921480761
 21
525.8052418434
  0
LINE
  5
350
100
AcDbEntity
  8
00_COMPONENTS_4
100
AcDbLine
 62
7
  6
CONTINUOUS
 10
394.7996581807
 20
518.8649178624
 11
394.7996581807
 21
467.4252655832
  0
LINE
  5
351
100
AcDbEntity
  8
00_COMPONENTS_4
100
AcDbLine
 62
7
  6
CONTINUOUS
 10
396.213877631
 20
466.6087840742
 11
396.213877631
 21
518.0484363534
  0
LINE
  5
352
100
AcDbEntity
  8
00_COMPONENTS_4
100
AcDbLine
 62
7
  6
CONTINUOUS
 10
400.4564888784
 20
522.1308710934
 11
400.4564888784
 21
520.4978944778
  0
LINE
  5
353
100
AcDbEntity
  8
00_COMPONENTS_3
100
AcDbLine
 62
7
  6
CONTINUOUS
 10
467.9846521512
 20
514.203087936
 11
460.9136137791
 21
505.406567494
  0
LINE
  5
354
100
AcDbEntity
  8
00_COMPONENTS
100
AcDbLine
 62
7
  6
CONTINUOUS
 10
381.9307893306
 20
396.5436645575
 11
442.0065841192
 21
434.8637791347
  0
LINE
  5
355
100
AcDbEntity
  8
00_COMPONENTS_2
100
AcDbLine
 62
7
  6
CONTINUOUS
 10
200.3448488171
 20
280.0361715315
 11
231.9538932357
 21
298.2855529013
  0
LINE
  5
356
100
AcDbEntity
  8
00_COMPONENTS_3
100
AcDbLine
 62
7
  6
CONTINUOUS
 10
459.4013671666
 20
417.6353880463
 11
495.9586355505
 21
438.7416108014
  0
LINE
  5
357
100
AcDbEntity
  8
00_COMPONENTS_4
100
AcDbLine
 62
7
  6
CONTINUOUS
 10
403.2849748825
 20
462.526376529
 11
396.213877631
 21
466.6087840742
  0
LINE
  5
358
100
AcDbEntity
  8
00_COMPONENTS_4
100
AcDbLine
 62
7
  6
CONTINUOUS
 10
394.7996581807
 20
467.4252655832
 11
387.7285609292
 21
471.5076731285
  0
LINE
  5
359
100
AcDbEntity
  8
00_COMPONENTS_4
100
AcDbLine
 62
7
  6
CONTINUOUS
 10
299.3402103377
 20
522.5375566855
 11
294.3900772098
 21
525.3954527251
  0
LINE
  5
35A
100
AcDbEntity
  8
00_COMPONENTS_4
100
AcDbLine
 62
7
  6
CONTINUOUS
 10
292.9758577595
 20
526.2119342342
 11
285.9047605081
 21
530.2943417794
  0
LINE
  5
35B
100
AcDbEntity
  8
00_COMPONENTS_4
100
AcDbLine
 62
7
  6
CONTINUOUS
 10
197.5164099165
 20
581.3242253364
 11
192.5662767887
 21
584.1821213761
  0
LINE
  5
35C
100
AcDbEntity
  8
00_COMPONENTS_4
100
AcDbLine
 62
7
  6
CONTINUOUS
 10
191.1520573384
 20
584.9986028851
 11
184.0809600869
 21
589.0810104303
  0
LINE
  5
35D
100
AcDbEntity
  8
00_COMPONENTS_3
100
AcDbLine
 62
7
  6
CONTINUOUS
 10
518.6803717257
 20
397.413214752
 11
529.9632217062
 21
390.8992056451
  0
LINE
  5
35E
100
AcDbEntity
  8
00_COMPONENTS_3
100
AcDbLine
 62
7
  6
CONTINUOUS
 10
473.3355994932
 20
425.6802728095
 11
462.15904348
 21
432.1329144541
  0
LINE
  5
35F
100
AcDbEntity
  8
00_COMPONENTS
100
AcDbLine
 62
7
  6
CONTINUOUS
 10
449.9539532394
 20
445.3801660727
 11
444.167708168
 21
448.7207806475
  0
LINE
  5
360
100
AcDbEntity
  8
00_COMPONENTS_2
100
AcDbLine
 62
7
  6
CONTINUOUS
 10
302.1686492383
 20
533.1534262241
 11
299.3402103377
 21
534.7863892422
  0
LINE
  5
361
100
AcDbEntity
  8
00_COMPONENTS_2
100
AcDbLine
 62
7
  6
CONTINUOUS
 10
200.3448488171
 20
591.940094875
 11
197.5164099165
 21
593.5730578931
  0
LINE
  5
362
100
AcDbEntity
  8
00_COMPONENTS_3
100
AcDbLine
 62
7
  6
CONTINUOUS
 10
484.2203415611
 20
431.9645440604
 11
462.15904348
 21
444.7013523011
  0
LINE
  5
363
100
AcDbEntity
  8
00_COMPONENTS_3
100
AcDbLine
 62
7
  6
CONTINUOUS
 10
455.4685691702
 20
448.5640120599
 11
443.1567127179
 21
455.6721048903
  0
LINE
  5
364
100
AcDbEntity
  8
00_COMPONENTS_3
100
AcDbLine
 62
7
  6
CONTINUOUS
 10
419.1185615207
 20
469.5502239898
 11
418.8412475619
 21
469.7103276566
  0
LINE
  5
365
100
AcDbEntity
  8
00_COMPONENTS_3
100
AcDbLine
 62
7
  6
CONTINUOUS
 10
380.9346363627
 20
491.5952247339
 11
380.2115287472
 21
492.0127016658
  0
LINE
  5
366
100
AcDbEntity
  8
00_COMPONENTS_3
100
AcDbLine
 62
7
  6
CONTINUOUS
 10
279.1108359416
 20
550.3818933848
 11
278.3877283261
 21
550.7993703167
  0
LINE
  5
367
100
AcDbEntity
  8
00_COMPONENTS
100
AcDbLine
 62
7
  6
CONTINUOUS
 10
462.15904348
 20
446.4987375202
 11
457.0251726832
 21
449.4627121526
  0
LINE
  5
368
100
AcDbEntity
  8
00_COMPONENTS
100
AcDbLine
 62
7
  6
CONTINUOUS
 10
418.3398237431
 20
471.7972035032
 11
416.5163502151
 21
472.8499626189
  0
LINE
  5
369
100
AcDbEntity
  8
00_COMPONENTS_3
100
AcDbLine
 62
7
  6
CONTINUOUS
 10
449.8554653642
 20
380.1988474592
 11
450.5625692014
 21
379.1928679421
  0
LINE
  5
36A
100
AcDbEntity
  8
00_COMPONENTS_4
100
AcDbLine
 62
7
  6
CONTINUOUS
 10
403.2849748825
 20
452.7283475234
 11
403.2849748825
 21
462.526376529
  0
LINE
  5
36B
100
AcDbEntity
  8
00_COMPONENTS
100
AcDbLine
 62
7
  6
CONTINUOUS
 10
418.8412475619
 20
469.5860836625
 11
418.8412475619
 21
470.6409913821
  0
LINE
  5
36C
100
AcDbEntity
  8
00_COMPONENTS_3
100
AcDbLine
 62
7
  6
CONTINUOUS
 10
496.3044555227
 20
484.9741177303
 11
503.3754938948
 21
493.7706381722
  0
LINE
  5
36D
100
AcDbEntity
  8
00_COMPONENTS_3
100
AcDbLine
 62
7
  6
CONTINUOUS
 10
450.2090172828
 20
396.6148684942
 11
452.2927091432
 21
397.8178813697
  0
LINE
  5
36E
100
AcDbEntity
  8
00_COMPONENTS_3
100
AcDbLine
 62
7
  6
CONTINUOUS
 10
511.5078324181
 20
429.7644808941
 11
513.043084366
 21
430.6508537285
  0
LINE
  5
36F
100
AcDbEntity
  8
00_COMPONENTS_3
100
AcDbLine
 62
7
  6
CONTINUOUS
 10
541.2059907807
 20
446.9106182706
 11
549.3376849087
 21
451.6054260401
  0
LINE
  5
370
100
AcDbEntity
  8
00_COMPONENTS_3
100
AcDbLine
 62
7
  6
CONTINUOUS
 10
515.6691190357
 20
424.6143391435
 11
537.4297098162
 21
437.1777470949
  0
LINE
  5
371
100
AcDbEntity
  8
00_COMPONENTS_3
100
AcDbLine
 62
7
  6
CONTINUOUS
 10
551.1763456545
 20
401.9218028986
 11
550.1156810668
 21
402.5341640304
  0
LINE
  5
372
100
AcDbEntity
  8
00_COMPONENTS_3
100
AcDbLine
 62
7
  6
CONTINUOUS
 10
492.5137976415
 20
436.7527445793
 11
441.6362720439
 21
466.1262331617
  0
LINE
  5
373
100
AcDbEntity
  8
00_COMPONENTS_3
100
AcDbLine
 62
7
  6
CONTINUOUS
 10
515.6691190357
 20
427.3620152962
 11
495.9586355505
 21
438.7416108014
  0
LINE
  5
374
100
AcDbEntity
  8
00_COMPONENTS_3
100
AcDbLine
 62
7
  6
CONTINUOUS
 10
513.043084366
 20
430.6508537285
 11
440.7232713473
 21
472.4037726654
  0
LINE
  5
375
100
AcDbEntity
  8
00_COMPONENTS_3
100
AcDbLine
 62
7
  6
CONTINUOUS
 10
532.4379673778
 20
421.7217970255
 11
524.0233494293
 21
426.579869059
  0
LINE
  5
376
100
AcDbEntity
  8
00_COMPONENTS_3
100
AcDbLine
 62
7
  6
CONTINUOUS
 10
541.8777394261
 20
421.1703728686
 11
528.2656419967
 21
429.0291431945
  0
LINE
  5
377
100
AcDbEntity
  8
00_COMPONENTS_3
100
AcDbLine
 62
7
  6
CONTINUOUS
 10
541.8777394261
 20
427.9918845525
 11
534.1733288625
 21
432.4399274371
  0
LINE
  5
378
100
AcDbEntity
  8
00_COMPONENTS_3
100
AcDbLine
 62
7
  6
CONTINUOUS
 10
518.6803717257
 20
405.4259816136
 11
529.9632217062
 21
396.614722565
  0
LINE
  5
379
100
AcDbEntity
  8
00_COMPONENTS_3
100
AcDbLine
 62
7
  6
CONTINUOUS
 10
474.6789893954
 20
365.3496435033
 11
474.7737233465
 21
365.2148678036
  0
LINE
  5
37A
100
AcDbEntity
  8
00_COMPONENTS_3
100
AcDbLine
 62
7
  6
CONTINUOUS
 10
485.3885716965
 20
359.0865208931
 11
484.6814678593
 21
360.0925004102
  0
LINE
  5
37B
100
AcDbEntity
  8
00_COMPONENTS_4
100
AcDbLine
 62
7
  6
CONTINUOUS
 10
438.6404611398
 20
444.5638460544
 11
438.6404611398
 21
438.8483573532
  0
LINE
  5
37C
100
AcDbEntity
  8
00_COMPONENTS_4
100
AcDbLine
 62
7
  6
CONTINUOUS
 10
444.2972918375
 20
447.8297992853
 11
444.2972918375
 21
442.1143105842
  0
LINE
  5
37D
100
AcDbEntity
  8
00_COMPONENTS_3
100
AcDbLine
 62
7
  6
CONTINUOUS
 10
506.2039092437
 20
493.5179832264
 11
499.1328708715
 21
484.7214627844
  0
LINE
  5
37E
100
AcDbEntity
  8
00_COMPONENTS_3
100
AcDbLine
 62
7
  6
CONTINUOUS
 10
537.4297098162
 20
434.3199886349
 11
515.6691190357
 21
421.7565806835
  0
LINE
  5
37F
100
AcDbEntity
  8
00_COMPONENTS_3
100
AcDbLine
 62
7
  6
CONTINUOUS
 10
503.9064132155
 20
413.7410253071
 11
485.026740762
 21
402.8409063987
  0
LINE
  5
380
100
AcDbEntity
  8
00_COMPONENTS_3
100
AcDbLine
 62
7
  6
CONTINUOUS
 10
549.3376849087
 20
433.6423728632
 11
544.3526028563
 21
430.7642515784
  0
LINE
  5
381
100
AcDbEntity
  8
00_COMPONENTS_3
100
AcDbLine
 62
7
  6
CONTINUOUS
 10
459.4939383133
 20
380.2681612519
 11
461.2616979063
 21
381.2887716366
  0
LINE
  5
382
100
AcDbEntity
  8
00_COMPONENTS_3
100
AcDbLine
 62
7
  6
CONTINUOUS
 10
515.6691190357
 20
412.0403557117
 11
532.4379673778
 21
421.7217970255
  0
LINE
  5
383
100
AcDbEntity
  8
00_COMPONENTS_3
100
AcDbLine
 62
7
  6
CONTINUOUS
 10
462.6821652991
 20
380.4686829579
 11
464.1670833573
 21
381.325995681
  0
LINE
  5
384
100
AcDbEntity
  8
00_COMPONENTS_3
100
AcDbLine
 62
7
  6
CONTINUOUS
 10
462.5407580739
 20
378.5091188378
 11
465.7934357251
 21
380.3870419456
  0
LINE
  5
385
100
AcDbEntity
  8
00_COMPONENTS_3
100
AcDbLine
 62
7
  6
CONTINUOUS
 10
527.1346885987
 20
414.1908722364
 11
515.6691190357
 21
407.5712620766
  0
LINE
  5
386
100
AcDbEntity
  8
00_COMPONENTS_3
100
AcDbLine
 62
7
  6
CONTINUOUS
 10
544.3526028563
 20
422.5992274071
 11
541.8777394261
 21
421.1703728686
  0
LINE
  5
387
100
AcDbEntity
  8
00_COMPONENTS_3
100
AcDbLine
 62
7
  6
CONTINUOUS
 10
532.4379673778
 20
411.92376802
 11
531.0579578116
 21
411.1270238814
  0
LINE
  5
388
100
AcDbEntity
  8
00_COMPONENTS_3
100
AcDbLine
 62
7
  6
CONTINUOUS
 10
469.1875894903
 20
374.6716557453
 11
472.4402671415
 21
376.5495788531
  0
LINE
  5
389
100
AcDbEntity
  8
00_COMPONENTS_3
100
AcDbLine
 62
7
  6
CONTINUOUS
 10
460.3262331869
 20
368.4939616153
 11
462.3286495948
 21
369.6500503665
  0
LINE
  5
38A
100
AcDbEntity
  8
00_COMPONENTS_3
100
AcDbLine
 62
7
  6
CONTINUOUS
 10
462.5407580739
 20
369.5275922494
 11
465.7934357251
 21
371.4055153572
  0
LINE
  5
38B
100
AcDbEntity
  8
00_COMPONENTS_3
100
AcDbLine
 62
7
  6
CONTINUOUS
 10
472.5817014512
 20
374.7533123946
 11
474.0666195093
 21
375.6106251177
  0
LINE
  5
38C
100
AcDbEntity
  8
00_COMPONENTS_3
100
AcDbLine
 62
7
  6
CONTINUOUS
 10
465.4840034984
 20
369.4305631484
 11
463.8462270846
 21
368.4849981393
  0
LINE
  5
38D
100
AcDbEntity
  8
00_COMPONENTS_3
100
AcDbLine
 62
7
  6
CONTINUOUS
 10
472.2281613084
 20
372.9162205009
 11
473.9959209015
 21
373.9368308856
  0
LINE
  5
38E
100
AcDbEntity
  8
00_COMPONENTS_4
100
AcDbLine
 62
7
  6
CONTINUOUS
 10
156.5036808062
 20
656.4420521358
 11
191.1520573384
 21
636.4382551643
  0
LINE
  5
38F
100
AcDbEntity
  8
00_COMPONENTS_4
100
AcDbLine
 62
7
  6
CONTINUOUS
 10
192.5662767887
 20
635.6217736552
 11
227.2146533209
 21
615.6179766837
  0
LINE
  5
390
100
AcDbEntity
  8
00_COMPONENTS_4
100
AcDbLine
 62
7
  6
CONTINUOUS
 10
258.3274812273
 20
597.6553834848
 11
292.9758577595
 21
577.6515865133
  0
LINE
  5
391
100
AcDbEntity
  8
00_COMPONENTS_4
100
AcDbLine
 62
7
  6
CONTINUOUS
 10
294.3900772098
 20
576.8351050043
 11
329.038453742
 21
556.8313080328
  0
LINE
  5
392
100
AcDbEntity
  8
00_COMPONENTS_4
100
AcDbLine
 62
7
  6
CONTINUOUS
 10
360.1512816485
 20
538.8687148339
 11
394.7996581807
 21
518.8649178624
  0
LINE
  5
393
100
AcDbEntity
  8
00_COMPONENTS_4
100
AcDbLine
 62
7
  6
CONTINUOUS
 10
396.213877631
 20
518.0484363534
 11
430.8622541632
 21
498.0446393819
  0
LINE
  5
394
100
AcDbEntity
  8
00_COMPONENTS_3
100
AcDbLine
 62
7
  6
CONTINUOUS
 10
537.4297098162
 20
437.1777470949
 11
437.4516075149
 21
494.8988255464
  0
LINE
  5
395
100
AcDbEntity
  8
00_COMPONENTS_4
100
AcDbLine
 62
7
  6
CONTINUOUS
 10
162.1605115039
 20
659.7080053667
 11
196.8088880361
 21
639.7042083952
  0
LINE
  5
396
100
AcDbEntity
  8
00_COMPONENTS_4
100
AcDbLine
 62
7
  6
CONTINUOUS
 10
198.2231074864
 20
638.8877268862
 11
232.8714840186
 21
618.8839299147
  0
LINE
  5
397
100
AcDbEntity
  8
00_COMPONENTS_4
100
AcDbLine
 62
7
  6
CONTINUOUS
 10
263.984311925
 20
600.9213367158
 11
298.6326884572
 21
580.9175397443
  0
LINE
  5
398
100
AcDbEntity
  8
00_COMPONENTS_4
100
AcDbLine
 62
7
  6
CONTINUOUS
 10
300.0469079075
 20
580.1010582353
 11
334.6952844397
 21
560.0972612638
  0
LINE
  5
399
100
AcDbEntity
  8
00_COMPONENTS_4
100
AcDbLine
 62
7
  6
CONTINUOUS
 10
365.8081123462
 20
542.1346680649
 11
400.4564888784
 21
522.1308710934
  0
LINE
  5
39A
100
AcDbEntity
  8
00_COMPONENTS_4
100
AcDbLine
 62
7
  6
CONTINUOUS
 10
401.8707083287
 20
521.3143895843
 11
436.5190848609
 21
501.3105926128
  0
LINE
  5
39B
100
AcDbEntity
  8
00_COMPONENTS_3
100
AcDbLine
 62
7
  6
CONTINUOUS
 10
541.2059907807
 20
446.9106182706
 11
394.0921480761
 21
531.8449134871
  0
LINE
  5
39C
100
AcDbEntity
  8
00_COMPONENTS_3
100
AcDbLine
 62
7
  6
CONTINUOUS
 10
344.1683555708
 20
560.6677764687
 11
292.2683476549
 21
590.631582138
  0
LINE
  5
39D
100
AcDbEntity
  8
00_COMPONENTS_3
100
AcDbLine
 62
7
  6
CONTINUOUS
 10
242.3445551496
 20
619.4544451196
 11
230.0777117161
 21
626.5365502595
  0
LINE
  5
39E
100
AcDbEntity
  8
00_COMPONENTS_3
100
AcDbLine
 62
7
  6
CONTINUOUS
 10
549.3376849087
 20
451.6054260401
 11
394.0921480761
 21
541.2344508414
  0
LINE
  5
39F
100
AcDbEntity
  8
00_COMPONENTS_3
100
AcDbLine
 62
7
  6
CONTINUOUS
 10
352.3000496987
 20
565.3625842382
 11
292.2683476549
 21
600.0211194923
  0
LINE
  5
3A0
100
AcDbEntity
  8
00_COMPONENTS_3
100
AcDbLine
 62
7
  6
CONTINUOUS
 10
250.4762492776
 20
624.1492528892
 11
238.209405844
 21
631.231358029
  0
LINE
  5
3A1
100
AcDbEntity
  8
00_COMPONENTS_3
100
AcDbLine
 62
7
  6
CONTINUOUS
 10
541.2768831016
 20
403.146629027
 11
527.1346885987
 21
414.1908722364
  0
LINE
  5
3A2
100
AcDbEntity
  8
00_COMPONENTS_4
100
AcDbLine
 62
7
  6
CONTINUOUS
 10
430.8622541632
 20
498.0446393819
 11
438.6404611398
 21
444.5638460544
  0
LINE
  5
3A3
100
AcDbEntity
  8
00_COMPONENTS_4
100
AcDbLine
 62
7
  6
CONTINUOUS
 10
444.2972918375
 20
447.8297992853
 11
436.5190848609
 21
501.3105926128
  0
LINE
  5
3A4
100
AcDbEntity
  8
00_COMPONENTS_3
100
AcDbLine
 62
7
  6
CONTINUOUS
 10
449.8554653642
 20
306.305378709
 11
449.8554653642
 21
315.695156506
  0
LINE
  5
3A5
100
AcDbEntity
  8
00_COMPONENTS_3
100
AcDbLine
 62
7
  6
CONTINUOUS
 10
449.8554653642
 20
323.0436782602
 11
449.8554653642
 21
332.4334560571
  0
LINE
  5
3A6
100
AcDbEntity
  8
00_COMPONENTS_3
100
AcDbLine
 62
7
  6
CONTINUOUS
 10
449.8554653642
 20
363.4605479081
 11
449.8554653642
 21
372.8503257051
  0
LINE
  5
3A7
100
AcDbEntity
  8
00_COMPONENTS_3
100
AcDbLine
 62
7
  6
CONTINUOUS
 10
449.8554653642
 20
380.1988474592
 11
449.8554653642
 21
389.5886252562
  0
LINE
  5
3A8
100
AcDbEntity
  8
00_COMPONENTS_3
100
AcDbLine
 62
7
  6
CONTINUOUS
 10
450.2090172828
 20
299.6873796249
 11
450.2090172828
 21
306.1012495774
  0
LINE
  5
3A9
100
AcDbEntity
  8
00_COMPONENTS_3
100
AcDbLine
 62
7
  6
CONTINUOUS
 10
450.2090172828
 20
333.0458293426
 11
450.2090172828
 21
363.2564187764
  0
LINE
  5
3AA
100
AcDbEntity
  8
00_COMPONENTS_3
100
AcDbLine
 62
7
  6
CONTINUOUS
 10
450.2090172828
 20
390.2009985417
 11
450.2090172828
 21
396.6148684942
  0
LINE
  5
3AB
100
AcDbEntity
  8
00_COMPONENTS_3
100
AcDbLine
 62
7
  6
CONTINUOUS
 10
450.5625692014
 20
317.5176243309
 11
450.5625692014
 21
322.037698743
  0
LINE
  5
3AC
100
AcDbEntity
  8
00_COMPONENTS_3
100
AcDbLine
 62
7
  6
CONTINUOUS
 10
450.5625692014
 20
374.6727935299
 11
450.5625692014
 21
379.1928679421
  0
LINE
  5
3AD
100
AcDbEntity
  8
00_COMPONENTS_3
100
AcDbLine
 62
7
  6
CONTINUOUS
 10
457.8031252706
 20
297.6344913825
 11
457.8031252706
 21
305.3912643453
  0
LINE
  5
3AE
100
AcDbEntity
  8
00_COMPONENTS_3
100
AcDbLine
 62
7
  6
CONTINUOUS
 10
457.8031252706
 20
354.7896605816
 11
457.8031252706
 21
362.5464335443
  0
LINE
  5
3AF
100
AcDbEntity
  8
00_COMPONENTS_3
100
AcDbLine
 62
7
  6
CONTINUOUS
 10
459.1466337484
 20
304.6156069117
 11
459.1466337484
 21
305.8403605374
  0
LINE
  5
3B0
100
AcDbEntity
  8
00_COMPONENTS_3
100
AcDbLine
 62
7
  6
CONTINUOUS
 10
459.1466337484
 20
361.7707761107
 11
459.1466337484
 21
362.9955297364
  0
LINE
  5
3B1
100
AcDbEntity
  8
00_COMPONENTS_3
100
AcDbLine
 62
7
  6
CONTINUOUS
 10
459.4939383133
 20
371.2866346635
 11
459.4939383133
 21
380.2681612519
  0
LINE
  5
3B2
100
AcDbEntity
  8
00_COMPONENTS_3
100
AcDbLine
 62
7
  6
CONTINUOUS
 10
459.5001862558
 20
314.1278582948
 11
459.5001862558
 21
323.1093848832
  0
LINE
  5
3B3
100
AcDbEntity
  8
00_COMPONENTS_3
100
AcDbLine
 62
7
  6
CONTINUOUS
 10
460.3262331869
 20
368.4939616153
 11
460.3262331869
 21
363.1866959039
  0
LINE
  5
3B4
100
AcDbEntity
  8
00_COMPONENTS_3
100
AcDbLine
 62
7
  6
CONTINUOUS
 10
460.3262331869
 20
306.4397779134
 11
460.3262331869
 21
311.7470436248
  0
LINE
  5
3B5
100
AcDbEntity
  8
00_COMPONENTS_3
100
AcDbLine
 62
7
  6
CONTINUOUS
 10
460.6315641712
 20
360.5052193177
 11
460.6315641712
 21
353.1566975635
  0
LINE
  5
3B6
100
AcDbEntity
  8
00_COMPONENTS_3
100
AcDbLine
 62
7
  6
CONTINUOUS
 10
460.6315641712
 20
303.3500501186
 11
460.6315641712
 21
296.0015283645
  0
LINE
  5
3B7
100
AcDbEntity
  8
00_COMPONENTS_3
100
AcDbLine
 62
7
  6
CONTINUOUS
 10
460.9136137791
 20
502.6559323928
 11
460.9136137791
 21
505.406567494
  0
LINE
  5
3B8
100
AcDbEntity
  8
00_COMPONENTS_3
100
AcDbLine
 62
7
  6
CONTINUOUS
 10
460.9851278657
 20
301.9212023788
 11
460.9851278657
 21
303.554207213
  0
LINE
  5
3B9
100
AcDbEntity
  8
00_COMPONENTS_3
100
AcDbLine
 62
7
  6
CONTINUOUS
 10
460.9851278657
 20
359.0763715778
 11
460.9851278657
 21
360.7093764121
  0
LINE
  5
3BA
100
AcDbEntity
  8
00_COMPONENTS
100
AcDbLine
 62
7
  6
CONTINUOUS
 10
462.15904348
 20
263.6021960831
 11
462.15904348
 21
287.6890989299
  0
LINE
  5
3BB
100
AcDbEntity
  8
00_COMPONENTS
100
AcDbLine
 62
7
  6
CONTINUOUS
 10
462.15904348
 20
419.2275237044
 11
462.15904348
 21
446.4987375202
  0
LINE
  5
3BC
100
AcDbEntity
  8
00_COMPONENTS_3
100
AcDbLine
 62
7
  6
CONTINUOUS
 10
462.5407580739
 20
378.5091188378
 11
462.5407580739
 21
369.5275922494
  0
LINE
  5
3BD
100
AcDbEntity
  8
00_COMPONENTS_3
100
AcDbLine
 62
7
  6
CONTINUOUS
 10
462.5407580739
 20
321.3539496388
 11
462.5407580739
 21
312.3724230503
  0
LINE
  5
3BE
100
AcDbEntity
  8
00_COMPONENTS_3
100
AcDbLine
 62
7
  6
CONTINUOUS
 10
463.6850043813
 20
366.5548180313
 11
463.6850043813
 21
361.24755232
  0
LINE
  5
3BF
100
AcDbEntity
  8
00_COMPONENTS_3
100
AcDbLine
 62
7
  6
CONTINUOUS
 10
463.6850043813
 20
304.5006343294
 11
463.6850043813
 21
309.8079000408
  0
LINE
  5
3C0
100
AcDbEntity
  8
00_COMPONENTS_3
100
AcDbLine
 62
7
  6
CONTINUOUS
 10
464.1670833573
 20
357.2393102781
 11
464.1670833573
 21
355.1979183329
  0
LINE
  5
3C1
100
AcDbEntity
  8
00_COMPONENTS_3
100
AcDbLine
 62
7
  6
CONTINUOUS
 10
464.1670833573
 20
300.084141079
 11
464.1670833573
 21
298.0427491338
  0
LINE
  5
3C2
100
AcDbEntity
  8
00_COMPONENTS_3
100
AcDbLine
 62
7
  6
CONTINUOUS
 10
465.4372239661
 20
367.5664564416
 11
465.4372239661
 21
362.2591907302
  0
LINE
  5
3C3
100
AcDbEntity
  8
00_COMPONENTS_3
100
AcDbLine
 62
7
  6
CONTINUOUS
 10
465.4372239662
 20
305.5122727398
 11
465.4372239662
 21
310.8195384511
  0
LINE
  5
3C4
100
AcDbEntity
  8
00_COMPONENTS_3
100
AcDbLine
 62
7
  6
CONTINUOUS
 10
465.4840034984
 20
369.4305631484
 11
465.4840034984
 21
364.1232974371
  0
LINE
  5
3C5
100
AcDbEntity
  8
00_COMPONENTS_3
100
AcDbLine
 62
7
  6
CONTINUOUS
 10
465.4840034984
 20
307.3763794466
 11
465.4840034984
 21
312.6836451579
  0
LINE
  5
3C6
100
AcDbEntity
  8
00_COMPONENTS_3
100
AcDbLine
 62
7
  6
CONTINUOUS
 10
465.7934357251
 20
314.2503461581
 11
465.7934357251
 21
323.2318727466
  0
LINE
  5
3C7
100
AcDbEntity
  8
00_COMPONENTS_3
100
AcDbLine
 62
7
  6
CONTINUOUS
 10
465.7934357251
 20
371.4055153572
 11
465.7934357251
 21
380.3870419456
  0
LINE
  5
3C8
100
AcDbEntity
  8
00_COMPONENTS_3
100
AcDbLine
 62
7
  6
CONTINUOUS
 10
466.8669981445
 20
364.717734636
 11
466.8669981445
 21
359.4104689246
  0
LINE
  5
3C9
100
AcDbEntity
  8
00_COMPONENTS_3
100
AcDbLine
 62
7
  6
CONTINUOUS
 10
466.8669981445
 20
302.6635509341
 11
466.8669981445
 21
307.9708166454
  0
LINE
  5
3CA
100
AcDbEntity
  8
00_COMPONENTS_3
100
AcDbLine
 62
7
  6
CONTINUOUS
 10
459.4013671666
 20
417.6353880463
 11
452.2927091432
 21
397.8178813697
  0
LINE
  5
3CB
100
AcDbEntity
  8
00_COMPONENTS_3
100
AcDbLine
 62
7
  6
CONTINUOUS
 10
450.5625692014
 20
374.6727935299
 11
449.8554653642
 21
372.8503257051
  0
LINE
  5
3CC
100
AcDbEntity
  8
00_COMPONENTS_3
100
AcDbLine
 62
7
  6
CONTINUOUS
 10
450.2090172828
 20
390.2009985417
 11
449.8554653642
 21
389.5886252562
  0
LINE
  5
3CD
100
AcDbEntity
  8
00_COMPONENTS_2
100
AcDbLine
 62
7
  6
CONTINUOUS
 10
302.1686492383
 20
249.8270874801
 11
299.3402338894
 21
248.0229465508
  0
LINE
  5
3CE
100
AcDbEntity
  8
00_COMPONENTS_3
100
AcDbLine
 62
7
  6
CONTINUOUS
 10
465.4372239661
 20
367.5664564416
 11
463.6850043813
 21
366.5548180313
  0
LINE
  5
3CF
100
AcDbEntity
  8
00_COMPONENTS_3
100
AcDbLine
 62
7
  6
CONTINUOUS
 10
457.8031252706
 20
362.5464335443
 11
459.8537263985
 21
363.7303415906
  0
LINE
  5
3D0
100
AcDbEntity
  8
00_COMPONENTS_3
100
AcDbLine
 62
7
  6
CONTINUOUS
 10
459.1466337484
 20
362.9955297364
 11
460.3262331869
 21
363.6765677245
  0
LINE
  5
3D1
100
AcDbEntity
  8
00_COMPONENTS_3
100
AcDbLine
 62
7
  6
CONTINUOUS
 10
485.0350197779
 20
376.5085214452
 11
486.802779371
 21
377.5291318298
  0
LINE
  5
3D2
100
AcDbEntity
  8
00_COMPONENTS_3
100
AcDbLine
 62
7
  6
CONTINUOUS
 10
466.8669981445
 20
364.717734636
 11
468.6192177293
 21
365.7293730463
  0
LINE
  5
3D3
100
AcDbEntity
  8
00_COMPONENTS_3
100
AcDbLine
 62
7
  6
CONTINUOUS
 10
473.9959209015
 20
368.6295369555
 11
474.0666195093
 21
368.6703545721
  0
LINE
  5
3D4
100
AcDbEntity
  8
00_COMPONENTS_3
100
AcDbLine
 62
7
  6
CONTINUOUS
 10
460.9851278657
 20
360.7093764121
 11
462.0457836215
 21
361.3217426429
  0
LINE
  5
3D5
100
AcDbEntity
  8
00_COMPONENTS_3
100
AcDbLine
 62
7
  6
CONTINUOUS
 10
465.4372239661
 20
362.2591907302
 11
463.6850043813
 21
361.24755232
  0
LINE
  5
3D6
100
AcDbEntity
  8
00_COMPONENTS_3
100
AcDbLine
 62
7
  6
CONTINUOUS
 10
473.9959209015
 20
366.99656034
 11
475.4808389596
 21
367.8538730631
  0
LINE
  5
3D7
100
AcDbEntity
  8
00_COMPONENTS_3
100
AcDbLine
 62
7
  6
CONTINUOUS
 10
470.2102146109
 20
364.8108313486
 11
470.460411434
 21
364.9552816895
  0
LINE
  5
3D8
100
AcDbEntity
  8
00_COMPONENTS_3
100
AcDbLine
 62
7
  6
CONTINUOUS
 10
475.4808389596
 20
365.8126170203
 11
470.2257693389
 21
362.778591052
  0
LINE
  5
3D9
100
AcDbEntity
  8
00_COMPONENTS_3
100
AcDbLine
 62
7
  6
CONTINUOUS
 10
529.9632217062
 20
396.614722565
 11
541.2768831016
 21
403.1466290269
  0
LINE
  5
3DA
100
AcDbEntity
  8
00_COMPONENTS_3
100
AcDbLine
 62
7
  6
CONTINUOUS
 10
460.6315641712
 20
353.1566975635
 11
464.1670833573
 21
355.1979183329
  0
LINE
  5
3DB
100
AcDbEntity
  8
00_COMPONENTS_3
100
AcDbLine
 62
7
  6
CONTINUOUS
 10
468.0562251171
 20
356.6269688669
 11
469.116880873
 21
357.2393350977
  0
LINE
  5
3DC
100
AcDbEntity
  8
00_COMPONENTS_3
100
AcDbLine
 62
7
  6
CONTINUOUS
 10
474.4748661001
 20
359.9245278558
 11
470.2257693389
 21
357.4713253406
  0
LINE
  5
3DD
100
AcDbEntity
  8
00_COMPONENTS_3
100
AcDbLine
 62
7
  6
CONTINUOUS
 10
529.9632217062
 20
390.8992056451
 11
550.1156810668
 21
402.5341640304
  0
LINE
  5
3DE
100
AcDbEntity
  8
00_COMPONENTS_3
100
AcDbLine
 62
7
  6
CONTINUOUS
 10
468.0562251171
 20
354.9939640326
 11
469.116880873
 21
355.6063302634
  0
LINE
  5
3DF
100
AcDbEntity
  8
00_COMPONENTS_3
100
AcDbLine
 62
7
  6
CONTINUOUS
 10
521.9729571776
 20
385.0613193438
 11
551.1763456545
 21
401.9218028986
  0
LINE
  5
3E0
100
AcDbEntity
  8
00_COMPONENTS_3
100
AcDbLine
 62
7
  6
CONTINUOUS
 10
472.0160307461
 20
355.5655480042
 11
475.5515499321
 21
357.6067687735
  0
LINE
  5
3E1
100
AcDbEntity
  8
00_COMPONENTS_3
100
AcDbLine
 62
7
  6
CONTINUOUS
 10
472.0160307461
 20
354.3407943785
 11
474.066631874
 21
355.5247024247
  0
LINE
  5
3E2
100
AcDbEntity
  8
00_COMPONENTS_3
100
AcDbLine
 62
7
  6
CONTINUOUS
 10
473.3595392238
 20
353.5651369449
 11
475.4101403518
 21
354.7490449911
  0
LINE
  5
3E3
100
AcDbEntity
  8
00_COMPONENTS_3
100
AcDbLine
 62
7
  6
CONTINUOUS
 10
551.1763456545
 20
396.2062859787
 11
527.6297878753
 21
382.6117556548
  0
LINE
  5
3E4
100
AcDbEntity
  8
00_COMPONENTS_3
100
AcDbLine
 62
7
  6
CONTINUOUS
 10
475.4101403518
 20
348.5435998132
 11
475.5515499321
 21
348.6252421851
  0
LINE
  5
3E5
100
AcDbEntity
  8
00_COMPONENTS_3
100
AcDbLine
 62
7
  6
CONTINUOUS
 10
292.2683476549
 20
602.7717545935
 11
326.5981214874
 21
582.9518988151
  0
LINE
  5
3E6
100
AcDbEntity
  8
00_COMPONENTS_3
100
AcDbLine
 62
7
  6
CONTINUOUS
 10
460.9136137791
 20
505.406567494
 11
496.3044555227
 21
484.9741177303
  0
LINE
  5
3E7
100
AcDbEntity
  8
00_COMPONENTS_3
100
AcDbLine
 62
7
  6
CONTINUOUS
 10
298.2783181159
 20
612.1808690208
 11
333.6691598595
 21
591.7484192571
  0
LINE
  5
3E8
100
AcDbEntity
  8
00_COMPONENTS_3
100
AcDbLine
 62
7
  6
CONTINUOUS
 10
467.9846521512
 20
514.203087936
 11
503.3754938948
 21
493.7706381722
  0
LINE
  5
3E9
100
AcDbEntity
  8
00_COMPONENTS_3
100
AcDbLine
 62
7
  6
CONTINUOUS
 10
467.9846521512
 20
514.203087936
 11
467.9846521512
 21
536.0099855857
  0
LINE
  5
3EA
100
AcDbEntity
  8
00_COMPONENTS_3
100
AcDbLine
 62
7
  6
CONTINUOUS
 10
468.0562251171
 20
356.6269688669
 11
468.0562251171
 21
354.9939640326
  0
LINE
  5
3EB
100
AcDbEntity
  8
00_COMPONENTS_3
100
AcDbLine
 62
7
  6
CONTINUOUS
 10
468.0562251171
 20
299.4717996678
 11
468.0562251171
 21
297.8387948336
  0
LINE
  5
3EC
100
AcDbEntity
  8
00_COMPONENTS_3
100
AcDbLine
 62
7
  6
CONTINUOUS
 10
469.116880873
 20
300.0841658986
 11
469.116880873
 21
298.4511610644
  0
LINE
  5
3ED
100
AcDbEntity
  8
00_COMPONENTS_3
100
AcDbLine
 62
7
  6
CONTINUOUS
 10
469.116880873
 20
355.6063302634
 11
469.116880873
 21
357.2393350977
  0
LINE
  5
3EE
100
AcDbEntity
  8
00_COMPONENTS_3
100
AcDbLine
 62
7
  6
CONTINUOUS
 10
469.1875894903
 20
308.5349599578
 11
469.1875894903
 21
317.5164865463
  0
LINE
  5
3EF
100
AcDbEntity
  8
00_COMPONENTS_3
100
AcDbLine
 62
7
  6
CONTINUOUS
 10
469.1875894903
 20
365.6901291569
 11
469.1875894903
 21
374.6716557453
  0
LINE
  5
3F0
100
AcDbEntity
  8
00_COMPONENTS_3
100
AcDbLine
 62
7
  6
CONTINUOUS
 10
470.2257693389
 20
362.778591052
 11
470.2257693389
 21
357.4713253406
  0
LINE
  5
3F1
100
AcDbEntity
  8
00_COMPONENTS_3
100
AcDbLine
 62
7
  6
CONTINUOUS
 10
470.2257693389
 20
300.7244073501
 11
470.2257693389
 21
306.0316730615
  0
LINE
  5
3F2
100
AcDbEntity
  8
00_COMPONENTS_3
100
AcDbLine
 62
7
  6
CONTINUOUS
 10
470.5311003232
 20
290.2861578012
 11
470.5311003232
 21
297.6346795553
  0
LINE
  5
3F3
100
AcDbEntity
  8
00_COMPONENTS_3
100
AcDbLine
 62
7
  6
CONTINUOUS
 10
470.5311003232
 20
347.4413270002
 11
470.5311003232
 21
354.7898487544
  0
LINE
  5
3F4
100
AcDbEntity
  8
00_COMPONENTS_3
100
AcDbLine
 62
7
  6
CONTINUOUS
 10
472.0160307461
 20
355.5655480042
 11
472.0160307461
 21
354.3407943785
  0
LINE
  5
3F5
100
AcDbEntity
  8
00_COMPONENTS_3
100
AcDbLine
 62
7
  6
CONTINUOUS
 10
472.0160307461
 20
298.4103788051
 11
472.0160307461
 21
297.1856251794
  0
LINE
  5
3F6
100
AcDbEntity
  8
00_COMPONENTS_3
100
AcDbLine
 62
7
  6
CONTINUOUS
 10
472.2281613084
 20
372.9162205009
 11
472.2281613084
 21
363.9346939125
  0
LINE
  5
3F7
100
AcDbEntity
  8
00_COMPONENTS_3
100
AcDbLine
 62
7
  6
CONTINUOUS
 10
472.2281613084
 20
315.7610513018
 11
472.2281613084
 21
306.7795247134
  0
LINE
  5
3F8
100
AcDbEntity
  8
00_COMPONENTS_3
100
AcDbLine
 62
7
  6
CONTINUOUS
 10
473.3595392238
 20
353.5651369449
 11
473.3595392238
 21
345.8083639822
  0
LINE
  5
3F9
100
AcDbEntity
  8
00_COMPONENTS_3
100
AcDbLine
 62
7
  6
CONTINUOUS
 10
473.3595392238
 20
296.4099677458
 11
473.3595392238
 21
288.6531947831
  0
LINE
  5
3FA
100
AcDbEntity
  8
00_COMPONENTS_3
100
AcDbLine
 62
7
  6
CONTINUOUS
 10
473.9959209015
 20
309.8413911409
 11
473.9959209015
 21
316.7816616865
  0
LINE
  5
3FB
100
AcDbEntity
  8
00_COMPONENTS_3
100
AcDbLine
 62
7
  6
CONTINUOUS
 10
473.9959209015
 20
366.99656034
 11
473.9959209015
 21
373.9368308856
  0
LINE
  5
3FC
100
AcDbEntity
  8
00_COMPONENTS_3
100
AcDbLine
 62
7
  6
CONTINUOUS
 10
474.0666195093
 20
311.5151853731
 11
474.0666195093
 21
318.4554559187
  0
LINE
  5
3FD
100
AcDbEntity
  8
00_COMPONENTS_3
100
AcDbLine
 62
7
  6
CONTINUOUS
 10
474.0666195093
 20
368.6703545721
 11
474.0666195093
 21
375.6106251177
  0
LINE
  5
3FE
100
AcDbEntity
  8
00_COMPONENTS_3
100
AcDbLine
 62
7
  6
CONTINUOUS
 10
474.4201714279
 20
303.1460320701
 11
474.4201714279
 21
308.0450747916
  0
LINE
  5
3FF
100
AcDbEntity
  8
00_COMPONENTS_3
100
AcDbLine
 62
7
  6
CONTINUOUS
 10
474.7737233465
 20
360.6947933915
 11
474.7737233465
 21
365.2148678036
  0
LINE
  5
400
100
AcDbEntity
  8
00_COMPONENTS_3
100
AcDbLine
 62
7
  6
CONTINUOUS
 10
475.4101403518
 20
354.7490449911
 11
475.4101403518
 21
346.9922720284
  0
LINE
  5
401
100
AcDbEntity
  8
00_COMPONENTS_3
100
AcDbLine
 62
7
  6
CONTINUOUS
 10
475.4101403518
 20
297.593875792
 11
475.4101403518
 21
289.8371028293
  0
LINE
  5
402
100
AcDbEntity
  8
00_COMPONENTS_3
100
AcDbLine
 62
7
  6
CONTINUOUS
 10
475.4808389596
 20
308.6574478212
 11
475.4808389596
 21
310.698703864
  0
LINE
  5
403
100
AcDbEntity
  8
00_COMPONENTS_3
100
AcDbLine
 62
7
  6
CONTINUOUS
 10
475.4808389596
 20
365.8126170203
 11
475.4808389597
 21
367.8538730631
  0
LINE
  5
404
100
AcDbEntity
  8
00_COMPONENTS_3
100
AcDbLine
 62
7
  6
CONTINUOUS
 10
475.5515499321
 20
291.470072986
 11
475.5515499321
 21
300.4515995745
  0
LINE
  5
405
100
AcDbEntity
  8
00_COMPONENTS_3
100
AcDbLine
 62
7
  6
CONTINUOUS
 10
475.5515499321
 20
348.6252421851
 11
475.5515499321
 21
357.6067687735
  0
LINE
  5
406
100
AcDbEntity
  8
00_COMPONENTS_3
100
AcDbLine
 62
7
  6
CONTINUOUS
 10
481.9500692229
 20
523.8246096525
 11
481.9500692229
 21
514.515049747
  0
LINE
  5
407
100
AcDbEntity
  8
00_COMPONENTS_3
100
AcDbLine
 62
7
  6
CONTINUOUS
 10
484.6814678593
 20
286.19903166
 11
484.6814678593
 21
295.588809457
  0
LINE
  5
408
100
AcDbEntity
  8
00_COMPONENTS_3
100
AcDbLine
 62
7
  6
CONTINUOUS
 10
484.6814678593
 20
302.9373312111
 11
484.6814678593
 21
312.3271090081
  0
LINE
  5
409
100
AcDbEntity
  8
00_COMPONENTS_3
100
AcDbLine
 62
7
  6
CONTINUOUS
 10
484.6814678593
 20
343.354200859
 11
484.6814678593
 21
352.7439786561
  0
LINE
  5
40A
100
AcDbEntity
  8
00_COMPONENTS_3
100
AcDbLine
 62
7
  6
CONTINUOUS
 10
484.6814678593
 20
360.0925004102
 11
484.6814678593
 21
369.4822782072
  0
LINE
  5
40B
100
AcDbEntity
  8
00_COMPONENTS_3
100
AcDbLine
 62
7
  6
CONTINUOUS
 10
484.7784845717
 20
523.754581282
 11
484.7784845717
 21
516.1480263625
  0
LINE
  5
40C
100
AcDbEntity
  8
00_COMPONENTS_3
100
AcDbLine
 62
7
  6
CONTINUOUS
 10
485.0268025853
 20
378.5544693089
 11
485.026740762
 21
402.8409063987
  0
LINE
  5
40D
100
AcDbEntity
  8
00_COMPONENTS_3
100
AcDbLine
 62
7
  6
CONTINUOUS
 10
485.026740762
 20
274.486726426
 11
485.0267809409
 21
279.5810326409
  0
LINE
  5
40E
100
AcDbEntity
  8
00_COMPONENTS_3
100
AcDbLine
 62
7
  6
CONTINUOUS
 10
485.0350197779
 20
279.5810325759
 11
485.0350197779
 21
285.9949025283
  0
LINE
  5
40F
100
AcDbEntity
  8
00_COMPONENTS_3
100
AcDbLine
 62
7
  6
CONTINUOUS
 10
485.0350197779
 20
312.9394822936
 11
485.0350197779
 21
343.1500717274
  0
LINE
  5
410
100
AcDbEntity
  8
00_COMPONENTS_3
100
AcDbLine
 62
7
  6
CONTINUOUS
 10
485.0350197779
 20
370.0946514927
 11
485.0350197779
 21
376.5085214452
  0
LINE
  5
411
100
AcDbEntity
  8
00_COMPONENTS_3
100
AcDbLine
 62
7
  6
CONTINUOUS
 10
485.3885716965
 20
297.4112772818
 11
485.3885716965
 21
301.931351694
  0
LINE
  5
412
100
AcDbEntity
  8
00_COMPONENTS_3
100
AcDbLine
 62
7
  6
CONTINUOUS
 10
485.3885716965
 20
354.5664464809
 11
485.3885716965
 21
359.0865208931
  0
LINE
  5
413
100
AcDbEntity
  8
00_COMPONENTS_3
100
AcDbLine
 62
7
  6
CONTINUOUS
 10
486.802779371
 20
377.5291318298
 11
486.802779371
 21
280.6016429606
  0
LINE
  5
414
100
AcDbEntity
  8
00_COMPONENTS_3
100
AcDbLine
 62
7
  6
CONTINUOUS
 10
489.3747213369
 20
510.2285218245
 11
489.3747213369
 21
519.53808173
  0
LINE
  5
415
100
AcDbEntity
  8
00_COMPONENTS_4
100
AcDbLine
 62
7
  6
CONTINUOUS
 10
438.0112101416
 20
249.902305179
 11
430.8622541632
 21
209.002783718
  0
LINE
  5
416
100
AcDbEntity
  8
00_COMPONENTS_4
100
AcDbLine
 62
7
  6
CONTINUOUS
 10
436.5190848609
 20
212.268736949
 11
443.6210350087
 21
252.8993357895
  0
LINE
  5
417
100
AcDbEntity
  8
00_COMPONENTS_3
100
AcDbLine
 62
7
  6
CONTINUOUS
 10
450.5625692014
 20
317.5176243309
 11
449.8554653642
 21
315.695156506
  0
LINE
  5
418
100
AcDbEntity
  8
00_COMPONENTS_3
100
AcDbLine
 62
7
  6
CONTINUOUS
 10
450.2090172828
 20
333.0458293426
 11
449.8554653642
 21
332.4334560571
  0
LINE
  5
419
100
AcDbEntity
  8
00_COMPONENTS_3
100
AcDbLine
 62
7
  6
CONTINUOUS
 10
515.6691190357
 20
427.3620152962
 11
503.9064132155
 21
413.7410253071
  0
LINE
  5
41A
100
AcDbEntity
  8
00_COMPONENTS_3
100
AcDbLine
 62
7
  6
CONTINUOUS
 10
501.3452716352
 20
396.3245088396
 11
505.1021459338
 21
400.3383340092
  0
LINE
  5
41B
100
AcDbEntity
  8
00_COMPONENTS_3
100
AcDbLine
 62
7
  6
CONTINUOUS
 10
507.8693232273
 20
394.4221214404
 11
504.1124489286
 21
390.4082962708
  0
LINE
  5
41C
100
AcDbEntity
  8
00_COMPONENTS_3
100
AcDbLine
 62
7
  6
CONTINUOUS
 10
473.3595392238
 20
345.8083639822
 11
475.4101403518
 21
346.9922720284
  0
LINE
  5
41D
100
AcDbEntity
  8
00_COMPONENTS_3
100
AcDbLine
 62
7
  6
CONTINUOUS
 10
459.5001862558
 20
323.1093848832
 11
461.2679458488
 21
324.1299952679
  0
LINE
  5
41E
100
AcDbEntity
  8
00_COMPONENTS_3
100
AcDbLine
 62
7
  6
CONTINUOUS
 10
462.6821652991
 20
323.3135137588
 11
464.1670833573
 21
324.170826482
  0
LINE
  5
41F
100
AcDbEntity
  8
00_COMPONENTS_3
100
AcDbLine
 62
7
  6
CONTINUOUS
 10
462.5407580739
 20
321.3539496388
 11
465.7934357251
 21
323.2318727466
  0
LINE
  5
420
100
AcDbEntity
  8
00_COMPONENTS_3
100
AcDbLine
 62
7
  6
CONTINUOUS
 10
298.2783181159
 20
633.9877666705
 11
333.6691598595
 21
613.5553169068
  0
LINE
  5
421
100
AcDbEntity
  8
00_COMPONENTS_3
100
AcDbLine
 62
7
  6
CONTINUOUS
 10
467.9846521512
 20
536.0099855857
 11
503.3754938948
 21
515.5775358219
  0
LINE
  5
422
100
AcDbEntity
  8
00_COMPONENTS_3
100
AcDbLine
 62
7
  6
CONTINUOUS
 10
301.1067334648
 20
635.620743286
 11
336.4975752084
 21
615.1882935223
  0
LINE
  5
423
100
AcDbEntity
  8
00_COMPONENTS_3
100
AcDbLine
 62
7
  6
CONTINUOUS
 10
470.8130675001
 20
537.6429622011
 11
506.2039092437
 21
517.2105124374
  0
LINE
  5
424
100
AcDbEntity
  8
00_COMPONENTS_2
100
AcDbLine
 62
7
  6
CONTINUOUS
 10
394.0921480761
 20
586.2251662274
 11
391.2637091755
 21
587.8581292455
  0
LINE
  5
425
100
AcDbEntity
  8
00_COMPONENTS_2
100
AcDbLine
 62
7
  6
CONTINUOUS
 10
292.2683476549
 20
645.0118348783
 11
289.4399087543
 21
646.6447978964
  0
LINE
  5
426
100
AcDbEntity
  8
00_COMPONENTS_3
100
AcDbLine
 62
7
  6
CONTINUOUS
 10
494.006959494
 20
295.4481567141
 11
494.0069613238
 21
299.9031550469
  0
LINE
  5
427
100
AcDbEntity
  8
00_COMPONENTS_3
100
AcDbLine
 62
7
  6
CONTINUOUS
 10
496.3044555227
 20
482.2234826291
 11
496.3044555227
 21
484.9741177303
  0
LINE
  5
428
100
AcDbEntity
  8
00_COMPONENTS_3
100
AcDbLine
 62
7
  6
CONTINUOUS
 10
499.1328708715
 20
484.7214627844
 11
499.1328708715
 21
480.5905332083
  0
LINE
  5
429
100
AcDbEntity
  8
00_COMPONENTS_3
100
AcDbLine
 62
7
  6
CONTINUOUS
 10
503.3754938948
 20
493.7706381722
 11
503.3754938948
 21
515.5775358219
  0
LINE
  5
42A
100
AcDbEntity
  8
00_COMPONENTS_3
100
AcDbLine
 62
7
  6
CONTINUOUS
 10
503.9064132156
 20
285.3868453343
 11
503.9064132156
 21
293.5600377984
  0
LINE
  5
42B
100
AcDbEntity
  8
00_COMPONENTS_3
100
AcDbLine
 62
7
  6
CONTINUOUS
 10
503.9064132156
 20
313.9562616411
 11
503.9064132156
 21
387.8690018343
  0
LINE
  5
42C
100
AcDbEntity
  8
00_COMPONENTS_3
100
AcDbLine
 62
7
  6
CONTINUOUS
 10
503.9064132156
 20
402.8704400091
 11
503.9064132156
 21
413.7410253071
  0
LINE
  5
42D
100
AcDbEntity
  8
00_COMPONENTS_3
100
AcDbLine
 62
7
  6
CONTINUOUS
 10
506.2039092437
 20
517.2105124374
 11
506.2039092437
 21
493.5179832264
  0
LINE
  5
42E
100
AcDbEntity
  8
00_COMPONENTS_3
100
AcDbLine
 62
7
  6
CONTINUOUS
 10
509.5632026978
 20
315.3340721612
 11
509.5632026978
 21
310.1449224576
  0
LINE
  5
42F
100
AcDbEntity
  8
00_COMPONENTS_3
100
AcDbLine
 62
7
  6
CONTINUOUS
 10
510.9640367077
 20
314.525318565
 11
510.9640367077
 21
309.3361688614
  0
LINE
  5
430
100
AcDbEntity
  8
00_COMPONENTS_3
100
AcDbLine
 62
7
  6
CONTINUOUS
 10
500.8504231326
 20
391.3594899704
 11
501.3452716352
 21
396.3245088396
  0
LINE
  5
431
100
AcDbEntity
  8
00_COMPONENTS_3
100
AcDbLine
 62
7
  6
CONTINUOUS
 10
508.3641717298
 20
399.3871403096
 11
507.8693232273
 21
394.4221214404
  0
LINE
  5
432
100
AcDbEntity
  8
00_COMPONENTS_3
100
AcDbLine
 62
7
  6
CONTINUOUS
 10
474.7737233465
 20
360.6947933915
 11
474.4748661001
 21
359.9245278558
  0
LINE
  5
433
100
AcDbEntity
  8
00_COMPONENTS_3
100
AcDbLine
 62
7
  6
CONTINUOUS
 10
484.6814678593
 20
352.7439786561
 11
485.3885716965
 21
354.5664464809
  0
LINE
  5
434
100
AcDbEntity
  8
00_COMPONENTS_3
100
AcDbLine
 62
7
  6
CONTINUOUS
 10
484.6814678593
 20
369.4822782072
 11
485.0350197779
 21
370.0946514927
  0
LINE
  5
435
100
AcDbEntity
  8
00_COMPONENTS_3
100
AcDbLine
 62
7
  6
CONTINUOUS
 10
515.6691190357
 20
401.6307063615
 11
518.6803717257
 21
405.4259816136
  0
LINE
  5
436
100
AcDbEntity
  8
00_COMPONENTS_3
100
AcDbLine
 62
7
  6
CONTINUOUS
 10
512.6578663458
 20
390.4392678775
 11
518.6803717257
 21
397.413214752
  0
LINE
  5
437
100
AcDbEntity
  8
00_COMPONENTS_2
100
AcDbLine
 62
7
  6
CONTINUOUS
 10
302.1686492383
 20
221.2495028806
 11
333.7776936569
 21
239.4988842504
  0
LINE
  5
438
100
AcDbEntity
  8
00_COMPONENTS_3
100
AcDbLine
 62
7
  6
CONTINUOUS
 10
469.1875894903
 20
317.5164865463
 11
472.4402671415
 21
319.3944096541
  0
LINE
  5
439
100
AcDbEntity
  8
00_COMPONENTS_3
100
AcDbLine
 62
7
  6
CONTINUOUS
 10
461.9750886227
 20
312.699005072
 11
460.3262331869
 21
311.7470436248
  0
LINE
  5
43A
100
AcDbEntity
  8
00_COMPONENTS_3
100
AcDbLine
 62
7
  6
CONTINUOUS
 10
462.5407580739
 20
312.3724230503
 11
465.7934357251
 21
314.2503461581
  0
LINE
  5
43B
100
AcDbEntity
  8
00_COMPONENTS_3
100
AcDbLine
 62
7
  6
CONTINUOUS
 10
472.5817014512
 20
317.5981431955
 11
474.0666195093
 21
318.4554559187
  0
LINE
  5
43C
100
AcDbEntity
  8
00_COMPONENTS_3
100
AcDbLine
 62
7
  6
CONTINUOUS
 10
463.8462270846
 20
311.7380801488
 11
465.4840034984
 21
312.6836451579
  0
LINE
  5
43D
100
AcDbEntity
  8
00_COMPONENTS_3
100
AcDbLine
 62
7
  6
CONTINUOUS
 10
472.2281613084
 20
315.7610513018
 11
473.9959209015
 21
316.7816616865
  0
LINE
  5
43E
100
AcDbEntity
  8
00_COMPONENTS
100
AcDbLine
 62
7
  6
CONTINUOUS
 10
339.5042470373
 20
239.1320653425
 11
336.9586732234
 21
237.6623863885
  0
LINE
  5
43F
100
AcDbEntity
  8
00_COMPONENTS_3
100
AcDbLine
 62
7
  6
CONTINUOUS
 10
463.6850043813
 20
309.8079000408
 11
465.4372239662
 21
310.8195384511
  0
LINE
  5
440
100
AcDbEntity
  8
00_COMPONENTS_3
100
AcDbLine
 62
7
  6
CONTINUOUS
 10
457.8031252706
 20
305.3912643453
 11
459.8537263985
 21
306.5751723915
  0
LINE
  5
441
100
AcDbEntity
  8
00_COMPONENTS_3
100
AcDbLine
 62
7
  6
CONTINUOUS
 10
459.1466337484
 20
305.8403605374
 11
460.2908905306
 21
306.5009935552
  0
LINE
  5
442
100
AcDbEntity
  8
00_COMPONENTS_3
100
AcDbLine
 62
7
  6
CONTINUOUS
 10
465.4372239662
 20
307.3493714323
 11
465.4840034984
 21
307.3763794466
  0
LINE
  5
443
100
AcDbEntity
  8
00_COMPONENTS_3
100
AcDbLine
 62
7
  6
CONTINUOUS
 10
468.6192177294
 20
308.9824550558
 11
466.8669981445
 21
307.9708166454
  0
LINE
  5
444
100
AcDbEntity
  8
00_COMPONENTS_3
100
AcDbLine
 62
7
  6
CONTINUOUS
 10
473.9959209015
 20
311.4743677564
 11
474.0666195093
 21
311.5151853731
  0
LINE
  5
445
100
AcDbEntity
  8
00_COMPONENTS_3
100
AcDbLine
 62
7
  6
CONTINUOUS
 10
460.9851278657
 20
303.554207213
 11
462.0457836215
 21
304.1665734438
  0
LINE
  5
446
100
AcDbEntity
  8
00_COMPONENTS_3
100
AcDbLine
 62
7
  6
CONTINUOUS
 10
463.6850043813
 20
304.5006343294
 11
465.4372239662
 21
305.5122727398
  0
LINE
  5
447
100
AcDbEntity
  8
00_COMPONENTS_3
100
AcDbLine
 62
7
  6
CONTINUOUS
 10
473.9959209015
 20
309.8413911409
 11
475.4808389596
 21
310.698703864
  0
LINE
  5
448
100
AcDbEntity
  8
00_COMPONENTS_3
100
AcDbLine
 62
7
  6
CONTINUOUS
 10
470.2257693389
 20
306.0316730615
 11
471.8746247747
 21
306.9836345087
  0
LINE
  5
449
100
AcDbEntity
  8
00_COMPONENTS_3
100
AcDbLine
 62
7
  6
CONTINUOUS
 10
472.2281613084
 20
306.7795247134
 11
475.4808389596
 21
308.6574478212
  0
LINE
  5
44A
100
AcDbEntity
  8
00_COMPONENTS_3
100
AcDbLine
 62
7
  6
CONTINUOUS
 10
527.6297878753
 20
334.8463430887
 11
550.1156810668
 21
347.8285020827
  0
LINE
  5
44B
100
AcDbEntity
  8
00_COMPONENTS_3
100
AcDbLine
 62
7
  6
CONTINUOUS
 10
460.6315641712
 20
296.0015283645
 11
464.1670833573
 21
298.0427491338
  0
LINE
  5
44C
100
AcDbEntity
  8
00_COMPONENTS_3
100
AcDbLine
 62
7
  6
CONTINUOUS
 10
470.2257693389
 20
300.7244073501
 11
474.4201714279
 21
303.1460320701
  0
LINE
  5
44D
100
AcDbEntity
  8
00_COMPONENTS_3
100
AcDbLine
 62
7
  6
CONTINUOUS
 10
468.0562251171
 20
299.4717996678
 11
469.116880873
 21
300.0841658986
  0
LINE
  5
44E
100
AcDbEntity
  8
00_COMPONENTS_3
100
AcDbLine
 62
7
  6
CONTINUOUS
 10
527.6297878753
 20
333.621610627
 11
551.1763456545
 21
347.216140951
  0
LINE
  5
44F
100
AcDbEntity
  8
00_COMPONENTS_3
100
AcDbLine
 62
7
  6
CONTINUOUS
 10
518.084049197
 20
326.8853517521
 11
515.3485612447
 21
325.3060264738
  0
LINE
  5
450
100
AcDbEntity
  8
00_COMPONENTS_3
100
AcDbLine
 62
7
  6
CONTINUOUS
 10
468.0562251171
 20
297.8387948336
 11
469.116880873
 21
298.4511610644
  0
LINE
  5
451
100
AcDbEntity
  8
00_COMPONENTS_3
100
AcDbLine
 62
7
  6
CONTINUOUS
 10
472.0160307461
 20
298.4103788051
 11
475.5515499321
 21
300.4515995745
  0
LINE
  5
452
100
AcDbEntity
  8
00_COMPONENTS_3
100
AcDbLine
 62
7
  6
CONTINUOUS
 10
472.0160307461
 20
297.1856251794
 11
474.066631874
 21
298.3695332256
  0
LINE
  5
453
100
AcDbEntity
  8
00_COMPONENTS_3
100
AcDbLine
 62
7
  6
CONTINUOUS
 10
551.1763456545
 20
341.5006240311
 11
521.9729571776
 21
324.6401404762
  0
LINE
  5
454
100
AcDbEntity
  8
00_COMPONENTS_3
100
AcDbLine
 62
7
  6
CONTINUOUS
 10
541.8777394261
 20
427.9918845525
 11
537.4297098162
 21
434.3199886349
  0
LINE
  5
455
100
AcDbEntity
  8
00_COMPONENTS_3
100
AcDbLine
 62
7
  6
CONTINUOUS
 10
513.043084366
 20
430.6508537285
 11
513.6050059238
 21
428.5537045974
  0
LINE
  5
456
100
AcDbEntity
  8
00_COMPONENTS_3
100
AcDbLine
 62
7
  6
CONTINUOUS
 10
512.6578663458
 20
330.0180890099
 11
512.6578663458
 21
390.4392678775
  0
LINE
  5
457
100
AcDbEntity
  8
00_COMPONENTS_3
100
AcDbLine
 62
7
  6
CONTINUOUS
 10
515.3485612447
 20
325.7853408578
 11
515.3485612447
 21
298.6366354882
  0
LINE
  5
458
100
AcDbEntity
  8
00_COMPONENTS_3
100
AcDbLine
 62
7
  6
CONTINUOUS
 10
515.6691190357
 20
427.3620152962
 11
515.6691190357
 21
401.6307063615
  0
LINE
  5
459
100
AcDbEntity
  8
00_COMPONENTS_3
100
AcDbLine
 62
7
  6
CONTINUOUS
 10
518.6803717257
 20
405.4259816136
 11
518.6803717257
 21
397.413214752
  0
LINE
  5
45A
100
AcDbEntity
  8
00_COMPONENTS_3
100
AcDbLine
 62
7
  6
CONTINUOUS
 10
521.9729571776
 20
324.6401404762
 11
521.9729571776
 21
385.0613193438
  0
LINE
  5
45B
100
AcDbEntity
  8
00_COMPONENTS_3
100
AcDbLine
 62
7
  6
CONTINUOUS
 10
527.6297878753
 20
382.6117556548
 11
527.6297878753
 21
333.621610627
  0
LINE
  5
45C
100
AcDbEntity
  8
00_COMPONENTS_3
100
AcDbLine
 62
7
  6
CONTINUOUS
 10
529.9632217062
 20
329.2532943158
 11
529.9632217062
 21
323.1295050233
  0
LINE
  5
45D
100
AcDbEntity
  8
00_COMPONENTS_3
100
AcDbLine
 62
7
  6
CONTINUOUS
 10
529.9632217062
 20
390.8992056451
 11
529.9632217062
 21
396.614722565
  0
LINE
  5
45E
100
AcDbEntity
  8
00_COMPONENTS_3
100
AcDbLine
 62
7
  6
CONTINUOUS
 10
532.4379673778
 20
421.7217970255
 11
532.4379673778
 21
411.92376802
  0
LINE
  5
45F
100
AcDbEntity
  8
00_COMPONENTS_3
100
AcDbLine
 62
7
  6
CONTINUOUS
 10
537.4297098162
 20
437.1777470949
 11
541.2059907807
 21
446.9106182706
  0
LINE
  5
460
100
AcDbEntity
  8
00_COMPONENTS_3
100
AcDbLine
 62
7
  6
CONTINUOUS
 10
484.6814678593
 20
295.588809457
 11
485.3885716965
 21
297.4112772818
  0
LINE
  5
461
100
AcDbEntity
  8
00_COMPONENTS_3
100
AcDbLine
 62
7
  6
CONTINUOUS
 10
484.6814678593
 20
312.3271090081
 11
485.0350197779
 21
312.9394822936
  0
LINE
  5
462
100
AcDbEntity
  8
00_COMPONENTS_3
100
AcDbLine
 62
7
  6
CONTINUOUS
 10
473.3595392238
 20
296.4099677458
 11
475.4101403518
 21
297.593875792
  0
LINE
  5
463
100
AcDbEntity
  8
00_COMPONENTS_3
100
AcDbLine
 62
7
  6
CONTINUOUS
 10
541.2768831016
 20
329.6614114853
 11
529.9632217062
 21
323.1295050233
  0
LINE
  5
464
100
AcDbEntity
  8
00_COMPONENTS_3
100
AcDbLine
 62
7
  6
CONTINUOUS
 10
475.4101403518
 20
291.3884306141
 11
475.5515499321
 21
291.470072986
  0
LINE
  5
465
100
AcDbEntity
  8
00_COMPONENTS_3
100
AcDbLine
 62
7
  6
CONTINUOUS
 10
473.3595392238
 20
288.6531947831
 11
475.4101403518
 21
289.8371028293
  0
LINE
  5
466
100
AcDbEntity
  8
00_COMPONENTS
100
AcDbLine
 62
7
  6
CONTINUOUS
 10
381.9307893306
 20
220.35301443
 11
376.9810624701
 21
217.4953053529
  0
LINE
  5
467
100
AcDbEntity
  8
00_COMPONENTS_3
100
AcDbLine
 62
7
  6
CONTINUOUS
 10
486.802779371
 20
280.6016429606
 11
485.0350197779
 21
279.5810325759
  0
LINE
  5
468
100
AcDbEntity
  8
00_COMPONENTS
100
AcDbLine
 62
7
  6
CONTINUOUS
 10
442.0065841197
 20
251.967237698
 11
381.9307893306
 21
220.9182137669
  0
LINE
  5
469
100
AcDbEntity
  8
00_COMPONENTS_3
100
AcDbLine
 62
7
  6
CONTINUOUS
 10
541.2768831016
 20
329.6614114853
 11
541.2768831016
 21
335.7852007778
  0
LINE
  5
46A
100
AcDbEntity
  8
00_COMPONENTS_3
100
AcDbLine
 62
7
  6
CONTINUOUS
 10
541.2768831016
 20
397.431112107
 11
541.2768831016
 21
403.146629027
  0
LINE
  5
46B
100
AcDbEntity
  8
00_COMPONENTS_3
100
AcDbLine
 62
7
  6
CONTINUOUS
 10
541.8777394261
 20
421.1703728686
 11
541.8777394261
 21
427.9918845525
  0
LINE
  5
46C
100
AcDbEntity
  8
00_COMPONENTS_3
100
AcDbLine
 62
7
  6
CONTINUOUS
 10
544.3526028563
 20
430.7642515784
 11
544.3526028563
 21
422.5992274071
  0
LINE
  5
46D
100
AcDbEntity
  8
00_COMPONENTS_3
100
AcDbLine
 62
7
  6
CONTINUOUS
 10
549.3376849087
 20
451.6054260401
 11
549.3376849087
 21
433.6423728632
  0
LINE
  5
46E
100
AcDbEntity
  8
00_COMPONENTS_3
100
AcDbLine
 62
7
  6
CONTINUOUS
 10
550.1156810668
 20
395.5939146489
 11
550.1156810668
 21
347.8285020827
  0
LINE
  5
46F
100
AcDbEntity
  8
00_COMPONENTS_3
100
AcDbLine
 62
7
  6
CONTINUOUS
 10
551.1763456545
 20
401.9218028986
 11
551.1763456545
 21
396.2062859787
  0
LINE
  5
470
100
AcDbEntity
  8
00_COMPONENTS_3
100
AcDbLine
 62
7
  6
CONTINUOUS
 10
551.1763456545
 20
347.216140951
 11
551.1763456545
 21
341.5006240311
  0
LINE
  5
471
100
AcDbEntity
  8
00_COMPONENTS_3
100
AcDbLine
 62
7
  6
CONTINUOUS
 10
510.9640367077
 20
309.3361688614
 11
508.3004118573
 21
301.6293867633
  0
LINE
  5
472
100
AcDbEntity
  8
00_COMPONENTS_3
100
AcDbLine
 62
7
  6
CONTINUOUS
 10
509.5632026978
 20
310.1449224576
 11
505.5601710371
 21
303.2114297483
  0
LINE
  5
473
100
AcDbEntity
  8
00_COMPONENTS_3
100
AcDbLine
 62
7
  6
CONTINUOUS
 10
515.3485612447
 20
325.7853408578
 11
516.8925488779
 21
327.5732492198
  0
LINE
  5
474
100
AcDbEntity
  8
00_COMPONENTS_3
100
AcDbLine
 62
7
  6
CONTINUOUS
 10
503.9064132155
 20
285.3868453343
 11
515.3485612447
 21
298.6366354882
  0
LINE
  5
475
100
AcDbEntity
  8
00_COMPONENTS
100
AcDbLine
 62
7
  6
CONTINUOUS
 10
462.15904348
 20
263.6021960831
 11
442.0065841197
 21
251.967237698
  0
LINE
  5
476
100
AcDbEntity
  8
00_COMPONENTS_3
100
AcDbLine
 62
7
  6
CONTINUOUS
 10
503.9064132156
 20
285.3868453343
 11
485.026740762
 21
274.486726426
  0
LINE
  5
477
100
AcDbEntity
  8
00_COMPONENTS_4
100
AcDbLine
 62
7
  6
CONTINUOUS
 10
436.5190848609
 20
212.268736949
 11
430.8622541632
 21
209.002783718
  0
SPLINE
  5
478
100
AcDbEntity
  8
00_COMPONENTS_4
100
AcDbSpline
 62
7
  6
CONTINUOUS
 70
0
 71
3
 72
17
 73
13
 74
0
 42
0.0000001
 43
0.0000001
 44
0.0000000001
 40
0.0
 40
0.0
 40
0.0
 40
0.0
 40
0.1286870891
 40
0.2702754082
 40
0.4174294239
 40
0.5617774407
 40
0.6954474268
 40
0.8127122356
 40
0.8646763344
 40
0.9125097557
 40
0.957139577
 40
1.0
 40
1.0
 40
1.0
 40
1.0
 10
177.5401951293
 20
632.0493534318
 30
0.0
 10
177.5401951293
 20
632.6263053521
 30
0.0
 10
177.3787681552
 20
633.8394266597
 30
0.0
 10
176.7764089467
 20
635.6206740581
 30
0.0
 10
175.8480117962
 20
637.3365466662
 30
0.0
 10
174.6684799004
 20
638.8464561764
 30
0.0
 10
173.3339690476
 20
640.0282774134
 30
0.0
 10
172.126137377
 20
640.6887423167
 30
0.0
 10
171.1812938753
 20
640.9401047744
 30
0.0
 10
170.5310106351
 20
640.9879060396
 30
0.0
 10
169.9254837849
 20
640.8991816238
 30
0.0
 10
169.5586391008
 20
640.7467300078
 30
0.0
 10
169.3922236859
 20
640.6506516353
 30
0.0
  0
SPLINE
  5
479
100
AcDbEntity
  8
00_COMPONENTS_4
100
AcDbSpline
 62
7
  6
CONTINUOUS
 70
0
 71
3
 72
17
 73
13
 74
0
 42
0.0000001
 43
0.0000001
 44
0.0000000001
 40
0.0
 40
0.0
 40
0.0
 40
0.0
 40
0.1286870891
 40
0.2702754082
 40
0.4174294239
 40
0.5617774407
 40
0.6954474268
 40
0.8127122356
 40
0.8646763344
 40
0.9125097557
 40
0.957139577
 40
1.0
 40
1.0
 40
1.0
 40
1.0
 10
177.5401951293
 20
607.5542809179
 30
0.0
 10
177.5401951293
 20
608.1312328382
 30
0.0
 10
177.3787681552
 20
609.3443541458
 30
0.0
 10
176.7764089467
 20
611.1256015442
 30
0.0
 10
175.8480117962
 20
612.8414741524
 30
0.0
 10
174.6684799004
 20
614.3513836625
 30
0.0
 10
173.3339690476
 20
615.5332048995
 30
0.0
 10
172.126137377
 20
616.1936698029
 30
0.0
 10
171.1812938753
 20
616.4450322606
 30
0.0
 10
170.5310106351
 20
616.4928335257
 30
0.0
 10
169.9254837849
 20
616.40410911
 30
0.0
 10
169.5586391008
 20
616.2516574939
 30
0.0
 10
169.3922236859
 20
616.1555791215
 30
0.0
  0
SPLINE
  5
47A
100
AcDbEntity
  8
00_COMPONENTS_4
100
AcDbSpline
 62
7
  6
CONTINUOUS
 70
0
 71
3
 72
11
 73
7
 74
0
 42
0.0000001
 43
0.0000001
 44
0.0000000001
 40
0.0
 40
0.0
 40
0.0
 40
0.0
 40
0.2177674359
 40
0.4509468634
 40
0.7101997378
 40
1.0
 40
1.0
 40
1.0
 40
1.0
 10
176.1421852832
 20
604.4642329005
 30
0.0
 10
176.3648329241
 20
604.5927764189
 30
0.0
 10
176.7815545612
 20
604.9429393848
 30
0.0
 10
177.2248228207
 20
605.6681265249
 30
0.0
 10
177.4885250056
 20
606.5617146769
 30
0.0
 10
177.5401951293
 20
607.2121506632
 30
0.0
 10
177.5401951293
 20
607.5542809179
 30
0.0
  0
SPLINE
  5
47B
100
AcDbEntity
  8
00_COMPONENTS_4
100
AcDbSpline
 62
7
  6
CONTINUOUS
 70
0
 71
3
 72
11
 73
7
 74
0
 42
0.0000001
 43
0.0000001
 44
0.0000000001
 40
0.0
 40
0.0
 40
0.0
 40
0.0
 40
0.2437552288
 40
0.4999955722
 40
0.7562401671
 40
1.0
 40
1.0
 40
1.0
 40
1.0
 10
177.300250966
 20
608.8682312206
 30
0.0
 10
176.8594052447
 20
609.2461009306
 30
0.0
 10
176.030719021
 20
610.1117665171
 30
0.0
 10
175.0081976581
 20
611.6032610283
 30
0.0
 10
174.2277005892
 20
613.2344996291
 30
0.0
 10
173.8922034272
 20
614.384975945
 30
0.0
 10
173.7853493211
 20
614.9556995239
 30
0.0
  0
SPLINE
  5
47C
100
AcDbEntity
  8
00_COMPONENTS_4
100
AcDbSpline
 62
7
  6
CONTINUOUS
 70
0
 71
3
 72
11
 73
7
 74
0
 42
0.0000001
 43
0.0000001
 44
0.0000000001
 40
0.0
 40
0.0
 40
0.0
 40
0.0
 40
0.2177674359
 40
0.4509468634
 40
0.7101997378
 40
1.0
 40
1.0
 40
1.0
 40
1.0
 10
176.1421852832
 20
628.9593054143
 30
0.0
 10
176.3648329241
 20
629.0878489328
 30
0.0
 10
176.7815545612
 20
629.4380118987
 30
0.0
 10
177.2248228207
 20
630.1631990388
 30
0.0
 10
177.4885250056
 20
631.0567871908
 30
0.0
 10
177.5401951293
 20
631.7072231771
 30
0.0
 10
177.5401951293
 20
632.0493534318
 30
0.0
  0
SPLINE
  5
47D
100
AcDbEntity
  8
00_COMPONENTS_4
100
AcDbSpline
 62
7
  6
CONTINUOUS
 70
0
 71
3
 72
11
 73
7
 74
0
 42
0.0000001
 43
0.0000001
 44
0.0000000001
 40
0.0
 40
0.0
 40
0.0
 40
0.0
 40
0.2437552288
 40
0.4999955722
 40
0.7562401671
 40
1.0
 40
1.0
 40
1.0
 40
1.0
 10
177.300250966
 20
633.3633037345
 30
0.0
 10
176.8594052447
 20
633.7411734445
 30
0.0
 10
176.030719021
 20
634.606839031
 30
0.0
 10
175.0081976581
 20
636.0983335421
 30
0.0
 10
174.2277005892
 20
637.729572143
 30
0.0
 10
173.8922034272
 20
638.8800484589
 30
0.0
 10
173.7853493211
 20
639.4507720378
 30
0.0
  0
SPLINE
  5
47E
100
AcDbEntity
  8
00_COMPONENTS_4
100
AcDbSpline
 62
7
  6
CONTINUOUS
 70
0
 71
3
 72
11
 73
7
 74
0
 42
0.0000001
 43
0.0000001
 44
0.0000000001
 40
0.0
 40
0.0
 40
0.0
 40
0.0
 40
0.2177674359
 40
0.4509468634
 40
0.7101997378
 40
1.0
 40
1.0
 40
1.0
 40
1.0
 10
169.3922236859
 20
640.6506516353
 30
0.0
 10
169.169576045
 20
640.5221081169
 30
0.0
 10
168.7528544079
 20
640.171945151
 30
0.0
 10
168.3095861484
 20
639.4467580109
 30
0.0
 10
168.0458839635
 20
638.5531698589
 30
0.0
 10
167.9942138398
 20
637.9027338726
 30
0.0
 10
167.9942138398
 20
637.5606036179
 30
0.0
  0
SPLINE
  5
47F
100
AcDbEntity
  8
00_COMPONENTS_4
100
AcDbSpline
 62
7
  6
CONTINUOUS
 70
0
 71
3
 72
17
 73
13
 74
0
 42
0.0000001
 43
0.0000001
 44
0.0000000001
 40
0.0
 40
0.0
 40
0.0
 40
0.0
 40
0.1286870891
 40
0.2702754082
 40
0.4174294239
 40
0.5617774407
 40
0.6954474268
 40
0.8127122356
 40
0.8646763344
 40
0.9125097557
 40
0.957139577
 40
1.0
 40
1.0
 40
1.0
 40
1.0
 10
167.9942138398
 20
637.5606036179
 30
0.0
 10
167.9942138398
 20
636.9836516976
 30
0.0
 10
168.1556408138
 20
635.77053039
 30
0.0
 10
168.7580000224
 20
633.9892829916
 30
0.0
 10
169.6863971729
 20
632.2734103834
 30
0.0
 10
170.8659290687
 20
630.7635008733
 30
0.0
 10
172.2004399215
 20
629.5816796363
 30
0.0
 10
173.4082715921
 20
628.9212147329
 30
0.0
 10
174.3531150938
 20
628.6698522752
 30
0.0
 10
175.003398334
 20
628.6220510101
 30
0.0
 10
175.6089251842
 20
628.7107754258
 30
0.0
 10
175.9757698683
 20
628.8632270419
 30
0.0
 10
176.1421852832
 20
628.9593054143
 30
0.0
  0
SPLINE
  5
480
100
AcDbEntity
  8
00_COMPONENTS_4
100
AcDbSpline
 62
7
  6
CONTINUOUS
 70
0
 71
3
 72
11
 73
7
 74
0
 42
0.0000001
 43
0.0000001
 44
0.0000000001
 40
0.0
 40
0.0
 40
0.0
 40
0.0
 40
0.2177674359
 40
0.4509468634
 40
0.7101997378
 40
1.0
 40
1.0
 40
1.0
 40
1.0
 10
169.3922236859
 20
616.1555791215
 30
0.0
 10
169.169576045
 20
616.027035603
 30
0.0
 10
168.7528544079
 20
615.6768726371
 30
0.0
 10
168.3095861484
 20
614.951685497
 30
0.0
 10
168.0458839635
 20
614.058097345
 30
0.0
 10
167.9942138398
 20
613.4076613587
 30
0.0
 10
167.9942138398
 20
613.065531104
 30
0.0
  0
SPLINE
  5
481
100
AcDbEntity
  8
00_COMPONENTS_4
100
AcDbSpline
 62
7
  6
CONTINUOUS
 70
0
 71
3
 72
17
 73
13
 74
0
 42
0.0000001
 43
0.0000001
 44
0.0000000001
 40
0.0
 40
0.0
 40
0.0
 40
0.0
 40
0.1286870891
 40
0.2702754082
 40
0.4174294239
 40
0.5617774407
 40
0.6954474268
 40
0.8127122356
 40
0.8646763344
 40
0.9125097557
 40
0.957139577
 40
1.0
 40
1.0
 40
1.0
 40
1.0
 10
167.9942138398
 20
613.065531104
 30
0.0
 10
167.9942138398
 20
612.4885791837
 30
0.0
 10
168.1556408138
 20
611.2754578761
 30
0.0
 10
168.7580000224
 20
609.4942104777
 30
0.0
 10
169.6863971729
 20
607.7783378696
 30
0.0
 10
170.8659290687
 20
606.2684283594
 30
0.0
 10
172.2004399215
 20
605.0866071224
 30
0.0
 10
173.4082715921
 20
604.4261422191
 30
0.0
 10
174.3531150938
 20
604.1747797614
 30
0.0
 10
175.003398334
 20
604.1269784962
 30
0.0
 10
175.6089251842
 20
604.215702912
 30
0.0
 10
175.9757698683
 20
604.368154528
 30
0.0
 10
176.1421852832
 20
604.4642329005
 30
0.0
  0
SPLINE
  5
482
100
AcDbEntity
  8
00_COMPONENTS_4
100
AcDbSpline
 62
7
  6
CONTINUOUS
 70
0
 71
3
 72
15
 73
11
 74
0
 42
0.0000001
 43
0.0000001
 44
0.0000000001
 40
0.0
 40
0.0
 40
0.0
 40
0.0
 40
0.1216973958
 40
0.2546848557
 40
0.3940970173
 40
0.534159397
 40
0.6690175793
 40
0.7935197519
 40
0.9041137554
 40
1.0
 40
1.0
 40
1.0
 40
1.0
 10
419.3717211296
 20
227.8842322359
 30
0.0
 10
419.3717211296
 20
228.3751390622
 30
0.0
 10
419.254669722
 20
229.403648726
 30
0.0
 10
418.8051056705
 20
230.9347510178
 30
0.0
 10
418.0997772441
 20
232.4483698102
 30
0.0
 10
417.1812940797
 20
233.8516477408
 30
0.0
 10
416.1056502537
 20
235.0597962553
 30
0.0
 10
414.9358765713
 20
236.0000548626
 30
0.0
 10
413.7403316724
 20
236.6168504762
 30
0.0
 10
412.9095807522
 20
236.7935842921
 30
0.0
 10
412.5228656597
 20
236.8011443944
 30
0.0
  0
SPLINE
  5
483
100
AcDbEntity
  8
00_COMPONENTS_4
100
AcDbSpline
 62
7
  6
CONTINUOUS
 70
0
 71
3
 72
11
 73
7
 74
0
 42
0.0000001
 43
0.0000001
 44
0.0000000001
 40
0.0
 40
0.0
 40
0.0
 40
0.0
 40
0.2177674359
 40
0.4509468634
 40
0.7101997378
 40
1.0
 40
1.0
 40
1.0
 40
1.0
 10
417.9737112835
 20
224.7941842184
 30
0.0
 10
418.1963589244
 20
224.9227277369
 30
0.0
 10
418.6130805615
 20
225.2728907028
 30
0.0
 10
419.0563488209
 20
225.9980778428
 30
0.0
 10
419.3200510059
 20
226.8916659949
 30
0.0
 10
419.3717211296
 20
227.5421019811
 30
0.0
 10
419.3717211296
 20
227.8842322359
 30
0.0
  0
SPLINE
  5
484
100
AcDbEntity
  8
00_COMPONENTS_4
100
AcDbSpline
 62
7
  6
CONTINUOUS
 70
0
 71
3
 72
11
 73
7
 74
0
 42
0.0000001
 43
0.0000001
 44
0.0000000001
 40
0.0
 40
0.0
 40
0.0
 40
0.0
 40
0.2437552288
 40
0.4999955722
 40
0.7562401671
 40
1.0
 40
1.0
 40
1.0
 40
1.0
 10
419.1317769662
 20
229.1981825386
 30
0.0
 10
418.6909312449
 20
229.5760522486
 30
0.0
 10
417.8622450212
 20
230.4417178351
 30
0.0
 10
416.8397236583
 20
231.9332123462
 30
0.0
 10
416.0592265895
 20
233.5644509471
 30
0.0
 10
415.7237294275
 20
234.714927263
 30
0.0
 10
415.6168753213
 20
235.2856508418
 30
0.0
  0
SPLINE
  5
485
100
AcDbEntity
  8
00_COMPONENTS_4
100
AcDbSpline
 62
7
  6
CONTINUOUS
 70
0
 71
3
 72
17
 73
13
 74
0
 42
0.0000001
 43
0.0000001
 44
0.0000000001
 40
0.0
 40
0.0
 40
0.0
 40
0.0
 40
0.1286870891
 40
0.2702754082
 40
0.4174294239
 40
0.5617774407
 40
0.6954474268
 40
0.8127122356
 40
0.8646763344
 40
0.9125097557
 40
0.957139577
 40
1.0
 40
1.0
 40
1.0
 40
1.0
 10
409.8257398401
 20
233.3954824219
 30
0.0
 10
409.8257398401
 20
232.8185305016
 30
0.0
 10
409.9871668141
 20
231.605409194
 30
0.0
 10
410.5895260226
 20
229.8241617957
 30
0.0
 10
411.5179231732
 20
228.1082891875
 30
0.0
 10
412.697455069
 20
226.5983796773
 30
0.0
 10
414.0319659218
 20
225.4165584404
 30
0.0
 10
415.2397975924
 20
224.756093537
 30
0.0
 10
416.1846410941
 20
224.5047310793
 30
0.0
 10
416.8349243343
 20
224.4569298141
 30
0.0
 10
417.4404511845
 20
224.5456542299
 30
0.0
 10
417.8072958686
 20
224.698105846
 30
0.0
 10
417.9737112835
 20
224.7941842184
 30
0.0
  0
SPLINE
  5
486
100
AcDbEntity
  8
00_COMPONENTS_4
100
AcDbSpline
 62
7
  6
CONTINUOUS
 70
0
 71
3
 72
9
 73
5
 74
0
 42
0.0000001
 43
0.0000001
 44
0.0000000001
 40
0.0
 40
0.0
 40
0.0
 40
0.0
 40
0.2244142859
 40
1.0
 40
1.0
 40
1.0
 40
1.0
 10
410.473886177
 20
235.7942218725
 30
0.0
 10
410.3651489566
 20
235.6412994153
 30
0.0
 10
409.9516480817
 20
234.908565412
 30
0.0
 10
409.8257398401
 20
234.0439772585
 30
0.0
 10
409.8257398401
 20
233.3954824219
 30
0.0
  0
SPLINE
  5
487
100
AcDbEntity
  8
00_COMPONENTS_4
100
AcDbSpline
 62
7
  6
CONTINUOUS
 70
0
 71
3
 72
17
 73
13
 74
0
 42
0.0000001
 43
0.0000001
 44
0.0000000001
 40
0.0
 40
0.0
 40
0.0
 40
0.0
 40
0.1286870891
 40
0.2702754082
 40
0.4174294239
 40
0.5617774407
 40
0.6954474268
 40
0.8127122356
 40
0.8646763344
 40
0.9125097557
 40
0.957139577
 40
1.0
 40
1.0
 40
1.0
 40
1.0
 10
279.3639955505
 20
573.2626847809
 30
0.0
 10
279.3639955505
 20
573.8396367012
 30
0.0
 10
279.2025685764
 20
575.0527580088
 30
0.0
 10
278.6002093679
 20
576.8340054072
 30
0.0
 10
277.6718122173
 20
578.5498780153
 30
0.0
 10
276.4922803215
 20
580.0597875255
 30
0.0
 10
275.1577694688
 20
581.2416087624
 30
0.0
 10
273.9499377981
 20
581.9020736658
 30
0.0
 10
273.0050942965
 20
582.1534361235
 30
0.0
 10
272.3548110562
 20
582.2012373887
 30
0.0
 10
271.749284206
 20
582.1125129729
 30
0.0
 10
271.3824395219
 20
581.9600613568
 30
0.0
 10
271.216024107
 20
581.8639829844
 30
0.0
  0
SPLINE
  5
488
100
AcDbEntity
  8
00_COMPONENTS_4
100
AcDbSpline
 62
7
  6
CONTINUOUS
 70
0
 71
3
 72
17
 73
13
 74
0
 42
0.0000001
 43
0.0000001
 44
0.0000000001
 40
0.0
 40
0.0
 40
0.0
 40
0.0
 40
0.1286870891
 40
0.2702754082
 40
0.4174294239
 40
0.5617774407
 40
0.6954474268
 40
0.8127122356
 40
0.8646763344
 40
0.9125097557
 40
0.957139577
 40
1.0
 40
1.0
 40
1.0
 40
1.0
 10
279.3639955505
 20
548.767612267
 30
0.0
 10
279.3639955505
 20
549.3445641873
 30
0.0
 10
279.2025685764
 20
550.5576854949
 30
0.0
 10
278.6002093679
 20
552.3389328933
 30
0.0
 10
277.6718122173
 20
554.0548055014
 30
0.0
 10
276.4922803215
 20
555.5647150116
 30
0.0
 10
275.1577694688
 20
556.7465362485
 30
0.0
 10
273.9499377981
 20
557.4070011519
 30
0.0
 10
273.0050942965
 20
557.6583636096
 30
0.0
 10
272.3548110562
 20
557.7061648748
 30
0.0
 10
271.749284206
 20
557.617440459
 30
0.0
 10
271.3824395219
 20
557.464988843
 30
0.0
 10
271.216024107
 20
557.3689104705
 30
0.0
  0
SPLINE
  5
489
100
AcDbEntity
  8
00_COMPONENTS_4
100
AcDbSpline
 62
7
  6
CONTINUOUS
 70
0
 71
3
 72
11
 73
7
 74
0
 42
0.0000001
 43
0.0000001
 44
0.0000000001
 40
0.0
 40
0.0
 40
0.0
 40
0.0
 40
0.2177674359
 40
0.4509468634
 40
0.7101997378
 40
1.0
 40
1.0
 40
1.0
 40
1.0
 10
277.9659857044
 20
545.6775642495
 30
0.0
 10
278.1886333453
 20
545.806107768
 30
0.0
 10
278.6053549824
 20
546.1562707339
 30
0.0
 10
279.0486232418
 20
546.881457874
 30
0.0
 10
279.3123254268
 20
547.775046026
 30
0.0
 10
279.3639955505
 20
548.4254820122
 30
0.0
 10
279.3639955505
 20
548.767612267
 30
0.0
  0
SPLINE
  5
48A
100
AcDbEntity
  8
00_COMPONENTS_4
100
AcDbSpline
 62
7
  6
CONTINUOUS
 70
0
 71
3
 72
11
 73
7
 74
0
 42
0.0000001
 43
0.0000001
 44
0.0000000001
 40
0.0
 40
0.0
 40
0.0
 40
0.0
 40
0.2437552288
 40
0.4999955722
 40
0.7562401671
 40
1.0
 40
1.0
 40
1.0
 40
1.0
 10
279.1240513871
 20
550.0815625697
 30
0.0
 10
278.6832056658
 20
550.4594322797
 30
0.0
 10
277.8545194421
 20
551.3250978662
 30
0.0
 10
276.8319980792
 20
552.8165923773
 30
0.0
 10
276.0515010104
 20
554.4478309782
 30
0.0
 10
275.7160038484
 20
555.5983072941
 30
0.0
 10
275.6091497422
 20
556.1690308729
 30
0.0
  0
SPLINE
  5
48B
100
AcDbEntity
  8
00_COMPONENTS_4
100
AcDbSpline
 62
7
  6
CONTINUOUS
 70
0
 71
3
 72
11
 73
7
 74
0
 42
0.0000001
 43
0.0000001
 44
0.0000000001
 40
0.0
 40
0.0
 40
0.0
 40
0.0
 40
0.2177674359
 40
0.4509468634
 40
0.7101997378
 40
1.0
 40
1.0
 40
1.0
 40
1.0
 10
277.9659857044
 20
570.1726367634
 30
0.0
 10
278.1886333453
 20
570.3011802819
 30
0.0
 10
278.6053549824
 20
570.6513432478
 30
0.0
 10
279.0486232418
 20
571.3765303878
 30
0.0
 10
279.3123254268
 20
572.2701185399
 30
0.0
 10
279.3639955505
 20
572.9205545261
 30
0.0
 10
279.3639955505
 20
573.2626847809
 30
0.0
  0
SPLINE
  5
48C
100
AcDbEntity
  8
00_COMPONENTS_4
100
AcDbSpline
 62
7
  6
CONTINUOUS
 70
0
 71
3
 72
11
 73
7
 74
0
 42
0.0000001
 43
0.0000001
 44
0.0000000001
 40
0.0
 40
0.0
 40
0.0
 40
0.0
 40
0.2437552288
 40
0.4999955722
 40
0.7562401671
 40
1.0
 40
1.0
 40
1.0
 40
1.0
 10
279.1240513871
 20
574.5766350836
 30
0.0
 10
278.6832056658
 20
574.9545047936
 30
0.0
 10
277.8545194421
 20
575.8201703801
 30
0.0
 10
276.8319980792
 20
577.3116648912
 30
0.0
 10
276.0515010104
 20
578.9429034921
 30
0.0
 10
275.7160038484
 20
580.093379808
 30
0.0
 10
275.6091497422
 20
580.6641033868
 30
0.0
  0
SPLINE
  5
48D
100
AcDbEntity
  8
00_COMPONENTS_4
100
AcDbSpline
 62
7
  6
CONTINUOUS
 70
0
 71
3
 72
11
 73
7
 74
0
 42
0.0000001
 43
0.0000001
 44
0.0000000001
 40
0.0
 40
0.0
 40
0.0
 40
0.0
 40
0.2177674359
 40
0.4509468634
 40
0.7101997378
 40
1.0
 40
1.0
 40
1.0
 40
1.0
 10
271.216024107
 20
581.8639829844
 30
0.0
 10
270.9933764661
 20
581.7354394659
 30
0.0
 10
270.5766548291
 20
581.3852765
 30
0.0
 10
270.1333865696
 20
580.66008936
 30
0.0
 10
269.8696843847
 20
579.7665012079
 30
0.0
 10
269.818014261
 20
579.1160652217
 30
0.0
 10
269.818014261
 20
578.7739349669
 30
0.0
  0
SPLINE
  5
48E
100
AcDbEntity
  8
00_COMPONENTS_4
100
AcDbSpline
 62
7
  6
CONTINUOUS
 70
0
 71
3
 72
17
 73
13
 74
0
 42
0.0000001
 43
0.0000001
 44
0.0000000001
 40
0.0
 40
0.0
 40
0.0
 40
0.0
 40
0.1286870891
 40
0.2702754082
 40
0.4174294239
 40
0.5617774407
 40
0.6954474268
 40
0.8127122356
 40
0.8646763344
 40
0.9125097557
 40
0.957139577
 40
1.0
 40
1.0
 40
1.0
 40
1.0
 10
269.818014261
 20
578.7739349669
 30
0.0
 10
269.818014261
 20
578.1969830466
 30
0.0
 10
269.979441235
 20
576.9838617391
 30
0.0
 10
270.5818004435
 20
575.2026143407
 30
0.0
 10
271.5101975941
 20
573.4867417325
 30
0.0
 10
272.6897294899
 20
571.9768322224
 30
0.0
 10
274.0242403427
 20
570.7950109854
 30
0.0
 10
275.2320720133
 20
570.134546082
 30
0.0
 10
276.176915515
 20
569.8831836243
 30
0.0
 10
276.8271987552
 20
569.8353823591
 30
0.0
 10
277.4327256054
 20
569.9241067749
 30
0.0
 10
277.7995702895
 20
570.076558391
 30
0.0
 10
277.9659857044
 20
570.1726367634
 30
0.0
  0
SPLINE
  5
48F
100
AcDbEntity
  8
00_COMPONENTS_4
100
AcDbSpline
 62
7
  6
CONTINUOUS
 70
0
 71
3
 72
11
 73
7
 74
0
 42
0.0000001
 43
0.0000001
 44
0.0000000001
 40
0.0
 40
0.0
 40
0.0
 40
0.0
 40
0.2177674359
 40
0.4509468634
 40
0.7101997378
 40
1.0
 40
1.0
 40
1.0
 40
1.0
 10
271.216024107
 20
557.3689104705
 30
0.0
 10
270.9933764661
 20
557.2403669521
 30
0.0
 10
270.5766548291
 20
556.8902039862
 30
0.0
 10
270.1333865696
 20
556.1650168461
 30
0.0
 10
269.8696843847
 20
555.2714286941
 30
0.0
 10
269.818014261
 20
554.6209927078
 30
0.0
 10
269.818014261
 20
554.278862453
 30
0.0
  0
SPLINE
  5
490
100
AcDbEntity
  8
00_COMPONENTS_4
100
AcDbSpline
 62
7
  6
CONTINUOUS
 70
0
 71
3
 72
17
 73
13
 74
0
 42
0.0000001
 43
0.0000001
 44
0.0000000001
 40
0.0
 40
0.0
 40
0.0
 40
0.0
 40
0.1286870891
 40
0.2702754082
 40
0.4174294239
 40
0.5617774407
 40
0.6954474268
 40
0.8127122356
 40
0.8646763344
 40
0.9125097557
 40
0.957139577
 40
1.0
 40
1.0
 40
1.0
 40
1.0
 10
269.818014261
 20
554.278862453
 30
0.0
 10
269.818014261
 20
553.7019105327
 30
0.0
 10
269.979441235
 20
552.4887892252
 30
0.0
 10
270.5818004435
 20
550.7075418268
 30
0.0
 10
271.5101975941
 20
548.9916692186
 30
0.0
 10
272.6897294899
 20
547.4817597085
 30
0.0
 10
274.0242403427
 20
546.2999384715
 30
0.0
 10
275.2320720133
 20
545.6394735681
 30
0.0
 10
276.176915515
 20
545.3881111104
 30
0.0
 10
276.8271987552
 20
545.3403098452
 30
0.0
 10
277.4327256054
 20
545.429034261
 30
0.0
 10
277.7995702895
 20
545.5814858771
 30
0.0
 10
277.9659857044
 20
545.6775642495
 30
0.0
  0
SPLINE
  5
491
100
AcDbEntity
  8
00_COMPONENTS_4
100
AcDbSpline
 62
7
  6
CONTINUOUS
 70
0
 71
3
 72
17
 73
13
 74
0
 42
0.0000001
 43
0.0000001
 44
0.0000000001
 40
0.0
 40
0.0
 40
0.0
 40
0.0
 40
0.1286870891
 40
0.2702754082
 40
0.4174294239
 40
0.5617774407
 40
0.6954474268
 40
0.8127122356
 40
0.8646763344
 40
0.9125097557
 40
0.957139577
 40
1.0
 40
1.0
 40
1.0
 40
1.0
 10
215.7241202872
 20
610.0043526877
 30
0.0
 10
215.7241202872
 20
610.581304608
 30
0.0
 10
215.5626933132
 20
611.7944259156
 30
0.0
 10
214.9603341047
 20
613.575673314
 30
0.0
 10
214.0319369541
 20
615.2915459221
 30
0.0
 10
212.8524050583
 20
616.8014554323
 30
0.0
 10
211.5178942055
 20
617.9832766693
 30
0.0
 10
210.3100625349
 20
618.6437415726
 30
0.0
 10
209.3652190332
 20
618.8951040303
 30
0.0
 10
208.714935793
 20
618.9429052955
 30
0.0
 10
208.1094089428
 20
618.8541808797
 30
0.0
 10
207.7425642587
 20
618.7017292637
 30
0.0
 10
207.5761488438
 20
618.6056508913
 30
0.0
  0
SPLINE
  5
492
100
AcDbEntity
  8
00_COMPONENTS_4
100
AcDbSpline
 62
7
  6
CONTINUOUS
 70
0
 71
3
 72
11
 73
7
 74
0
 42
0.0000001
 43
0.0000001
 44
0.0000000001
 40
0.0
 40
0.0
 40
0.0
 40
0.0
 40
0.2177674359
 40
0.4509468634
 40
0.7101997378
 40
1.0
 40
1.0
 40
1.0
 40
1.0
 10
214.3261104412
 20
606.9143046702
 30
0.0
 10
214.5487580821
 20
607.0428481887
 30
0.0
 10
214.9654797191
 20
607.3930111546
 30
0.0
 10
215.4087479786
 20
608.1181982947
 30
0.0
 10
215.6724501635
 20
609.0117864467
 30
0.0
 10
215.7241202872
 20
609.662222433
 30
0.0
 10
215.7241202872
 20
610.0043526877
 30
0.0
  0
SPLINE
  5
493
100
AcDbEntity
  8
00_COMPONENTS_4
100
AcDbSpline
 62
7
  6
CONTINUOUS
 70
0
 71
3
 72
11
 73
7
 74
0
 42
0.0000001
 43
0.0000001
 44
0.0000000001
 40
0.0
 40
0.0
 40
0.0
 40
0.0
 40
0.2437552288
 40
0.4999955722
 40
0.7562401671
 40
1.0
 40
1.0
 40
1.0
 40
1.0
 10
215.4841761239
 20
611.3183029904
 30
0.0
 10
215.0433304026
 20
611.6961727004
 30
0.0
 10
214.2146441789
 20
612.5618382869
 30
0.0
 10
213.192122816
 20
614.053332798
 30
0.0
 10
212.4116257471
 20
615.6845713989
 30
0.0
 10
212.0761285852
 20
616.8350477148
 30
0.0
 10
211.969274479
 20
617.4057712937
 30
0.0
  0
SPLINE
  5
494
100
AcDbEntity
  8
00_COMPONENTS_4
100
AcDbSpline
 62
7
  6
CONTINUOUS
 70
0
 71
3
 72
11
 73
7
 74
0
 42
0.0000001
 43
0.0000001
 44
0.0000000001
 40
0.0
 40
0.0
 40
0.0
 40
0.0
 40
0.2177674359
 40
0.4509468634
 40
0.7101997378
 40
1.0
 40
1.0
 40
1.0
 40
1.0
 10
207.5761488438
 20
618.6056508913
 30
0.0
 10
207.3535012029
 20
618.4771073728
 30
0.0
 10
206.9367795658
 20
618.1269444069
 30
0.0
 10
206.4935113064
 20
617.4017572668
 30
0.0
 10
206.2298091214
 20
616.5081691148
 30
0.0
 10
206.1781389977
 20
615.8577331285
 30
0.0
 10
206.1781389977
 20
615.5156028738
 30
0.0
  0
SPLINE
  5
495
100
AcDbEntity
  8
00_COMPONENTS_4
100
AcDbSpline
 62
7
  6
CONTINUOUS
 70
0
 71
3
 72
17
 73
13
 74
0
 42
0.0000001
 43
0.0000001
 44
0.0000000001
 40
0.0
 40
0.0
 40
0.0
 40
0.0
 40
0.1286870891
 40
0.2702754082
 40
0.4174294239
 40
0.5617774407
 40
0.6954474268
 40
0.8127122356
 40
0.8646763344
 40
0.9125097557
 40
0.957139577
 40
1.0
 40
1.0
 40
1.0
 40
1.0
 10
206.1781389977
 20
615.5156028738
 30
0.0
 10
206.1781389977
 20
614.9386509535
 30
0.0
 10
206.3395659718
 20
613.7255296459
 30
0.0
 10
206.9419251803
 20
611.9442822475
 30
0.0
 10
207.8703223308
 20
610.2284096393
 30
0.0
 10
209.0498542267
 20
608.7185001292
 30
0.0
 10
210.3843650794
 20
607.5366788922
 30
0.0
 10
211.5921967501
 20
606.8762139888
 30
0.0
 10
212.5370402517
 20
606.6248515312
 30
0.0
 10
213.187323492
 20
606.577050266
 30
0.0
 10
213.7928503422
 20
606.6657746818
 30
0.0
 10
214.1596950262
 20
606.8182262978
 30
0.0
 10
214.3261104412
 20
606.9143046702
 30
0.0
  0
SPLINE
  5
496
100
AcDbEntity
  8
00_COMPONENTS_4
100
AcDbSpline
 62
7
  6
CONTINUOUS
 70
0
 71
3
 72
17
 73
13
 74
0
 42
0.0000001
 43
0.0000001
 44
0.0000000001
 40
0.0
 40
0.0
 40
0.0
 40
0.0
 40
0.1286870891
 40
0.2702754082
 40
0.4174294239
 40
0.5617774407
 40
0.6954474268
 40
0.8127122356
 40
0.8646763344
 40
0.9125097557
 40
0.957139577
 40
1.0
 40
1.0
 40
1.0
 40
1.0
 10
381.1877959716
 20
514.47601613
 30
0.0
 10
381.1877959716
 20
515.0529680503
 30
0.0
 10
381.0263689976
 20
516.2660893579
 30
0.0
 10
380.4240097891
 20
518.0473367562
 30
0.0
 10
379.4956126385
 20
519.7632093644
 30
0.0
 10
378.3160807427
 20
521.2731188746
 30
0.0
 10
376.9815698899
 20
522.4549401115
 30
0.0
 10
375.7737382193
 20
523.1154050149
 30
0.0
 10
374.8288947176
 20
523.3667674726
 30
0.0
 10
374.1786114774
 20
523.4145687378
 30
0.0
 10
373.5730846272
 20
523.325844322
 30
0.0
 10
373.2062399431
 20
523.1733927059
 30
0.0
 10
373.0398245282
 20
523.0773143335
 30
0.0
  0
SPLINE
  5
497
100
AcDbEntity
  8
00_COMPONENTS_4
100
AcDbSpline
 62
7
  6
CONTINUOUS
 70
0
 71
3
 72
17
 73
13
 74
0
 42
0.0000001
 43
0.0000001
 44
0.0000000001
 40
0.0
 40
0.0
 40
0.0
 40
0.0
 40
0.1286870891
 40
0.2702754082
 40
0.4174294239
 40
0.5617774407
 40
0.6954474268
 40
0.8127122356
 40
0.8646763344
 40
0.9125097557
 40
0.957139577
 40
1.0
 40
1.0
 40
1.0
 40
1.0
 10
381.1877959716
 20
489.9809436161
 30
0.0
 10
381.1877959716
 20
490.5578955364
 30
0.0
 10
381.0263689976
 20
491.771016844
 30
0.0
 10
380.4240097891
 20
493.5522642424
 30
0.0
 10
379.4956126385
 20
495.2681368505
 30
0.0
 10
378.3160807427
 20
496.7780463607
 30
0.0
 10
376.9815698899
 20
497.9598675976
 30
0.0
 10
375.7737382193
 20
498.620332501
 30
0.0
 10
374.8288947176
 20
498.8716949587
 30
0.0
 10
374.1786114774
 20
498.9194962239
 30
0.0
 10
373.5730846272
 20
498.8307718081
 30
0.0
 10
373.2062399431
 20
498.678320192
 30
0.0
 10
373.0398245282
 20
498.5822418196
 30
0.0
  0
SPLINE
  5
498
100
AcDbEntity
  8
00_COMPONENTS_4
100
AcDbSpline
 62
7
  6
CONTINUOUS
 70
0
 71
3
 72
11
 73
7
 74
0
 42
0.0000001
 43
0.0000001
 44
0.0000000001
 40
0.0
 40
0.0
 40
0.0
 40
0.0
 40
0.2177674359
 40
0.4509468634
 40
0.7101997378
 40
1.0
 40
1.0
 40
1.0
 40
1.0
 10
379.7897861256
 20
486.8908955986
 30
0.0
 10
380.0124337665
 20
487.0194391171
 30
0.0
 10
380.4291554035
 20
487.369602083
 30
0.0
 10
380.872423663
 20
488.094789223
 30
0.0
 10
381.1361258479
 20
488.9883773751
 30
0.0
 10
381.1877959716
 20
489.6388133613
 30
0.0
 10
381.1877959716
 20
489.9809436161
 30
0.0
  0
SPLINE
  5
499
100
AcDbEntity
  8
00_COMPONENTS_4
100
AcDbSpline
 62
7
  6
CONTINUOUS
 70
0
 71
3
 72
11
 73
7
 74
0
 42
0.0000001
 43
0.0000001
 44
0.0000000001
 40
0.0
 40
0.0
 40
0.0
 40
0.0
 40
0.2437552288
 40
0.4999955722
 40
0.7562401671
 40
1.0
 40
1.0
 40
1.0
 40
1.0
 10
380.9478518083
 20
491.2948939188
 30
0.0
 10
380.507006087
 20
491.6727636288
 30
0.0
 10
379.6783198633
 20
492.5384292153
 30
0.0
 10
378.6557985004
 20
494.0299237264
 30
0.0
 10
377.8753014315
 20
495.6611623273
 30
0.0
 10
377.5398042695
 20
496.8116386432
 30
0.0
 10
377.4329501634
 20
497.382362222
 30
0.0
  0
SPLINE
  5
49A
100
AcDbEntity
  8
00_COMPONENTS_4
100
AcDbSpline
 62
7
  6
CONTINUOUS
 70
0
 71
3
 72
11
 73
7
 74
0
 42
0.0000001
 43
0.0000001
 44
0.0000000001
 40
0.0
 40
0.0
 40
0.0
 40
0.0
 40
0.2177674359
 40
0.4509468634
 40
0.7101997378
 40
1.0
 40
1.0
 40
1.0
 40
1.0
 10
379.7897861256
 20
511.3859681125
 30
0.0
 10
380.0124337665
 20
511.514511631
 30
0.0
 10
380.4291554035
 20
511.8646745969
 30
0.0
 10
380.872423663
 20
512.5898617369
 30
0.0
 10
381.1361258479
 20
513.483449889
 30
0.0
 10
381.1877959716
 20
514.1338858752
 30
0.0
 10
381.1877959716
 20
514.47601613
 30
0.0
  0
SPLINE
  5
49B
100
AcDbEntity
  8
00_COMPONENTS_4
100
AcDbSpline
 62
7
  6
CONTINUOUS
 70
0
 71
3
 72
11
 73
7
 74
0
 42
0.0000001
 43
0.0000001
 44
0.0000000001
 40
0.0
 40
0.0
 40
0.0
 40
0.0
 40
0.2437552288
 40
0.4999955722
 40
0.7562401671
 40
1.0
 40
1.0
 40
1.0
 40
1.0
 10
380.9478518083
 20
515.7899664327
 30
0.0
 10
380.507006087
 20
516.1678361426
 30
0.0
 10
379.6783198633
 20
517.0335017292
 30
0.0
 10
378.6557985004
 20
518.5249962403
 30
0.0
 10
377.8753014315
 20
520.1562348412
 30
0.0
 10
377.5398042695
 20
521.3067111571
 30
0.0
 10
377.4329501634
 20
521.8774347359
 30
0.0
  0
SPLINE
  5
49C
100
AcDbEntity
  8
00_COMPONENTS_4
100
AcDbSpline
 62
7
  6
CONTINUOUS
 70
0
 71
3
 72
11
 73
7
 74
0
 42
0.0000001
 43
0.0000001
 44
0.0000000001
 40
0.0
 40
0.0
 40
0.0
 40
0.0
 40
0.2177674359
 40
0.4509468634
 40
0.7101997378
 40
1.0
 40
1.0
 40
1.0
 40
1.0
 10
373.0398245282
 20
523.0773143335
 30
0.0
 10
372.8171768873
 20
522.948770815
 30
0.0
 10
372.4004552502
 20
522.5986078491
 30
0.0
 10
371.9571869908
 20
521.8734207091
 30
0.0
 10
371.6934848058
 20
520.979832557
 30
0.0
 10
371.6418146821
 20
520.3293965708
 30
0.0
 10
371.6418146821
 20
519.987266316
 30
0.0
  0
SPLINE
  5
49D
100
AcDbEntity
  8
00_COMPONENTS_4
100
AcDbSpline
 62
7
  6
CONTINUOUS
 70
0
 71
3
 72
17
 73
13
 74
0
 42
0.0000001
 43
0.0000001
 44
0.0000000001
 40
0.0
 40
0.0
 40
0.0
 40
0.0
 40
0.1286870891
 40
0.2702754082
 40
0.4174294239
 40
0.5617774407
 40
0.6954474268
 40
0.8127122356
 40
0.8646763344
 40
0.9125097557
 40
0.957139577
 40
1.0
 40
1.0
 40
1.0
 40
1.0
 10
371.6418146821
 20
519.987266316
 30
0.0
 10
371.6418146821
 20
519.4103143957
 30
0.0
 10
371.8032416562
 20
518.1971930881
 30
0.0
 10
372.4056008647
 20
516.4159456898
 30
0.0
 10
373.3339980152
 20
514.7000730816
 30
0.0
 10
374.513529911
 20
513.1901635714
 30
0.0
 10
375.8480407638
 20
512.0083423345
 30
0.0
 10
377.0558724345
 20
511.3478774311
 30
0.0
 10
378.0007159361
 20
511.0965149734
 30
0.0
 10
378.6509991764
 20
511.0487137082
 30
0.0
 10
379.2565260266
 20
511.137438124
 30
0.0
 10
379.6233707106
 20
511.2898897401
 30
0.0
 10
379.7897861256
 20
511.3859681125
 30
0.0
  0
SPLINE
  5
49E
100
AcDbEntity
  8
00_COMPONENTS_4
100
AcDbSpline
 62
7
  6
CONTINUOUS
 70
0
 71
3
 72
11
 73
7
 74
0
 42
0.0000001
 43
0.0000001
 44
0.0000000001
 40
0.0
 40
0.0
 40
0.0
 40
0.0
 40
0.2177674359
 40
0.4509468634
 40
0.7101997378
 40
1.0
 40
1.0
 40
1.0
 40
1.0
 10
373.0398245282
 20
498.5822418196
 30
0.0
 10
372.8171768873
 20
498.4536983011
 30
0.0
 10
372.4004552502
 20
498.1035353352
 30
0.0
 10
371.9571869908
 20
497.3783481952
 30
0.0
 10
371.6934848058
 20
496.4847600431
 30
0.0
 10
371.6418146821
 20
495.8343240569
 30
0.0
 10
371.6418146821
 20
495.4921938021
 30
0.0
  0
SPLINE
  5
49F
100
AcDbEntity
  8
00_COMPONENTS_4
100
AcDbSpline
 62
7
  6
CONTINUOUS
 70
0
 71
3
 72
17
 73
13
 74
0
 42
0.0000001
 43
0.0000001
 44
0.0000000001
 40
0.0
 40
0.0
 40
0.0
 40
0.0
 40
0.1286870891
 40
0.2702754082
 40
0.4174294239
 40
0.5617774407
 40
0.6954474268
 40
0.8127122356
 40
0.8646763344
 40
0.9125097557
 40
0.957139577
 40
1.0
 40
1.0
 40
1.0
 40
1.0
 10
371.6418146821
 20
495.4921938021
 30
0.0
 10
371.6418146821
 20
494.9152418818
 30
0.0
 10
371.8032416562
 20
493.7021205742
 30
0.0
 10
372.4056008647
 20
491.9208731759
 30
0.0
 10
373.3339980152
 20
490.2050005677
 30
0.0
 10
374.513529911
 20
488.6950910575
 30
0.0
 10
375.8480407638
 20
487.5132698206
 30
0.0
 10
377.0558724345
 20
486.8528049172
 30
0.0
 10
378.0007159361
 20
486.6014424595
 30
0.0
 10
378.6509991764
 20
486.5536411943
 30
0.0
 10
379.2565260266
 20
486.6423656101
 30
0.0
 10
379.6233707106
 20
486.7948172262
 30
0.0
 10
379.7897861256
 20
486.8908955986
 30
0.0
  0
SPLINE
  5
4A0
100
AcDbEntity
  8
00_COMPONENTS_4
100
AcDbSpline
 62
7
  6
CONTINUOUS
 70
0
 71
3
 72
17
 73
13
 74
0
 42
0.0000001
 43
0.0000001
 44
0.0000000001
 40
0.0
 40
0.0
 40
0.0
 40
0.0
 40
0.1286870891
 40
0.2702754082
 40
0.4174294239
 40
0.5617774407
 40
0.6954474268
 40
0.8127122356
 40
0.8646763344
 40
0.9125097557
 40
0.957139577
 40
1.0
 40
1.0
 40
1.0
 40
1.0
 10
317.5479207084
 20
551.2176840368
 30
0.0
 10
317.5479207084
 20
551.7946359571
 30
0.0
 10
317.3864937343
 20
553.0077572647
 30
0.0
 10
316.7841345258
 20
554.7890046631
 30
0.0
 10
315.8557373753
 20
556.5048772712
 30
0.0
 10
314.6762054795
 20
558.0147867814
 30
0.0
 10
313.3416946267
 20
559.1966080183
 30
0.0
 10
312.1338629561
 20
559.8570729217
 30
0.0
 10
311.1890194544
 20
560.1084353794
 30
0.0
 10
310.5387362142
 20
560.1562366446
 30
0.0
 10
309.933209364
 20
560.0675122288
 30
0.0
 10
309.5663646799
 20
559.9150606128
 30
0.0
 10
309.399949265
 20
559.8189822403
 30
0.0
  0
SPLINE
  5
4A1
100
AcDbEntity
  8
00_COMPONENTS_4
100
AcDbSpline
 62
7
  6
CONTINUOUS
 70
0
 71
3
 72
11
 73
7
 74
0
 42
0.0000001
 43
0.0000001
 44
0.0000000001
 40
0.0
 40
0.0
 40
0.0
 40
0.0
 40
0.2177674359
 40
0.4509468634
 40
0.7101997378
 40
1.0
 40
1.0
 40
1.0
 40
1.0
 10
316.1499108623
 20
548.1276360193
 30
0.0
 10
316.3725585032
 20
548.2561795378
 30
0.0
 10
316.7892801403
 20
548.6063425037
 30
0.0
 10
317.2325483998
 20
549.3315296438
 30
0.0
 10
317.4962505847
 20
550.2251177958
 30
0.0
 10
317.5479207084
 20
550.875553782
 30
0.0
 10
317.5479207084
 20
551.2176840368
 30
0.0
  0
SPLINE
  5
4A2
100
AcDbEntity
  8
00_COMPONENTS_4
100
AcDbSpline
 62
7
  6
CONTINUOUS
 70
0
 71
3
 72
11
 73
7
 74
0
 42
0.0000001
 43
0.0000001
 44
0.0000000001
 40
0.0
 40
0.0
 40
0.0
 40
0.0
 40
0.2437552288
 40
0.4999955722
 40
0.7562401671
 40
1.0
 40
1.0
 40
1.0
 40
1.0
 10
317.3079765451
 20
552.5316343395
 30
0.0
 10
316.8671308238
 20
552.9095040495
 30
0.0
 10
316.0384446001
 20
553.775169636
 30
0.0
 10
315.0159232372
 20
555.2666641471
 30
0.0
 10
314.2354261683
 20
556.897902748
 30
0.0
 10
313.8999290063
 20
558.0483790639
 30
0.0
 10
313.7930749002
 20
558.6191026427
 30
0.0
  0
SPLINE
  5
4A3
100
AcDbEntity
  8
00_COMPONENTS_4
100
AcDbSpline
 62
7
  6
CONTINUOUS
 70
0
 71
3
 72
11
 73
7
 74
0
 42
0.0000001
 43
0.0000001
 44
0.0000000001
 40
0.0
 40
0.0
 40
0.0
 40
0.0
 40
0.2177674359
 40
0.4509468634
 40
0.7101997378
 40
1.0
 40
1.0
 40
1.0
 40
1.0
 10
309.399949265
 20
559.8189822403
 30
0.0
 10
309.1773016241
 20
559.6904387218
 30
0.0
 10
308.760579987
 20
559.3402757559
 30
0.0
 10
308.3173117275
 20
558.6150886159
 30
0.0
 10
308.0536095426
 20
557.7215004638
 30
0.0
 10
308.0019394189
 20
557.0710644776
 30
0.0
 10
308.0019394189
 20
556.7289342228
 30
0.0
  0
SPLINE
  5
4A4
100
AcDbEntity
  8
00_COMPONENTS_4
100
AcDbSpline
 62
7
  6
CONTINUOUS
 70
0
 71
3
 72
17
 73
13
 74
0
 42
0.0000001
 43
0.0000001
 44
0.0000000001
 40
0.0
 40
0.0
 40
0.0
 40
0.0
 40
0.1286870891
 40
0.2702754082
 40
0.4174294239
 40
0.5617774407
 40
0.6954474268
 40
0.8127122356
 40
0.8646763344
 40
0.9125097557
 40
0.957139577
 40
1.0
 40
1.0
 40
1.0
 40
1.0
 10
308.0019394189
 20
556.7289342228
 30
0.0
 10
308.0019394189
 20
556.1519823025
 30
0.0
 10
308.163366393
 20
554.938860995
 30
0.0
 10
308.7657256015
 20
553.1576135966
 30
0.0
 10
309.694122752
 20
551.4417409884
 30
0.0
 10
310.8736546478
 20
549.9318314783
 30
0.0
 10
312.2081655006
 20
548.7500102413
 30
0.0
 10
313.4159971712
 20
548.0895453379
 30
0.0
 10
314.3608406729
 20
547.8381828802
 30
0.0
 10
315.0111239131
 20
547.790381615
 30
0.0
 10
315.6166507633
 20
547.8791060308
 30
0.0
 10
315.9834954474
 20
548.0315576469
 30
0.0
 10
316.1499108623
 20
548.1276360193
 30
0.0
  0
SPLINE
  5
4A5
100
AcDbEntity
  8
00_COMPONENTS_4
100
AcDbSpline
 62
7
  6
CONTINUOUS
 70
0
 71
3
 72
17
 73
13
 74
0
 42
0.0000001
 43
0.0000001
 44
0.0000000001
 40
0.0
 40
0.0
 40
0.0
 40
0.0
 40
0.1286870891
 40
0.2702754082
 40
0.4174294239
 40
0.5617774407
 40
0.6954474268
 40
0.8127122356
 40
0.8646763344
 40
0.9125097557
 40
0.957139577
 40
1.0
 40
1.0
 40
1.0
 40
1.0
 10
419.3717211296
 20
492.4310153859
 30
0.0
 10
419.3717211296
 20
493.0079673062
 30
0.0
 10
419.2102941555
 20
494.2210886138
 30
0.0
 10
418.607934947
 20
496.0023360121
 30
0.0
 10
417.6795377965
 20
497.7182086203
 30
0.0
 10
416.5000059006
 20
499.2281181305
 30
0.0
 10
415.1654950479
 20
500.4099393674
 30
0.0
 10
413.9576633772
 20
501.0704042708
 30
0.0
 10
413.0128198756
 20
501.3217667285
 30
0.0
 10
412.3625366353
 20
501.3695679937
 30
0.0
 10
411.7570097851
 20
501.2808435779
 30
0.0
 10
411.3901651011
 20
501.1283919618
 30
0.0
 10
411.2237496861
 20
501.0323135894
 30
0.0
  0
SPLINE
  5
4A6
100
AcDbEntity
  8
00_COMPONENTS_4
100
AcDbSpline
 62
7
  6
CONTINUOUS
 70
0
 71
3
 72
17
 73
13
 74
0
 42
0.0000001
 43
0.0000001
 44
0.0000000001
 40
0.0
 40
0.0
 40
0.0
 40
0.0
 40
0.1286870891
 40
0.2702754082
 40
0.4174294239
 40
0.5617774407
 40
0.6954474268
 40
0.8127122356
 40
0.8646763344
 40
0.9125097557
 40
0.957139577
 40
1.0
 40
1.0
 40
1.0
 40
1.0
 10
419.3717211296
 20
467.935942872
 30
0.0
 10
419.3717211296
 20
468.5128947923
 30
0.0
 10
419.2102941555
 20
469.7260160999
 30
0.0
 10
418.607934947
 20
471.5072634983
 30
0.0
 10
417.6795377965
 20
473.2231361064
 30
0.0
 10
416.5000059006
 20
474.7330456166
 30
0.0
 10
415.1654950479
 20
475.9148668535
 30
0.0
 10
413.9576633772
 20
476.5753317569
 30
0.0
 10
413.0128198756
 20
476.8266942146
 30
0.0
 10
412.3625366353
 20
476.8744954798
 30
0.0
 10
411.7570097851
 20
476.785771064
 30
0.0
 10
411.3901651011
 20
476.6333194479
 30
0.0
 10
411.2237496861
 20
476.5372410755
 30
0.0
  0
SPLINE
  5
4A7
100
AcDbEntity
  8
00_COMPONENTS_4
100
AcDbSpline
 62
7
  6
CONTINUOUS
 70
0
 71
3
 72
11
 73
7
 74
0
 42
0.0000001
 43
0.0000001
 44
0.0000000001
 40
0.0
 40
0.0
 40
0.0
 40
0.0
 40
0.2177674359
 40
0.4509468634
 40
0.7101997378
 40
1.0
 40
1.0
 40
1.0
 40
1.0
 10
417.9737112835
 20
464.8458948545
 30
0.0
 10
418.1963589244
 20
464.974438373
 30
0.0
 10
418.6130805615
 20
465.3246013389
 30
0.0
 10
419.0563488209
 20
466.0497884789
 30
0.0
 10
419.3200510059
 20
466.943376631
 30
0.0
 10
419.3717211296
 20
467.5938126172
 30
0.0
 10
419.3717211296
 20
467.935942872
 30
0.0
  0
SPLINE
  5
4A8
100
AcDbEntity
  8
00_COMPONENTS_4
100
AcDbSpline
 62
7
  6
CONTINUOUS
 70
0
 71
3
 72
11
 73
7
 74
0
 42
0.0000001
 43
0.0000001
 44
0.0000000001
 40
0.0
 40
0.0
 40
0.0
 40
0.0
 40
0.2437552288
 40
0.4999955722
 40
0.7562401671
 40
1.0
 40
1.0
 40
1.0
 40
1.0
 10
419.1317769662
 20
469.2498931747
 30
0.0
 10
418.6909312449
 20
469.6277628847
 30
0.0
 10
417.8622450212
 20
470.4934284712
 30
0.0
 10
416.8397236583
 20
471.9849229823
 30
0.0
 10
416.0592265895
 20
473.6161615832
 30
0.0
 10
415.7237294275
 20
474.7666378991
 30
0.0
 10
415.6168753213
 20
475.3373614779
 30
0.0
  0
SPLINE
  5
4A9
100
AcDbEntity
  8
00_COMPONENTS_4
100
AcDbSpline
 62
7
  6
CONTINUOUS
 70
0
 71
3
 72
11
 73
7
 74
0
 42
0.0000001
 43
0.0000001
 44
0.0000000001
 40
0.0
 40
0.0
 40
0.0
 40
0.0
 40
0.2177674359
 40
0.4509468634
 40
0.7101997378
 40
1.0
 40
1.0
 40
1.0
 40
1.0
 10
417.9737112835
 20
489.3409673684
 30
0.0
 10
418.1963589244
 20
489.4695108869
 30
0.0
 10
418.6130805615
 20
489.8196738528
 30
0.0
 10
419.0563488209
 20
490.5448609928
 30
0.0
 10
419.3200510059
 20
491.4384491449
 30
0.0
 10
419.3717211296
 20
492.0888851311
 30
0.0
 10
419.3717211296
 20
492.4310153859
 30
0.0
  0
SPLINE
  5
4AA
100
AcDbEntity
  8
00_COMPONENTS_4
100
AcDbSpline
 62
7
  6
CONTINUOUS
 70
0
 71
3
 72
11
 73
7
 74
0
 42
0.0000001
 43
0.0000001
 44
0.0000000001
 40
0.0
 40
0.0
 40
0.0
 40
0.0
 40
0.2437552288
 40
0.4999955722
 40
0.7562401671
 40
1.0
 40
1.0
 40
1.0
 40
1.0
 10
419.1317769662
 20
493.7449656886
 30
0.0
 10
418.6909312449
 20
494.1228353986
 30
0.0
 10
417.8622450212
 20
494.9885009851
 30
0.0
 10
416.8397236583
 20
496.4799954962
 30
0.0
 10
416.0592265895
 20
498.1112340971
 30
0.0
 10
415.7237294275
 20
499.261710413
 30
0.0
 10
415.6168753213
 20
499.8324339918
 30
0.0
  0
SPLINE
  5
4AB
100
AcDbEntity
  8
00_COMPONENTS_4
100
AcDbSpline
 62
7
  6
CONTINUOUS
 70
0
 71
3
 72
17
 73
13
 74
0
 42
0.0000001
 43
0.0000001
 44
0.0000000001
 40
0.0
 40
0.0
 40
0.0
 40
0.0
 40
0.1286870891
 40
0.2702754082
 40
0.4174294239
 40
0.5617774407
 40
0.6954474268
 40
0.8127122356
 40
0.8646763344
 40
0.9125097557
 40
0.957139577
 40
1.0
 40
1.0
 40
1.0
 40
1.0
 10
409.8257398401
 20
473.447193058
 30
0.0
 10
409.8257398401
 20
472.8702411377
 30
0.0
 10
409.9871668141
 20
471.6571198301
 30
0.0
 10
410.5895260226
 20
469.8758724318
 30
0.0
 10
411.5179231732
 20
468.1599998236
 30
0.0
 10
412.697455069
 20
466.6500903134
 30
0.0
 10
414.0319659218
 20
465.4682690765
 30
0.0
 10
415.2397975924
 20
464.8078041731
 30
0.0
 10
416.1846410941
 20
464.5564417154
 30
0.0
 10
416.8349243343
 20
464.5086404502
 30
0.0
 10
417.4404511845
 20
464.597364866
 30
0.0
 10
417.8072958686
 20
464.7498164821
 30
0.0
 10
417.9737112835
 20
464.8458948545
 30
0.0
  0
SPLINE
  5
4AC
100
AcDbEntity
  8
00_COMPONENTS_4
100
AcDbSpline
 62
7
  6
CONTINUOUS
 70
0
 71
3
 72
11
 73
7
 74
0
 42
0.0000001
 43
0.0000001
 44
0.0000000001
 40
0.0
 40
0.0
 40
0.0
 40
0.0
 40
0.2177674359
 40
0.4509468634
 40
0.7101997378
 40
1.0
 40
1.0
 40
1.0
 40
1.0
 10
411.2237496861
 20
476.5372410755
 30
0.0
 10
411.0011020452
 20
476.408697557
 30
0.0
 10
410.5843804082
 20
476.0585345911
 30
0.0
 10
410.1411121487
 20
475.3333474511
 30
0.0
 10
409.8774099638
 20
474.439759299
 30
0.0
 10
409.8257398401
 20
473.7893233128
 30
0.0
 10
409.8257398401
 20
473.447193058
 30
0.0
  0
SPLINE
  5
4AD
100
AcDbEntity
  8
00_COMPONENTS_4
100
AcDbSpline
 62
7
  6
CONTINUOUS
 70
0
 71
3
 72
11
 73
7
 74
0
 42
0.0000001
 43
0.0000001
 44
0.0000000001
 40
0.0
 40
0.0
 40
0.0
 40
0.0
 40
0.2177674359
 40
0.4509468634
 40
0.7101997378
 40
1.0
 40
1.0
 40
1.0
 40
1.0
 10
411.2237496861
 20
501.0323135894
 30
0.0
 10
411.0011020452
 20
500.9037700709
 30
0.0
 10
410.5843804082
 20
500.553607105
 30
0.0
 10
410.1411121487
 20
499.828419965
 30
0.0
 10
409.8774099638
 20
498.9348318129
 30
0.0
 10
409.8257398401
 20
498.2843958267
 30
0.0
 10
409.8257398401
 20
497.9422655719
 30
0.0
  0
SPLINE
  5
4AE
100
AcDbEntity
  8
00_COMPONENTS_4
100
AcDbSpline
 62
7
  6
CONTINUOUS
 70
0
 71
3
 72
17
 73
13
 74
0
 42
0.0000001
 43
0.0000001
 44
0.0000000001
 40
0.0
 40
0.0
 40
0.0
 40
0.0
 40
0.1286870891
 40
0.2702754082
 40
0.4174294239
 40
0.5617774407
 40
0.6954474268
 40
0.8127122356
 40
0.8646763344
 40
0.9125097557
 40
0.957139577
 40
1.0
 40
1.0
 40
1.0
 40
1.0
 10
409.8257398401
 20
497.9422655719
 30
0.0
 10
409.8257398401
 20
497.3653136516
 30
0.0
 10
409.9871668141
 20
496.152192344
 30
0.0
 10
410.5895260226
 20
494.3709449457
 30
0.0
 10
411.5179231732
 20
492.6550723375
 30
0.0
 10
412.697455069
 20
491.1451628273
 30
0.0
 10
414.0319659218
 20
489.9633415904
 30
0.0
 10
415.2397975924
 20
489.302876687
 30
0.0
 10
416.1846410941
 20
489.0515142293
 30
0.0
 10
416.8349243343
 20
489.0037129641
 30
0.0
 10
417.4404511845
 20
489.0924373799
 30
0.0
 10
417.8072958686
 20
489.244888996
 30
0.0
 10
417.9737112835
 20
489.3409673684
 30
0.0
  0
SPLINE
  5
4AF
100
AcDbEntity
  8
00_COMPONENTS
100
AcDbSpline
 62
7
  6
CONTINUOUS
 70
0
 71
3
 72
13
 73
9
 74
0
 42
0.0000001
 43
0.0000001
 44
0.0000000001
 40
0.0
 40
0.0
 40
0.0
 40
0.0
 40
0.2698707541
 40
0.5613132513
 40
0.6954576119
 40
0.8131359393
 40
0.9128516444
 40
1.0
 40
1.0
 40
1.0
 40
1.0
 10
124.1186459541
 20
512.4123030853
 30
0.0
 10
124.1186459541
 20
513.2160782078
 30
0.0
 10
123.6767172428
 20
514.8824348702
 30
0.0
 10
122.5323777253
 20
516.6513683133
 30
0.0
 10
121.3140667762
 20
517.7321307932
 30
0.0
 10
120.3851954235
 20
518.2392672955
 30
0.0
 10
119.4762657073
 20
518.4213281345
 30
0.0
 10
118.9114440895
 20
518.2762938393
 30
0.0
 10
118.6867096843
 20
518.1464250858
 30
0.0
  0
SPLINE
  5
4B0
100
AcDbEntity
  8
00_COMPONENTS
100
AcDbSpline
 62
7
  6
CONTINUOUS
 70
0
 71
3
 72
13
 73
9
 74
0
 42
0.0000001
 43
0.0000001
 44
0.0000000001
 40
0.0
 40
0.0
 40
0.0
 40
0.0
 40
0.2698707541
 40
0.5613132513
 40
0.6954576119
 40
0.8131359393
 40
0.9128516444
 40
1.0
 40
1.0
 40
1.0
 40
1.0
 10
175.0305461647
 20
483.0189687598
 30
0.0
 10
175.0305461647
 20
483.8227438823
 30
0.0
 10
174.5886174534
 20
485.4891005448
 30
0.0
 10
173.4442779359
 20
487.2580339878
 30
0.0
 10
172.2259669867
 20
488.3387964677
 30
0.0
 10
171.2970956341
 20
488.84593297
 30
0.0
 10
170.3881659179
 20
489.0279938091
 30
0.0
 10
169.8233443001
 20
488.8829595138
 30
0.0
 10
169.5986098949
 20
488.7530907603
 30
0.0
  0
SPLINE
  5
4B1
100
AcDbEntity
  8
00_COMPONENTS
100
AcDbSpline
 62
7
  6
CONTINUOUS
 70
0
 71
3
 72
13
 73
9
 74
0
 42
0.0000001
 43
0.0000001
 44
0.0000000001
 40
0.0
 40
0.0
 40
0.0
 40
0.0
 40
0.2698707541
 40
0.5613132513
 40
0.6954576119
 40
0.8131359393
 40
0.9128516444
 40
1.0
 40
1.0
 40
1.0
 40
1.0
 10
175.0305461647
 20
355.6445916876
 30
0.0
 10
175.0305461647
 20
356.4483668101
 30
0.0
 10
174.5886174534
 20
358.1147234725
 30
0.0
 10
173.4442779359
 20
359.8836569156
 30
0.0
 10
172.2259669867
 20
360.9644193955
 30
0.0
 10
171.2970956341
 20
361.4715558978
 30
0.0
 10
170.3881659179
 20
361.6536167369
 30
0.0
 10
169.8233443001
 20
361.5085824416
 30
0.0
 10
169.5986098949
 20
361.3787136881
 30
0.0
  0
SPLINE
  5
4B2
100
AcDbEntity
  8
00_COMPONENTS
100
AcDbSpline
 62
7
  6
CONTINUOUS
 70
0
 71
3
 72
13
 73
9
 74
0
 42
0.0000001
 43
0.0000001
 44
0.0000000001
 40
0.0
 40
0.0
 40
0.0
 40
0.0
 40
0.2698707541
 40
0.5613132513
 40
0.6954576119
 40
0.8131359393
 40
0.9128516444
 40
1.0
 40
1.0
 40
1.0
 40
1.0
 10
124.1186459541
 20
385.037926013
 30
0.0
 10
124.1186459541
 20
385.8417011356
 30
0.0
 10
123.6767172428
 20
387.508057798
 30
0.0
 10
122.5323777253
 20
389.276991241
 30
0.0
 10
121.3140667762
 20
390.357753721
 30
0.0
 10
120.3851954235
 20
390.8648902232
 30
0.0
 10
119.4762657073
 20
391.0469510623
 30
0.0
 10
118.9114440895
 20
390.901916767
 30
0.0
 10
118.6867096843
 20
390.7720480136
 30
0.0
  0
SPLINE
  5
4B3
100
AcDbEntity
  8
00_COMPONENTS
100
AcDbSpline
 62
7
  6
CONTINUOUS
 70
0
 71
3
 72
10
 73
6
 74
0
 42
0.0000001
 43
0.0000001
 44
0.0000000001
 40
0.0
 40
0.0
 40
0.0
 40
0.0
 40
0.2184275509
 40
0.4522666142
 40
1.0
 40
1.0
 40
1.0
 40
1.0
 10
123.1865946977
 20
382.9779708032
 30
0.0
 10
123.3349880012
 20
383.0637238206
 30
0.0
 10
123.612960337
 20
383.2970529523
 30
0.0
 10
124.0271833728
 20
383.9752224546
 30
0.0
 10
124.1186459541
 20
384.608147727
 30
0.0
 10
124.1186459541
 20
385.037926013
 30
0.0
  0
SPLINE
  5
4B4
100
AcDbEntity
  8
00_COMPONENTS
100
AcDbSpline
 62
7
  6
CONTINUOUS
 70
0
 71
3
 72
10
 73
6
 74
0
 42
0.0000001
 43
0.0000001
 44
0.0000000001
 40
0.0
 40
0.0
 40
0.0
 40
0.0
 40
0.2184275509
 40
0.4522666142
 40
1.0
 40
1.0
 40
1.0
 40
1.0
 10
174.0984949082
 20
353.5846364777
 30
0.0
 10
174.2468882118
 20
353.6703894951
 30
0.0
 10
174.5248605476
 20
353.9037186268
 30
0.0
 10
174.9390835834
 20
354.5818881291
 30
0.0
 10
175.0305461647
 20
355.2148134015
 30
0.0
 10
175.0305461647
 20
355.6445916876
 30
0.0
  0
SPLINE
  5
4B5
100
AcDbEntity
  8
00_COMPONENTS
100
AcDbSpline
 62
7
  6
CONTINUOUS
 70
0
 71
3
 72
10
 73
6
 74
0
 42
0.0000001
 43
0.0000001
 44
0.0000000001
 40
0.0
 40
0.0
 40
0.0
 40
0.0
 40
0.2184275509
 40
0.4522666142
 40
1.0
 40
1.0
 40
1.0
 40
1.0
 10
174.0984949082
 20
480.95901355
 30
0.0
 10
174.2468882118
 20
481.0447665673
 30
0.0
 10
174.5248605476
 20
481.278095699
 30
0.0
 10
174.9390835834
 20
481.9562652014
 30
0.0
 10
175.0305461647
 20
482.5891904738
 30
0.0
 10
175.0305461647
 20
483.0189687598
 30
0.0
  0
SPLINE
  5
4B6
100
AcDbEntity
  8
00_COMPONENTS
100
AcDbSpline
 62
7
  6
CONTINUOUS
 70
0
 71
3
 72
10
 73
6
 74
0
 42
0.0000001
 43
0.0000001
 44
0.0000000001
 40
0.0
 40
0.0
 40
0.0
 40
0.0
 40
0.2184275509
 40
0.4522666142
 40
1.0
 40
1.0
 40
1.0
 40
1.0
 10
123.1865946977
 20
510.3523478754
 30
0.0
 10
123.3349880012
 20
510.4381008928
 30
0.0
 10
123.612960337
 20
510.6714300245
 30
0.0
 10
124.0271833728
 20
511.3495995268
 30
0.0
 10
124.1186459541
 20
511.9825247992
 30
0.0
 10
124.1186459541
 20
512.4123030853
 30
0.0
  0
SPLINE
  5
4B7
100
AcDbEntity
  8
00_COMPONENTS
100
AcDbSpline
 62
7
  6
CONTINUOUS
 70
0
 71
3
 72
10
 73
6
 74
0
 42
0.0000001
 43
0.0000001
 44
0.0000000001
 40
0.0
 40
0.0
 40
0.0
 40
0.0
 40
0.2184275509
 40
0.4522666142
 40
1.0
 40
1.0
 40
1.0
 40
1.0
 10
169.5986098949
 20
488.7530907603
 30
0.0
 10
169.4502165913
 20
488.667337743
 30
0.0
 10
169.1722442555
 20
488.4340086113
 30
0.0
 10
168.7580212197
 20
487.7558391089
 30
0.0
 10
168.6665586384
 20
487.1229138365
 30
0.0
 10
168.6665586384
 20
486.6931355505
 30
0.0
  0
SPLINE
  5
4B8
100
AcDbEntity
  8
00_COMPONENTS
100
AcDbSpline
 62
7
  6
CONTINUOUS
 70
0
 71
3
 72
13
 73
9
 74
0
 42
0.0000001
 43
0.0000001
 44
0.0000000001
 40
0.0
 40
0.0
 40
0.0
 40
0.0
 40
0.2698707541
 40
0.5613132513
 40
0.6954576119
 40
0.8131359393
 40
0.9128516444
 40
1.0
 40
1.0
 40
1.0
 40
1.0
 10
168.6665586384
 20
359.3187584783
 30
0.0
 10
168.6665586384
 20
358.5149833557
 30
0.0
 10
169.1084873497
 20
356.8486266933
 30
0.0
 10
170.2528268672
 20
355.0796932503
 30
0.0
 10
171.4711378163
 20
353.9989307703
 30
0.0
 10
172.400009169
 20
353.4917942681
 30
0.0
 10
173.3089388852
 20
353.309733429
 30
0.0
 10
173.873760503
 20
353.4547677243
 30
0.0
 10
174.0984949082
 20
353.5846364777
 30
0.0
  0
SPLINE
  5
4B9
100
AcDbEntity
  8
00_COMPONENTS
100
AcDbSpline
 62
7
  6
CONTINUOUS
 70
0
 71
3
 72
10
 73
6
 74
0
 42
0.0000001
 43
0.0000001
 44
0.0000000001
 40
0.0
 40
0.0
 40
0.0
 40
0.0
 40
0.2184275509
 40
0.4522666142
 40
1.0
 40
1.0
 40
1.0
 40
1.0
 10
118.6867096843
 20
518.1464250858
 30
0.0
 10
118.5383163807
 20
518.0606720684
 30
0.0
 10
118.2603440449
 20
517.8273429367
 30
0.0
 10
117.8461210091
 20
517.1491734344
 30
0.0
 10
117.7546584278
 20
516.516248162
 30
0.0
 10
117.7546584278
 20
516.086469876
 30
0.0
  0
SPLINE
  5
4BA
100
AcDbEntity
  8
00_COMPONENTS
100
AcDbSpline
 62
7
  6
CONTINUOUS
 70
0
 71
3
 72
13
 73
9
 74
0
 42
0.0000001
 43
0.0000001
 44
0.0000000001
 40
0.0
 40
0.0
 40
0.0
 40
0.0
 40
0.2698707541
 40
0.5613132513
 40
0.6954576119
 40
0.8131359393
 40
0.9128516444
 40
1.0
 40
1.0
 40
1.0
 40
1.0
 10
117.7546584278
 20
516.086469876
 30
0.0
 10
117.7546584278
 20
515.2826947534
 30
0.0
 10
118.1965871392
 20
513.616338091
 30
0.0
 10
119.3409266566
 20
511.847404648
 30
0.0
 10
120.5592376058
 20
510.766642168
 30
0.0
 10
121.4881089584
 20
510.2595056658
 30
0.0
 10
122.3970386747
 20
510.0774448267
 30
0.0
 10
122.9618602924
 20
510.222479122
 30
0.0
 10
123.1865946977
 20
510.3523478754
 30
0.0
  0
SPLINE
  5
4BB
100
AcDbEntity
  8
00_COMPONENTS
100
AcDbSpline
 62
7
  6
CONTINUOUS
 70
0
 71
3
 72
13
 73
9
 74
0
 42
0.0000001
 43
0.0000001
 44
0.0000000001
 40
0.0
 40
0.0
 40
0.0
 40
0.0
 40
0.2698707541
 40
0.5613132513
 40
0.6954576119
 40
0.8131359393
 40
0.9128516444
 40
1.0
 40
1.0
 40
1.0
 40
1.0
 10
117.7546584278
 20
388.7120928037
 30
0.0
 10
117.7546584278
 20
387.9083176812
 30
0.0
 10
118.1965871392
 20
386.2419610188
 30
0.0
 10
119.3409266566
 20
384.4730275757
 30
0.0
 10
120.5592376058
 20
383.3922650958
 30
0.0
 10
121.4881089584
 20
382.8851285935
 30
0.0
 10
122.3970386747
 20
382.7030677545
 30
0.0
 10
122.9618602924
 20
382.8481020497
 30
0.0
 10
123.1865946977
 20
382.9779708032
 30
0.0
  0
SPLINE
  5
4BC
100
AcDbEntity
  8
00_COMPONENTS
100
AcDbSpline
 62
7
  6
CONTINUOUS
 70
0
 71
3
 72
10
 73
6
 74
0
 42
0.0000001
 43
0.0000001
 44
0.0000000001
 40
0.0
 40
0.0
 40
0.0
 40
0.0
 40
0.2184275509
 40
0.4522666142
 40
1.0
 40
1.0
 40
1.0
 40
1.0
 10
118.6867096843
 20
390.7720480136
 30
0.0
 10
118.5383163807
 20
390.6862949962
 30
0.0
 10
118.2603440449
 20
390.4529658645
 30
0.0
 10
117.8461210091
 20
389.7747963622
 30
0.0
 10
117.7546584278
 20
389.1418710898
 30
0.0
 10
117.7546584278
 20
388.7120928037
 30
0.0
  0
SPLINE
  5
4BD
100
AcDbEntity
  8
00_COMPONENTS
100
AcDbSpline
 62
7
  6
CONTINUOUS
 70
0
 71
3
 72
13
 73
9
 74
0
 42
0.0000001
 43
0.0000001
 44
0.0000000001
 40
0.0
 40
0.0
 40
0.0
 40
0.0
 40
0.2698707541
 40
0.5613132513
 40
0.6954576119
 40
0.8131359393
 40
0.9128516444
 40
1.0
 40
1.0
 40
1.0
 40
1.0
 10
168.6665586384
 20
486.6931355505
 30
0.0
 10
168.6665586384
 20
485.889360428
 30
0.0
 10
169.1084873497
 20
484.2230037655
 30
0.0
 10
170.2528268672
 20
482.4540703225
 30
0.0
 10
171.4711378163
 20
481.3733078426
 30
0.0
 10
172.400009169
 20
480.8661713403
 30
0.0
 10
173.3089388852
 20
480.6841105012
 30
0.0
 10
173.873760503
 20
480.8291447965
 30
0.0
 10
174.0984949082
 20
480.95901355
 30
0.0
  0
SPLINE
  5
4BE
100
AcDbEntity
  8
00_COMPONENTS
100
AcDbSpline
 62
7
  6
CONTINUOUS
 70
0
 71
3
 72
10
 73
6
 74
0
 42
0.0000001
 43
0.0000001
 44
0.0000000001
 40
0.0
 40
0.0
 40
0.0
 40
0.0
 40
0.2184275509
 40
0.4522666142
 40
1.0
 40
1.0
 40
1.0
 40
1.0
 10
169.5986098949
 20
361.3787136881
 30
0.0
 10
169.4502165913
 20
361.2929606707
 30
0.0
 10
169.1722442555
 20
361.0596315391
 30
0.0
 10
168.7580212197
 20
360.3814620367
 30
0.0
 10
168.6665586384
 20
359.7485367643
 30
0.0
 10
168.6665586384
 20
359.3187584783
 30
0.0
  0
SPLINE
  5
4BF
100
AcDbEntity
  8
00_COMPONENTS
100
AcDbSpline
 62
7
  6
CONTINUOUS
 70
0
 71
3
 72
13
 73
9
 74
0
 42
0.0000001
 43
0.0000001
 44
0.0000000001
 40
0.0
 40
0.0
 40
0.0
 40
0.0
 40
0.2698707541
 40
0.5613132513
 40
0.6954576119
 40
0.8131359393
 40
0.9128516444
 40
1.0
 40
1.0
 40
1.0
 40
1.0
 10
276.8543465859
 20
424.2323001089
 30
0.0
 10
276.8543465859
 20
425.0360752314
 30
0.0
 10
276.4124178745
 20
426.7024318938
 30
0.0
 10
275.2680783571
 20
428.4713653369
 30
0.0
 10
274.0497674079
 20
429.5521278168
 30
0.0
 10
273.1208960553
 20
430.0592643191
 30
0.0
 10
272.211966339
 20
430.2413251582
 30
0.0
 10
271.6471447213
 20
430.0962908629
 30
0.0
 10
271.422410316
 20
429.9664221094
 30
0.0
  0
SPLINE
  5
4C0
100
AcDbEntity
  8
00_COMPONENTS
100
AcDbSpline
 62
7
  6
CONTINUOUS
 70
0
 71
3
 72
13
 73
9
 74
0
 42
0.0000001
 43
0.0000001
 44
0.0000000001
 40
0.0
 40
0.0
 40
0.0
 40
0.0
 40
0.2698707541
 40
0.5613132513
 40
0.6954576119
 40
0.8131359393
 40
0.9128516444
 40
1.0
 40
1.0
 40
1.0
 40
1.0
 10
327.7662467965
 20
394.8389657834
 30
0.0
 10
327.7662467965
 20
395.642740906
 30
0.0
 10
327.3243180851
 20
397.3090975684
 30
0.0
 10
326.1799785676
 20
399.0780310114
 30
0.0
 10
324.9616676185
 20
400.1587934913
 30
0.0
 10
324.0327962658
 20
400.6659299936
 30
0.0
 10
323.1238665496
 20
400.8479908327
 30
0.0
 10
322.5590449318
 20
400.7029565374
 30
0.0
 10
322.3343105266
 20
400.5730877839
 30
0.0
  0
SPLINE
  5
4C1
100
AcDbEntity
  8
00_COMPONENTS
100
AcDbSpline
 62
7
  6
CONTINUOUS
 70
0
 71
3
 72
13
 73
9
 74
0
 42
0.0000001
 43
0.0000001
 44
0.0000000001
 40
0.0
 40
0.0
 40
0.0
 40
0.0
 40
0.2698707541
 40
0.5613132513
 40
0.6954576119
 40
0.8131359393
 40
0.9128516444
 40
1.0
 40
1.0
 40
1.0
 40
1.0
 10
327.7662467965
 20
267.4645887112
 30
0.0
 10
327.7662467965
 20
268.2683638337
 30
0.0
 10
327.3243180851
 20
269.9347204962
 30
0.0
 10
326.1799785676
 20
271.7036539392
 30
0.0
 10
324.9616676185
 20
272.7844164191
 30
0.0
 10
324.0327962658
 20
273.2915529214
 30
0.0
 10
323.1238665496
 20
273.4736137605
 30
0.0
 10
322.5590449318
 20
273.3285794652
 30
0.0
 10
322.3343105266
 20
273.1987107117
 30
0.0
  0
SPLINE
  5
4C2
100
AcDbEntity
  8
00_COMPONENTS
100
AcDbSpline
 62
7
  6
CONTINUOUS
 70
0
 71
3
 72
13
 73
9
 74
0
 42
0.0000001
 43
0.0000001
 44
0.0000000001
 40
0.0
 40
0.0
 40
0.0
 40
0.0
 40
0.2698707541
 40
0.5613132513
 40
0.6954576119
 40
0.8131359393
 40
0.9128516444
 40
1.0
 40
1.0
 40
1.0
 40
1.0
 10
276.8543465859
 20
296.8579230367
 30
0.0
 10
276.8543465859
 20
297.6616981592
 30
0.0
 10
276.4124178745
 20
299.3280548216
 30
0.0
 10
275.2680783571
 20
301.0969882646
 30
0.0
 10
274.0497674079
 20
302.1777507446
 30
0.0
 10
273.1208960553
 20
302.6848872468
 30
0.0
 10
272.211966339
 20
302.8669480859
 30
0.0
 10
271.6471447213
 20
302.7219137906
 30
0.0
 10
271.422410316
 20
302.5920450372
 30
0.0
  0
SPLINE
  5
4C3
100
AcDbEntity
  8
00_COMPONENTS
100
AcDbSpline
 62
7
  6
CONTINUOUS
 70
0
 71
3
 72
10
 73
6
 74
0
 42
0.0000001
 43
0.0000001
 44
0.0000000001
 40
0.0
 40
0.0
 40
0.0
 40
0.0
 40
0.2184275509
 40
0.4522666142
 40
1.0
 40
1.0
 40
1.0
 40
1.0
 10
275.9222953294
 20
294.7979678268
 30
0.0
 10
276.0706886329
 20
294.8837208442
 30
0.0
 10
276.3486609688
 20
295.1170499759
 30
0.0
 10
276.7628840046
 20
295.7952194782
 30
0.0
 10
276.8543465859
 20
296.4281447506
 30
0.0
 10
276.8543465859
 20
296.8579230367
 30
0.0
  0
SPLINE
  5
4C4
100
AcDbEntity
  8
00_COMPONENTS
100
AcDbSpline
 62
7
  6
CONTINUOUS
 70
0
 71
3
 72
10
 73
6
 74
0
 42
0.0000001
 43
0.0000001
 44
0.0000000001
 40
0.0
 40
0.0
 40
0.0
 40
0.0
 40
0.2184275509
 40
0.4522666142
 40
1.0
 40
1.0
 40
1.0
 40
1.0
 10
326.83419554
 20
265.4046335014
 30
0.0
 10
326.9825888435
 20
265.4903865187
 30
0.0
 10
327.2605611793
 20
265.7237156504
 30
0.0
 10
327.6747842152
 20
266.4018851528
 30
0.0
 10
327.7662467965
 20
267.0348104252
 30
0.0
 10
327.7662467965
 20
267.4645887112
 30
0.0
  0
SPLINE
  5
4C5
100
AcDbEntity
  8
00_COMPONENTS
100
AcDbSpline
 62
7
  6
CONTINUOUS
 70
0
 71
3
 72
10
 73
6
 74
0
 42
0.0000001
 43
0.0000001
 44
0.0000000001
 40
0.0
 40
0.0
 40
0.0
 40
0.0
 40
0.2184275509
 40
0.4522666142
 40
1.0
 40
1.0
 40
1.0
 40
1.0
 10
326.83419554
 20
392.7790105736
 30
0.0
 10
326.9825888435
 20
392.8647635909
 30
0.0
 10
327.2605611793
 20
393.0980927226
 30
0.0
 10
327.6747842152
 20
393.776262225
 30
0.0
 10
327.7662467965
 20
394.4091874974
 30
0.0
 10
327.7662467965
 20
394.8389657834
 30
0.0
  0
SPLINE
  5
4C6
100
AcDbEntity
  8
00_COMPONENTS
100
AcDbSpline
 62
7
  6
CONTINUOUS
 70
0
 71
3
 72
10
 73
6
 74
0
 42
0.0000001
 43
0.0000001
 44
0.0000000001
 40
0.0
 40
0.0
 40
0.0
 40
0.0
 40
0.2184275509
 40
0.4522666142
 40
1.0
 40
1.0
 40
1.0
 40
1.0
 10
275.9222953294
 20
422.1723448991
 30
0.0
 10
276.0706886329
 20
422.2580979164
 30
0.0
 10
276.3486609688
 20
422.4914270481
 30
0.0
 10
276.7628840046
 20
423.1695965505
 30
0.0
 10
276.8543465859
 20
423.8025218229
 30
0.0
 10
276.8543465859
 20
424.2323001089
 30
0.0
  0
SPLINE
  5
4C7
100
AcDbEntity
  8
00_COMPONENTS
100
AcDbSpline
 62
7
  6
CONTINUOUS
 70
0
 71
3
 72
10
 73
6
 74
0
 42
0.0000001
 43
0.0000001
 44
0.0000000001
 40
0.0
 40
0.0
 40
0.0
 40
0.0
 40
0.2184275509
 40
0.4522666142
 40
1.0
 40
1.0
 40
1.0
 40
1.0
 10
322.3343105266
 20
400.5730877839
 30
0.0
 10
322.1859172231
 20
400.4873347666
 30
0.0
 10
321.9079448872
 20
400.2540056349
 30
0.0
 10
321.4937218514
 20
399.5758361325
 30
0.0
 10
321.4022592701
 20
398.9429108601
 30
0.0
 10
321.4022592701
 20
398.5131325741
 30
0.0
  0
SPLINE
  5
4C8
100
AcDbEntity
  8
00_COMPONENTS
100
AcDbSpline
 62
7
  6
CONTINUOUS
 70
0
 71
3
 72
13
 73
9
 74
0
 42
0.0000001
 43
0.0000001
 44
0.0000000001
 40
0.0
 40
0.0
 40
0.0
 40
0.0
 40
0.2698707541
 40
0.5613132513
 40
0.6954576119
 40
0.8131359393
 40
0.9128516444
 40
1.0
 40
1.0
 40
1.0
 40
1.0
 10
321.4022592701
 20
271.1387555019
 30
0.0
 10
321.4022592701
 20
270.3349803794
 30
0.0
 10
321.8441879815
 20
268.6686237169
 30
0.0
 10
322.9885274989
 20
266.8996902739
 30
0.0
 10
324.2068384481
 20
265.818927794
 30
0.0
 10
325.1357098008
 20
265.3117912917
 30
0.0
 10
326.044639517
 20
265.1297304526
 30
0.0
 10
326.6094611347
 20
265.2747647479
 30
0.0
 10
326.83419554
 20
265.4046335014
 30
0.0
  0
SPLINE
  5
4C9
100
AcDbEntity
  8
00_COMPONENTS
100
AcDbSpline
 62
7
  6
CONTINUOUS
 70
0
 71
3
 72
10
 73
6
 74
0
 42
0.0000001
 43
0.0000001
 44
0.0000000001
 40
0.0
 40
0.0
 40
0.0
 40
0.0
 40
0.2184275509
 40
0.4522666142
 40
1.0
 40
1.0
 40
1.0
 40
1.0
 10
271.422410316
 20
429.9664221094
 30
0.0
 10
271.2740170125
 20
429.8806690921
 30
0.0
 10
270.9960446767
 20
429.6473399604
 30
0.0
 10
270.5818216408
 20
428.969170458
 30
0.0
 10
270.4903590596
 20
428.3362451856
 30
0.0
 10
270.4903590596
 20
427.9064668996
 30
0.0
  0
SPLINE
  5
4CA
100
AcDbEntity
  8
00_COMPONENTS
100
AcDbSpline
 62
7
  6
CONTINUOUS
 70
0
 71
3
 72
13
 73
9
 74
0
 42
0.0000001
 43
0.0000001
 44
0.0000000001
 40
0.0
 40
0.0
 40
0.0
 40
0.0
 40
0.2698707541
 40
0.5613132513
 40
0.6954576119
 40
0.8131359393
 40
0.9128516444
 40
1.0
 40
1.0
 40
1.0
 40
1.0
 10
270.4903590596
 20
427.9064668996
 30
0.0
 10
270.4903590596
 20
427.102691777
 30
0.0
 10
270.9322877709
 20
425.4363351146
 30
0.0
 10
272.0766272884
 20
423.6674016716
 30
0.0
 10
273.2949382375
 20
422.5866391917
 30
0.0
 10
274.2238095902
 20
422.0795026894
 30
0.0
 10
275.1327393064
 20
421.8974418503
 30
0.0
 10
275.6975609242
 20
422.0424761456
 30
0.0
 10
275.9222953294
 20
422.1723448991
 30
0.0
  0
SPLINE
  5
4CB
100
AcDbEntity
  8
00_COMPONENTS
100
AcDbSpline
 62
7
  6
CONTINUOUS
 70
0
 71
3
 72
13
 73
9
 74
0
 42
0.0000001
 43
0.0000001
 44
0.0000000001
 40
0.0
 40
0.0
 40
0.0
 40
0.0
 40
0.2698707541
 40
0.5613132513
 40
0.6954576119
 40
0.8131359393
 40
0.9128516444
 40
1.0
 40
1.0
 40
1.0
 40
1.0
 10
270.4903590596
 20
300.5320898273
 30
0.0
 10
270.4903590596
 20
299.7283147048
 30
0.0
 10
270.9322877709
 20
298.0619580424
 30
0.0
 10
272.0766272884
 20
296.2930245994
 30
0.0
 10
273.2949382375
 20
295.2122621194
 30
0.0
 10
274.2238095902
 20
294.7051256172
 30
0.0
 10
275.1327393064
 20
294.5230647781
 30
0.0
 10
275.6975609242
 20
294.6680990734
 30
0.0
 10
275.9222953294
 20
294.7979678268
 30
0.0
  0
SPLINE
  5
4CC
100
AcDbEntity
  8
00_COMPONENTS
100
AcDbSpline
 62
7
  6
CONTINUOUS
 70
0
 71
3
 72
10
 73
6
 74
0
 42
0.0000001
 43
0.0000001
 44
0.0000000001
 40
0.0
 40
0.0
 40
0.0
 40
0.0
 40
0.2184275509
 40
0.4522666142
 40
1.0
 40
1.0
 40
1.0
 40
1.0
 10
271.422410316
 20
302.5920450372
 30
0.0
 10
271.2740170125
 20
302.5062920198
 30
0.0
 10
270.9960446767
 20
302.2729628881
 30
0.0
 10
270.5818216408
 20
301.5947933858
 30
0.0
 10
270.4903590596
 20
300.9618681134
 30
0.0
 10
270.4903590596
 20
300.5320898273
 30
0.0
  0
SPLINE
  5
4CD
100
AcDbEntity
  8
00_COMPONENTS
100
AcDbSpline
 62
7
  6
CONTINUOUS
 70
0
 71
3
 72
13
 73
9
 74
0
 42
0.0000001
 43
0.0000001
 44
0.0000000001
 40
0.0
 40
0.0
 40
0.0
 40
0.0
 40
0.2698707541
 40
0.5613132513
 40
0.6954576119
 40
0.8131359393
 40
0.9128516444
 40
1.0
 40
1.0
 40
1.0
 40
1.0
 10
321.4022592701
 20
398.5131325741
 30
0.0
 10
321.4022592701
 20
397.7093574516
 30
0.0
 10
321.8441879815
 20
396.0430007892
 30
0.0
 10
322.9885274989
 20
394.2740673461
 30
0.0
 10
324.2068384481
 20
393.1933048662
 30
0.0
 10
325.1357098008
 20
392.6861683639
 30
0.0
 10
326.044639517
 20
392.5041075248
 30
0.0
 10
326.6094611347
 20
392.6491418201
 30
0.0
 10
326.83419554
 20
392.7790105736
 30
0.0
  0
SPLINE
  5
4CE
100
AcDbEntity
  8
00_COMPONENTS
100
AcDbSpline
 62
7
  6
CONTINUOUS
 70
0
 71
3
 72
10
 73
6
 74
0
 42
0.0000001
 43
0.0000001
 44
0.0000000001
 40
0.0
 40
0.0
 40
0.0
 40
0.0
 40
0.2184275509
 40
0.4522666142
 40
1.0
 40
1.0
 40
1.0
 40
1.0
 10
322.3343105266
 20
273.1987107117
 30
0.0
 10
322.1859172231
 20
273.1129576944
 30
0.0
 10
321.9079448872
 20
272.8796285627
 30
0.0
 10
321.4937218514
 20
272.2014590603
 30
0.0
 10
321.4022592701
 20
271.5685337879
 30
0.0
 10
321.4022592701
 20
271.1387555019
 30
0.0
  0
SPLINE
  5
4CF
100
AcDbEntity
  8
00_COMPONENTS_3
100
AcDbSpline
 62
7
  6
CONTINUOUS
 70
0
 71
3
 72
11
 73
7
 74
0
 42
0.0000001
 43
0.0000001
 44
0.0000000001
 40
0.0
 40
0.0
 40
0.0
 40
0.0
 40
0.3057682016
 40
0.5817968888
 40
0.8115044824
 40
1.0
 40
1.0
 40
1.0
 40
1.0
 10
489.3747213369
 20
519.53808173
 30
0.0
 10
488.8857210223
 20
520.3403927209
 30
0.0
 10
487.7940346605
 20
521.7779579038
 30
0.0
 10
485.8495527905
 20
523.3780840046
 30
0.0
 10
483.8350916568
 20
524.2159059972
 30
0.0
 10
482.4710179026
 20
524.0778127474
 30
0.0
 10
481.9500692229
 20
523.8246096525
 30
0.0
  0
SPLINE
  5
4D0
100
AcDbEntity
  8
00_COMPONENTS_3
100
AcDbSpline
 62
7
  6
CONTINUOUS
 70
0
 71
3
 72
9
 73
5
 74
0
 42
0.0000001
 43
0.0000001
 44
0.0000000001
 40
0.0
 40
0.0
 40
0.0
 40
0.0
 40
0.4630482848
 40
1.0
 40
1.0
 40
1.0
 40
1.0
 10
489.3785124093
 20
511.9027492498
 30
0.0
 10
488.4666915906
 20
512.2564779659
 30
0.0
 10
486.692028903
 20
513.5050717671
 30
0.0
 10
485.368730245
 20
515.1796004192
 30
0.0
 10
484.7784845717
 20
516.1480263625
 30
0.0
  0
SPLINE
  5
4D1
100
AcDbEntity
  8
00_COMPONENTS_3
100
AcDbSpline
 62
7
  6
CONTINUOUS
 70
0
 71
3
 72
9
 73
5
 74
0
 42
0.0000001
 43
0.0000001
 44
0.0000000001
 40
0.0
 40
0.0
 40
0.0
 40
0.0
 40
0.4630482848
 40
1.0
 40
1.0
 40
1.0
 40
1.0
 10
319.672178374
 20
609.8805303346
 30
0.0
 10
318.7603575554
 20
610.2342590508
 30
0.0
 10
316.9856948678
 20
611.482852852
 30
0.0
 10
315.6623962097
 20
613.157381504
 30
0.0
 10
315.0721505364
 20
614.1258074474
 30
0.0
  0
SPLINE
  5
4D2
100
AcDbEntity
  8
00_COMPONENTS_3
100
AcDbSpline
 62
7
  6
CONTINUOUS
 70
0
 71
3
 72
11
 73
7
 74
0
 42
0.0000001
 43
0.0000001
 44
0.0000000001
 40
0.0
 40
0.0
 40
0.0
 40
0.0
 40
0.3057682016
 40
0.5817968888
 40
0.8115044824
 40
1.0
 40
1.0
 40
1.0
 40
1.0
 10
319.6683873016
 20
617.5158628149
 30
0.0
 10
319.179386987
 20
618.3181738057
 30
0.0
 10
318.0877006253
 20
619.7557389886
 30
0.0
 10
316.1432187553
 20
621.3558650895
 30
0.0
 10
314.1287576215
 20
622.1936870821
 30
0.0
 10
312.7646838673
 20
622.0555938323
 30
0.0
 10
312.2437351876
 20
621.8023907373
 30
0.0
  0
SPLINE
  5
4D3
100
AcDbEntity
  8
00_COMPONENTS_3
100
AcDbSpline
 62
7
  6
CONTINUOUS
 70
0
 71
3
 72
11
 73
7
 74
0
 42
0.0000001
 43
0.0000001
 44
0.0000000001
 40
0.0
 40
0.0
 40
0.0
 40
0.0
 40
0.2422983358
 40
0.5014657232
 40
0.7598592604
 40
1.0
 40
1.0
 40
1.0
 40
1.0
 10
500.6408032614
 20
311.1849573362
 30
0.0
 10
500.5113990886
 20
310.1102347415
 30
0.0
 10
499.9604642855
 20
307.9168150389
 30
0.0
 10
498.505384567
 20
304.8297739207
 30
0.0
 10
496.5215503918
 20
302.0646523164
 30
0.0
 10
494.8787032564
 20
300.5285064658
 30
0.0
 10
494.0069613238
 20
299.9031550469
 30
0.0
  0
SPLINE
  5
4D4
100
AcDbEntity
  8
00_COMPONENTS_3
100
AcDbSpline
 62
7
  6
CONTINUOUS
 70
0
 71
3
 72
9
 73
5
 74
0
 42
0.0000001
 43
0.0000001
 44
0.0000000001
 40
0.0
 40
0.0
 40
0.0
 40
0.0
 40
0.2366599449
 40
1.0
 40
1.0
 40
1.0
 40
1.0
 10
503.9064132156
 20
313.9562616411
 30
0.0
 10
503.6192015294
 20
313.7771643715
 30
0.0
 10
502.4365250013
 20
312.9710754703
 30
0.0
 10
501.3767902225
 20
311.9913282808
 30
0.0
 10
500.6408032614
 20
311.1849573362
 30
0.0
  0
SPLINE
  5
4D5
100
AcDbEntity
  8
00_COMPONENTS_3
100
AcDbSpline
 62
7
  6
CONTINUOUS
 70
0
 71
3
 72
10
 73
6
 74
0
 42
0.0000001
 43
0.0000001
 44
0.0000000001
 40
0.0
 40
0.0
 40
0.0
 40
0.0
 40
0.5477122932
 40
0.7815535598
 40
1.0
 40
1.0
 40
1.0
 40
1.0
 10
497.7546108378
 20
391.8179973638
 30
0.0
 10
497.7546108378
 20
390.9393742631
 30
0.0
 10
497.9414678966
 20
389.6452773695
 30
0.0
 10
498.7886162472
 20
388.2591521851
 30
0.0
 10
499.3565572892
 20
387.7815613935
 30
0.0
 10
499.6600722062
 20
387.6064146368
 30
0.0
  0
SPLINE
  5
4D6
100
AcDbEntity
  8
00_COMPONENTS_3
100
AcDbSpline
 62
7
  6
CONTINUOUS
 70
0
 71
3
 72
11
 73
7
 74
0
 42
0.0000001
 43
0.0000001
 44
0.0000000001
 40
0.0
 40
0.0
 40
0.0
 40
0.0
 40
0.2405330243
 40
0.5033250633
 40
0.7643188573
 40
1.0
 40
1.0
 40
1.0
 40
1.0
 10
503.9064132156
 20
402.8704400092
 30
0.0
 10
503.0234407509
 20
402.3051646633
 30
0.0
 10
501.3657692539
 20
400.82120485
 30
0.0
 10
499.4354360131
 20
398.0775385471
 30
0.0
 10
498.1265887664
 20
395.0117663527
 30
0.0
 10
497.7546108378
 20
392.8452655973
 30
0.0
 10
497.7546108378
 20
391.8179973638
 30
0.0
  0
SPLINE
  5
4D7
100
AcDbEntity
  8
00_COMPONENTS_3
100
AcDbSpline
 62
7
  6
CONTINUOUS
 70
0
 71
3
 72
11
 73
7
 74
0
 42
0.0000001
 43
0.0000001
 44
0.0000000001
 40
0.0
 40
0.0
 40
0.0
 40
0.0
 40
0.3057682016
 40
0.5817968888
 40
0.8115044824
 40
1.0
 40
1.0
 40
1.0
 40
1.0
 10
481.9500692229
 20
514.515049747
 30
0.0
 10
482.4390695375
 20
513.7127387561
 30
0.0
 10
483.5307558992
 20
512.2751735732
 30
0.0
 10
485.4752377692
 20
510.6750474724
 30
0.0
 10
487.489698903
 20
509.8372254798
 30
0.0
 10
488.8537726572
 20
509.9753187296
 30
0.0
 10
489.3747213369
 20
510.2285218245
 30
0.0
  0
SPLINE
  5
4D8
100
AcDbEntity
  8
00_COMPONENTS_3
100
AcDbSpline
 62
7
  6
CONTINUOUS
 70
0
 71
3
 72
11
 73
7
 74
0
 42
0.0000001
 43
0.0000001
 44
0.0000000001
 40
0.0
 40
0.0
 40
0.0
 40
0.0
 40
0.3057682016
 40
0.5817968888
 40
0.8115044824
 40
1.0
 40
1.0
 40
1.0
 40
1.0
 10
312.2437351876
 20
612.4928308319
 30
0.0
 10
312.7327355022
 20
611.690519841
 30
0.0
 10
313.824421864
 20
610.2529546581
 30
0.0
 10
315.768903734
 20
608.6528285573
 30
0.0
 10
317.7833648677
 20
607.8150065647
 30
0.0
 10
319.1474386219
 20
607.9530998144
 30
0.0
 10
319.6683873016
 20
608.2063029094
 30
0.0
  0
SPLINE
  5
4D9
100
AcDbEntity
  8
00_COMPONENTS_3
100
AcDbSpline
 62
7
  6
CONTINUOUS
 70
0
 71
3
 72
9
 73
5
 74
0
 42
0.0000001
 43
0.0000001
 44
0.0000000001
 40
0.0
 40
0.0
 40
0.0
 40
0.0
 40
0.4538450395
 40
1.0
 40
1.0
 40
1.0
 40
1.0
 10
499.6600722062
 20
387.6064146368
 30
0.0
 10
500.2355293857
 20
387.2743404852
 30
0.0
 10
501.7739765802
 20
386.9959031937
 30
0.0
 10
503.1954596436
 20
387.5032178194
 30
0.0
 10
503.9064132156
 20
387.8690018342
 30
0.0
  0
SPLINE
  5
4DA
100
AcDbEntity
  8
00_COMPONENTS_3
100
AcDbSpline
 62
7
  6
CONTINUOUS
 70
0
 71
3
 72
12
 73
8
 74
0
 42
0.0000001
 43
0.0000001
 44
0.0000000001
 40
0.0
 40
0.0
 40
0.0
 40
0.0
 40
0.3001467575
 40
0.5753810561
 40
0.6981181909
 40
0.8093099024
 40
1.0
 40
1.0
 40
1.0
 40
1.0
 10
505.5601710371
 20
303.2114297483
 30
0.0
 10
504.8209243894
 20
301.9310098874
 30
0.0
 10
503.1518692511
 20
299.6131246119
 30
0.0
 10
500.5600722631
 20
297.2942397051
 30
0.0
 10
498.3565693021
 20
296.0690708
 30
0.0
 10
496.3812928703
 20
295.3763931824
 30
0.0
 10
494.8068791148
 20
295.341430712
 30
0.0
 10
493.91058388
 20
295.6224740882
 30
0.0
  0
SPLINE
  5
4DB
100
AcDbEntity
  8
00_COMPONENTS_3
100
AcDbSpline
 62
7
  6
CONTINUOUS
 70
0
 71
3
 72
11
 73
7
 74
0
 42
0.0000001
 43
0.0000001
 44
0.0000000001
 40
0.0
 40
0.0
 40
0.0
 40
0.0
 40
0.2199507707
 40
0.4541291386
 40
0.7126314419
 40
1.0
 40
1.0
 40
1.0
 40
1.0
 10
498.0099911022
 20
293.1369392576
 30
0.0
 10
498.4008949386
 20
292.9112443619
 30
0.0
 10
499.2916166009
 20
292.5786898953
 30
0.0
 10
500.7708094615
 20
292.5049854704
 30
0.0
 10
502.3512930497
 20
292.8347754125
 30
0.0
 10
503.3855820733
 20
293.2834132936
 30
0.0
 10
503.9064132156
 20
293.5600377984
 30
0.0
  0
ELLIPSE
  5
4DC
100
AcDbEntity
  8
00_COMPONENTS_3
100
AcDbEllipse
 62
7
  6
CONTINUOUS
 10
504.141667332
 20
304.0305695195
 30
0.0
 11
3.8011653084
 21
12.1898515226
 31
0.0
 40
0.3681688131
 41
-0.0826620368
 42
0.7427468009
  0
ELLIPSE
  5
4DD
100
AcDbEntity
  8
00_COMPONENTS_3
100
AcDbEllipse
 62
7
  6
CONTINUOUS
 10
504.141667332
 20
304.0305695195
 30
0.0
 11
3.8011653084
 21
12.1898515226
 31
0.0
 40
0.3681688131
 41
-2.4788672014
 42
-1.6534583636
  0
ELLIPSE
  5
4DE
100
AcDbEntity
  8
00_COMPONENTS_3
100
AcDbEllipse
 62
7
  6
CONTINUOUS
 10
504.141667332
 20
395.6421407215
 30
0.0
 11
2.7976572344
 21
8.9717293334
 31
0.0
 40
0.3681688131
 41
-1.0153762459
 42
0.7571107511
  0
ELLIPSE
  5
4DF
100
AcDbEntity
  8
00_COMPONENTS_3
100
AcDbEllipse
 62
7
  6
CONTINUOUS
 10
504.141667332
 20
395.6421407215
 30
0.0
 11
2.7976572344
 21
8.9717293334
 31
0.0
 40
0.3681688131
 41
-2.4932311516
 42
-1.7257046696
  0
ENDSEC
  0
SECTION
  2
OBJECTS
  0
DICTIONARY
  5
C
100
AcDbDictionary
280
0
281
1
  3
ACAD_GROUP
350
D
  3
ACAD_MLINESTYLE
350
17
  3
ACAD_LAYOUT
350
1A
  3
ACAD_PLOTSETTINGS
350
19
  3
ACAD_PLOTSTYLENAME
350
E
  0
DICTIONARY
  5
D
102
{ACAD_REACTORS
330
C
102
}
100
AcDbDictionary
280
0
281
1
  0
ACDBDICTIONARYWDFLT
  5
E
102
{ACAD_REACTORS
330
C
102
}
100
AcDbDictionary
281
1
  3
Normal
350
F
100
AcDbDictionaryWithDefault
340
F
  0
DICTIONARY
  5
17
102
{ACAD_REACTORS
330
C
102
}
100
AcDbDictionary
280
0
281
1
  3
Standard
350
18
  0
DICTIONARY
  5
19
102
{ACAD_REACTORS
330
C
102
}
100
AcDbDictionary
281
1
  0
DICTIONARY
  5
1A
102
{ACAD_REACTORS
330
C
102
}
100
AcDbDictionary
281
1
  3
Model
350
4E0
  3
Layout1
350
4E1
  0
ACDBPLACEHOLDER
  5
F
102
{ACAD_REACTORS
330
E
102
}
  0
MLINESTYLE
  5
18
102
{ACAD_REACTORS
330
17
102
}
100
AcDbMlineStyle
  2
STANDARD
 70
0
  3

 62
256
 51
90.0
 52
90.0
 71
2
 49
0.5
 62
256
  6
BYLAYER
 49
-0.5
 62
256
  6
BYLAYER
  0
LAYOUT
  5
4E0
102
{ACAD_REACTORS
330
1A
102
}
100
AcDbPlotSettings
  1

  2
none_device
  4

  6

 40
0.0
 41
0.0
 42
0.0
 43
0.0
 44
210.0
 45
297.0
 46
0.0
 47
0.0
 48
0.0
 49
0.0
140
0.0
141
0.0
142
1.0
143
1.0
 70
1024
 72
1
 73
0
 74
0
  7

 75
0
147
1.0
148
0.0
149
0.0
100
AcDbLayout
  1
Model
 70
0
 71
0
 10
0.0
 20
0.0
 11
210.0
 21
297.0
 12
0.0
 22
0.0
 32
0.0
 14
0.0
 24
0.0
 34
0.0
 15
0.0
 25
0.0
 35
0.0
146
0.0
 13
0.0
 23
0.0
 33
0.0
 16
1.0
 26
0.0
 36
0.0
 17
0.0
 27
1.0
 37
0.0
 76
0
330
215
345
0
346
0
  0
LAYOUT
  5
4E1
102
{ACAD_REACTORS
330
1A
102
}
100
AcDbPlotSettings
  1

  2
none_device
  4

  6

 40
0.0
 41
0.0
 42
0.0
 43
0.0
 44
210.0
 45
297.0
 46
0.0
 47
0.0
 48
0.0
 49
0.0
140
0.0
141
0.0
142
1.0
143
1.0
 70
0
 72
1
 73
0
 74
0
  7

 75
0
147
1.0
148
0.0
149
0.0
100
AcDbLayout
  1
Layout1
 70
0
 71
1
 10
0.0
 20
0.0
 11
210.0
 21
297.0
 12
0.0
 22
0.0
 32
0.0
 14
0.0
 24
0.0
 34
0.0
 15
0.0
 25
0.0
 35
0.0
146
0.0
 13
0.0
 23
0.0
 33
0.0
 16
1.0
 26
0.0
 36
0.0
 17
0.0
 27
1.0
 37
0.0
 76
0
330
216
345
0
346
0
  0
ENDSEC
  0
EOF
