  0
SECTION
  2
HEADER
  9
$ACADVER
  1
AC1009
  9
$DWGCODEPAGE
  3
ansi_1250
  9
$INSBASE
 10
0.0
 20
0.0
 30
0.0
  9
$EXTMIN
 10
-26.720472
 20
-42.014038
 30
0.0
  9
$EXTMAX
 10
24.46063
 20
9.167064
 30
0.0
  9
$LIMMIN
 10
0.0
 20
0.0
  9
$LIMMAX
 10
0.0
 20
0.0
  9
$ORTHOMODE
 70
     0
  9
$REGENMODE
 70
     1
  9
$FILLMODE
 70
     1
  9
$QTEXTMODE
 70
     0
  9
$MIRRTEXT
 70
     1
  9
$DRAGMODE
 70
     2
  9
$LTSCALE
 40
1.0
  9
$OSMODE
 70
     0
  9
$ATTMODE
 70
     1
  9
$TEXTSIZE
 40
0.2
  9
$TRACEWID
 40
0.05
  9
$TEXTSTYLE
  7
STANDARD
  9
$CLAYER
  8
0
  9
$CELTYPE
  6
CONTINUOUS
  9
$CECOLOR
 62
   256
  9
$DIMSCALE
 40
1.0
  9
$DIMASZ
 40
0.18
  9
$DIMEXO
 40
0.0625
  9
$DIMDLI
 40
0.38
  9
$DIMRND
 40
0.0
  9
$DIMDLE
 40
0.0
  9
$DIMEXE
 40
0.18
  9
$DIMTP
 40
0.0
  9
$DIMTM
 40
0.0
  9
$DIMTXT
 40
0.18
  9
$DIMCEN
 40
0.09
  9
$DIMTSZ
 40
0.0
  9
$DIMTOL
 70
     0
  9
$DIMLIM
 70
     0
  9
$DIMTIH
 70
     1
  9
$DIMTOH
 70
     1
  9
$DIMSE1
 70
     0
  9
$DIMSE2
 70
     0
  9
$DIMTAD
 70
     0
  9
$DIMZIN
 70
     0
  9
$DIMBLK
  1

  9
$DIMASO
 70
     1
  9
$DIMSHO
 70
     1
  9
$DIMPOST
  1

  9
$DIMAPOST
  1

  9
$DIMALT
 70
     0
  9
$DIMALTD
 70
     2
  9
$DIMALTF
 40
25.4
  9
$DIMLFAC
 40
1.0
  9
$DIMTOFL
 70
     0
  9
$DIMTVP
 40
0.0
  9
$DIMTIX
 70
     0
  9
$DIMSOXD
 70
     0
  9
$DIMSAH
 70
     0
  9
$DIMBLK1
  1

  9
$DIMBLK2
  1

  9
$DIMSTYLE
  2
STANDARD
  9
$DIMCLRD
 70
     0
  9
$DIMCLRE
 70
     0
  9
$DIMCLRT
 70
     0
  9
$DIMTFAC
 40
1.0
  9
$DIMGAP
 40
0.09
  9
$LUNITS
 70
     2
  9
$LUPREC
 70
     4
  9
$AXISMODE
 70
     0
  9
$AXISUNIT
 10
0.0
 20
0.0
  9
$SKETCHINC
 40
0.1
  9
$FILLETRAD
 40
0.0
  9
$AUNITS
 70
     0
  9
$AUPREC
 70
     0
  9
$MENU
  1
acad
  9
$ELEVATION
 40
0.0
  9
$PELEVATION
 40
0.0
  9
$THICKNESS
 40
0.0
  9
$LIMCHECK
 70
     0
  9
$BLIPMODE
 70
     1
  9
$CHAMFERA
 40
0.0
  9
$CHAMFERB
 40
0.0
  9
$SKPOLY
 70
     0
  9
$TDCREATE
 40
0.000000000
  9
$TDUPDATE
 40
0.000000000
  9
$TDINDWG
 40
0.0000000000
  9
$TDUSRTIMER
 40
0.0000000000
  9
$USRTIMER
 70
     1
  9
$ANGBASE
 50
0.0
  9
$ANGDIR
 70
     0
  9
$PDMODE
 70
     0
  9
$PDSIZE
 40
0.0
  9
$PLINEWID
 40
0.0
  9
$COORDS
 70
     0
  9
$SPLFRAME
 70
     0
  9
$SPLINETYPE
 70
     6
  9
$SPLINESEGS
 70
     8
  9
$ATTDIA
 70
     0
  9
$ATTREQ
 70
     1
  9
$HANDLING
 70
     1
  9
$HANDSEED
  5
45B
  9
$SURFTAB1
 70
     6
  9
$SURFTAB2
 70
     6
  9
$SURFTYPE
 70
     6
  9
$SURFU
 70
     6
  9
$SURFV
 70
     6
  9
$UCSNAME
  2

  9
$UCSORG
 10
0.0
 20
0.0
 30
0.0
  9
$UCSXDIR
 10
1.0
 20
0.0
 30
0.0
  9
$UCSYDIR
 10
0.0
 20
1.0
 30
0.0
  9
$PUCSNAME
  2

  9
$PUCSORG
 10
0.0
 20
0.0
 30
0.0
  9
$PUCSXDIR
 10
1.0
 20
0.0
 30
0.0
  9
$PUCSYDIR
 10
0.0
 20
1.0
 30
0.0
  9
$USERI1
 70
     0
  9
$USERI2
 70
     0
  9
$USERI3
 70
     0
  9
$USERI4
 70
     0
  9
$USERI5
 70
     0
  9
$USERR1
 40
0.0
  9
$USERR2
 40
0.0
  9
$USERR3
 40
0.0
  9
$USERR4
 40
0.0
  9
$USERR5
 40
0.0
  9
$WORLDVIEW
 70
     1
  9
$SHADEDGE
 70
     3
  9
$SHADEDIF
 70
    70
  9
$TILEMODE
 70
     1
  9
$MAXACTVP
 70
    16
  9
$PINSBASE
 10
0.0
 20
0.0
 30
0.0
  9
$PLIMCHECK
 70
     0
  9
$PEXTMIN
 10
1.000000E+20
 20
1.000000E+20
 30
1.000000E+20
  9
$PEXTMAX
 10
-1.000000E+20
 20
-1.000000E+20
 30
-1.000000E+20
  9
$PLIMMIN
 10
0.0
 20
0.0
  9
$PLIMMAX
 10
12.0
 20
9.0
  9
$UNITMODE
 70
     0
  9
$VISRETAIN
 70
     0
  9
$PLINEGEN
 70
     1
  9
$PSLTSCALE
 70
     0
  9
$TREEDEPTH
 70
  3020
  0
ENDSEC
  0
SECTION
  2
TABLES
  0
TABLE
  2
VPORT
 70
     1
  0
VPORT
  2
*ACTIVE
 70
     0
 10
0.0
 20
0.0
 11
1.0
 21
1.0
 12
6.591288
 22
4.579184
 13
0.0
 23
0.0
 14
1.0
 24
1.0
 15
0.0
 25
0.0
 16
0.0
 26
0.0
 36
1.0
 17
0.0
 27
0.0
 37
0.0
 40
9.158369
 41
0.688564
 42
50.0
 43
0.0
 44
0.0
 50
0.0
 51
0.0
 71
     0
 72
   100
 73
     1
 74
     1
 75
     0
 76
     0
 77
     0
 78
     0
  0
ENDTAB
  0
TABLE
  2
LTYPE
 70
     5
  0
LTYPE
  2
CONTINUOUS
 70
    64
  3
Solid line
 72
    65
 73
     0
 40
0.0
  0
LTYPE
  2
CENTER
 70
    64
  3
Center ____ _ ____ _ ____ _ ____ _ ____ _ ____
 72
    65
 73
     4
 40
50.8
 49
31.75
 49
-6.35
 49
6.35
 49
-6.35
  0
LTYPE
  2
HIDDEN
 70
    64
  3
Hidden __ __ __ __ __ __ __ __ __ __ __ __ __ __
 72
    65
 73
     2
 40
9.525
 49
6.35
 49
-3.175
  0
LTYPE
  2
CENTER2
 70
    64
  3
Center (.5x) ___ _ ___ _ ___ _ ___ _ ___ _ ___
 72
    65
 73
     4
 40
28.575
 49
19.05
 49
-3.175
 49
3.175
 49
-3.175
  0
LTYPE
  2
HIDDEN2
 70
    64
  3
Hidden (.5x) _ _ _ _ _ _ _ _ _ _ _ _ _ _ _ _ _
 72
    65
 73
     2
 40
4.7625
 49
3.175
 49
-1.5875
  0
ENDTAB
  0
TABLE
  2
LAYER
 70
     1
  0
LAYER
  2
0
 70
     0
 62
     7
  6
CONTINUOUS
  0
ENDTAB
  0
TABLE
  2
STYLE
 70
     1
  0
STYLE
  2
STANDARD
 70
     0
 40
0.0
 41
1.0
 50
0.0
 71
     0
 42
0.0
  3
txt
  4

  0
ENDTAB
  0
TABLE
  2
VIEW
 70
     0
  0
ENDTAB
  0
TABLE
  2
UCS
 70
     0
  0
ENDTAB
  0
TABLE
  2
APPID
 70
     1
  0
APPID
  2
ACAD
 70
     0
  0
ENDTAB
  0
TABLE
  2
DIMSTYLE
 70
     1
  0
DIMSTYLE
  2
STANDARD
 70
     0
  3

  4

  5

  6

  7

 40
1.0
 41
0.18
 42
0.0625
 43
0.38
 44
0.18
 45
0.0
 46
0.0
 47
0.0
 48
0.0
 71
     0
 72
     0
 73
     1
 74
     1
 75
     0
 76
     0
 77
     0
 78
     0
140
0.18
141
0.09
142
0.0
143
25.4
144
1.0
145
0.0
146
1.0
147
0.09
170
     0
171
     2
172
     0
173
     0
174
     0
175
     0
176
     0
177
     0
178
     0
  0
ENDTAB
  0
ENDSEC
  0
SECTION
  2
BLOCKS
  0
ENDSEC
  0
SECTION
  2
ENTITIES
  0
LINE
  8
0
  6
CONTINUOUS
 62
     7
  5
26C
 10
-3.049212
 20
5.614173
 30
0.0
 11
-3.049212
 21
5.811023
 31
0.0
  0
LINE
  8
0
  6
CONTINUOUS
 62
     7
  5
26D
 10
-3.049212
 20
5.614173
 30
0.0
 11
-1.872047
 21
5.614173
 31
0.0
  0
LINE
  8
0
  6
CONTINUOUS
 62
     7
  5
26E
 10
-3.049212
 20
5.811023
 30
0.0
 11
-1.872047
 21
5.811023
 31
0.0
  0
LINE
  8
0
  6
CONTINUOUS
 62
     7
  5
26F
 10
-1.872047
 20
5.614173
 30
0.0
 11
-1.872047
 21
5.811023
 31
0.0
  0
LINE
  8
0
  6
CONTINUOUS
 62
     7
  5
270
 10
-0.883858
 20
5.614173
 30
0.0
 11
-0.883858
 21
5.811023
 31
0.0
  0
LINE
  8
0
  6
CONTINUOUS
 62
     7
  5
271
 10
-0.883858
 20
5.614173
 30
0.0
 11
0.293307
 21
5.614173
 31
0.0
  0
LINE
  8
0
  6
CONTINUOUS
 62
     7
  5
272
 10
-0.883858
 20
5.811023
 30
0.0
 11
0.293307
 21
5.811023
 31
0.0
  0
LINE
  8
0
  6
CONTINUOUS
 62
     7
  5
273
 10
0.293307
 20
5.614173
 30
0.0
 11
0.293307
 21
5.811023
 31
0.0
  0
LINE
  8
0
  6
CONTINUOUS
 62
     7
  5
274
 10
1.281495
 20
5.614173
 30
0.0
 11
1.281495
 21
5.811023
 31
0.0
  0
LINE
  8
0
  6
CONTINUOUS
 62
     7
  5
275
 10
1.281495
 20
5.614173
 30
0.0
 11
2.45866
 21
5.614173
 31
0.0
  0
LINE
  8
0
  6
CONTINUOUS
 62
     7
  5
276
 10
1.281495
 20
5.811023
 30
0.0
 11
2.45866
 21
5.811023
 31
0.0
  0
LINE
  8
0
  6
CONTINUOUS
 62
     7
  5
277
 10
2.45866
 20
5.614173
 30
0.0
 11
2.45866
 21
5.811023
 31
0.0
  0
LINE
  8
0
  6
CONTINUOUS
 62
     7
  5
278
 10
2.972441
 20
2.955502
 30
0.0
 11
2.972441
 21
3.276998
 31
0.0
  0
LINE
  8
0
  6
CONTINUOUS
 62
     7
  5
279
 10
2.972441
 20
3.276998
 30
0.0
 11
2.972441
 21
5.005378
 31
0.0
  0
LINE
  8
0
  6
CONTINUOUS
 62
     7
  5
27A
 10
2.972441
 20
5.005378
 30
0.0
 11
2.972441
 21
5.391566
 31
0.0
  0
LINE
  8
0
  6
CONTINUOUS
 62
     7
  5
27B
 10
2.972441
 20
5.391566
 30
0.0
 11
2.972441
 21
5.517189
 31
0.0
  0
LINE
  8
0
  6
CONTINUOUS
 62
     7
  5
27C
 10
2.972441
 20
5.517189
 30
0.0
 11
2.972441
 21
5.536874
 31
0.0
  0
LINE
  8
0
  6
CONTINUOUS
 62
     7
  5
27D
 10
2.972441
 20
5.536874
 30
0.0
 11
2.972441
 21
5.747
 31
0.0
  0
LINE
  8
0
  6
CONTINUOUS
 62
     7
  5
27E
 10
4.170706
 20
3.276998
 30
0.0
 11
4.389764
 21
3.931693
 31
0.0
  0
LINE
  8
0
  6
CONTINUOUS
 62
     7
  5
27F
 10
4.063135
 20
2.955502
 30
0.0
 11
4.170706
 21
3.276998
 31
0.0
  0
LINE
  8
0
  6
CONTINUOUS
 62
     7
  5
280
 10
4.389764
 20
3.931693
 30
0.0
 11
4.389764
 21
4.982874
 31
0.0
  0
LINE
  8
0
  6
CONTINUOUS
 62
     7
  5
281
 10
4.404287
 20
5.747
 30
0.0
 11
4.404287
 21
5.734519
 31
0.0
  0
LINE
  8
0
  6
CONTINUOUS
 62
     7
  5
282
 10
4.468188
 20
5.73322
 30
0.0
 11
4.468188
 21
5.536874
 31
0.0
  0
LINE
  8
0
  6
CONTINUOUS
 62
     7
  5
283
 10
3.602046
 20
5.536874
 30
0.0
 11
3.602046
 21
5.73322
 31
0.0
  0
LINE
  8
0
  6
CONTINUOUS
 62
     7
  5
284
 10
3.602046
 20
5.536874
 30
0.0
 11
3.759527
 21
5.536874
 31
0.0
  0
LINE
  8
0
  6
CONTINUOUS
 62
     7
  5
285
 10
3.759527
 20
5.536874
 30
0.0
 11
3.759527
 21
5.73322
 31
0.0
  0
LINE
  8
0
  6
CONTINUOUS
 62
     7
  5
286
 10
3.759527
 20
5.73322
 30
0.0
 11
3.602046
 21
5.73322
 31
0.0
  0
LINE
  8
0
  6
CONTINUOUS
 62
     7
  5
287
 10
4.310708
 20
5.73322
 30
0.0
 11
3.759527
 21
5.73322
 31
0.0
  0
LINE
  8
0
  6
CONTINUOUS
 62
     7
  5
288
 10
4.310708
 20
5.536874
 30
0.0
 11
4.310708
 21
5.73322
 31
0.0
  0
LINE
  8
0
  6
CONTINUOUS
 62
     7
  5
289
 10
4.468188
 20
5.536874
 30
0.0
 11
4.468188
 21
5.73322
 31
0.0
  0
LINE
  8
0
  6
CONTINUOUS
 62
     7
  5
28A
 10
4.310708
 20
5.536874
 30
0.0
 11
4.468188
 21
5.536874
 31
0.0
  0
LINE
  8
0
  6
CONTINUOUS
 62
     7
  5
28B
 10
4.468188
 20
5.73322
 30
0.0
 11
4.310708
 21
5.73322
 31
0.0
  0
LINE
  8
0
  6
CONTINUOUS
 62
     7
  5
28C
 10
3.759527
 20
5.536874
 30
0.0
 11
4.310708
 21
5.536874
 31
0.0
  0
LINE
  8
0
  6
CONTINUOUS
 62
     7
  5
28D
 10
4.468188
 20
5.536874
 30
0.0
 11
4.901575
 21
5.536874
 31
0.0
  0
LINE
  8
0
  6
CONTINUOUS
 62
     7
  5
28E
 10
2.972441
 20
5.536874
 30
0.0
 11
3.602046
 21
5.536874
 31
0.0
  0
LINE
  8
0
  6
CONTINUOUS
 62
     7
  5
28F
 10
4.798456
 20
5.391566
 30
0.0
 11
4.80315
 21
5.39626
 31
0.0
  0
LINE
  8
0
  6
CONTINUOUS
 62
     7
  5
290
 10
4.412268
 20
5.005378
 30
0.0
 11
4.798456
 21
5.391566
 31
0.0
  0
LINE
  8
0
  6
CONTINUOUS
 62
     7
  5
291
 10
4.389764
 20
4.982874
 30
0.0
 11
4.412268
 21
5.005378
 31
0.0
  0
LINE
  8
0
  6
CONTINUOUS
 62
     7
  5
292
 10
4.80315
 20
5.39626
 30
0.0
 11
4.901575
 21
5.39626
 31
0.0
  0
LINE
  8
0
  6
CONTINUOUS
 62
     7
  5
293
 10
2.972441
 20
2.955502
 30
0.0
 11
4.063135
 21
2.955502
 31
0.0
  0
LINE
  8
0
  6
CONTINUOUS
 62
     7
  5
294
 10
2.972441
 20
5.005378
 30
0.0
 11
4.412268
 21
5.005378
 31
0.0
  0
LINE
  8
0
  6
CONTINUOUS
 62
     7
  5
295
 10
2.972441
 20
5.391566
 30
0.0
 11
4.798456
 21
5.391566
 31
0.0
  0
LINE
  8
0
  6
CONTINUOUS
 62
     7
  5
296
 10
4.901575
 20
5.39626
 30
0.0
 11
4.901575
 21
5.517189
 31
0.0
  0
LINE
  8
0
  6
CONTINUOUS
 62
     7
  5
297
 10
2.972441
 20
5.517189
 30
0.0
 11
4.901575
 21
5.517189
 31
0.0
  0
LINE
  8
0
  6
CONTINUOUS
 62
     7
  5
298
 10
4.901575
 20
5.517189
 30
0.0
 11
4.901575
 21
5.536874
 31
0.0
  0
LINE
  8
0
  6
CONTINUOUS
 62
     7
  5
299
 10
3.405512
 20
2.955502
 30
0.0
 11
3.405512
 21
1.056314
 31
0.0
  0
LINE
  8
0
  6
CONTINUOUS
 62
     7
  5
29A
 10
3.405512
 20
1.056314
 30
0.0
 11
3.405512
 21
0.846059
 31
0.0
  0
LINE
  8
0
  6
CONTINUOUS
 62
     7
  5
29B
 10
3.405512
 20
0.846059
 30
0.0
 11
3.405512
 21
0.393394
 31
0.0
  0
LINE
  8
0
  6
CONTINUOUS
 62
     7
  5
29C
 10
3.405512
 20
0.393394
 30
0.0
 11
3.405512
 21
0.393303
 31
0.0
  0
LINE
  8
0
  6
CONTINUOUS
 62
     7
  5
29D
 10
2.972441
 20
3.393053
 30
0.0
 11
-3.314961
 21
3.393053
 31
0.0
  0
LINE
  8
0
  6
CONTINUOUS
 62
     7
  5
29E
 10
3.405512
 20
1.056314
 30
0.0
 11
-3.314961
 21
1.056314
 31
0.0
  0
LINE
  8
0
  6
CONTINUOUS
 62
     7
  5
29F
 10
2.972441
 20
3.757226
 30
0.0
 11
-3.314961
 21
3.757226
 31
0.0
  0
LINE
  8
0
  6
CONTINUOUS
 62
     7
  5
2A0
 10
-3.314961
 20
0.444355
 30
0.0
 11
-3.877953
 21
0.444355
 31
0.0
  0
LINE
  8
0
  6
CONTINUOUS
 62
     7
  5
2A1
 10
-3.537402
 20
5.056559
 30
0.0
 11
-3.996063
 21
5.056559
 31
0.0
  0
LINE
  8
0
  6
CONTINUOUS
 62
     7
  5
2A2
 10
-3.996063
 20
5.056559
 30
0.0
 11
-3.996063
 21
5.042921
 31
0.0
  0
LINE
  8
0
  6
CONTINUOUS
 62
     7
  5
2A3
 10
-3.537402
 20
5.042921
 30
0.0
 11
-3.996063
 21
5.042921
 31
0.0
  0
LINE
  8
0
  6
CONTINUOUS
 62
     7
  5
2A4
 10
-3.314961
 20
3.183813
 30
0.0
 11
-3.314961
 21
4.824485
 31
0.0
  0
LINE
  8
0
  6
CONTINUOUS
 62
     7
  5
2A5
 10
-3.314961
 20
2.865563
 30
0.0
 11
-3.314961
 21
3.183813
 31
0.0
  0
LINE
  8
0
  6
CONTINUOUS
 62
     7
  5
2A6
 10
-3.314961
 20
2.865563
 30
0.0
 11
-3.314961
 21
1.186514
 31
0.0
  0
LINE
  8
0
  6
CONTINUOUS
 62
     7
  5
2A7
 10
-3.314961
 20
1.186514
 30
0.0
 11
-3.314961
 21
0.970576
 31
0.0
  0
LINE
  8
0
  6
CONTINUOUS
 62
     7
  5
2A8
 10
-3.314961
 20
0.970576
 30
0.0
 11
-3.314961
 21
0.444355
 31
0.0
  0
LINE
  8
0
  6
CONTINUOUS
 62
     7
  5
2A9
 10
-3.877953
 20
2.865563
 30
0.0
 11
-3.877953
 21
1.186514
 31
0.0
  0
LINE
  8
0
  6
CONTINUOUS
 62
     7
  5
2AA
 10
-3.314961
 20
1.186514
 30
0.0
 11
-3.877953
 21
1.186514
 31
0.0
  0
LINE
  8
0
  6
CONTINUOUS
 62
     7
  5
2AB
 10
-3.877953
 20
0.970576
 30
0.0
 11
-3.877953
 21
0.444355
 31
0.0
  0
LINE
  8
0
  6
CONTINUOUS
 62
     7
  5
2AC
 10
-3.877953
 20
1.186514
 30
0.0
 11
-3.877953
 21
0.970576
 31
0.0
  0
LINE
  8
0
  6
CONTINUOUS
 62
     7
  5
2AD
 10
-3.314961
 20
0.970576
 30
0.0
 11
-3.877953
 21
0.970576
 31
0.0
  0
LINE
  8
0
  6
CONTINUOUS
 62
     7
  5
2AE
 10
-3.996063
 20
3.183813
 30
0.0
 11
-3.996063
 21
2.865563
 31
0.0
  0
LINE
  8
0
  6
CONTINUOUS
 62
     7
  5
2AF
 10
-3.314961
 20
2.865563
 30
0.0
 11
-3.996063
 21
2.865563
 31
0.0
  0
LINE
  8
0
  6
CONTINUOUS
 62
     7
  5
2B0
 10
-3.996063
 20
5.042921
 30
0.0
 11
-3.996063
 21
4.938449
 31
0.0
  0
LINE
  8
0
  6
CONTINUOUS
 62
     7
  5
2B1
 10
-3.537402
 20
4.938449
 30
0.0
 11
-3.996063
 21
4.938449
 31
0.0
  0
LINE
  8
0
  6
CONTINUOUS
 62
     7
  5
2B2
 10
-3.996063
 20
4.938449
 30
0.0
 11
-3.996063
 21
4.824485
 31
0.0
  0
LINE
  8
0
  6
CONTINUOUS
 62
     7
  5
2B3
 10
-3.314961
 20
4.824485
 30
0.0
 11
-3.996063
 21
4.824485
 31
0.0
  0
LINE
  8
0
  6
CONTINUOUS
 62
     7
  5
2B4
 10
-3.996063
 20
4.824485
 30
0.0
 11
-3.996063
 21
3.183813
 31
0.0
  0
LINE
  8
0
  6
CONTINUOUS
 62
     7
  5
2B5
 10
2.677165
 20
4.834645
 30
0.0
 11
2.94685
 21
4.834645
 31
0.0
  0
LINE
  8
0
  6
CONTINUOUS
 62
     7
  5
2B6
 10
2.677165
 20
4.834645
 30
0.0
 11
2.480314
 21
4.834645
 31
0.0
  0
LINE
  8
0
  6
CONTINUOUS
 62
     7
  5
2B7
 10
2.480314
 20
4.834645
 30
0.0
 11
1.259842
 21
4.834645
 31
0.0
  0
LINE
  8
0
  6
CONTINUOUS
 62
     7
  5
2B8
 10
1.259842
 20
4.834645
 30
0.0
 11
1.062991
 21
4.834645
 31
0.0
  0
LINE
  8
0
  6
CONTINUOUS
 62
     7
  5
2B9
 10
0.511811
 20
4.834645
 30
0.0
 11
1.062991
 21
4.834645
 31
0.0
  0
LINE
  8
0
  6
CONTINUOUS
 62
     7
  5
2BA
 10
0.511811
 20
4.834645
 30
0.0
 11
0.31496
 21
4.834645
 31
0.0
  0
LINE
  8
0
  6
CONTINUOUS
 62
     7
  5
2BB
 10
0.31496
 20
4.834645
 30
0.0
 11
-0.905512
 21
4.834645
 31
0.0
  0
LINE
  8
0
  6
CONTINUOUS
 62
     7
  5
2BC
 10
-0.905512
 20
4.834645
 30
0.0
 11
-1.102363
 21
4.834645
 31
0.0
  0
LINE
  8
0
  6
CONTINUOUS
 62
     7
  5
2BD
 10
-1.653543
 20
4.834645
 30
0.0
 11
-1.102363
 21
4.834645
 31
0.0
  0
LINE
  8
0
  6
CONTINUOUS
 62
     7
  5
2BE
 10
-1.653543
 20
4.834645
 30
0.0
 11
-1.850394
 21
4.834645
 31
0.0
  0
LINE
  8
0
  6
CONTINUOUS
 62
     7
  5
2BF
 10
-1.850394
 20
4.834645
 30
0.0
 11
-3.070866
 21
4.834645
 31
0.0
  0
LINE
  8
0
  6
CONTINUOUS
 62
     7
  5
2C0
 10
-3.070866
 20
4.834645
 30
0.0
 11
-3.267717
 21
4.834645
 31
0.0
  0
LINE
  8
0
  6
CONTINUOUS
 62
     7
  5
2C1
 10
-3.537402
 20
4.834645
 30
0.0
 11
-3.267717
 21
4.834645
 31
0.0
  0
LINE
  8
0
  6
CONTINUOUS
 62
     7
  5
2C2
 10
-3.489229
 20
8.858267
 30
0.0
 11
-3.535675
 21
6.197351
 31
0.0
  0
LINE
  8
0
  6
CONTINUOUS
 62
     7
  5
2C3
 10
-3.535675
 20
6.197351
 30
0.0
 11
-3.537402
 21
6.098424
 31
0.0
  0
LINE
  8
0
  6
CONTINUOUS
 62
     7
  5
2C4
 10
-3.535675
 20
6.197351
 30
0.0
 11
-3.267717
 21
6.197351
 31
0.0
  0
LINE
  8
0
  6
CONTINUOUS
 62
     7
  5
2C5
 10
-3.267717
 20
6.197351
 30
0.0
 11
-3.267717
 21
8.436424
 31
0.0
  0
LINE
  8
0
  6
CONTINUOUS
 62
     7
  5
2C6
 10
-3.267717
 20
8.436424
 30
0.0
 11
-3.267717
 21
8.44848
 31
0.0
  0
LINE
  8
0
  6
CONTINUOUS
 62
     7
  5
2C7
 10
-3.267717
 20
8.44848
 30
0.0
 11
-3.267716
 21
8.460535
 31
0.0
  0
LINE
  8
0
  6
CONTINUOUS
 62
     7
  5
2C8
 10
-3.267716
 20
8.460535
 30
0.0
 11
-3.267716
 21
8.47259
 31
0.0
  0
LINE
  8
0
  6
CONTINUOUS
 62
     7
  5
2C9
 10
-3.267716
 20
8.47259
 30
0.0
 11
-3.267715
 21
8.484645
 31
0.0
  0
LINE
  8
0
  6
CONTINUOUS
 62
     7
  5
2CA
 10
-3.267715
 20
8.484645
 30
0.0
 11
-3.267714
 21
8.4967
 31
0.0
  0
LINE
  8
0
  6
CONTINUOUS
 62
     7
  5
2CB
 10
-3.267714
 20
8.4967
 30
0.0
 11
-3.267713
 21
8.508755
 31
0.0
  0
LINE
  8
0
  6
CONTINUOUS
 62
     7
  5
2CC
 10
-3.267713
 20
8.508755
 30
0.0
 11
-3.267712
 21
8.52081
 31
0.0
  0
LINE
  8
0
  6
CONTINUOUS
 62
     7
  5
2CD
 10
-3.267712
 20
8.52081
 30
0.0
 11
-3.26771
 21
8.532865
 31
0.0
  0
LINE
  8
0
  6
CONTINUOUS
 62
     7
  5
2CE
 10
-3.26771
 20
8.532865
 30
0.0
 11
-3.267708
 21
8.54492
 31
0.0
  0
LINE
  8
0
  6
CONTINUOUS
 62
     7
  5
2CF
 10
-3.267708
 20
8.54492
 30
0.0
 11
-3.267706
 21
8.556975
 31
0.0
  0
LINE
  8
0
  6
CONTINUOUS
 62
     7
  5
2D0
 10
-3.267706
 20
8.556975
 30
0.0
 11
-3.267704
 21
8.569029
 31
0.0
  0
LINE
  8
0
  6
CONTINUOUS
 62
     7
  5
2D1
 10
-3.267704
 20
8.569029
 30
0.0
 11
-3.267702
 21
8.581084
 31
0.0
  0
LINE
  8
0
  6
CONTINUOUS
 62
     7
  5
2D2
 10
-3.267702
 20
8.581084
 30
0.0
 11
-3.267699
 21
8.593138
 31
0.0
  0
LINE
  8
0
  6
CONTINUOUS
 62
     7
  5
2D3
 10
-3.267699
 20
8.593138
 30
0.0
 11
-3.267696
 21
8.605192
 31
0.0
  0
LINE
  8
0
  6
CONTINUOUS
 62
     7
  5
2D4
 10
-3.267696
 20
8.605192
 30
0.0
 11
-3.267693
 21
8.617246
 31
0.0
  0
LINE
  8
0
  6
CONTINUOUS
 62
     7
  5
2D5
 10
-3.267693
 20
8.617246
 30
0.0
 11
-3.26769
 21
8.6293
 31
0.0
  0
LINE
  8
0
  6
CONTINUOUS
 62
     7
  5
2D6
 10
-3.26769
 20
8.6293
 30
0.0
 11
-3.267687
 21
8.641353
 31
0.0
  0
LINE
  8
0
  6
CONTINUOUS
 62
     7
  5
2D7
 10
-3.267687
 20
8.641353
 30
0.0
 11
-3.267683
 21
8.653406
 31
0.0
  0
LINE
  8
0
  6
CONTINUOUS
 62
     7
  5
2D8
 10
-3.267683
 20
8.653406
 30
0.0
 11
-3.267679
 21
8.66546
 31
0.0
  0
LINE
  8
0
  6
CONTINUOUS
 62
     7
  5
2D9
 10
-3.267679
 20
8.66546
 30
0.0
 11
-3.267675
 21
8.677512
 31
0.0
  0
LINE
  8
0
  6
CONTINUOUS
 62
     7
  5
2DA
 10
-3.267675
 20
8.677512
 30
0.0
 11
-3.267671
 21
8.689565
 31
0.0
  0
LINE
  8
0
  6
CONTINUOUS
 62
     7
  5
2DB
 10
-3.267671
 20
8.689565
 30
0.0
 11
-3.267666
 21
8.701617
 31
0.0
  0
LINE
  8
0
  6
CONTINUOUS
 62
     7
  5
2DC
 10
-3.267666
 20
8.701617
 30
0.0
 11
-3.267662
 21
8.713669
 31
0.0
  0
LINE
  8
0
  6
CONTINUOUS
 62
     7
  5
2DD
 10
-3.267662
 20
8.713669
 30
0.0
 11
-3.267657
 21
8.725721
 31
0.0
  0
LINE
  8
0
  6
CONTINUOUS
 62
     7
  5
2DE
 10
-3.267657
 20
8.725721
 30
0.0
 11
-3.267652
 21
8.737772
 31
0.0
  0
LINE
  8
0
  6
CONTINUOUS
 62
     7
  5
2DF
 10
-3.267652
 20
8.737772
 30
0.0
 11
-3.267646
 21
8.749823
 31
0.0
  0
LINE
  8
0
  6
CONTINUOUS
 62
     7
  5
2E0
 10
-3.267646
 20
8.749823
 30
0.0
 11
-3.267641
 21
8.761874
 31
0.0
  0
LINE
  8
0
  6
CONTINUOUS
 62
     7
  5
2E1
 10
-3.267641
 20
8.761874
 30
0.0
 11
-3.267635
 21
8.773925
 31
0.0
  0
LINE
  8
0
  6
CONTINUOUS
 62
     7
  5
2E2
 10
-3.267635
 20
8.773925
 30
0.0
 11
-3.267629
 21
8.785975
 31
0.0
  0
LINE
  8
0
  6
CONTINUOUS
 62
     7
  5
2E3
 10
-3.267629
 20
8.785975
 30
0.0
 11
-3.267623
 21
8.798024
 31
0.0
  0
LINE
  8
0
  6
CONTINUOUS
 62
     7
  5
2E4
 10
-3.267623
 20
8.798024
 30
0.0
 11
-3.267617
 21
8.810074
 31
0.0
  0
LINE
  8
0
  6
CONTINUOUS
 62
     7
  5
2E5
 10
-3.267617
 20
8.810074
 30
0.0
 11
-3.26761
 21
8.822123
 31
0.0
  0
LINE
  8
0
  6
CONTINUOUS
 62
     7
  5
2E6
 10
-3.26761
 20
8.822123
 30
0.0
 11
-3.267604
 21
8.834171
 31
0.0
  0
LINE
  8
0
  6
CONTINUOUS
 62
     7
  5
2E7
 10
-3.267604
 20
8.834171
 30
0.0
 11
-3.267597
 21
8.846219
 31
0.0
  0
LINE
  8
0
  6
CONTINUOUS
 62
     7
  5
2E8
 10
-3.267597
 20
8.846219
 30
0.0
 11
-3.267589
 21
8.858267
 31
0.0
  0
LINE
  8
0
  6
CONTINUOUS
 62
     7
  5
2E9
 10
-3.489229
 20
8.858267
 30
0.0
 11
-3.267589
 21
8.858267
 31
0.0
  0
LINE
  8
0
  6
CONTINUOUS
 62
     7
  5
2EA
 10
-3.537402
 20
6.098424
 30
0.0
 11
-3.537402
 21
4.834645
 31
0.0
  0
LINE
  8
0
  6
CONTINUOUS
 62
     7
  5
2EB
 10
-3.267717
 20
4.834645
 30
0.0
 11
-3.267717
 21
6.197351
 31
0.0
  0
LINE
  8
0
  6
CONTINUOUS
 62
     7
  5
2EC
 10
2.945123
 20
6.197351
 30
0.0
 11
2.898677
 21
8.858267
 31
0.0
  0
LINE
  8
0
  6
CONTINUOUS
 62
     7
  5
2ED
 10
2.94685
 20
6.098424
 30
0.0
 11
2.945123
 21
6.197351
 31
0.0
  0
LINE
  8
0
  6
CONTINUOUS
 62
     7
  5
2EE
 10
2.94685
 20
4.834645
 30
0.0
 11
2.94685
 21
6.098424
 31
0.0
  0
LINE
  8
0
  6
CONTINUOUS
 62
     7
  5
2EF
 10
-3.070866
 20
8.858267
 30
0.0
 11
-1.850394
 21
8.858267
 31
0.0
  0
LINE
  8
0
  6
CONTINUOUS
 62
     7
  5
2F0
 10
-1.653671
 20
8.858267
 30
0.0
 11
-1.653663
 21
8.846219
 31
0.0
  0
LINE
  8
0
  6
CONTINUOUS
 62
     7
  5
2F1
 10
-1.653663
 20
8.846219
 30
0.0
 11
-1.653656
 21
8.834171
 31
0.0
  0
LINE
  8
0
  6
CONTINUOUS
 62
     7
  5
2F2
 10
-1.653656
 20
8.834171
 30
0.0
 11
-1.65365
 21
8.822123
 31
0.0
  0
LINE
  8
0
  6
CONTINUOUS
 62
     7
  5
2F3
 10
-1.65365
 20
8.822123
 30
0.0
 11
-1.653643
 21
8.810074
 31
0.0
  0
LINE
  8
0
  6
CONTINUOUS
 62
     7
  5
2F4
 10
-1.653643
 20
8.810074
 30
0.0
 11
-1.653637
 21
8.798024
 31
0.0
  0
LINE
  8
0
  6
CONTINUOUS
 62
     7
  5
2F5
 10
-1.653637
 20
8.798024
 30
0.0
 11
-1.653631
 21
8.785975
 31
0.0
  0
LINE
  8
0
  6
CONTINUOUS
 62
     7
  5
2F6
 10
-1.653631
 20
8.785975
 30
0.0
 11
-1.653625
 21
8.773925
 31
0.0
  0
LINE
  8
0
  6
CONTINUOUS
 62
     7
  5
2F7
 10
-1.653625
 20
8.773925
 30
0.0
 11
-1.653619
 21
8.761874
 31
0.0
  0
LINE
  8
0
  6
CONTINUOUS
 62
     7
  5
2F8
 10
-1.653619
 20
8.761874
 30
0.0
 11
-1.653614
 21
8.749823
 31
0.0
  0
LINE
  8
0
  6
CONTINUOUS
 62
     7
  5
2F9
 10
-1.653614
 20
8.749823
 30
0.0
 11
-1.653608
 21
8.737772
 31
0.0
  0
LINE
  8
0
  6
CONTINUOUS
 62
     7
  5
2FA
 10
-1.653608
 20
8.737772
 30
0.0
 11
-1.653603
 21
8.725721
 31
0.0
  0
LINE
  8
0
  6
CONTINUOUS
 62
     7
  5
2FB
 10
-1.653603
 20
8.725721
 30
0.0
 11
-1.653598
 21
8.713669
 31
0.0
  0
LINE
  8
0
  6
CONTINUOUS
 62
     7
  5
2FC
 10
-1.653598
 20
8.713669
 30
0.0
 11
-1.653594
 21
8.701617
 31
0.0
  0
LINE
  8
0
  6
CONTINUOUS
 62
     7
  5
2FD
 10
-1.653594
 20
8.701617
 30
0.0
 11
-1.653589
 21
8.689565
 31
0.0
  0
LINE
  8
0
  6
CONTINUOUS
 62
     7
  5
2FE
 10
-1.653589
 20
8.689565
 30
0.0
 11
-1.653585
 21
8.677512
 31
0.0
  0
LINE
  8
0
  6
CONTINUOUS
 62
     7
  5
2FF
 10
-1.653585
 20
8.677512
 30
0.0
 11
-1.653581
 21
8.66546
 31
0.0
  0
LINE
  8
0
  6
CONTINUOUS
 62
     7
  5
300
 10
-1.653581
 20
8.66546
 30
0.0
 11
-1.653577
 21
8.653406
 31
0.0
  0
LINE
  8
0
  6
CONTINUOUS
 62
     7
  5
301
 10
-1.653577
 20
8.653406
 30
0.0
 11
-1.653573
 21
8.641353
 31
0.0
  0
LINE
  8
0
  6
CONTINUOUS
 62
     7
  5
302
 10
-1.653573
 20
8.641353
 30
0.0
 11
-1.65357
 21
8.6293
 31
0.0
  0
LINE
  8
0
  6
CONTINUOUS
 62
     7
  5
303
 10
-1.65357
 20
8.6293
 30
0.0
 11
-1.653567
 21
8.617246
 31
0.0
  0
LINE
  8
0
  6
CONTINUOUS
 62
     7
  5
304
 10
-1.653567
 20
8.617246
 30
0.0
 11
-1.653564
 21
8.605192
 31
0.0
  0
LINE
  8
0
  6
CONTINUOUS
 62
     7
  5
305
 10
-1.653564
 20
8.605192
 30
0.0
 11
-1.653561
 21
8.593138
 31
0.0
  0
LINE
  8
0
  6
CONTINUOUS
 62
     7
  5
306
 10
-1.653561
 20
8.593138
 30
0.0
 11
-1.653558
 21
8.581084
 31
0.0
  0
LINE
  8
0
  6
CONTINUOUS
 62
     7
  5
307
 10
-1.653558
 20
8.581084
 30
0.0
 11
-1.653556
 21
8.569029
 31
0.0
  0
LINE
  8
0
  6
CONTINUOUS
 62
     7
  5
308
 10
-1.653556
 20
8.569029
 30
0.0
 11
-1.653554
 21
8.556975
 31
0.0
  0
LINE
  8
0
  6
CONTINUOUS
 62
     7
  5
309
 10
-1.653554
 20
8.556975
 30
0.0
 11
-1.653552
 21
8.54492
 31
0.0
  0
LINE
  8
0
  6
CONTINUOUS
 62
     7
  5
30A
 10
-1.653552
 20
8.54492
 30
0.0
 11
-1.65355
 21
8.532865
 31
0.0
  0
LINE
  8
0
  6
CONTINUOUS
 62
     7
  5
30B
 10
-1.65355
 20
8.532865
 30
0.0
 11
-1.653548
 21
8.52081
 31
0.0
  0
LINE
  8
0
  6
CONTINUOUS
 62
     7
  5
30C
 10
-1.653548
 20
8.52081
 30
0.0
 11
-1.653547
 21
8.508755
 31
0.0
  0
LINE
  8
0
  6
CONTINUOUS
 62
     7
  5
30D
 10
-1.653547
 20
8.508755
 30
0.0
 11
-1.653546
 21
8.4967
 31
0.0
  0
LINE
  8
0
  6
CONTINUOUS
 62
     7
  5
30E
 10
-1.653546
 20
8.4967
 30
0.0
 11
-1.653545
 21
8.484645
 31
0.0
  0
LINE
  8
0
  6
CONTINUOUS
 62
     7
  5
30F
 10
-1.653545
 20
8.484645
 30
0.0
 11
-1.653544
 21
8.47259
 31
0.0
  0
LINE
  8
0
  6
CONTINUOUS
 62
     7
  5
310
 10
-1.653544
 20
8.47259
 30
0.0
 11
-1.653544
 21
8.460535
 31
0.0
  0
LINE
  8
0
  6
CONTINUOUS
 62
     7
  5
311
 10
-1.653544
 20
8.460535
 30
0.0
 11
-1.653543
 21
8.44848
 31
0.0
  0
LINE
  8
0
  6
CONTINUOUS
 62
     7
  5
312
 10
-1.653543
 20
8.44848
 30
0.0
 11
-1.653543
 21
8.436424
 31
0.0
  0
LINE
  8
0
  6
CONTINUOUS
 62
     7
  5
313
 10
-1.850394
 20
8.858267
 30
0.0
 11
-1.653671
 21
8.858267
 31
0.0
  0
LINE
  8
0
  6
CONTINUOUS
 62
     7
  5
314
 10
-3.267589
 20
8.858267
 30
0.0
 11
-3.070866
 21
8.858267
 31
0.0
  0
LINE
  8
0
  6
CONTINUOUS
 62
     7
  5
315
 10
-1.653543
 20
6.197351
 30
0.0
 11
-1.653543
 21
4.834645
 31
0.0
  0
LINE
  8
0
  6
CONTINUOUS
 62
     7
  5
316
 10
-1.653543
 20
8.436424
 30
0.0
 11
-1.653543
 21
6.197351
 31
0.0
  0
LINE
  8
0
  6
CONTINUOUS
 62
     7
  5
317
 10
2.677165
 20
8.436424
 30
0.0
 11
2.677165
 21
6.197351
 31
0.0
  0
LINE
  8
0
  6
CONTINUOUS
 62
     7
  5
318
 10
2.677165
 20
6.197351
 30
0.0
 11
2.677165
 21
4.834645
 31
0.0
  0
LINE
  8
0
  6
CONTINUOUS
 62
     7
  5
319
 10
1.259842
 20
8.858267
 30
0.0
 11
2.480314
 21
8.858267
 31
0.0
  0
LINE
  8
0
  6
CONTINUOUS
 62
     7
  5
31A
 10
2.677037
 20
8.858267
 30
0.0
 11
2.677045
 21
8.846219
 31
0.0
  0
LINE
  8
0
  6
CONTINUOUS
 62
     7
  5
31B
 10
2.677045
 20
8.846219
 30
0.0
 11
2.677052
 21
8.834171
 31
0.0
  0
LINE
  8
0
  6
CONTINUOUS
 62
     7
  5
31C
 10
2.677052
 20
8.834171
 30
0.0
 11
2.677058
 21
8.822123
 31
0.0
  0
LINE
  8
0
  6
CONTINUOUS
 62
     7
  5
31D
 10
2.677058
 20
8.822123
 30
0.0
 11
2.677065
 21
8.810074
 31
0.0
  0
LINE
  8
0
  6
CONTINUOUS
 62
     7
  5
31E
 10
2.677065
 20
8.810074
 30
0.0
 11
2.677071
 21
8.798024
 31
0.0
  0
LINE
  8
0
  6
CONTINUOUS
 62
     7
  5
31F
 10
2.677071
 20
8.798024
 30
0.0
 11
2.677077
 21
8.785975
 31
0.0
  0
LINE
  8
0
  6
CONTINUOUS
 62
     7
  5
320
 10
2.677077
 20
8.785975
 30
0.0
 11
2.677083
 21
8.773925
 31
0.0
  0
LINE
  8
0
  6
CONTINUOUS
 62
     7
  5
321
 10
2.677083
 20
8.773925
 30
0.0
 11
2.677089
 21
8.761874
 31
0.0
  0
LINE
  8
0
  6
CONTINUOUS
 62
     7
  5
322
 10
2.677089
 20
8.761874
 30
0.0
 11
2.677094
 21
8.749823
 31
0.0
  0
LINE
  8
0
  6
CONTINUOUS
 62
     7
  5
323
 10
2.677094
 20
8.749823
 30
0.0
 11
2.6771
 21
8.737772
 31
0.0
  0
LINE
  8
0
  6
CONTINUOUS
 62
     7
  5
324
 10
2.6771
 20
8.737772
 30
0.0
 11
2.677105
 21
8.725721
 31
0.0
  0
LINE
  8
0
  6
CONTINUOUS
 62
     7
  5
325
 10
2.677105
 20
8.725721
 30
0.0
 11
2.67711
 21
8.713669
 31
0.0
  0
LINE
  8
0
  6
CONTINUOUS
 62
     7
  5
326
 10
2.67711
 20
8.713669
 30
0.0
 11
2.677114
 21
8.701617
 31
0.0
  0
LINE
  8
0
  6
CONTINUOUS
 62
     7
  5
327
 10
2.677114
 20
8.701617
 30
0.0
 11
2.677119
 21
8.689565
 31
0.0
  0
LINE
  8
0
  6
CONTINUOUS
 62
     7
  5
328
 10
2.677119
 20
8.689565
 30
0.0
 11
2.677123
 21
8.677512
 31
0.0
  0
LINE
  8
0
  6
CONTINUOUS
 62
     7
  5
329
 10
2.677123
 20
8.677512
 30
0.0
 11
2.677127
 21
8.66546
 31
0.0
  0
LINE
  8
0
  6
CONTINUOUS
 62
     7
  5
32A
 10
2.677127
 20
8.66546
 30
0.0
 11
2.677131
 21
8.653406
 31
0.0
  0
LINE
  8
0
  6
CONTINUOUS
 62
     7
  5
32B
 10
2.677131
 20
8.653406
 30
0.0
 11
2.677135
 21
8.641353
 31
0.0
  0
LINE
  8
0
  6
CONTINUOUS
 62
     7
  5
32C
 10
2.677135
 20
8.641353
 30
0.0
 11
2.677138
 21
8.6293
 31
0.0
  0
LINE
  8
0
  6
CONTINUOUS
 62
     7
  5
32D
 10
2.677138
 20
8.6293
 30
0.0
 11
2.677141
 21
8.617246
 31
0.0
  0
LINE
  8
0
  6
CONTINUOUS
 62
     7
  5
32E
 10
2.677141
 20
8.617246
 30
0.0
 11
2.677144
 21
8.605192
 31
0.0
  0
LINE
  8
0
  6
CONTINUOUS
 62
     7
  5
32F
 10
2.677144
 20
8.605192
 30
0.0
 11
2.677147
 21
8.593138
 31
0.0
  0
LINE
  8
0
  6
CONTINUOUS
 62
     7
  5
330
 10
2.677147
 20
8.593138
 30
0.0
 11
2.67715
 21
8.581084
 31
0.0
  0
LINE
  8
0
  6
CONTINUOUS
 62
     7
  5
331
 10
2.67715
 20
8.581084
 30
0.0
 11
2.677152
 21
8.569029
 31
0.0
  0
LINE
  8
0
  6
CONTINUOUS
 62
     7
  5
332
 10
2.677152
 20
8.569029
 30
0.0
 11
2.677154
 21
8.556975
 31
0.0
  0
LINE
  8
0
  6
CONTINUOUS
 62
     7
  5
333
 10
2.677154
 20
8.556975
 30
0.0
 11
2.677156
 21
8.54492
 31
0.0
  0
LINE
  8
0
  6
CONTINUOUS
 62
     7
  5
334
 10
2.677156
 20
8.54492
 30
0.0
 11
2.677158
 21
8.532865
 31
0.0
  0
LINE
  8
0
  6
CONTINUOUS
 62
     7
  5
335
 10
2.677158
 20
8.532865
 30
0.0
 11
2.67716
 21
8.52081
 31
0.0
  0
LINE
  8
0
  6
CONTINUOUS
 62
     7
  5
336
 10
2.67716
 20
8.52081
 30
0.0
 11
2.677161
 21
8.508755
 31
0.0
  0
LINE
  8
0
  6
CONTINUOUS
 62
     7
  5
337
 10
2.677161
 20
8.508755
 30
0.0
 11
2.677162
 21
8.4967
 31
0.0
  0
LINE
  8
0
  6
CONTINUOUS
 62
     7
  5
338
 10
2.677162
 20
8.4967
 30
0.0
 11
2.677163
 21
8.484645
 31
0.0
  0
LINE
  8
0
  6
CONTINUOUS
 62
     7
  5
339
 10
2.677163
 20
8.484645
 30
0.0
 11
2.677164
 21
8.47259
 31
0.0
  0
LINE
  8
0
  6
CONTINUOUS
 62
     7
  5
33A
 10
2.677164
 20
8.47259
 30
0.0
 11
2.677164
 21
8.460535
 31
0.0
  0
LINE
  8
0
  6
CONTINUOUS
 62
     7
  5
33B
 10
2.677164
 20
8.460535
 30
0.0
 11
2.677165
 21
8.44848
 31
0.0
  0
LINE
  8
0
  6
CONTINUOUS
 62
     7
  5
33C
 10
2.677165
 20
8.44848
 30
0.0
 11
2.677165
 21
8.436424
 31
0.0
  0
LINE
  8
0
  6
CONTINUOUS
 62
     7
  5
33D
 10
2.480314
 20
8.858267
 30
0.0
 11
2.677037
 21
8.858267
 31
0.0
  0
LINE
  8
0
  6
CONTINUOUS
 62
     7
  5
33E
 10
1.062991
 20
8.436424
 30
0.0
 11
1.062991
 21
8.44848
 31
0.0
  0
LINE
  8
0
  6
CONTINUOUS
 62
     7
  5
33F
 10
1.062991
 20
8.44848
 30
0.0
 11
1.062992
 21
8.460535
 31
0.0
  0
LINE
  8
0
  6
CONTINUOUS
 62
     7
  5
340
 10
1.062992
 20
8.460535
 30
0.0
 11
1.062992
 21
8.47259
 31
0.0
  0
LINE
  8
0
  6
CONTINUOUS
 62
     7
  5
341
 10
1.062992
 20
8.47259
 30
0.0
 11
1.062993
 21
8.484645
 31
0.0
  0
LINE
  8
0
  6
CONTINUOUS
 62
     7
  5
342
 10
1.062993
 20
8.484645
 30
0.0
 11
1.062994
 21
8.4967
 31
0.0
  0
LINE
  8
0
  6
CONTINUOUS
 62
     7
  5
343
 10
1.062994
 20
8.4967
 30
0.0
 11
1.062995
 21
8.508755
 31
0.0
  0
LINE
  8
0
  6
CONTINUOUS
 62
     7
  5
344
 10
1.062995
 20
8.508755
 30
0.0
 11
1.062996
 21
8.52081
 31
0.0
  0
LINE
  8
0
  6
CONTINUOUS
 62
     7
  5
345
 10
1.062996
 20
8.52081
 30
0.0
 11
1.062998
 21
8.532865
 31
0.0
  0
LINE
  8
0
  6
CONTINUOUS
 62
     7
  5
346
 10
1.062998
 20
8.532865
 30
0.0
 11
1.063
 21
8.54492
 31
0.0
  0
LINE
  8
0
  6
CONTINUOUS
 62
     7
  5
347
 10
1.063
 20
8.54492
 30
0.0
 11
1.063002
 21
8.556975
 31
0.0
  0
LINE
  8
0
  6
CONTINUOUS
 62
     7
  5
348
 10
1.063002
 20
8.556975
 30
0.0
 11
1.063004
 21
8.569029
 31
0.0
  0
LINE
  8
0
  6
CONTINUOUS
 62
     7
  5
349
 10
1.063004
 20
8.569029
 30
0.0
 11
1.063006
 21
8.581084
 31
0.0
  0
LINE
  8
0
  6
CONTINUOUS
 62
     7
  5
34A
 10
1.063006
 20
8.581084
 30
0.0
 11
1.063009
 21
8.593138
 31
0.0
  0
LINE
  8
0
  6
CONTINUOUS
 62
     7
  5
34B
 10
1.063009
 20
8.593138
 30
0.0
 11
1.063012
 21
8.605192
 31
0.0
  0
LINE
  8
0
  6
CONTINUOUS
 62
     7
  5
34C
 10
1.063012
 20
8.605192
 30
0.0
 11
1.063015
 21
8.617246
 31
0.0
  0
LINE
  8
0
  6
CONTINUOUS
 62
     7
  5
34D
 10
1.063015
 20
8.617246
 30
0.0
 11
1.063018
 21
8.6293
 31
0.0
  0
LINE
  8
0
  6
CONTINUOUS
 62
     7
  5
34E
 10
1.063018
 20
8.6293
 30
0.0
 11
1.063021
 21
8.641353
 31
0.0
  0
LINE
  8
0
  6
CONTINUOUS
 62
     7
  5
34F
 10
1.063021
 20
8.641353
 30
0.0
 11
1.063025
 21
8.653406
 31
0.0
  0
LINE
  8
0
  6
CONTINUOUS
 62
     7
  5
350
 10
1.063025
 20
8.653406
 30
0.0
 11
1.063029
 21
8.66546
 31
0.0
  0
LINE
  8
0
  6
CONTINUOUS
 62
     7
  5
351
 10
1.063029
 20
8.66546
 30
0.0
 11
1.063033
 21
8.677512
 31
0.0
  0
LINE
  8
0
  6
CONTINUOUS
 62
     7
  5
352
 10
1.063033
 20
8.677512
 30
0.0
 11
1.063037
 21
8.689565
 31
0.0
  0
LINE
  8
0
  6
CONTINUOUS
 62
     7
  5
353
 10
1.063037
 20
8.689565
 30
0.0
 11
1.063042
 21
8.701617
 31
0.0
  0
LINE
  8
0
  6
CONTINUOUS
 62
     7
  5
354
 10
1.063042
 20
8.701617
 30
0.0
 11
1.063046
 21
8.713669
 31
0.0
  0
LINE
  8
0
  6
CONTINUOUS
 62
     7
  5
355
 10
1.063046
 20
8.713669
 30
0.0
 11
1.063051
 21
8.725721
 31
0.0
  0
LINE
  8
0
  6
CONTINUOUS
 62
     7
  5
356
 10
1.063051
 20
8.725721
 30
0.0
 11
1.063056
 21
8.737772
 31
0.0
  0
LINE
  8
0
  6
CONTINUOUS
 62
     7
  5
357
 10
1.063056
 20
8.737772
 30
0.0
 11
1.063062
 21
8.749823
 31
0.0
  0
LINE
  8
0
  6
CONTINUOUS
 62
     7
  5
358
 10
1.063062
 20
8.749823
 30
0.0
 11
1.063067
 21
8.761874
 31
0.0
  0
LINE
  8
0
  6
CONTINUOUS
 62
     7
  5
359
 10
1.063067
 20
8.761874
 30
0.0
 11
1.063073
 21
8.773925
 31
0.0
  0
LINE
  8
0
  6
CONTINUOUS
 62
     7
  5
35A
 10
1.063073
 20
8.773925
 30
0.0
 11
1.063079
 21
8.785975
 31
0.0
  0
LINE
  8
0
  6
CONTINUOUS
 62
     7
  5
35B
 10
1.063079
 20
8.785975
 30
0.0
 11
1.063085
 21
8.798024
 31
0.0
  0
LINE
  8
0
  6
CONTINUOUS
 62
     7
  5
35C
 10
1.063085
 20
8.798024
 30
0.0
 11
1.063091
 21
8.810074
 31
0.0
  0
LINE
  8
0
  6
CONTINUOUS
 62
     7
  5
35D
 10
1.063091
 20
8.810074
 30
0.0
 11
1.063098
 21
8.822123
 31
0.0
  0
LINE
  8
0
  6
CONTINUOUS
 62
     7
  5
35E
 10
1.063098
 20
8.822123
 30
0.0
 11
1.063104
 21
8.834171
 31
0.0
  0
LINE
  8
0
  6
CONTINUOUS
 62
     7
  5
35F
 10
1.063104
 20
8.834171
 30
0.0
 11
1.063111
 21
8.846219
 31
0.0
  0
LINE
  8
0
  6
CONTINUOUS
 62
     7
  5
360
 10
1.063111
 20
8.846219
 30
0.0
 11
1.063119
 21
8.858267
 31
0.0
  0
LINE
  8
0
  6
CONTINUOUS
 62
     7
  5
361
 10
1.063119
 20
8.858267
 30
0.0
 11
1.259842
 21
8.858267
 31
0.0
  0
LINE
  8
0
  6
CONTINUOUS
 62
     7
  5
362
 10
1.062991
 20
6.197351
 30
0.0
 11
1.062991
 21
8.436424
 31
0.0
  0
LINE
  8
0
  6
CONTINUOUS
 62
     7
  5
363
 10
1.062991
 20
4.834645
 30
0.0
 11
1.062991
 21
6.197351
 31
0.0
  0
LINE
  8
0
  6
CONTINUOUS
 62
     7
  5
364
 10
0.511683
 20
8.858267
 30
0.0
 11
1.063119
 21
8.858267
 31
0.0
  0
LINE
  8
0
  6
CONTINUOUS
 62
     7
  5
365
 10
0.511683
 20
8.858267
 30
0.0
 11
0.511691
 21
8.846219
 31
0.0
  0
LINE
  8
0
  6
CONTINUOUS
 62
     7
  5
366
 10
0.511691
 20
8.846219
 30
0.0
 11
0.511698
 21
8.834171
 31
0.0
  0
LINE
  8
0
  6
CONTINUOUS
 62
     7
  5
367
 10
0.511698
 20
8.834171
 30
0.0
 11
0.511704
 21
8.822123
 31
0.0
  0
LINE
  8
0
  6
CONTINUOUS
 62
     7
  5
368
 10
0.511704
 20
8.822123
 30
0.0
 11
0.511711
 21
8.810074
 31
0.0
  0
LINE
  8
0
  6
CONTINUOUS
 62
     7
  5
369
 10
0.511711
 20
8.810074
 30
0.0
 11
0.511717
 21
8.798024
 31
0.0
  0
LINE
  8
0
  6
CONTINUOUS
 62
     7
  5
36A
 10
0.511717
 20
8.798024
 30
0.0
 11
0.511723
 21
8.785975
 31
0.0
  0
LINE
  8
0
  6
CONTINUOUS
 62
     7
  5
36B
 10
0.511723
 20
8.785975
 30
0.0
 11
0.511729
 21
8.773925
 31
0.0
  0
LINE
  8
0
  6
CONTINUOUS
 62
     7
  5
36C
 10
0.511729
 20
8.773925
 30
0.0
 11
0.511735
 21
8.761874
 31
0.0
  0
LINE
  8
0
  6
CONTINUOUS
 62
     7
  5
36D
 10
0.511735
 20
8.761874
 30
0.0
 11
0.51174
 21
8.749823
 31
0.0
  0
LINE
  8
0
  6
CONTINUOUS
 62
     7
  5
36E
 10
0.51174
 20
8.749823
 30
0.0
 11
0.511746
 21
8.737772
 31
0.0
  0
LINE
  8
0
  6
CONTINUOUS
 62
     7
  5
36F
 10
0.511746
 20
8.737772
 30
0.0
 11
0.511751
 21
8.725721
 31
0.0
  0
LINE
  8
0
  6
CONTINUOUS
 62
     7
  5
370
 10
0.511751
 20
8.725721
 30
0.0
 11
0.511756
 21
8.713669
 31
0.0
  0
LINE
  8
0
  6
CONTINUOUS
 62
     7
  5
371
 10
0.511756
 20
8.713669
 30
0.0
 11
0.51176
 21
8.701617
 31
0.0
  0
LINE
  8
0
  6
CONTINUOUS
 62
     7
  5
372
 10
0.51176
 20
8.701617
 30
0.0
 11
0.511765
 21
8.689565
 31
0.0
  0
LINE
  8
0
  6
CONTINUOUS
 62
     7
  5
373
 10
0.511765
 20
8.689565
 30
0.0
 11
0.511769
 21
8.677512
 31
0.0
  0
LINE
  8
0
  6
CONTINUOUS
 62
     7
  5
374
 10
0.511769
 20
8.677512
 30
0.0
 11
0.511773
 21
8.66546
 31
0.0
  0
LINE
  8
0
  6
CONTINUOUS
 62
     7
  5
375
 10
0.511773
 20
8.66546
 30
0.0
 11
0.511777
 21
8.653406
 31
0.0
  0
LINE
  8
0
  6
CONTINUOUS
 62
     7
  5
376
 10
0.511777
 20
8.653406
 30
0.0
 11
0.511781
 21
8.641353
 31
0.0
  0
LINE
  8
0
  6
CONTINUOUS
 62
     7
  5
377
 10
0.511781
 20
8.641353
 30
0.0
 11
0.511784
 21
8.6293
 31
0.0
  0
LINE
  8
0
  6
CONTINUOUS
 62
     7
  5
378
 10
0.511784
 20
8.6293
 30
0.0
 11
0.511787
 21
8.617246
 31
0.0
  0
LINE
  8
0
  6
CONTINUOUS
 62
     7
  5
379
 10
0.511787
 20
8.617246
 30
0.0
 11
0.51179
 21
8.605192
 31
0.0
  0
LINE
  8
0
  6
CONTINUOUS
 62
     7
  5
37A
 10
0.51179
 20
8.605192
 30
0.0
 11
0.511793
 21
8.593138
 31
0.0
  0
LINE
  8
0
  6
CONTINUOUS
 62
     7
  5
37B
 10
0.511793
 20
8.593138
 30
0.0
 11
0.511796
 21
8.581084
 31
0.0
  0
LINE
  8
0
  6
CONTINUOUS
 62
     7
  5
37C
 10
0.511796
 20
8.581084
 30
0.0
 11
0.511798
 21
8.569029
 31
0.0
  0
LINE
  8
0
  6
CONTINUOUS
 62
     7
  5
37D
 10
0.511798
 20
8.569029
 30
0.0
 11
0.5118
 21
8.556975
 31
0.0
  0
LINE
  8
0
  6
CONTINUOUS
 62
     7
  5
37E
 10
0.5118
 20
8.556975
 30
0.0
 11
0.511802
 21
8.54492
 31
0.0
  0
LINE
  8
0
  6
CONTINUOUS
 62
     7
  5
37F
 10
0.511802
 20
8.54492
 30
0.0
 11
0.511804
 21
8.532865
 31
0.0
  0
LINE
  8
0
  6
CONTINUOUS
 62
     7
  5
380
 10
0.511804
 20
8.532865
 30
0.0
 11
0.511806
 21
8.52081
 31
0.0
  0
LINE
  8
0
  6
CONTINUOUS
 62
     7
  5
381
 10
0.511806
 20
8.52081
 30
0.0
 11
0.511807
 21
8.508755
 31
0.0
  0
LINE
  8
0
  6
CONTINUOUS
 62
     7
  5
382
 10
0.511807
 20
8.508755
 30
0.0
 11
0.511808
 21
8.4967
 31
0.0
  0
LINE
  8
0
  6
CONTINUOUS
 62
     7
  5
383
 10
0.511808
 20
8.4967
 30
0.0
 11
0.511809
 21
8.484645
 31
0.0
  0
LINE
  8
0
  6
CONTINUOUS
 62
     7
  5
384
 10
0.511809
 20
8.484645
 30
0.0
 11
0.51181
 21
8.47259
 31
0.0
  0
LINE
  8
0
  6
CONTINUOUS
 62
     7
  5
385
 10
0.51181
 20
8.47259
 30
0.0
 11
0.51181
 21
8.460535
 31
0.0
  0
LINE
  8
0
  6
CONTINUOUS
 62
     7
  5
386
 10
0.51181
 20
8.460535
 30
0.0
 11
0.511811
 21
8.44848
 31
0.0
  0
LINE
  8
0
  6
CONTINUOUS
 62
     7
  5
387
 10
0.511811
 20
8.44848
 30
0.0
 11
0.511811
 21
8.436424
 31
0.0
  0
LINE
  8
0
  6
CONTINUOUS
 62
     7
  5
388
 10
0.511811
 20
8.436424
 30
0.0
 11
0.511811
 21
6.197351
 31
0.0
  0
LINE
  8
0
  6
CONTINUOUS
 62
     7
  5
389
 10
0.511811
 20
6.197351
 30
0.0
 11
1.062991
 21
6.197351
 31
0.0
  0
LINE
  8
0
  6
CONTINUOUS
 62
     7
  5
38A
 10
0.511811
 20
6.197351
 30
0.0
 11
0.511811
 21
4.834645
 31
0.0
  0
LINE
  8
0
  6
CONTINUOUS
 62
     7
  5
38B
 10
2.677165
 20
6.197351
 30
0.0
 11
2.945123
 21
6.197351
 31
0.0
  0
LINE
  8
0
  6
CONTINUOUS
 62
     7
  5
38C
 10
-1.102363
 20
6.197351
 30
0.0
 11
-1.102363
 21
8.436424
 31
0.0
  0
LINE
  8
0
  6
CONTINUOUS
 62
     7
  5
38D
 10
-1.102363
 20
4.834645
 30
0.0
 11
-1.102363
 21
6.197351
 31
0.0
  0
LINE
  8
0
  6
CONTINUOUS
 62
     7
  5
38E
 10
-1.102235
 20
8.858267
 30
0.0
 11
-0.905512
 21
8.858267
 31
0.0
  0
LINE
  8
0
  6
CONTINUOUS
 62
     7
  5
38F
 10
-1.102363
 20
8.436424
 30
0.0
 11
-1.102363
 21
8.44848
 31
0.0
  0
LINE
  8
0
  6
CONTINUOUS
 62
     7
  5
390
 10
-1.102363
 20
8.44848
 30
0.0
 11
-1.102362
 21
8.460535
 31
0.0
  0
LINE
  8
0
  6
CONTINUOUS
 62
     7
  5
391
 10
-1.102362
 20
8.460535
 30
0.0
 11
-1.102362
 21
8.47259
 31
0.0
  0
LINE
  8
0
  6
CONTINUOUS
 62
     7
  5
392
 10
-1.102362
 20
8.47259
 30
0.0
 11
-1.102361
 21
8.484645
 31
0.0
  0
LINE
  8
0
  6
CONTINUOUS
 62
     7
  5
393
 10
-1.102361
 20
8.484645
 30
0.0
 11
-1.10236
 21
8.4967
 31
0.0
  0
LINE
  8
0
  6
CONTINUOUS
 62
     7
  5
394
 10
-1.10236
 20
8.4967
 30
0.0
 11
-1.102359
 21
8.508755
 31
0.0
  0
LINE
  8
0
  6
CONTINUOUS
 62
     7
  5
395
 10
-1.102359
 20
8.508755
 30
0.0
 11
-1.102358
 21
8.52081
 31
0.0
  0
LINE
  8
0
  6
CONTINUOUS
 62
     7
  5
396
 10
-1.102358
 20
8.52081
 30
0.0
 11
-1.102356
 21
8.532865
 31
0.0
  0
LINE
  8
0
  6
CONTINUOUS
 62
     7
  5
397
 10
-1.102356
 20
8.532865
 30
0.0
 11
-1.102354
 21
8.54492
 31
0.0
  0
LINE
  8
0
  6
CONTINUOUS
 62
     7
  5
398
 10
-1.102354
 20
8.54492
 30
0.0
 11
-1.102352
 21
8.556975
 31
0.0
  0
LINE
  8
0
  6
CONTINUOUS
 62
     7
  5
399
 10
-1.102352
 20
8.556975
 30
0.0
 11
-1.10235
 21
8.569029
 31
0.0
  0
LINE
  8
0
  6
CONTINUOUS
 62
     7
  5
39A
 10
-1.10235
 20
8.569029
 30
0.0
 11
-1.102348
 21
8.581084
 31
0.0
  0
LINE
  8
0
  6
CONTINUOUS
 62
     7
  5
39B
 10
-1.102348
 20
8.581084
 30
0.0
 11
-1.102345
 21
8.593138
 31
0.0
  0
LINE
  8
0
  6
CONTINUOUS
 62
     7
  5
39C
 10
-1.102345
 20
8.593138
 30
0.0
 11
-1.102342
 21
8.605192
 31
0.0
  0
LINE
  8
0
  6
CONTINUOUS
 62
     7
  5
39D
 10
-1.102342
 20
8.605192
 30
0.0
 11
-1.102339
 21
8.617246
 31
0.0
  0
LINE
  8
0
  6
CONTINUOUS
 62
     7
  5
39E
 10
-1.102339
 20
8.617246
 30
0.0
 11
-1.102336
 21
8.6293
 31
0.0
  0
LINE
  8
0
  6
CONTINUOUS
 62
     7
  5
39F
 10
-1.102336
 20
8.6293
 30
0.0
 11
-1.102333
 21
8.641353
 31
0.0
  0
LINE
  8
0
  6
CONTINUOUS
 62
     7
  5
3A0
 10
-1.102333
 20
8.641353
 30
0.0
 11
-1.102329
 21
8.653406
 31
0.0
  0
LINE
  8
0
  6
CONTINUOUS
 62
     7
  5
3A1
 10
-1.102329
 20
8.653406
 30
0.0
 11
-1.102325
 21
8.66546
 31
0.0
  0
LINE
  8
0
  6
CONTINUOUS
 62
     7
  5
3A2
 10
-1.102325
 20
8.66546
 30
0.0
 11
-1.102321
 21
8.677512
 31
0.0
  0
LINE
  8
0
  6
CONTINUOUS
 62
     7
  5
3A3
 10
-1.102321
 20
8.677512
 30
0.0
 11
-1.102317
 21
8.689565
 31
0.0
  0
LINE
  8
0
  6
CONTINUOUS
 62
     7
  5
3A4
 10
-1.102317
 20
8.689565
 30
0.0
 11
-1.102312
 21
8.701617
 31
0.0
  0
LINE
  8
0
  6
CONTINUOUS
 62
     7
  5
3A5
 10
-1.102312
 20
8.701617
 30
0.0
 11
-1.102308
 21
8.713669
 31
0.0
  0
LINE
  8
0
  6
CONTINUOUS
 62
     7
  5
3A6
 10
-1.102308
 20
8.713669
 30
0.0
 11
-1.102303
 21
8.725721
 31
0.0
  0
LINE
  8
0
  6
CONTINUOUS
 62
     7
  5
3A7
 10
-1.102303
 20
8.725721
 30
0.0
 11
-1.102298
 21
8.737772
 31
0.0
  0
LINE
  8
0
  6
CONTINUOUS
 62
     7
  5
3A8
 10
-1.102298
 20
8.737772
 30
0.0
 11
-1.102292
 21
8.749823
 31
0.0
  0
LINE
  8
0
  6
CONTINUOUS
 62
     7
  5
3A9
 10
-1.102292
 20
8.749823
 30
0.0
 11
-1.102287
 21
8.761874
 31
0.0
  0
LINE
  8
0
  6
CONTINUOUS
 62
     7
  5
3AA
 10
-1.102287
 20
8.761874
 30
0.0
 11
-1.102281
 21
8.773925
 31
0.0
  0
LINE
  8
0
  6
CONTINUOUS
 62
     7
  5
3AB
 10
-1.102281
 20
8.773925
 30
0.0
 11
-1.102275
 21
8.785975
 31
0.0
  0
LINE
  8
0
  6
CONTINUOUS
 62
     7
  5
3AC
 10
-1.102275
 20
8.785975
 30
0.0
 11
-1.102269
 21
8.798024
 31
0.0
  0
LINE
  8
0
  6
CONTINUOUS
 62
     7
  5
3AD
 10
-1.102269
 20
8.798024
 30
0.0
 11
-1.102263
 21
8.810074
 31
0.0
  0
LINE
  8
0
  6
CONTINUOUS
 62
     7
  5
3AE
 10
-1.102263
 20
8.810074
 30
0.0
 11
-1.102256
 21
8.822123
 31
0.0
  0
LINE
  8
0
  6
CONTINUOUS
 62
     7
  5
3AF
 10
-1.102256
 20
8.822123
 30
0.0
 11
-1.10225
 21
8.834171
 31
0.0
  0
LINE
  8
0
  6
CONTINUOUS
 62
     7
  5
3B0
 10
-1.10225
 20
8.834171
 30
0.0
 11
-1.102243
 21
8.846219
 31
0.0
  0
LINE
  8
0
  6
CONTINUOUS
 62
     7
  5
3B1
 10
-1.102243
 20
8.846219
 30
0.0
 11
-1.102235
 21
8.858267
 31
0.0
  0
LINE
  8
0
  6
CONTINUOUS
 62
     7
  5
3B2
 10
0.31496
 20
8.858267
 30
0.0
 11
0.511683
 21
8.858267
 31
0.0
  0
LINE
  8
0
  6
CONTINUOUS
 62
     7
  5
3B3
 10
-0.905512
 20
8.858267
 30
0.0
 11
0.31496
 21
8.858267
 31
0.0
  0
LINE
  8
0
  6
CONTINUOUS
 62
     7
  5
3B4
 10
-1.653543
 20
6.197351
 30
0.0
 11
-1.102363
 21
6.197351
 31
0.0
  0
LINE
  8
0
  6
CONTINUOUS
 62
     7
  5
3B5
 10
2.677037
 20
8.858267
 30
0.0
 11
2.898677
 21
8.858267
 31
0.0
  0
LINE
  8
0
  6
CONTINUOUS
 62
     7
  5
3B6
 10
-1.653671
 20
8.858267
 30
0.0
 11
-1.102235
 21
8.858267
 31
0.0
  0
LINE
  8
0
  6
CONTINUOUS
 62
     7
  5
3B7
 10
-3.405512
 20
4.834248
 30
0.0
 11
-3.405512
 21
4.824485
 31
0.0
  0
LINE
  8
0
  6
CONTINUOUS
 62
     7
  5
3B8
 10
-3.405512
 20
0.444355
 30
0.0
 11
-3.405512
 21
0.393394
 31
0.0
  0
LINE
  8
0
  6
CONTINUOUS
 62
     7
  5
3B9
 10
2.972441
 20
4.834248
 30
0.0
 11
-3.405512
 21
4.834248
 31
0.0
  0
LINE
  8
0
  6
CONTINUOUS
 62
     7
  5
3BA
 10
-2.572617
 20
0.393394
 30
0.0
 11
-3.405512
 21
0.393394
 31
0.0
  0
LINE
  8
0
  6
CONTINUOUS
 62
     7
  5
3BB
 10
0.577019
 20
0.393394
 30
0.0
 11
-0.577047
 21
0.393394
 31
0.0
  0
LINE
  8
0
  6
CONTINUOUS
 62
     7
  5
3BC
 10
3.405512
 20
0.393394
 30
0.0
 11
2.572589
 21
0.393394
 31
0.0
  0
LINE
  8
0
  6
CONTINUOUS
 62
     7
  5
3BD
 10
3.405512
 20
0.846059
 30
0.0
 11
-3.314961
 21
0.846059
 31
0.0
  0
LINE
  8
0
  6
CONTINUOUS
 62
     7
  5
3BE
 10
-3.405512
 20
0.393394
 30
0.0
 11
-3.405512
 21
0.393303
 31
0.0
  0
LINE
  8
0
  6
CONTINUOUS
 62
     7
  5
3BF
 10
-2.693321
 20
0.393303
 30
0.0
 11
-3.405512
 21
0.393303
 31
0.0
  0
LINE
  8
0
  6
CONTINUOUS
 62
     7
  5
3C0
 10
3.405512
 20
0.393303
 30
0.0
 11
2.693293
 21
0.393303
 31
0.0
  0
LINE
  8
0
  6
CONTINUOUS
 62
     7
  5
3C1
 10
0.456315
 20
0.393303
 30
0.0
 11
-0.456343
 21
0.393303
 31
0.0
  0
LINE
  8
0
  6
CONTINUOUS
 62
     7
  5
3C2
 10
0.456407
 20
0.393394
 30
0.0
 11
0.275591
 21
0.212578
 31
0.0
  0
LINE
  8
0
  6
CONTINUOUS
 62
     7
  5
3C3
 10
0.275591
 20
0.212578
 30
0.0
 11
0.275591
 21
0.142296
 31
0.0
  0
LINE
  8
0
  6
CONTINUOUS
 62
     7
  5
3C4
 10
0.275591
 20
0.142296
 30
0.0
 11
0.275598
 21
0.140987
 31
0.0
  0
LINE
  8
0
  6
CONTINUOUS
 62
     7
  5
3C5
 10
0.275598
 20
0.140987
 30
0.0
 11
0.275621
 21
0.139682
 31
0.0
  0
LINE
  8
0
  6
CONTINUOUS
 62
     7
  5
3C6
 10
0.275621
 20
0.139682
 30
0.0
 11
0.275658
 21
0.138379
 31
0.0
  0
LINE
  8
0
  6
CONTINUOUS
 62
     7
  5
3C7
 10
0.275658
 20
0.138379
 30
0.0
 11
0.275711
 21
0.13708
 31
0.0
  0
LINE
  8
0
  6
CONTINUOUS
 62
     7
  5
3C8
 10
0.275711
 20
0.13708
 30
0.0
 11
0.275779
 21
0.135783
 31
0.0
  0
LINE
  8
0
  6
CONTINUOUS
 62
     7
  5
3C9
 10
0.275779
 20
0.135783
 30
0.0
 11
0.275861
 21
0.13449
 31
0.0
  0
LINE
  8
0
  6
CONTINUOUS
 62
     7
  5
3CA
 10
0.275861
 20
0.13449
 30
0.0
 11
0.275959
 21
0.133199
 31
0.0
  0
LINE
  8
0
  6
CONTINUOUS
 62
     7
  5
3CB
 10
0.275959
 20
0.133199
 30
0.0
 11
0.276071
 21
0.131912
 31
0.0
  0
LINE
  8
0
  6
CONTINUOUS
 62
     7
  5
3CC
 10
0.276071
 20
0.131912
 30
0.0
 11
0.276199
 21
0.130627
 31
0.0
  0
LINE
  8
0
  6
CONTINUOUS
 62
     7
  5
3CD
 10
0.276199
 20
0.130627
 30
0.0
 11
0.276342
 21
0.129346
 31
0.0
  0
LINE
  8
0
  6
CONTINUOUS
 62
     7
  5
3CE
 10
0.276342
 20
0.129346
 30
0.0
 11
0.2765
 21
0.128068
 31
0.0
  0
LINE
  8
0
  6
CONTINUOUS
 62
     7
  5
3CF
 10
0.2765
 20
0.128068
 30
0.0
 11
0.276672
 21
0.126793
 31
0.0
  0
LINE
  8
0
  6
CONTINUOUS
 62
     7
  5
3D0
 10
0.276672
 20
0.126793
 30
0.0
 11
0.27686
 21
0.125522
 31
0.0
  0
LINE
  8
0
  6
CONTINUOUS
 62
     7
  5
3D1
 10
0.27686
 20
0.125522
 30
0.0
 11
0.277063
 21
0.124253
 31
0.0
  0
LINE
  8
0
  6
CONTINUOUS
 62
     7
  5
3D2
 10
0.277063
 20
0.124253
 30
0.0
 11
0.277281
 21
0.122988
 31
0.0
  0
LINE
  8
0
  6
CONTINUOUS
 62
     7
  5
3D3
 10
0.277281
 20
0.122988
 30
0.0
 11
0.277514
 21
0.121726
 31
0.0
  0
LINE
  8
0
  6
CONTINUOUS
 62
     7
  5
3D4
 10
0.277514
 20
0.121726
 30
0.0
 11
0.277762
 21
0.120468
 31
0.0
  0
LINE
  8
0
  6
CONTINUOUS
 62
     7
  5
3D5
 10
0.277762
 20
0.120468
 30
0.0
 11
0.278025
 21
0.119213
 31
0.0
  0
LINE
  8
0
  6
CONTINUOUS
 62
     7
  5
3D6
 10
0.278025
 20
0.119213
 30
0.0
 11
0.278303
 21
0.117961
 31
0.0
  0
LINE
  8
0
  6
CONTINUOUS
 62
     7
  5
3D7
 10
0.278303
 20
0.117961
 30
0.0
 11
0.278596
 21
0.116713
 31
0.0
  0
LINE
  8
0
  6
CONTINUOUS
 62
     7
  5
3D8
 10
0.278596
 20
0.116713
 30
0.0
 11
0.278904
 21
0.115468
 31
0.0
  0
LINE
  8
0
  6
CONTINUOUS
 62
     7
  5
3D9
 10
0.278904
 20
0.115468
 30
0.0
 11
0.279227
 21
0.114227
 31
0.0
  0
LINE
  8
0
  6
CONTINUOUS
 62
     7
  5
3DA
 10
0.279227
 20
0.114227
 30
0.0
 11
0.279565
 21
0.11299
 31
0.0
  0
LINE
  8
0
  6
CONTINUOUS
 62
     7
  5
3DB
 10
0.279565
 20
0.11299
 30
0.0
 11
0.279918
 21
0.111755
 31
0.0
  0
LINE
  8
0
  6
CONTINUOUS
 62
     7
  5
3DC
 10
0.279918
 20
0.111755
 30
0.0
 11
0.280286
 21
0.110525
 31
0.0
  0
LINE
  8
0
  6
CONTINUOUS
 62
     7
  5
3DD
 10
0.280286
 20
0.110525
 30
0.0
 11
0.280669
 21
0.109298
 31
0.0
  0
LINE
  8
0
  6
CONTINUOUS
 62
     7
  5
3DE
 10
0.280669
 20
0.109298
 30
0.0
 11
0.281067
 21
0.108075
 31
0.0
  0
LINE
  8
0
  6
CONTINUOUS
 62
     7
  5
3DF
 10
0.281067
 20
0.108075
 30
0.0
 11
0.281479
 21
0.106856
 31
0.0
  0
LINE
  8
0
  6
CONTINUOUS
 62
     7
  5
3E0
 10
0.281479
 20
0.106856
 30
0.0
 11
0.281907
 21
0.10564
 31
0.0
  0
LINE
  8
0
  6
CONTINUOUS
 62
     7
  5
3E1
 10
0.281907
 20
0.10564
 30
0.0
 11
0.282349
 21
0.104428
 31
0.0
  0
LINE
  8
0
  6
CONTINUOUS
 62
     7
  5
3E2
 10
0.282349
 20
0.104428
 30
0.0
 11
0.282806
 21
0.10322
 31
0.0
  0
LINE
  8
0
  6
CONTINUOUS
 62
     7
  5
3E3
 10
0.282806
 20
0.10322
 30
0.0
 11
0.283278
 21
0.102015
 31
0.0
  0
LINE
  8
0
  6
CONTINUOUS
 62
     7
  5
3E4
 10
0.283278
 20
0.102015
 30
0.0
 11
0.283765
 21
0.100815
 31
0.0
  0
LINE
  8
0
  6
CONTINUOUS
 62
     7
  5
3E5
 10
0.283765
 20
0.100815
 30
0.0
 11
0.284267
 21
0.099618
 31
0.0
  0
LINE
  8
0
  6
CONTINUOUS
 62
     7
  5
3E6
 10
0.284267
 20
0.099618
 30
0.0
 11
0.284783
 21
0.098425
 31
0.0
  0
LINE
  8
0
  6
CONTINUOUS
 62
     7
  5
3E7
 10
0.748032
 20
0.393701
 30
0.0
 11
0.577543
 21
0.393701
 31
0.0
  0
LINE
  8
0
  6
CONTINUOUS
 62
     7
  5
3E8
 10
-2.693229
 20
0.393394
 30
0.0
 11
-2.811032
 21
0.275591
 31
0.0
  0
LINE
  8
0
  6
CONTINUOUS
 62
     7
  5
3E9
 10
-2.401604
 20
0.393701
 30
0.0
 11
-2.572093
 21
0.393701
 31
0.0
  0
LINE
  8
0
  6
CONTINUOUS
 62
     7
  5
3EA
 10
-2.401604
 20
0.393701
 30
0.0
 11
-0.748061
 21
0.393701
 31
0.0
  0
LINE
  8
0
  6
CONTINUOUS
 62
     7
  5
3EB
 10
-0.577571
 20
0.393701
 30
0.0
 11
-0.748061
 21
0.393701
 31
0.0
  0
LINE
  8
0
  6
CONTINUOUS
 62
     7
  5
3EC
 10
0.275591
 20
0.212578
 30
0.0
 11
0.275591
 21
0.098425
 31
0.0
  0
LINE
  8
0
  6
CONTINUOUS
 62
     7
  5
3ED
 10
0.450809
 20
0.387796
 30
0.0
 11
-0.450837
 21
0.387796
 31
0.0
  0
LINE
  8
0
  6
CONTINUOUS
 62
     7
  5
3EE
 10
0.275591
 20
0.098425
 30
0.0
 11
0.275591
 21
0.142296
 31
0.0
  0
LINE
  8
0
  6
CONTINUOUS
 62
     7
  5
3EF
 10
0.748032
 20
0.393701
 30
0.0
 11
2.401575
 21
0.393701
 31
0.0
  0
LINE
  8
0
  6
CONTINUOUS
 62
     7
  5
3F0
 10
2.988169
 20
0.098425
 30
0.0
 11
2.693201
 21
0.393394
 31
0.0
  0
LINE
  8
0
  6
CONTINUOUS
 62
     7
  5
3F1
 10
2.572065
 20
0.393701
 30
0.0
 11
2.401575
 21
0.393701
 31
0.0
  0
LINE
  8
0
  6
CONTINUOUS
 62
     7
  5
3F2
 10
3.858268
 20
0.0
 30
0.0
 11
3.794973
 21
0.0
 31
0.0
  0
LINE
  8
0
  6
CONTINUOUS
 62
     7
  5
3F3
 10
3.858268
 20
0.0
 30
0.0
 11
3.794973
 21
0.0
 31
0.0
  0
LINE
  8
0
  6
CONTINUOUS
 62
     7
  5
3F4
 10
3.794973
 20
0.0
 30
0.0
 11
3.108167
 21
0.0
 31
0.0
  0
LINE
  8
0
  6
CONTINUOUS
 62
     7
  5
3F5
 10
3.108167
 20
0.0
 30
0.0
 11
2.699022
 21
0.0
 31
0.0
  0
LINE
  8
0
  6
CONTINUOUS
 62
     7
  5
3F6
 10
2.699022
 20
0.0
 30
0.0
 11
1.468933
 21
0.0
 31
0.0
  0
LINE
  8
0
  6
CONTINUOUS
 62
     7
  5
3F7
 10
1.468933
 20
0.0
 30
0.0
 11
1.059787
 21
0.0
 31
0.0
  0
LINE
  8
0
  6
CONTINUOUS
 62
     7
  5
3F8
 10
1.059787
 20
0.0
 30
0.0
 11
0.338886
 21
0.0
 31
0.0
  0
LINE
  8
0
  6
CONTINUOUS
 62
     7
  5
3F9
 10
0.338886
 20
0.0
 30
0.0
 11
0.275591
 21
0.0
 31
0.0
  0
LINE
  8
0
  6
CONTINUOUS
 62
     7
  5
3FA
 10
3.710163
 20
0.098425
 30
0.0
 11
3.651121
 21
0.275591
 31
0.0
  0
LINE
  8
0
  6
CONTINUOUS
 62
     7
  5
3FB
 10
2.811004
 20
0.275591
 30
0.0
 11
3.651121
 21
0.275591
 31
0.0
  0
LINE
  8
0
  6
CONTINUOUS
 62
     7
  5
3FC
 10
3.858268
 20
0.0
 30
0.0
 11
3.858268
 21
0.098425
 31
0.0
  0
LINE
  8
0
  6
CONTINUOUS
 62
     7
  5
3FD
 10
3.858268
 20
0.098425
 30
0.0
 11
3.794973
 21
0.098425
 31
0.0
  0
LINE
  8
0
  6
CONTINUOUS
 62
     7
  5
3FE
 10
3.794973
 20
0.098425
 30
0.0
 11
3.108167
 21
0.098425
 31
0.0
  0
LINE
  8
0
  6
CONTINUOUS
 62
     7
  5
3FF
 10
3.108167
 20
0.098425
 30
0.0
 11
2.699022
 21
0.098425
 31
0.0
  0
LINE
  8
0
  6
CONTINUOUS
 62
     7
  5
400
 10
2.699022
 20
0.098425
 30
0.0
 11
1.468933
 21
0.098425
 31
0.0
  0
LINE
  8
0
  6
CONTINUOUS
 62
     7
  5
401
 10
1.468933
 20
0.098425
 30
0.0
 11
1.059787
 21
0.098425
 31
0.0
  0
LINE
  8
0
  6
CONTINUOUS
 62
     7
  5
402
 10
1.059787
 20
0.098425
 30
0.0
 11
0.338886
 21
0.098425
 31
0.0
  0
LINE
  8
0
  6
CONTINUOUS
 62
     7
  5
403
 10
0.338886
 20
0.098425
 30
0.0
 11
0.284783
 21
0.098425
 31
0.0
  0
LINE
  8
0
  6
CONTINUOUS
 62
     7
  5
404
 10
0.275591
 20
0.0
 30
0.0
 11
0.275591
 21
0.098425
 31
0.0
  0
LINE
  8
0
  6
CONTINUOUS
 62
     7
  5
405
 10
-0.275619
 20
0.098425
 30
0.0
 11
-0.275619
 21
0.212578
 31
0.0
  0
LINE
  8
0
  6
CONTINUOUS
 62
     7
  5
406
 10
-0.284811
 20
0.098425
 30
0.0
 11
-0.284295
 21
0.099618
 31
0.0
  0
LINE
  8
0
  6
CONTINUOUS
 62
     7
  5
407
 10
-0.284295
 20
0.099618
 30
0.0
 11
-0.283793
 21
0.100814
 31
0.0
  0
LINE
  8
0
  6
CONTINUOUS
 62
     7
  5
408
 10
-0.283793
 20
0.100814
 30
0.0
 11
-0.283307
 21
0.102014
 31
0.0
  0
LINE
  8
0
  6
CONTINUOUS
 62
     7
  5
409
 10
-0.283307
 20
0.102014
 30
0.0
 11
-0.282835
 21
0.103219
 31
0.0
  0
LINE
  8
0
  6
CONTINUOUS
 62
     7
  5
40A
 10
-0.282835
 20
0.103219
 30
0.0
 11
-0.282378
 21
0.104427
 31
0.0
  0
LINE
  8
0
  6
CONTINUOUS
 62
     7
  5
40B
 10
-0.282378
 20
0.104427
 30
0.0
 11
-0.281935
 21
0.105639
 31
0.0
  0
LINE
  8
0
  6
CONTINUOUS
 62
     7
  5
40C
 10
-0.281935
 20
0.105639
 30
0.0
 11
-0.281508
 21
0.106854
 31
0.0
  0
LINE
  8
0
  6
CONTINUOUS
 62
     7
  5
40D
 10
-0.281508
 20
0.106854
 30
0.0
 11
-0.281095
 21
0.108073
 31
0.0
  0
LINE
  8
0
  6
CONTINUOUS
 62
     7
  5
40E
 10
-0.281095
 20
0.108073
 30
0.0
 11
-0.280698
 21
0.109296
 31
0.0
  0
LINE
  8
0
  6
CONTINUOUS
 62
     7
  5
40F
 10
-0.280698
 20
0.109296
 30
0.0
 11
-0.280315
 21
0.110523
 31
0.0
  0
LINE
  8
0
  6
CONTINUOUS
 62
     7
  5
410
 10
-0.280315
 20
0.110523
 30
0.0
 11
-0.279947
 21
0.111753
 31
0.0
  0
LINE
  8
0
  6
CONTINUOUS
 62
     7
  5
411
 10
-0.279947
 20
0.111753
 30
0.0
 11
-0.279594
 21
0.112987
 31
0.0
  0
LINE
  8
0
  6
CONTINUOUS
 62
     7
  5
412
 10
-0.279594
 20
0.112987
 30
0.0
 11
-0.279256
 21
0.114225
 31
0.0
  0
LINE
  8
0
  6
CONTINUOUS
 62
     7
  5
413
 10
-0.279256
 20
0.114225
 30
0.0
 11
-0.278933
 21
0.115466
 31
0.0
  0
LINE
  8
0
  6
CONTINUOUS
 62
     7
  5
414
 10
-0.278933
 20
0.115466
 30
0.0
 11
-0.278625
 21
0.11671
 31
0.0
  0
LINE
  8
0
  6
CONTINUOUS
 62
     7
  5
415
 10
-0.278625
 20
0.11671
 30
0.0
 11
-0.278332
 21
0.117958
 31
0.0
  0
LINE
  8
0
  6
CONTINUOUS
 62
     7
  5
416
 10
-0.278332
 20
0.117958
 30
0.0
 11
-0.278054
 21
0.11921
 31
0.0
  0
LINE
  8
0
  6
CONTINUOUS
 62
     7
  5
417
 10
-0.278054
 20
0.11921
 30
0.0
 11
-0.277791
 21
0.120465
 31
0.0
  0
LINE
  8
0
  6
CONTINUOUS
 62
     7
  5
418
 10
-0.277791
 20
0.120465
 30
0.0
 11
-0.277543
 21
0.121723
 31
0.0
  0
LINE
  8
0
  6
CONTINUOUS
 62
     7
  5
419
 10
-0.277543
 20
0.121723
 30
0.0
 11
-0.27731
 21
0.122985
 31
0.0
  0
LINE
  8
0
  6
CONTINUOUS
 62
     7
  5
41A
 10
-0.27731
 20
0.122985
 30
0.0
 11
-0.277092
 21
0.12425
 31
0.0
  0
LINE
  8
0
  6
CONTINUOUS
 62
     7
  5
41B
 10
-0.277092
 20
0.12425
 30
0.0
 11
-0.276889
 21
0.125519
 31
0.0
  0
LINE
  8
0
  6
CONTINUOUS
 62
     7
  5
41C
 10
-0.276889
 20
0.125519
 30
0.0
 11
-0.276701
 21
0.12679
 31
0.0
  0
LINE
  8
0
  6
CONTINUOUS
 62
     7
  5
41D
 10
-0.276701
 20
0.12679
 30
0.0
 11
-0.276528
 21
0.128065
 31
0.0
  0
LINE
  8
0
  6
CONTINUOUS
 62
     7
  5
41E
 10
-0.276528
 20
0.128065
 30
0.0
 11
-0.27637
 21
0.129344
 31
0.0
  0
LINE
  8
0
  6
CONTINUOUS
 62
     7
  5
41F
 10
-0.27637
 20
0.129344
 30
0.0
 11
-0.276227
 21
0.130625
 31
0.0
  0
LINE
  8
0
  6
CONTINUOUS
 62
     7
  5
420
 10
-0.276227
 20
0.130625
 30
0.0
 11
-0.2761
 21
0.13191
 31
0.0
  0
LINE
  8
0
  6
CONTINUOUS
 62
     7
  5
421
 10
-0.2761
 20
0.13191
 30
0.0
 11
-0.275987
 21
0.133197
 31
0.0
  0
LINE
  8
0
  6
CONTINUOUS
 62
     7
  5
422
 10
-0.275987
 20
0.133197
 30
0.0
 11
-0.275889
 21
0.134488
 31
0.0
  0
LINE
  8
0
  6
CONTINUOUS
 62
     7
  5
423
 10
-0.275889
 20
0.134488
 30
0.0
 11
-0.275807
 21
0.135782
 31
0.0
  0
LINE
  8
0
  6
CONTINUOUS
 62
     7
  5
424
 10
-0.275807
 20
0.135782
 30
0.0
 11
-0.275739
 21
0.137079
 31
0.0
  0
LINE
  8
0
  6
CONTINUOUS
 62
     7
  5
425
 10
-0.275739
 20
0.137079
 30
0.0
 11
-0.275687
 21
0.138378
 31
0.0
  0
LINE
  8
0
  6
CONTINUOUS
 62
     7
  5
426
 10
-0.275687
 20
0.138378
 30
0.0
 11
-0.275649
 21
0.139681
 31
0.0
  0
LINE
  8
0
  6
CONTINUOUS
 62
     7
  5
427
 10
-0.275649
 20
0.139681
 30
0.0
 11
-0.275627
 21
0.140987
 31
0.0
  0
LINE
  8
0
  6
CONTINUOUS
 62
     7
  5
428
 10
-0.275627
 20
0.140987
 30
0.0
 11
-0.275619
 21
0.142296
 31
0.0
  0
LINE
  8
0
  6
CONTINUOUS
 62
     7
  5
429
 10
-0.275619
 20
0.142296
 30
0.0
 11
-0.275619
 21
0.212578
 31
0.0
  0
LINE
  8
0
  6
CONTINUOUS
 62
     7
  5
42A
 10
-0.275619
 20
0.212578
 30
0.0
 11
-0.456435
 21
0.393394
 31
0.0
  0
LINE
  8
0
  6
CONTINUOUS
 62
     7
  5
42B
 10
-2.480344
 20
0.0
 30
0.0
 11
-2.952785
 21
0.0
 31
0.0
  0
LINE
  8
0
  6
CONTINUOUS
 62
     7
  5
42C
 10
-2.69905
 20
0.177166
 30
0.0
 11
-3.108195
 21
0.177166
 31
0.0
  0
LINE
  8
0
  6
CONTINUOUS
 62
     7
  5
42D
 10
-3.108195
 20
0.275591
 30
0.0
 11
-2.69905
 21
0.275591
 31
0.0
  0
LINE
  8
0
  6
CONTINUOUS
 62
     7
  5
42E
 10
-3.108195
 20
0.177166
 30
0.0
 11
-3.651149
 21
0.177166
 31
0.0
  0
LINE
  8
0
  6
CONTINUOUS
 62
     7
  5
42F
 10
-2.69905
 20
0.177166
 30
0.0
 11
-2.110787
 21
0.177166
 31
0.0
  0
LINE
  8
0
  6
CONTINUOUS
 62
     7
  5
430
 10
-3.651149
 20
0.177166
 30
0.0
 11
-3.710191
 21
0.0
 31
0.0
  0
LINE
  8
0
  6
CONTINUOUS
 62
     7
  5
431
 10
-2.952785
 20
0.0
 30
0.0
 11
-3.710191
 21
0.0
 31
0.0
  0
LINE
  8
0
  6
CONTINUOUS
 62
     7
  5
432
 10
-3.710191
 20
0.0
 30
0.0
 11
-3.795001
 21
0.0
 31
0.0
  0
LINE
  8
0
  6
CONTINUOUS
 62
     7
  5
433
 10
-3.795001
 20
0.0
 30
0.0
 11
-3.858296
 21
0.0
 31
0.0
  0
LINE
  8
0
  6
CONTINUOUS
 62
     7
  5
434
 10
-3.346485
 20
0.0
 30
0.0
 11
-3.48486
 21
0.0
 31
0.0
  0
LINE
  8
0
  6
CONTINUOUS
 62
     7
  5
435
 10
-3.48486
 20
0.0
 30
0.0
 11
-3.710191
 21
0.0
 31
0.0
  0
LINE
  8
0
  6
CONTINUOUS
 62
     7
  5
436
 10
-0.275619
 20
0.0
 30
0.0
 11
-0.338914
 21
0.0
 31
0.0
  0
LINE
  8
0
  6
CONTINUOUS
 62
     7
  5
437
 10
-0.338914
 20
0.0
 30
0.0
 11
-1.059815
 21
0.0
 31
0.0
  0
LINE
  8
0
  6
CONTINUOUS
 62
     7
  5
438
 10
-1.059815
 20
0.0
 30
0.0
 11
-1.468961
 21
0.0
 31
0.0
  0
LINE
  8
0
  6
CONTINUOUS
 62
     7
  5
439
 10
-1.468961
 20
0.0
 30
0.0
 11
-2.008524
 21
0.0
 31
0.0
  0
LINE
  8
0
  6
CONTINUOUS
 62
     7
  5
43A
 10
-2.008524
 20
0.0
 30
0.0
 11
-2.480344
 21
0.0
 31
0.0
  0
LINE
  8
0
  6
CONTINUOUS
 62
     7
  5
43B
 10
-2.110787
 20
0.177166
 30
0.0
 11
-2.008524
 21
0.0
 31
0.0
  0
LINE
  8
0
  6
CONTINUOUS
 62
     7
  5
43C
 10
-2.110787
 20
0.275591
 30
0.0
 11
-2.008524
 21
0.098425
 31
0.0
  0
LINE
  8
0
  6
CONTINUOUS
 62
     7
  5
43D
 10
-3.710191
 20
0.098425
 30
0.0
 11
-3.651149
 21
0.275591
 31
0.0
  0
LINE
  8
0
  6
CONTINUOUS
 62
     7
  5
43E
 10
-2.69905
 20
0.275591
 30
0.0
 11
-2.110787
 21
0.275591
 31
0.0
  0
LINE
  8
0
  6
CONTINUOUS
 62
     7
  5
43F
 10
-3.651149
 20
0.275591
 30
0.0
 11
-3.108195
 21
0.275591
 31
0.0
  0
LINE
  8
0
  6
CONTINUOUS
 62
     7
  5
440
 10
-1.468961
 20
0.098425
 30
0.0
 11
-2.008524
 21
0.098425
 31
0.0
  0
LINE
  8
0
  6
CONTINUOUS
 62
     7
  5
441
 10
-0.284811
 20
0.098425
 30
0.0
 11
-0.338914
 21
0.098425
 31
0.0
  0
LINE
  8
0
  6
CONTINUOUS
 62
     7
  5
442
 10
-0.275619
 20
0.0
 30
0.0
 11
-0.275619
 21
0.142296
 31
0.0
  0
LINE
  8
0
  6
CONTINUOUS
 62
     7
  5
443
 10
-0.338914
 20
0.098425
 30
0.0
 11
-1.059815
 21
0.098425
 31
0.0
  0
LINE
  8
0
  6
CONTINUOUS
 62
     7
  5
444
 10
-1.059815
 20
0.098425
 30
0.0
 11
-1.468961
 21
0.098425
 31
0.0
  0
LINE
  8
0
  6
CONTINUOUS
 62
     7
  5
445
 10
-3.710191
 20
0.098425
 30
0.0
 11
-3.795001
 21
0.098425
 31
0.0
  0
LINE
  8
0
  6
CONTINUOUS
 62
     7
  5
446
 10
-3.795001
 20
0.098425
 30
0.0
 11
-3.858296
 21
0.098425
 31
0.0
  0
LINE
  8
0
  6
CONTINUOUS
 62
     7
  5
447
 10
-3.858296
 20
0.0
 30
0.0
 11
-3.858296
 21
0.098425
 31
0.0
  0
LINE
  8
0
  6
CONTINUOUS
 62
     7
  5
448
 10
1.218504
 20
9.05908
 30
0.0
 11
2.809055
 21
9.05908
 31
0.0
  0
ARC
  8
0
  6
CONTINUOUS
 62
     7
  5
449
 10
2.809055
 20
8.98034
 30
0.0
 40
0.07874
 50
0.0
 51
89.999847
  0
LINE
  8
0
  6
CONTINUOUS
 62
     7
  5
44A
 10
2.887795
 20
8.98034
 30
0.0
 11
2.887795
 21
8.858293
 31
0.0
  0
LINE
  8
0
  6
CONTINUOUS
 62
     7
  5
44B
 10
2.887795
 20
8.858293
 30
0.0
 11
-3.478347
 21
8.858293
 31
0.0
  0
LINE
  8
0
  6
CONTINUOUS
 62
     7
  5
44C
 10
-3.478347
 20
8.858293
 30
0.0
 11
-3.478347
 21
8.987161
 31
0.0
  0
ARC
  8
0
  6
CONTINUOUS
 62
     7
  5
44D
 10
-3.399607
 20
8.987161
 30
0.0
 40
0.07874
 50
95.103811
 51
180.0
  0
ARC
  8
0
  6
CONTINUOUS
 62
     7
  5
44E
 10
-1.129921
 20
-16.423487
 30
0.0
 40
25.590551
 50
84.734603
 51
95.104127
  0
LINE
  8
0
  6
CONTINUOUS
 62
     7
  5
44F
 10
4.404287
 20
5.747
 30
0.0
 11
2.972441
 21
5.747
 31
0.0
  0
LINE
  8
0
  6
CONTINUOUS
 62
     7
  5
450
 10
-2.952785
 20
0.177166
 30
0.0
 11
-2.952785
 21
0.0
 31
0.0
  0
LINE
  8
0
  6
CONTINUOUS
 62
     7
  5
451
 10
-2.480344
 20
0.0
 30
0.0
 11
-2.480344
 21
0.177166
 31
0.0
  0
LINE
  8
0
  6
CONTINUOUS
 62
     3
  5
452
 10
-2.46063
 20
5.614173
 30
0.0
 11
-2.46063
 21
5.811023
 31
0.0
  0
LINE
  8
0
  6
CONTINUOUS
 62
     3
  5
453
 10
-0.295276
 20
5.614173
 30
0.0
 11
-0.295276
 21
5.811023
 31
0.0
  0
LINE
  8
0
  6
CONTINUOUS
 62
     3
  5
454
 10
1.870078
 20
5.614173
 30
0.0
 11
1.870078
 21
5.811023
 31
0.0
  0
LINE
  8
0
  6
CONTINUOUS
 62
     3
  5
455
 10
1.574804
 20
0.0
 30
0.0
 11
1.574804
 21
0.098425
 31
0.0
  0
LINE
  8
0
  6
CONTINUOUS
 62
     3
  5
456
 10
3.346457
 20
0.0
 30
0.0
 11
3.346457
 21
0.098425
 31
0.0
  0
LINE
  8
0
  6
CONTINUOUS
 62
     3
  5
457
 10
-1.574832
 20
0.0
 30
0.0
 11
-1.574832
 21
0.098425
 31
0.0
  0
LINE
  8
0
  6
CONTINUOUS
 62
     3
  5
458
 10
-3.346485
 20
0.0
 30
0.0
 11
-3.346485
 21
0.098425
 31
0.0
  0
ENDSEC
  0
EOF
