999
DXF file: C:\Users\sesa63760\Dev\_Creo\CAD\MCADID0002130_3D-CAD\drw0001_1.dxf
999
Pro/ENGINEER 2019471 by Parametric Technology Corporation
  0
SECTION
  2
HEADER
  9
$ACADVER
  1
AC1024
  9
$DWGCODEPAGE
  3
ANSI_1252
  9
$EXTMAX
 10
77.2401819555
 20
109.2396859085
 30
0.0
  9
$EXTMIN
 10
0.0
 20
0.0
 30
0.0
  9
$LIMMIN
 10
0.0
 20
0.0
  9
$LIMMAX
 10
77.2401819555
 20
109.2396859085
  9
$VIEWCTR
 10
38.6200909778
 20
54.6198429543
  9
$VIEWSIZE
 40
109.2396859085
  9
$CLAYER
  8
0
  9
$LTSCALE
 40
7.1208091555
  9
$CELTYPE
  6
BYLAYER
  9
$DIMSCALE
 40
1.0
  9
$DIMASZ
 40
0.9195259757
  9
$DIMEXO
 40
1.0
  9
$DIMDLI
 40
4.9198317802
  9
$DIMEXE
 40
1.0
  9
$DIMCEN
 40
1.1652233164
  9
$DIMLFAC
 40
1.0
  9
$DIMBLK
  1
_FILLED
  9
$DIMALT
 70
0
  9
$DIMALTF
 40
0.0393700787
  9
$DIMTXT
 40
1.2873363659
  9
$DIMTOL
 70
1
  9
$DIMLIM
 70
0
  9
$DIMTFAC
 40
1.0
  9
$DIMTP
 40
0.01
  9
$DIMTM
 40
0.01
  9
$DIMGAP
 40
0.625
  9
$DIMDSEP
 70
46
  9
$AUNITS
 70
0
  9
$PDMODE
 70
3
  9
$PDSIZE
 40
0.3125
  9
$HANDSEED
  5
357
  9
$TILEMODE
 70
1
  9
$MEASUREMENT
 70
1
  9
$INSUNITS
 70
4
  0
ENDSEC
  0
SECTION
  2
CLASSES
  0
CLASS
  1
ACDBDICTIONARYWDFLT
  2
AcDbDictionaryWithDefault
  3
AutoCAD 2000
 90
0
 91
1
280
0
281
0
  0
CLASS
  1
ACDBPLACEHOLDER
  2
AcDbPlaceHolder
  3
AutoCAD 2000
 90
0
 91
1
280
0
281
0
  0
CLASS
  1
LAYOUT
  2
AcDbLayout
  3
AutoCAD 2000
 90
0
 91
0
280
0
281
0
  0
ENDSEC
  0
SECTION
  2
TABLES
  0
TABLE
  2
VPORT
  5
8
100
AcDbSymbolTable
 70
2
  0
VPORT
  5
1F4
100
AcDbSymbolTableRecord
100
AcDbViewportTableRecord
  2
*ACTIVE
 70
0
 10
0.0
 20
0.0
 11
1.0
 21
1.0
 12
38.6200909778
 22
54.6198429543
 13
0.0
 23
0.0
 14
1.0
 24
1.0
 15
0.0
 25
0.0
 16
0.0
 26
0.0
 36
1.0
 17
0.0
 27
0.0
 37
0.0
 40
109.2396859085
 41
0.7070707071
 42
50.0
 43
0.0
 44
0.0
 50
0.0
 51
0.0
 71
0
 72
100
 73
1
 74
1
 75
0
 76
0
 77
0
 78
0
  0
ENDTAB
  0
TABLE
  2
LTYPE
  5
5
100
AcDbSymbolTable
 70
6
  0
LTYPE
  5
14
100
AcDbSymbolTableRecord
100
AcDbLinetypeTableRecord
  2
BYBLOCK
 70
0
  3

 72
65
 73
0
 40
0.0
  0
LTYPE
  5
15
100
AcDbSymbolTableRecord
100
AcDbLinetypeTableRecord
  2
BYLAYER
 70
0
  3

 72
65
 73
0
 40
0.0
  0
LTYPE
  5
16
100
AcDbSymbolTableRecord
100
AcDbLinetypeTableRecord
  2
CONTINUOUS
 70
64
  3
Solid line
 72
65
 73
0
 40
0.0
  0
LTYPE
  5
1F5
100
AcDbSymbolTableRecord
100
AcDbLinetypeTableRecord
  2
CENTER
 70
64
  3
____ _ ____ _ ____ _ ____ _ ____ _ ____ _ ____
 72
65
 73
4
 40
0.6
 49
0.375
 74
0
 49
-0.075
 74
0
 49
0.075
 74
0
 49
-0.075
 74
0
  0
LTYPE
  5
1F6
100
AcDbSymbolTableRecord
100
AcDbLinetypeTableRecord
  2
HIDDEN
 70
64
  3
- - - - - - - - - - - - - - - - - - - -
 72
65
 73
2
 40
0.2
 49
0.1
 74
0
 49
-0.1
 74
0
  0
LTYPE
  5
1F7
100
AcDbSymbolTableRecord
100
AcDbLinetypeTableRecord
  2
PHANTOM
 70
64
  3
_____ _ _ _____ _ _ _____ _ _ _____
 72
65
 73
6
 40
0.8
 49
0.45
 74
0
 49
-0.05
 74
0
 49
0.1
 74
0
 49
-0.05
 74
0
 49
0.1
 74
0
 49
-0.05
 74
0
  0
LTYPE
  5
1F8
100
AcDbSymbolTableRecord
100
AcDbLinetypeTableRecord
  2
DOT
 70
64
  3
. . . . . . . . . . . . . . . . . . . .
 72
65
 73
2
 40
0.2
 49
0.1
 74
0
 49
-0.1
 74
0
  0
LTYPE
  5
1F9
100
AcDbSymbolTableRecord
100
AcDbLinetypeTableRecord
  2
DASHED
 70
64
  3
- - - - - - - - - - - - - - - - - - - -
 72
65
 73
2
 40
0.2
 49
0.1
 74
0
 49
-0.1
 74
0
  0
ENDTAB
  0
TABLE
  2
LAYER
  5
2
100
AcDbSymbolTable
 70
36
  0
LAYER
  5
10
100
AcDbSymbolTableRecord
100
AcDbLayerTableRecord
  2
0
 70
0
 62
7
  6
CONTINUOUS
370
-3
390
F
  0
LAYER
  5
1FA
100
AcDbSymbolTableRecord
100
AcDbLayerTableRecord
  2
DEFAULT_1
 70
0
 62
7
  6
CENTER
370
-3
390
F
  0
LAYER
  5
1FB
100
AcDbSymbolTableRecord
100
AcDbLayerTableRecord
  2
DEFAULT_2
 70
0
 62
8
  6
HIDDEN
370
-3
390
F
  0
LAYER
  5
1FC
100
AcDbSymbolTableRecord
100
AcDbLayerTableRecord
  2
DEFAULT_3
 70
0
 62
7
  6
PHANTOM
370
-3
390
F
  0
LAYER
  5
1FD
100
AcDbSymbolTableRecord
100
AcDbLayerTableRecord
  2
00_COMPONENTS
 70
0
 62
7
  6
CONTINUOUS
370
-3
390
F
  0
LAYER
  5
1FE
100
AcDbSymbolTableRecord
100
AcDbLayerTableRecord
  2
01_1_DEFAULT_DATUMS
 70
0
 62
7
  6
CONTINUOUS
370
-3
390
F
  0
LAYER
  5
1FF
100
AcDbSymbolTableRecord
100
AcDbLayerTableRecord
  2
01_PLANES
 70
0
 62
7
  6
CONTINUOUS
370
-3
390
F
  0
LAYER
  5
200
100
AcDbSymbolTableRecord
100
AcDbLayerTableRecord
  2
02_COORD_SYS
 70
0
 62
7
  6
CONTINUOUS
370
-3
390
F
  0
LAYER
  5
201
100
AcDbSymbolTableRecord
100
AcDbLayerTableRecord
  2
03_AXES
 70
0
 62
7
  6
CONTINUOUS
370
-3
390
F
  0
LAYER
  5
202
100
AcDbSymbolTableRecord
100
AcDbLayerTableRecord
  2
04_POINTS
 70
0
 62
7
  6
CONTINUOUS
370
-3
390
F
  0
LAYER
  5
203
100
AcDbSymbolTableRecord
100
AcDbLayerTableRecord
  2
05_CURVES
 70
0
 62
7
  6
CONTINUOUS
370
-3
390
F
  0
LAYER
  5
204
100
AcDbSymbolTableRecord
100
AcDbLayerTableRecord
  2
06_SURFS
 70
0
 62
7
  6
CONTINUOUS
370
-3
390
F
  0
LAYER
  5
205
100
AcDbSymbolTableRecord
100
AcDbLayerTableRecord
  2
07_COSMETICS
 70
0
 62
7
  6
CONTINUOUS
370
-3
390
F
  0
LAYER
  5
206
100
AcDbSymbolTableRecord
100
AcDbLayerTableRecord
  2
10_NOTES
 70
0
 62
7
  6
CONTINUOUS
370
-3
390
F
  0
LAYER
  5
207
100
AcDbSymbolTableRecord
100
AcDbLayerTableRecord
  2
11_NOTES_PUB
 70
0
 62
7
  6
CONTINUOUS
370
-3
390
F
  0
LAYER
  5
208
100
AcDbSymbolTableRecord
100
AcDbLayerTableRecord
  2
13_REF_GTOL
 70
0
 62
7
  6
CONTINUOUS
370
-3
390
F
  0
LAYER
  5
209
100
AcDbSymbolTableRecord
100
AcDbLayerTableRecord
  2
16_MISC
 70
0
 62
7
  6
CONTINUOUS
370
-3
390
F
  0
LAYER
  5
20A
100
AcDbSymbolTableRecord
100
AcDbLayerTableRecord
  2
17_NO_PRINT
 70
0
 62
7
  6
CONTINUOUS
370
-3
390
F
  0
LAYER
  5
20B
100
AcDbSymbolTableRecord
100
AcDbLayerTableRecord
  2
18_DATUM_CAMS_JOINTS
 70
0
 62
7
  6
CONTINUOUS
370
-3
390
F
  0
LAYER
  5
20C
100
AcDbSymbolTableRecord
100
AcDbLayerTableRecord
  2
19_DATUM_FUNCTIONAL
 70
0
 62
7
  6
CONTINUOUS
370
-3
390
F
  0
LAYER
  5
20D
100
AcDbSymbolTableRecord
100
AcDbLayerTableRecord
  2
20_DATUM_KINEMATIC_SCHEME
 70
0
 62
7
  6
CONTINUOUS
370
-3
390
F
  0
ENDTAB
  0
TABLE
  2
STYLE
  5
3
100
AcDbSymbolTable
 70
1
  0
STYLE
  5
11
100
AcDbSymbolTableRecord
100
AcDbTextStyleTableRecord
  2
STANDARD
 70
0
 40
0.0
 41
0.8
 50
0.0
 71
0
 42
0.2
  3
txt
  4

  0
STYLE
  5
20E
100
AcDbSymbolTableRecord
100
AcDbTextStyleTableRecord
  2
TEXTSTYLE_1
 70
0
 40
0.0
 41
0.8
 50
0.0
 71
0
 42
0.2
  3
gdt
  4

  0
ENDTAB
  0
TABLE
  2
VIEW
  5
6
100
AcDbSymbolTable
 70
0
  0
ENDTAB
  0
TABLE
  2
UCS
  5
7
100
AcDbSymbolTable
 70
0
  0
ENDTAB
  0
TABLE
  2
APPID
  5
9
100
AcDbSymbolTable
 70
1
  0
APPID
  5
20F
100
AcDbSymbolTableRecord
100
AcDbRegAppTableRecord
  2
ACAD
 70
0
  0
ENDTAB
  0
TABLE
  2
BLOCK_RECORD
  5
1
100
AcDbSymbolTable
 70
0
  0
BLOCK_RECORD
  5
210
100
AcDbSymbolTableRecord
100
AcDbBlockTableRecord
  2
*Model_Space
  0
BLOCK_RECORD
  5
211
100
AcDbSymbolTableRecord
100
AcDbBlockTableRecord
  2
*Paper_Space
  0
BLOCK_RECORD
  5
212
100
AcDbSymbolTableRecord
100
AcDbBlockTableRecord
  2
_FILLED
  0
ENDTAB
  0
TABLE
  2
DIMSTYLE
  5
A
100
AcDbSymbolTable
 70
1
100
AcDbDimStyleTable
 71
0
  0
DIMSTYLE
105
213
100
AcDbSymbolTableRecord
100
AcDbDimStyleTableRecord
  2
STANDARD
 70
0
  3

  4

 40
1.0
 41
0.9195259757
 42
1.0
 43
0.38
 44
1.0
 45
0.0
 46
0.0
 47
0.01
 48
0.01
140
1.2873363659
141
0.09
142
0.0
143
25.4
144
1.0
145
0.0
146
1.0
147
0.625
 71
1
 72
0
 73
0
 74
0
 75
0
 76
0
 77
1
 78
8
 79
2
170
0
171
1
172
0
173
0
174
0
175
0
176
0
177
0
178
0
270
2
179
2
271
2
272
2
273
2
274
2
275
0
280
0
281
0
282
0
283
1
284
8
285
0
286
0
287
3
288
0
340
11
278
46
341
212
342
212
343
212
344
212
  0
ENDTAB
  0
ENDSEC
  0
SECTION
  2
BLOCKS
  0
BLOCK
  5
20
100
AcDbEntity
  8
0
100
AcDbBlockBegin
  2
*Model_Space
 70
0
 10
0.0
 20
0.0
 30
0.0
  3
*Model_Space
  1

  0
ENDBLK
  5
21
100
AcDbEntity
  8
0
100
AcDbBlockEnd
  0
BLOCK
  5
1C
100
AcDbEntity
  8
0
100
AcDbBlockBegin
  2
*Paper_Space
 70
0
 10
0.0
 20
0.0
 30
0.0
  3
*Paper_Space
  1

  0
ENDBLK
  5
1D
100
AcDbEntity
  8
0
100
AcDbBlockEnd
  0
BLOCK
  5
214
100
AcDbEntity
  8
0
100
AcDbBlockBegin
  2
_FILLED
 70
64
 10
0.0
 20
0.0
  3
_FILLED
  1

  0
SOLID
  5
215
100
AcDbEntity
  8
0
  6
BYBLOCK
 62
0
100
AcDbTrace
 10
0.0
 20
0.0
 11
-1.0
 21
0.25
 12
-1.0
 22
-0.25
 13
-1.0
 23
-0.25
  0
ENDBLK
  5
216
100
AcDbEntity
  8
0
  6
BYBLOCK
 62
0
100
AcDbBlockEnd
  0
ENDSEC
  0
SECTION
  2
ENTITIES
  0
LINE
  5
217
100
AcDbEntity
  8
0
100
AcDbLine
 62
7
  6
CONTINUOUS
 10
40.3571209452
 20
25.0087497432
 11
38.5893466323
 21
26.0293516295
  0
LINE
  5
218
100
AcDbEntity
  8
0
100
AcDbLine
 62
7
  6
CONTINUOUS
 10
26.758066068
 20
73.2639491349
 11
29.4860412679
 21
74.8389369495
  0
LINE
  5
219
100
AcDbEntity
  8
0
100
AcDbLine
 62
7
  6
CONTINUOUS
 10
19.6175927066
 20
60.2594600781
 11
19.6175927066
 21
63.1921786631
  0
LINE
  5
21A
100
AcDbEntity
  8
0
100
AcDbLine
 62
7
  6
CONTINUOUS
 10
26.0049177003
 20
70.1084788415
 11
30.2475407236
 21
72.5579437647
  0
LINE
  5
21B
100
AcDbEntity
  8
0
100
AcDbLine
 62
7
  6
CONTINUOUS
 10
35.1492580675
 20
33.0379605057
 11
32.9894457189
 21
34.284900537
  0
LINE
  5
21C
100
AcDbEntity
  8
0
100
AcDbLine
 62
7
  6
CONTINUOUS
 10
43.3516929484
 20
28.4247280948
 11
43.2312726603
 21
28.4942512078
  0
LINE
  5
21D
100
AcDbEntity
  8
0
100
AcDbLine
 62
7
  6
CONTINUOUS
 10
34.7957038674
 20
34.3443588169
 11
33.602215949
 21
35.0334037996
  0
LINE
  5
21E
100
AcDbEntity
  8
0
100
AcDbLine
 62
7
  6
CONTINUOUS
 10
21.2722297115
 20
60.1788989868
 11
21.2722297115
 21
61.0948196537
  0
LINE
  5
21F
100
AcDbEntity
  8
0
100
AcDbLine
 62
7
  6
CONTINUOUS
 10
21.3853670195
 20
62.416527502
 11
21.3853670195
 21
61.160139119
  0
LINE
  5
220
100
AcDbEntity
  8
0
100
AcDbLine
 62
7
  6
CONTINUOUS
 10
32.3011880544
 20
72.5451302894
 11
34.1122961044
 21
73.590767768
  0
LINE
  5
221
100
AcDbEntity
  8
0
100
AcDbLine
 62
7
  6
CONTINUOUS
 10
27.9049091942
 20
69.9202865812
 11
32.1475322175
 21
72.3697515045
  0
LINE
  5
222
100
AcDbEntity
  8
0
100
AcDbLine
 62
7
  6
CONTINUOUS
 10
20.4046181682
 20
64.9317652413
 11
24.6472411915
 21
67.3812301645
  0
LINE
  5
223
100
AcDbEntity
  8
0
100
AcDbLine
 62
7
  6
CONTINUOUS
 10
26.9786049454
 20
68.0055692387
 11
27.3288287224
 21
68.2077698236
  0
LINE
  5
224
100
AcDbEntity
  8
0
100
AcDbLine
 62
7
  6
CONTINUOUS
 10
34.6895572591
 20
72.2910710461
 11
33.7154075047
 21
71.7286487804
  0
LINE
  5
225
100
AcDbEntity
  8
0
100
AcDbLine
 62
7
  6
CONTINUOUS
 10
50.4850227729
 20
81.2472577901
 11
52.489551526
 21
82.4045660971
  0
LINE
  5
226
100
AcDbEntity
  8
0
100
AcDbLine
 62
7
  6
CONTINUOUS
 10
22.3046096622
 20
64.743572981
 11
25.2179017298
 21
66.4255529004
  0
LINE
  5
227
100
AcDbEntity
  8
0
100
AcDbLine
 62
7
  6
CONTINUOUS
 10
44.1629845921
 20
30.569115615
 11
44.4123487042
 21
30.4251484348
  0
LINE
  5
228
100
AcDbEntity
  8
0
100
AcDbLine
 62
7
  6
CONTINUOUS
 10
38.4119859727
 20
34.5834896976
 11
38.5893466323
 21
34.4810927896
  0
LINE
  5
229
100
AcDbEntity
  8
0
100
AcDbLine
 62
7
  6
CONTINUOUS
 10
25.2179017298
 20
63.469872281
 11
25.2179017298
 21
68.3606401093
  0
LINE
  5
22A
100
AcDbEntity
  8
0
100
AcDbLine
 62
7
  6
CONTINUOUS
 10
26.7031599956
 20
70.5116068123
 11
26.758066068
 21
70.7327916418
  0
LINE
  5
22B
100
AcDbEntity
  8
0
100
AcDbLine
 62
7
  6
CONTINUOUS
 10
28.5351596895
 20
64.6094059157
 11
28.5047056611
 21
64.5790241182
  0
LINE
  5
22C
100
AcDbEntity
  8
0
100
AcDbLine
 62
7
  6
CONTINUOUS
 10
40.5455685215
 20
74.3409190282
 11
38.8046651688
 21
72.9813536166
  0
LINE
  5
22D
100
AcDbEntity
  8
0
100
AcDbLine
 62
7
  6
CONTINUOUS
 10
51.7580529256
 20
80.7983296579
 11
53.5148606274
 21
81.812617003
  0
LINE
  5
22E
100
AcDbEntity
  8
0
100
AcDbLine
 62
7
  6
CONTINUOUS
 10
28.418692052
 20
66.6334672032
 11
28.1834051339
 21
66.4976250485
  0
LINE
  5
22F
100
AcDbEntity
  8
0
100
AcDbLine
 62
7
  6
CONTINUOUS
 10
35.286346494
 20
70.5575972334
 11
36.78962045
 21
71.4255076758
  0
LINE
  5
230
100
AcDbEntity
  8
0
100
AcDbLine
 62
7
  6
CONTINUOUS
 10
21.3853670195
 20
62.416527502
 11
22.0924828541
 21
62.8247785825
  0
LINE
  5
231
100
AcDbEntity
  8
0
100
AcDbLine
 62
7
  6
CONTINUOUS
 10
38.4254728159
 20
72.1335525642
 11
37.4513230615
 21
71.5711302984
  0
LINE
  5
232
100
AcDbEntity
  8
0
100
AcDbLine
 62
7
  6
CONTINUOUS
 10
17.2531416566
 20
59.6668470551
 11
13.549475591
 21
57.528547219
  0
LINE
  5
233
100
AcDbEntity
  8
0
100
AcDbLine
 62
7
  6
CONTINUOUS
 10
36.3124179897
 20
69.9652079808
 11
32.0697949664
 21
67.5157430575
  0
LINE
  5
234
100
AcDbEntity
  8
0
100
AcDbLine
 62
7
  6
CONTINUOUS
 10
25.2179047845
 20
63.46986699
 11
24.8643468672
 21
63.2657414497
  0
LINE
  5
235
100
AcDbEntity
  8
0
100
AcDbLine
 62
7
  6
CONTINUOUS
 10
21.2722297115
 20
61.0948196537
 11
23.1805687755
 21
62.1965931493
  0
LINE
  5
236
100
AcDbEntity
  8
0
100
AcDbLine
 62
7
  6
CONTINUOUS
 10
44.5997439684
 20
32.6440297902
 11
44.8012702401
 21
32.5276811752
  0
LINE
  5
237
100
AcDbEntity
  8
0
100
AcDbLine
 62
7
  6
CONTINUOUS
 10
37.2805496304
 20
37.2371168997
 11
35.3613597808
 21
38.3451366092
  0
LINE
  5
238
100
AcDbEntity
  8
0
100
AcDbLine
 62
7
  6
CONTINUOUS
 10
35.9615145281
 20
38.8969083666
 11
37.005421097
 21
38.2942222627
  0
LINE
  5
239
100
AcDbEntity
  8
0
100
AcDbLine
 62
7
  6
CONTINUOUS
 10
26.758066068
 20
70.7327916418
 11
26.758066068
 21
73.2639491349
  0
LINE
  5
23A
100
AcDbEntity
  8
0
100
AcDbLine
 62
7
  6
CONTINUOUS
 10
26.9786049454
 20
68.0055692387
 11
26.9786049454
 21
63.1065547359
  0
LINE
  5
23B
100
AcDbEntity
  8
0
100
AcDbLine
 62
7
  6
CONTINUOUS
 10
32.2438489697
 20
72.3141442597
 11
32.3011880544
 21
72.5451302894
  0
LINE
  5
23C
100
AcDbEntity
  8
0
100
AcDbLine
 62
7
  6
CONTINUOUS
 10
24.7965761626
 20
60.7728666147
 11
28.6809599241
 21
63.8063915944
  0
LINE
  5
23D
100
AcDbEntity
  8
0
100
AcDbLine
 62
7
  6
CONTINUOUS
 10
39.1176832556
 20
71.9569922755
 11
39.4201643251
 21
72.1932160723
  0
LINE
  5
23E
100
AcDbEntity
  8
0
100
AcDbLine
 62
7
  6
CONTINUOUS
 10
23.996083742
 20
59.745191733
 11
23.8089753589
 21
59.6302620041
  0
LINE
  5
23F
100
AcDbEntity
  8
0
100
AcDbLine
 62
7
  6
CONTINUOUS
 10
39.3840512923
 20
70.4552943777
 11
40.3582010467
 21
71.0177166434
  0
LINE
  5
240
100
AcDbEntity
  8
0
100
AcDbLine
 62
7
  6
CONTINUOUS
 10
28.6428293885
 20
64.0673894308
 11
26.9786049454
 21
63.1065547359
  0
LINE
  5
241
100
AcDbEntity
  8
0
100
AcDbLine
 62
7
  6
CONTINUOUS
 10
23.9959835945
 20
59.7453652393
 11
24.6159408098
 21
60.1032955679
  0
LINE
  5
242
100
AcDbEntity
  8
0
100
AcDbLine
 62
7
  6
CONTINUOUS
 10
56.7078210016
 20
77.9406443763
 11
58.4646287034
 21
78.9549317214
  0
LINE
  5
243
100
AcDbEntity
  8
0
100
AcDbLine
 62
7
  6
CONTINUOUS
 10
28.3314041288
 20
67.6327991436
 11
28.4722995303
 21
66.0197320677
  0
LINE
  5
244
100
AcDbEntity
  8
0
100
AcDbLine
 62
7
  6
CONTINUOUS
 10
28.6001230543
 20
64.5563208012
 11
28.6636956435
 21
63.8284982499
  0
LINE
  5
245
100
AcDbEntity
  8
0
100
AcDbLine
 62
7
  6
CONTINUOUS
 10
42.9747287164
 20
73.4074015127
 11
50.4850227729
 21
81.2472577901
  0
LINE
  5
246
100
AcDbEntity
  8
0
100
AcDbLine
 62
7
  6
CONTINUOUS
 10
27.2585727877
 20
57.6203164378
 11
32.9890376091
 21
62.0955457788
  0
LINE
  5
247
100
AcDbEntity
  8
0
100
AcDbLine
 62
7
  6
CONTINUOUS
 10
38.7908219808
 20
66.6264724067
 11
41.8821609502
 21
69.0406658954
  0
LINE
  5
248
100
AcDbEntity
  8
0
100
AcDbLine
 62
7
  6
CONTINUOUS
 10
44.2385634592
 20
69.6120937628
 11
42.8636028274
 21
68.5383127775
  0
LINE
  5
249
100
AcDbEntity
  8
0
100
AcDbLine
 62
7
  6
CONTINUOUS
 10
25.0606203118
 20
58.9744411079
 11
24.850142702
 21
58.8529225287
  0
LINE
  5
24A
100
AcDbEntity
  8
0
100
AcDbLine
 62
7
  6
CONTINUOUS
 10
57.4854090519
 20
77.2056743203
 11
59.4899378049
 21
78.3629826273
  0
LINE
  5
24B
100
AcDbEntity
  8
0
100
AcDbLine
 62
7
  6
CONTINUOUS
 10
39.0029496637
 20
66.126608508
 11
40.5501782396
 21
67.0198960105
  0
LINE
  5
24C
100
AcDbEntity
  8
0
100
AcDbLine
 62
7
  6
CONTINUOUS
 10
40.3609033321
 20
66.2574168103
 11
39.6274630657
 21
65.8339674027
  0
LINE
  5
24D
100
AcDbEntity
  8
0
100
AcDbLine
 62
7
  6
CONTINUOUS
 10
34.756811922
 20
62.8617190053
 11
38.9994349453
 21
65.3111839285
  0
LINE
  5
24E
100
AcDbEntity
  8
0
100
AcDbLine
 62
7
  6
CONTINUOUS
 10
49.5969891558
 20
45.3044489485
 11
57.4854090519
 21
46.1785824694
  0
LINE
  5
24F
100
AcDbEntity
  8
0
100
AcDbLine
 62
7
  6
CONTINUOUS
 10
48.1246517983
 20
38.651396887
 11
48.902472496
 21
38.202332057
  0
LINE
  5
250
100
AcDbEntity
  8
0
100
AcDbLine
 62
7
  6
CONTINUOUS
 10
32.9890376091
 20
59.6365083225
 11
32.9890376091
 21
64.5355228253
  0
LINE
  5
251
100
AcDbEntity
  8
0
100
AcDbLine
 62
7
  6
CONTINUOUS
 10
36.4308588039
 20
62.2778948364
 11
36.9947449916
 21
62.8404436001
  0
LINE
  5
252
100
AcDbEntity
  8
0
100
AcDbLine
 62
7
  6
CONTINUOUS
 10
37.0152730668
 20
60.8189992367
 11
36.2829126377
 21
60.0883758184
  0
LINE
  5
253
100
AcDbEntity
  8
0
100
AcDbLine
 62
7
  6
CONTINUOUS
 10
35.772599488
 20
61.4745155353
 11
36.941659661
 21
62.3874977367
  0
LINE
  5
254
100
AcDbEntity
  8
0
100
AcDbLine
 62
7
  6
CONTINUOUS
 10
44.0941166036
 20
66.861469011
 11
43.1199668491
 21
66.2990467453
  0
LINE
  5
255
100
AcDbEntity
  8
0
100
AcDbLine
 62
7
  6
CONTINUOUS
 10
36.4308588039
 20
62.2778948364
 11
35.9616121105
 21
62.0069767488
  0
LINE
  5
256
100
AcDbEntity
  8
0
100
AcDbLine
 62
7
  6
CONTINUOUS
 10
44.5341862994
 20
65.4825652362
 11
46.3452943495
 21
66.5282027148
  0
LINE
  5
257
100
AcDbEntity
  8
0
100
AcDbLine
 62
7
  6
CONTINUOUS
 10
37.0152730668
 20
60.8189992367
 11
37.4904933198
 21
61.0933661399
  0
LINE
  5
258
100
AcDbEntity
  8
0
100
AcDbLine
 62
7
  6
CONTINUOUS
 10
39.1872855382
 20
61.5295890765
 11
39.0029496637
 21
61.423163345
  0
LINE
  5
259
100
AcDbEntity
  8
0
100
AcDbLine
 62
7
  6
CONTINUOUS
 10
44.1792958479
 20
64.0529167359
 11
46.1738307813
 21
65.2044551428
  0
LINE
  5
25A
100
AcDbEntity
  8
0
100
AcDbLine
 62
7
  6
CONTINUOUS
 10
49.4320478575
 20
45.5792176173
 11
48.8621813531
 21
45.6819780125
  0
LINE
  5
25B
100
AcDbEntity
  8
0
100
AcDbLine
 62
7
  6
CONTINUOUS
 10
49.3974397499
 20
40.3660553879
 11
49.6095763332
 21
40.2435810451
  0
LWPOLYLINE
  5
25C
100
AcDbEntity
  8
0
100
AcDbPolyline
 62
7
  6
CONTINUOUS
 90
6
 70
0
 10
24.7547870591
 20
58.9238165686
 10
27.7456097823
 20
56.7002302217
 10
30.4894351177
 20
53.6690575199
 10
32.7722358099
 20
50.0674047977
 10
34.4039226796
 20
46.1946229832
 10
35.2554609329
 20
42.3573624347
  0
LWPOLYLINE
  5
25D
100
AcDbEntity
  8
0
100
AcDbPolyline
 62
7
  6
CONTINUOUS
 90
5
 70
0
 10
35.2554609329
 20
42.3573624347
 10
35.2560510478
 20
38.8692525677
 10
34.4064578542
 20
36.0157910963
 10
32.7777216191
 20
34.0262780197
 10
32.2563651294
 20
33.6803466017
  0
LINE
  5
25E
100
AcDbEntity
  8
0
100
AcDbLine
 62
7
  6
CONTINUOUS
 10
34.756811922
 20
62.8617190053
 11
34.756811922
 21
57.9627045025
  0
LINE
  5
25F
100
AcDbEntity
  8
0
100
AcDbLine
 62
7
  6
CONTINUOUS
 10
35.1492579622
 20
35.8286794465
 11
35.1492579622
 21
34.5484893073
  0
LINE
  5
260
100
AcDbEntity
  8
0
100
AcDbLine
 62
7
  6
CONTINUOUS
 10
35.8563677927
 20
33.4462221683
 11
35.8563677927
 21
35.2513346384
  0
LINE
  5
261
100
AcDbEntity
  8
0
100
AcDbLine
 62
7
  6
CONTINUOUS
 10
53.9420203056
 20
79.8079973009
 11
54.5373110931
 21
80.5647123478
  0
LINE
  5
262
100
AcDbEntity
  8
0
100
AcDbLine
 62
7
  6
CONTINUOUS
 10
38.9994349453
 20
60.4121694257
 11
34.756811922
 21
57.9627045025
  0
LINE
  5
263
100
AcDbEntity
  8
0
100
AcDbLine
 62
7
  6
CONTINUOUS
 10
35.1103667846
 20
57.3503329167
 11
39.3529898079
 21
59.7997978399
  0
LINE
  5
264
100
AcDbEntity
  8
0
100
AcDbLine
 62
7
  6
CONTINUOUS
 10
44.5997439684
 20
46.1571447937
 11
44.8012702401
 21
46.0407961787
  0
LINE
  5
265
100
AcDbEntity
  8
0
100
AcDbLine
 62
7
  6
CONTINUOUS
 10
21.2722297115
 20
61.0948196537
 11
23.8089753589
 21
59.6302620041
  0
LINE
  5
266
100
AcDbEntity
  8
0
100
AcDbLine
 62
7
  6
CONTINUOUS
 10
35.8829021102
 20
52.659534843
 11
38.4196405463
 21
51.1949813566
  0
LINE
  5
267
100
AcDbEntity
  8
0
100
AcDbLine
 62
7
  6
CONTINUOUS
 10
48.6248916232
 20
45.9634063517
 11
49.2259348896
 21
45.6164017103
  0
LINE
  5
268
100
AcDbEntity
  8
0
100
AcDbLine
 62
7
  6
CONTINUOUS
 10
49.4320824638
 20
45.5792774707
 11
48.8310391974
 21
45.926282112
  0
LINE
  5
269
100
AcDbEntity
  8
0
100
AcDbLine
 62
7
  6
CONTINUOUS
 10
28.6636956435
 20
63.8284982499
 11
28.6773548977
 21
63.8035762347
  0
LINE
  5
26A
100
AcDbEntity
  8
0
100
AcDbLine
 62
7
  6
CONTINUOUS
 10
37.3589759637
 20
37.6818506696
 11
37.358975964
 21
37.4427026331
  0
LINE
  5
26B
100
AcDbEntity
  8
0
100
AcDbLine
 62
7
  6
CONTINUOUS
 10
38.4196405463
 20
51.1949813566
 11
38.4196405463
 21
37.0694907119
  0
LINE
  5
26C
100
AcDbEntity
  8
0
100
AcDbLine
 62
7
  6
CONTINUOUS
 10
38.5893466323
 20
26.0293516295
 11
38.5893466323
 21
52.4840299445
  0
LINE
  5
26D
100
AcDbEntity
  8
0
100
AcDbLine
 62
7
  6
CONTINUOUS
 10
38.9994349453
 20
65.3111839285
 11
38.9994349453
 21
60.4121694257
  0
LINE
  5
26E
100
AcDbEntity
  8
0
100
AcDbLine
 62
7
  6
CONTINUOUS
 10
39.0029496637
 20
66.126608508
 11
39.0029496637
 21
65.3111839285
  0
LINE
  5
26F
100
AcDbEntity
  8
0
100
AcDbLine
 62
7
  6
CONTINUOUS
 10
39.1872855382
 20
61.5295890765
 11
39.6274630657
 21
63.3028099096
  0
LINE
  5
270
100
AcDbEntity
  8
0
100
AcDbLine
 62
7
  6
CONTINUOUS
 10
40.3609033321
 20
66.2574168103
 11
40.5501782396
 21
67.0198960105
  0
LINE
  5
271
100
AcDbEntity
  8
0
100
AcDbLine
 62
7
  6
CONTINUOUS
 10
57.4854090519
 20
77.2056743203
 11
46.7310494137
 21
65.9793983203
  0
LINE
  5
272
100
AcDbEntity
  8
0
100
AcDbLine
 62
7
  6
CONTINUOUS
 10
41.9127270129
 20
58.3219663085
 11
37.6701039896
 21
55.8725013853
  0
LINE
  5
273
100
AcDbEntity
  8
0
100
AcDbLine
 62
7
  6
CONTINUOUS
 10
47.9006468499
 20
61.0575505748
 11
50.6286220498
 21
62.6325383894
  0
LINE
  5
274
100
AcDbEntity
  8
0
100
AcDbLine
 62
7
  6
CONTINUOUS
 10
43.6345050436
 20
58.3902764379
 11
44.3416088808
 21
58.7985205918
  0
LINE
  5
275
100
AcDbEntity
  8
0
100
AcDbLine
 62
7
  6
CONTINUOUS
 10
42.7582274205
 20
57.6394067892
 11
43.4930830986
 21
58.0636733803
  0
LINE
  5
276
100
AcDbEntity
  8
0
100
AcDbLine
 62
7
  6
CONTINUOUS
 10
35.8829021102
 20
52.659534843
 11
37.7912411742
 21
53.7613083386
  0
LINE
  5
277
100
AcDbEntity
  8
0
100
AcDbLine
 62
7
  6
CONTINUOUS
 10
69.4791358683
 20
71.8826781355
 11
69.2670047172
 21
71.7602048894
  0
LWPOLYLINE
  5
278
100
AcDbEntity
  8
0
100
AcDbPolyline
 62
7
  6
CONTINUOUS
 90
7
 70
0
 10
28.7470447375
 20
58.7827445393
 10
29.8639736688
 20
58.3390058744
 10
32.1952009454
 20
56.561306382
 10
34.2969625558
 20
54.1079712036
 10
35.9694149909
 20
51.2089703423
 10
37.0391521338
 20
48.1687291807
 10
37.4120036108
 20
45.2447068091
  0
LINE
  5
279
100
AcDbEntity
  8
0
100
AcDbLine
 62
7
  6
CONTINUOUS
 10
37.8822369072
 20
53.7087731161
 11
35.6760545647
 21
54.9824842702
  0
LINE
  5
27A
100
AcDbEntity
  8
0
100
AcDbLine
 62
7
  6
CONTINUOUS
 10
24.2915879898
 20
61.555160418
 11
22.0924767446
 21
62.8247891646
  0
LINE
  5
27B
100
AcDbEntity
  8
0
100
AcDbLine
 62
7
  6
CONTINUOUS
 10
22.3046096622
 20
64.743572981
 11
24.8643468672
 21
63.2657414497
  0
LINE
  5
27C
100
AcDbEntity
  8
0
100
AcDbLine
 62
7
  6
CONTINUOUS
 10
35.1103667846
 20
57.3503329167
 11
37.6701039896
 21
55.8725013853
  0
LINE
  5
27D
100
AcDbEntity
  8
0
100
AcDbLine
 62
7
  6
CONTINUOUS
 10
36.8842644607
 20
62.7302251067
 11
36.941659661
 21
62.3874977367
  0
LINE
  5
27E
100
AcDbEntity
  8
0
100
AcDbLine
 62
7
  6
CONTINUOUS
 10
39.6274630657
 20
65.8339674027
 11
39.6274630657
 21
63.3028099096
  0
LINE
  5
27F
100
AcDbEntity
  8
0
100
AcDbLine
 62
7
  6
CONTINUOUS
 10
40.3571209452
 20
51.218477333
 11
40.3571209452
 21
25.0087497432
  0
LINE
  5
280
100
AcDbEntity
  8
0
100
AcDbLine
 62
7
  6
CONTINUOUS
 10
42.4912574525
 20
61.6494348538
 11
41.696279788
 21
58.4469293451
  0
LINE
  5
281
100
AcDbEntity
  8
0
100
AcDbLine
 62
7
  6
CONTINUOUS
 10
44.5341862994
 20
65.4825652362
 11
44.1792958479
 21
64.0529167359
  0
LINE
  5
282
100
AcDbEntity
  8
0
100
AcDbLine
 62
7
  6
CONTINUOUS
 10
44.3416088808
 20
59.8315903587
 11
44.7532391984
 21
60.3435086279
  0
LINE
  5
283
100
AcDbEntity
  8
0
100
AcDbLine
 62
7
  6
CONTINUOUS
 10
45.4957044098
 20
59.9148558356
 11
44.5167566932
 21
58.6974012428
  0
LINE
  5
284
100
AcDbEntity
  8
0
100
AcDbLine
 62
7
  6
CONTINUOUS
 10
38.4196405463
 20
51.1949813566
 11
38.5893466323
 21
51.2929606261
  0
LINE
  5
285
100
AcDbEntity
  8
0
100
AcDbLine
 62
7
  6
CONTINUOUS
 10
44.4422507581
 20
54.6721162279
 11
44.6964343412
 21
54.818868312
  0
LINE
  5
286
100
AcDbEntity
  8
0
100
AcDbLine
 62
7
  6
CONTINUOUS
 10
32.9890376091
 20
60.1841500346
 11
31.5818314421
 21
60.9965825142
  0
LINE
  5
287
100
AcDbEntity
  8
0
100
AcDbLine
 62
7
  6
CONTINUOUS
 10
44.6964343412
 20
54.818868312
 11
44.9969559744
 21
54.6453659914
  0
LINE
  5
288
100
AcDbEntity
  8
0
100
AcDbLine
 62
7
  6
CONTINUOUS
 10
36.2829126377
 20
60.0883758184
 11
35.9435632159
 21
60.2842948662
  0
LINE
  5
289
100
AcDbEntity
  8
0
100
AcDbLine
 62
7
  6
CONTINUOUS
 10
28.5047056611
 20
64.5790241182
 11
28.1653562393
 21
64.7749431659
  0
LINE
  5
28A
100
AcDbEntity
  8
0
100
AcDbLine
 62
7
  6
CONTINUOUS
 10
27.9441560408
 20
65.0923472856
 11
28.6001230543
 21
64.5563208012
  0
LINE
  5
28B
100
AcDbEntity
  8
0
100
AcDbLine
 62
7
  6
CONTINUOUS
 10
43.4930830986
 20
61.0710436323
 11
43.4930830986
 21
58.0636733803
  0
LINE
  5
28C
100
AcDbEntity
  8
0
100
AcDbLine
 62
7
  6
CONTINUOUS
 10
43.6345050436
 20
60.9893954814
 11
43.6345050436
 21
58.3902764379
  0
LINE
  5
28D
100
AcDbEntity
  8
0
100
AcDbLine
 62
7
  6
CONTINUOUS
 10
43.705247811
 20
29.2004106181
 11
43.705247811
 21
28.6288589261
  0
LINE
  5
28E
100
AcDbEntity
  8
0
100
AcDbLine
 62
7
  6
CONTINUOUS
 10
44.3416088808
 20
60.5811581262
 11
44.3416088808
 21
58.7985205918
  0
LINE
  5
28F
100
AcDbEntity
  8
0
100
AcDbLine
 62
7
  6
CONTINUOUS
 10
44.5997439684
 20
53.6679422563
 11
44.5997439684
 21
31.5417515271
  0
LINE
  5
290
100
AcDbEntity
  8
0
100
AcDbLine
 62
7
  6
CONTINUOUS
 10
44.7659035668
 20
29.8127768489
 11
44.7659035668
 21
29.2412251569
  0
LINE
  5
291
100
AcDbEntity
  8
0
100
AcDbLine
 62
7
  6
CONTINUOUS
 10
44.8012702401
 20
46.0407961787
 11
44.8012702401
 21
32.5276811752
  0
LINE
  5
292
100
AcDbEntity
  8
0
100
AcDbLine
 62
7
  6
CONTINUOUS
 10
44.5265618442
 20
54.1345502086
 11
44.6964343412
 21
54.818868312
  0
LINE
  5
293
100
AcDbEntity
  8
0
100
AcDbLine
 62
7
  6
CONTINUOUS
 10
44.9969559744
 20
54.6453659914
 11
46.2035835095
 21
59.5061708925
  0
LINE
  5
294
100
AcDbEntity
  8
0
100
AcDbLine
 62
7
  6
CONTINUOUS
 10
40.3571209452
 20
51.218477333
 11
44.5997439684
 21
53.6679422563
  0
LINE
  5
295
100
AcDbEntity
  8
0
100
AcDbLine
 62
7
  6
CONTINUOUS
 10
69.2670047172
 20
65.2281855523
 11
69.4791358683
 21
65.3506587985
  0
LINE
  5
296
100
AcDbEntity
  8
0
100
AcDbLine
 62
7
  6
CONTINUOUS
 10
36.2829126377
 20
60.0883758184
 11
36.0265963478
 21
60.1657463508
  0
LINE
  5
297
100
AcDbEntity
  8
0
100
AcDbLine
 62
7
  6
CONTINUOUS
 10
37.0152730668
 20
60.8189992367
 11
35.8181901509
 21
61.5101197452
  0
LINE
  5
298
100
AcDbEntity
  8
0
100
AcDbLine
 62
7
  6
CONTINUOUS
 10
39.3529898079
 20
59.7997978399
 11
41.9127270129
 21
58.3219663085
  0
LINE
  5
299
100
AcDbEntity
  8
0
100
AcDbLine
 62
7
  6
CONTINUOUS
 10
36.2221751284
 20
61.8256134235
 11
37.4904933198
 21
61.0933661399
  0
LINE
  5
29A
100
AcDbEntity
  8
0
100
AcDbLine
 62
7
  6
CONTINUOUS
 10
43.4930830986
 20
58.0636733803
 11
45.5506248723
 21
56.8757779571
  0
LINE
  5
29B
100
AcDbEntity
  8
0
100
AcDbLine
 62
7
  6
CONTINUOUS
 10
43.6345050436
 20
58.3902764379
 11
45.6392641586
 21
57.2328544076
  0
LINE
  5
29C
100
AcDbEntity
  8
0
100
AcDbLine
 62
7
  6
CONTINUOUS
 10
32.6354827466
 20
65.1478944111
 11
27.3392309052
 21
68.2056176625
  0
LINE
  5
29D
100
AcDbEntity
  8
0
100
AcDbLine
 62
7
  6
CONTINUOUS
 10
46.4276091028
 20
36.4060511638
 11
46.4276091028
 21
33.4666427505
  0
LINE
  5
29E
100
AcDbEntity
  8
0
100
AcDbLine
 62
7
  6
CONTINUOUS
 10
47.2760965764
 20
65.2039729122
 11
47.2760965764
 21
64.5680760862
  0
LINE
  5
29F
100
AcDbEntity
  8
0
100
AcDbLine
 62
7
  6
CONTINUOUS
 10
47.9006468499
 20
58.5263930817
 11
47.9006468499
 21
61.0575505748
  0
LINE
  5
2A0
100
AcDbEntity
  8
0
100
AcDbLine
 62
7
  6
CONTINUOUS
 10
47.9006468499
 20
58.5263930817
 11
44.8012702401
 21
46.0407961787
  0
LINE
  5
2A1
100
AcDbEntity
  8
0
100
AcDbLine
 62
7
  6
CONTINUOUS
 10
28.5047056611
 20
64.5790241182
 11
28.2483893712
 21
64.6563946505
  0
LINE
  5
2A2
100
AcDbEntity
  8
0
100
AcDbLine
 62
7
  6
CONTINUOUS
 10
28.4722995303
 20
66.0197320677
 11
28.0377954596
 21
66.1562159048
  0
LINE
  5
2A3
100
AcDbEntity
  8
0
100
AcDbLine
 62
7
  6
CONTINUOUS
 10
44.3416088808
 20
58.7985205918
 11
45.8165381917
 21
57.9469890213
  0
LINE
  5
2A4
100
AcDbEntity
  8
0
100
AcDbLine
 62
7
  6
CONTINUOUS
 10
27.9049091942
 20
69.9202865812
 11
32.0697949664
 21
67.5157430575
  0
LINE
  5
2A5
100
AcDbEntity
  8
0
100
AcDbLine
 62
7
  6
CONTINUOUS
 10
26.758066068
 20
70.7327916418
 11
26.9221672229
 21
70.6380499392
  0
LINE
  5
2A6
100
AcDbEntity
  8
0
100
AcDbLine
 62
7
  6
CONTINUOUS
 10
39.6274630657
 20
63.3028099096
 11
47.9006468499
 21
58.5263930817
  0
LINE
  5
2A7
100
AcDbEntity
  8
0
100
AcDbLine
 62
7
  6
CONTINUOUS
 10
48.1246517983
 20
38.953512288
 11
48.1246517983
 21
35.3445620976
  0
LINE
  5
2A8
100
AcDbEntity
  8
0
100
AcDbLine
 62
7
  6
CONTINUOUS
 10
48.5489205773
 20
46.3673597557
 11
48.5489205773
 21
51.0649415289
  0
LINE
  5
2A9
100
AcDbEntity
  8
0
100
AcDbLine
 62
7
  6
CONTINUOUS
 10
48.761044663
 20
38.2839836072
 11
48.761044663
 21
37.3580697004
  0
LINE
  5
2AA
100
AcDbEntity
  8
0
100
AcDbLine
 62
7
  6
CONTINUOUS
 10
48.902472496
 20
40.0802876164
 11
48.902472496
 21
38.202332057
  0
LINE
  5
2AB
100
AcDbEntity
  8
0
100
AcDbLine
 62
7
  6
CONTINUOUS
 10
49.6095763332
 20
40.2435810451
 11
49.6095763332
 21
38.6105762109
  0
LINE
  5
2AC
100
AcDbEntity
  8
0
100
AcDbLine
 62
7
  6
CONTINUOUS
 10
49.6095763332
 20
40.4885317703
 11
49.6095763332
 21
45.190858818
  0
LINE
  5
2AD
100
AcDbEntity
  8
0
100
AcDbLine
 62
7
  6
CONTINUOUS
 10
48.6873603564
 20
51.4688600516
 11
51.4540082868
 21
55.5154347036
  0
LINE
  5
2AE
100
AcDbEntity
  8
0
100
AcDbLine
 62
7
  6
CONTINUOUS
 10
36.0402779342
 20
41.0648500874
 11
35.2818184821
 21
40.6269559325
  0
LINE
  5
2AF
100
AcDbEntity
  8
0
100
AcDbLine
 62
7
  6
CONTINUOUS
 10
66.509299752
 20
58.3287676409
 11
68.5850098041
 21
59.5271722447
  0
LINE
  5
2B0
100
AcDbEntity
  8
0
100
AcDbLine
 62
7
  6
CONTINUOUS
 10
68.7720320311
 20
58.4103953076
 11
69.1962943335
 21
58.6553417999
  0
LINE
  5
2B1
100
AcDbEntity
  8
0
100
AcDbLine
 62
7
  6
CONTINUOUS
 10
26.758066068
 20
73.2639491349
 11
29.1142452505
 21
71.903639224
  0
LINE
  5
2B2
100
AcDbEntity
  8
0
100
AcDbLine
 62
7
  6
CONTINUOUS
 10
39.6274630657
 20
65.8339674027
 11
47.9006468499
 21
61.0575505748
  0
LINE
  5
2B3
100
AcDbEntity
  8
0
100
AcDbLine
 62
7
  6
CONTINUOUS
 10
44.1792958479
 20
64.0529167359
 11
40.3609033321
 21
66.2574168103
  0
LINE
  5
2B4
100
AcDbEntity
  8
0
100
AcDbLine
 62
7
  6
CONTINUOUS
 10
43.1199668491
 20
66.2990467453
 11
39.5123620754
 21
70.3125472036
  0
LINE
  5
2B5
100
AcDbEntity
  8
0
100
AcDbLine
 62
7
  6
CONTINUOUS
 10
51.7308878448
 20
61.0643715179
 11
51.7308878448
 21
56.323271749
  0
LINE
  5
2B6
100
AcDbEntity
  8
0
100
AcDbLine
 62
7
  6
CONTINUOUS
 10
48.761044663
 20
37.3580697004
 11
48.4074898004
 21
36.0385758251
  0
LINE
  5
2B7
100
AcDbEntity
  8
0
100
AcDbLine
 62
7
  6
CONTINUOUS
 10
42.1242593084
 20
26.0290014628
 11
44.5997439684
 21
31.5417515271
  0
LINE
  5
2B8
100
AcDbEntity
  8
0
100
AcDbLine
 62
7
  6
CONTINUOUS
 10
35.0457461296
 20
38.1629180704
 11
35.3613597808
 21
38.3451366092
  0
LINE
  5
2B9
100
AcDbEntity
  8
0
100
AcDbLine
 62
7
  6
CONTINUOUS
 10
49.6095763332
 20
44.979140567
 11
50.3098528198
 21
45.3834429717
  0
LINE
  5
2BA
100
AcDbEntity
  8
0
100
AcDbLine
 62
7
  6
CONTINUOUS
 10
37.2554221431
 20
37.2138109079
 11
35.2528112651
 21
36.0575698829
  0
LINE
  5
2BB
100
AcDbEntity
  8
0
100
AcDbLine
 62
7
  6
CONTINUOUS
 10
32.1475322175
 20
72.3697515045
 11
36.3124179897
 21
69.9652079808
  0
LINE
  5
2BC
100
AcDbEntity
  8
0
100
AcDbLine
 62
7
  6
CONTINUOUS
 10
32.3011880544
 20
72.5451302894
 11
35.5150584271
 21
70.6896433413
  0
LINE
  5
2BD
100
AcDbEntity
  8
0
100
AcDbLine
 62
7
  6
CONTINUOUS
 10
40.6928340077
 20
67.7003208436
 11
44.5341862994
 21
65.4825652362
  0
LINE
  5
2BE
100
AcDbEntity
  8
0
100
AcDbLine
 62
7
  6
CONTINUOUS
 10
29.4860412679
 20
74.8389369495
 11
32.8801496197
 21
72.8793919098
  0
LINE
  5
2BF
100
AcDbEntity
  8
0
100
AcDbLine
 62
7
  6
CONTINUOUS
 10
46.1738307813
 20
65.2044551428
 11
50.6286220498
 21
62.6325383894
  0
LINE
  5
2C0
100
AcDbEntity
  8
0
100
AcDbLine
 62
7
  6
CONTINUOUS
 10
34.1122961044
 20
73.590767768
 11
36.4953671865
 21
72.2149321629
  0
LINE
  5
2C1
100
AcDbEntity
  8
0
100
AcDbLine
 62
7
  6
CONTINUOUS
 10
42.2883066762
 20
68.8704526513
 11
46.3452943495
 21
66.5282027148
  0
LINE
  5
2C2
100
AcDbEntity
  8
0
100
AcDbLine
 62
7
  6
CONTINUOUS
 10
40.3582010467
 20
71.0177166434
 11
44.0941166036
 21
66.861469011
  0
LINE
  5
2C3
100
AcDbEntity
  8
0
100
AcDbLine
 62
7
  6
CONTINUOUS
 10
47.2760965764
 20
65.2039729122
 11
46.3452943495
 21
66.5282027148
  0
LINE
  5
2C4
100
AcDbEntity
  8
0
100
AcDbLine
 62
7
  6
CONTINUOUS
 10
51.7308878448
 20
61.0643715179
 11
50.6286220498
 21
62.6325383894
  0
LINE
  5
2C5
100
AcDbEntity
  8
0
100
AcDbLine
 62
7
  6
CONTINUOUS
 10
46.4276091028
 20
36.4060511638
 11
48.1953686563
 21
39.0596666276
  0
LINE
  5
2C6
100
AcDbEntity
  8
0
100
AcDbLine
 62
7
  6
CONTINUOUS
 10
32.2564324615
 20
33.680229982
 11
28.5313465473
 21
31.5295195242
  0
LINE
  5
2C7
100
AcDbEntity
  8
0
100
AcDbLine
 62
7
  6
CONTINUOUS
 10
38.5893466323
 20
37.1674699815
 11
38.4196405463
 21
37.0694907119
  0
LINE
  5
2C8
100
AcDbEntity
  8
0
100
AcDbLine
 62
7
  6
CONTINUOUS
 10
35.8563677927
 20
35.2513346384
 11
38.5893466323
 21
36.8292553802
  0
LINE
  5
2C9
100
AcDbEntity
  8
0
100
AcDbLine
 62
7
  6
CONTINUOUS
 10
35.1492610613
 20
34.5484839395
 11
34.7957038674
 21
34.3443588169
  0
LINE
  5
2CA
100
AcDbEntity
  8
0
100
AcDbLine
 62
7
  6
CONTINUOUS
 10
59.4899378049
 20
47.3358907764
 11
57.4854090519
 21
46.1785824694
  0
LINE
  5
2CB
100
AcDbEntity
  8
0
100
AcDbLine
 62
7
  6
CONTINUOUS
 10
38.5893466323
 20
35.0240988184
 11
35.8563677927
 21
33.4462221683
  0
LINE
  5
2CC
100
AcDbEntity
  8
0
100
AcDbLine
 62
7
  6
CONTINUOUS
 10
35.6492558291
 20
32.9884362267
 11
38.5893466323
 21
34.6858883109
  0
LINE
  5
2CD
100
AcDbEntity
  8
0
100
AcDbLine
 62
7
  6
CONTINUOUS
 10
36.7896639824
 20
71.4254322583
 11
37.3230122783
 21
71.5765403029
  0
LINE
  5
2CE
100
AcDbEntity
  8
0
100
AcDbLine
 62
7
  6
CONTINUOUS
 10
37.3230122783
 20
71.5765403029
 11
33.7154075047
 21
71.7286487804
  0
LINE
  5
2CF
100
AcDbEntity
  8
0
100
AcDbLine
 62
7
  6
CONTINUOUS
 10
34.6895572591
 20
72.2910710461
 11
38.425472816
 21
72.1335525642
  0
LINE
  5
2D0
100
AcDbEntity
  8
0
100
AcDbLine
 62
7
  6
CONTINUOUS
 10
66.509299752
 20
54.9282645114
 11
68.7720261432
 21
57.1856241732
  0
LINE
  5
2D1
100
AcDbEntity
  8
0
100
AcDbLine
 62
7
  6
CONTINUOUS
 10
61.9083753624
 20
49.2245792256
 11
66.509299752
 21
53.814591153
  0
LINE
  5
2D2
100
AcDbEntity
  8
0
100
AcDbLine
 62
7
  6
CONTINUOUS
 10
48.902472496
 20
40.0802876164
 11
49.6095763332
 21
40.4885317703
  0
LINE
  5
2D3
100
AcDbEntity
  8
0
100
AcDbLine
 62
7
  6
CONTINUOUS
 10
48.902472496
 20
39.8353368913
 11
49.6095763332
 21
40.2435810451
  0
LINE
  5
2D4
100
AcDbEntity
  8
0
100
AcDbLine
 62
7
  6
CONTINUOUS
 10
48.1953686563
 20
39.0596666276
 11
48.902472496
 21
39.4679107829
  0
LINE
  5
2D5
100
AcDbEntity
  8
0
100
AcDbLine
 62
7
  6
CONTINUOUS
 10
48.902472496
 20
38.202332057
 11
49.6095763332
 21
38.6105762109
  0
LINE
  5
2D6
100
AcDbEntity
  8
0
100
AcDbLine
 62
7
  6
CONTINUOUS
 10
48.1246517983
 20
36.9906503019
 11
48.761044663
 21
37.3580697004
  0
LINE
  5
2D7
100
AcDbEntity
  8
0
100
AcDbLine
 62
7
  6
CONTINUOUS
 10
68.064922306
 20
58.8186360621
 11
68.7720320311
 21
58.4103953076
  0
LINE
  5
2D8
100
AcDbEntity
  8
0
100
AcDbLine
 62
7
  6
CONTINUOUS
 10
48.1246517983
 20
35.8752802031
 11
48.4074898004
 21
36.0385758251
  0
LINE
  5
2D9
100
AcDbEntity
  8
0
100
AcDbLine
 62
7
  6
CONTINUOUS
 10
46.4276091028
 20
34.364779889
 11
48.1246517983
 21
35.3445620976
  0
LINE
  5
2DA
100
AcDbEntity
  8
0
100
AcDbLine
 62
7
  6
CONTINUOUS
 10
46.4276091028
 20
33.4666427505
 11
44.8012702401
 21
32.5276811752
  0
LINE
  5
2DB
100
AcDbEntity
  8
0
100
AcDbLine
 62
7
  6
CONTINUOUS
 10
69.4791358683
 20
80.4559535154
 11
61.9083753624
 21
79.2668486585
  0
LINE
  5
2DC
100
AcDbEntity
  8
0
100
AcDbLine
 62
7
  6
CONTINUOUS
 10
60.883066261
 20
79.8587977526
 11
63.1232540981
 21
80.2106538488
  0
LINE
  5
2DD
100
AcDbEntity
  8
0
100
AcDbLine
 62
7
  6
CONTINUOUS
 10
69.1962943335
 20
58.6553417999
 11
69.4791358683
 21
59.1452404283
  0
LINE
  5
2DE
100
AcDbEntity
  8
0
100
AcDbLine
 62
7
  6
CONTINUOUS
 10
44.4123487042
 20
30.4251484348
 11
43.9884341834
 21
30.180402733
  0
LINE
  5
2DF
100
AcDbEntity
  8
0
100
AcDbLine
 62
7
  6
CONTINUOUS
 10
43.705247811
 20
29.2004106181
 11
44.7659035668
 21
29.8127768489
  0
LINE
  5
2E0
100
AcDbEntity
  8
0
100
AcDbLine
 62
7
  6
CONTINUOUS
 10
44.7659035668
 20
29.2412251569
 11
43.705247811
 21
28.6288589261
  0
LINE
  5
2E1
100
AcDbEntity
  8
0
100
AcDbLine
 62
7
  6
CONTINUOUS
 10
43.6016918292
 20
28.3999659553
 11
44.662347585
 21
29.0123321861
  0
LINE
  5
2E2
100
AcDbEntity
  8
0
100
AcDbLine
 62
7
  6
CONTINUOUS
 10
58.1734860221
 20
83.0683391305
 11
55.9332981849
 21
82.7164830342
  0
LINE
  5
2E3
100
AcDbEntity
  8
0
100
AcDbLine
 62
7
  6
CONTINUOUS
 10
54.9079890835
 20
83.3084321283
 11
62.4787495894
 21
84.4975369851
  0
LINE
  5
2E4
100
AcDbEntity
  8
0
100
AcDbLine
 62
7
  6
CONTINUOUS
 10
69.4791358683
 20
65.3506587985
 11
69.2670047172
 21
65.4731300051
  0
LINE
  5
2E5
100
AcDbEntity
  8
0
100
AcDbLine
 62
7
  6
CONTINUOUS
 10
66.509299752
 20
53.814591153
 11
66.509299752
 21
58.3287676409
  0
LINE
  5
2E6
100
AcDbEntity
  8
0
100
AcDbLine
 62
7
  6
CONTINUOUS
 10
40.3571209452
 20
25.0087497432
 11
42.1242593084
 21
26.0290014628
  0
LINE
  5
2E7
100
AcDbEntity
  8
0
100
AcDbLine
 62
7
  6
CONTINUOUS
 10
57.4854090519
 20
77.2056743203
 11
50.4850227729
 21
81.2472577901
  0
LINE
  5
2E8
100
AcDbEntity
  8
0
100
AcDbLine
 62
7
  6
CONTINUOUS
 10
68.7720261432
 20
58.4103953076
 11
68.7720261432
 21
57.1856241732
  0
LINE
  5
2E9
100
AcDbEntity
  8
0
100
AcDbLine
 62
7
  6
CONTINUOUS
 10
69.2670047172
 20
71.7602048894
 11
69.2670047172
 21
65.2281855523
  0
LINE
  5
2EA
100
AcDbEntity
  8
0
100
AcDbLine
 62
7
  6
CONTINUOUS
 10
69.4791358683
 20
80.4559535154
 11
69.4791358683
 21
71.8826781355
  0
LINE
  5
2EB
100
AcDbEntity
  8
0
100
AcDbLine
 62
7
  6
CONTINUOUS
 10
69.4791358683
 20
65.3506587985
 11
69.4791358683
 21
59.1452404283
  0
LINE
  5
2EC
100
AcDbEntity
  8
0
100
AcDbLine
 62
7
  6
CONTINUOUS
 10
51.7580529256
 20
80.7983296579
 11
56.7078210016
 21
77.9406443763
  0
LINE
  5
2ED
100
AcDbEntity
  8
0
100
AcDbLine
 62
7
  6
CONTINUOUS
 10
56.9421303584
 20
78.075922139
 11
52.1580461388
 21
80.8379519656
  0
LINE
  5
2EE
100
AcDbEntity
  8
0
100
AcDbLine
 62
7
  6
CONTINUOUS
 10
54.5373110931
 20
80.5647123478
 11
57.8951170966
 21
78.6261260045
  0
LINE
  5
2EF
100
AcDbEntity
  8
0
100
AcDbLine
 62
7
  6
CONTINUOUS
 10
52.489551526
 20
82.4045660971
 11
53.5148606274
 21
81.812617003
  0
LINE
  5
2F0
100
AcDbEntity
  8
0
100
AcDbLine
 62
7
  6
CONTINUOUS
 10
58.4646287034
 20
78.9549317214
 11
59.4899378049
 21
78.3629826273
  0
LINE
  5
2F1
100
AcDbEntity
  8
0
100
AcDbLine
 62
7
  6
CONTINUOUS
 10
68.064922306
 20
58.8186360621
 11
68.0025794091
 21
59.1909079066
  0
LINE
  5
2F2
100
AcDbEntity
  8
0
100
AcDbLine
 62
7
  6
CONTINUOUS
 10
68.5850098041
 20
59.5271722447
 11
68.7720320311
 21
58.4103953076
  0
LINE
  5
2F3
100
AcDbEntity
  8
0
100
AcDbLine
 62
7
  6
CONTINUOUS
 10
61.9083753624
 20
79.2668486585
 11
60.883066261
 21
79.8587977526
  0
LINE
  5
2F4
100
AcDbEntity
  8
0
100
AcDbLine
 62
7
  6
CONTINUOUS
 10
55.9332981849
 20
82.7164830342
 11
54.9079890835
 21
83.3084321283
  0
LINE
  5
2F5
100
AcDbEntity
  8
0
100
AcDbLine
 62
7
  6
CONTINUOUS
 10
63.1232540981
 20
80.2106538488
 11
58.1734860221
 21
83.0683391305
  0
LINE
  5
2F6
100
AcDbEntity
  8
0
100
AcDbLine
 62
7
  6
CONTINUOUS
 10
69.4791358683
 20
80.4559535154
 11
62.4787495894
 21
84.4975369851
  0
ARC
  5
2F7
100
AcDbEntity
  8
0
100
AcDbCircle
 62
7
  6
CONTINUOUS
 10
17.8161626536
 20
46.907100994
 40
13.8760931765
100
AcDbArc
 50
59.9972450017
 51
60.9764176838
  0
ARC
  5
2F8
100
AcDbEntity
  8
0
100
AcDbCircle
 62
7
  6
CONTINUOUS
 10
19.7047418223
 20
47.8402521548
 40
12.1389716828
100
AcDbArc
 50
59.9680570789
 51
63.0241435382
  0
ARC
  5
2F9
100
AcDbEntity
  8
0
100
AcDbCircle
 62
7
  6
CONTINUOUS
 10
17.6900811961
 20
50.3072539819
 40
8.3241643114
100
AcDbArc
 50
119.8170480158
 51
119.9998517816
  0
ARC
  5
2FA
100
AcDbEntity
  8
0
100
AcDbCircle
 62
7
  6
CONTINUOUS
 10
36.4984363921
 20
68.2206442679
 40
4.2265479795
100
AcDbArc
 50
346.1373901527
 51
352.9284704855
  0
ARC
  5
2FB
100
AcDbEntity
  8
0
100
AcDbCircle
 62
7
  6
CONTINUOUS
 10
33.8788897596
 20
42.640569648
 40
4.1455828624
100
AcDbArc
 50
289.7620236943
 51
296.3781213438
  0
ARC
  5
2FC
100
AcDbEntity
  8
0
100
AcDbCircle
 62
7
  6
CONTINUOUS
 10
25.9686956266
 20
56.3232729101
 40
3.949961231
100
AcDbArc
 50
110.1952932445
 51
119.961888296
  0
ARC
  5
2FD
100
AcDbEntity
  8
0
100
AcDbCircle
 62
7
  6
CONTINUOUS
 10
36.8029294181
 20
68.1510370404
 40
3.9142500891
100
AcDbArc
 50
343.2030841441
 51
346.0587111039
  0
ARC
  5
2FE
100
AcDbEntity
  8
0
100
AcDbCircle
 62
7
  6
CONTINUOUS
 10
26.2980870033
 20
55.7519540491
 40
3.6095780396
100
AcDbArc
 50
111.3979483053
 51
115.9059306104
  0
ARC
  5
2FF
100
AcDbEntity
  8
0
100
AcDbCircle
 62
7
  6
CONTINUOUS
 10
26.2860227413
 20
55.7772037417
 40
3.5815948139
100
AcDbArc
 50
115.9088022275
 51
116.8255523011
  0
ARC
  5
300
100
AcDbEntity
  8
0
100
AcDbCircle
 62
7
  6
CONTINUOUS
 10
36.1011387246
 20
66.2855195096
 40
2.9061588795
100
AcDbArc
 50
356.8654593666
 51
0.03705697
  0
ARC
  5
301
100
AcDbEntity
  8
0
100
AcDbCircle
 62
7
  6
CONTINUOUS
 10
48.6748393617
 20
45.5547960889
 40
0.4116517016
100
AcDbArc
 50
93.2566228943
 51
96.9691525672
  0
SPLINE
  5
302
100
AcDbEntity
  8
0
100
AcDbSpline
 62
7
  6
CONTINUOUS
 70
0
 71
3
 72
25
 73
21
 74
0
 42
0.0000001
 43
0.0000001
 44
0.0000000001
 40
0.0
 40
0.0
 40
0.0
 40
0.0
 40
0.0651568281
 40
0.134735191
 40
0.2077555102
 40
0.2831508656
 40
0.359744443
 40
0.4363290456
 40
0.511691824
 40
0.584663475
 40
0.654161315
 40
0.7192367215
 40
0.7791327485
 40
0.8333588117
 40
0.8817945955
 40
0.9248326732
 40
0.9446726732
 40
0.9636345543
 40
0.9819776439
 40
1.0
 40
1.0
 40
1.0
 40
1.0
 10
42.0237041121
 20
74.1761275676
 30
0.0
 10
42.1285288139
 20
74.115608367
 30
0.0
 10
42.3389092513
 20
73.9792169492
 30
0.0
 10
42.643950189
 20
73.742157792
 30
0.0
 10
42.9440521719
 20
73.4696969877
 30
0.0
 10
43.233163469
 20
73.1673603985
 30
0.0
 10
43.5054818205
 20
72.8411552039
 30
0.0
 10
43.7555272612
 20
72.4976554909
 30
0.0
 10
43.9782738871
 20
72.1437635454
 30
0.0
 10
44.169262048
 20
71.7865960228
 30
0.0
 10
44.3246911036
 20
71.4333060981
 30
0.0
 10
44.4414885405
 20
71.0909096319
 30
0.0
 10
44.5173682978
 20
70.7661264993
 30
0.0
 10
44.5507716192
 20
70.4651033465
 30
0.0
 10
44.5408823214
 20
70.193488509
 30
0.0
 10
44.4946639567
 20
69.9901237968
 30
0.0
 10
44.4344882802
 20
69.8500990853
 30
0.0
 10
44.3799495348
 20
69.7586230715
 30
0.0
 10
44.3150714131
 20
69.6784550214
 30
0.0
 10
44.2649494758
 20
69.6327013288
 30
0.0
 10
44.2385615111
 20
69.6120962607
 30
0.0
  0
SPLINE
  5
303
100
AcDbEntity
  8
0
100
AcDbSpline
 62
7
  6
CONTINUOUS
 70
0
 71
3
 72
15
 73
11
 74
0
 42
0.0000001
 43
0.0000001
 44
0.0000000001
 40
0.0
 40
0.0
 40
0.0
 40
0.0
 40
0.1021295763
 40
0.2070676739
 40
0.3173142008
 40
0.4348668838
 40
0.5612032006
 40
0.6972972615
 40
0.8436097854
 40
1.0
 40
1.0
 40
1.0
 40
1.0
 10
24.7965809099
 20
60.7728605367
 30
0.0
 10
24.7746084371
 20
60.7556990746
 30
0.0
 10
24.7333009586
 20
60.7165250314
 30
0.0
 10
24.6823845036
 20
60.6458949965
 30
0.0
 10
24.6424584573
 20
60.5638576328
 30
0.0
 10
24.6137453778
 20
60.4712062221
 30
0.0
 10
24.5963497182
 20
60.3686805393
 30
0.0
 10
24.5903051786
 20
60.2570531088
 30
0.0
 10
24.5956275336
 20
60.1372242117
 30
0.0
 10
24.6063036367
 20
60.0551794085
 30
0.0
 10
24.6133550248
 20
60.0130730353
 30
0.0
  0
SPLINE
  5
304
100
AcDbEntity
  8
0
100
AcDbSpline
 62
7
  6
CONTINUOUS
 70
0
 71
3
 72
14
 73
10
 74
0
 42
0.0000001
 43
0.0000001
 44
0.0000000001
 40
0.0
 40
0.0
 40
0.0
 40
0.0
 40
0.1079122884
 40
0.2177759063
 40
0.3314021895
 40
0.4503630972
 40
0.5759159138
 40
0.7090256767
 40
1.0
 40
1.0
 40
1.0
 40
1.0
 10
38.8046670002
 20
72.98135127
 30
0.0
 10
38.7780635769
 20
72.9605778432
 30
0.0
 10
38.7275509819
 20
72.9144083564
 30
0.0
 10
38.662263457
 20
72.8334322294
 30
0.0
 10
38.6074953058
 20
72.7409751907
 30
0.0
 10
38.563524964
 20
72.6376282583
 30
0.0
 10
38.5304544786
 20
72.523969051
 30
0.0
 10
38.500236413
 20
72.3544812647
 30
0.0
 10
38.495998721
 20
72.2210469488
 30
0.0
 10
38.4994254033
 20
72.1300995127
 30
0.0
  0
SPLINE
  5
305
100
AcDbEntity
  8
0
100
AcDbSpline
 62
7
  6
CONTINUOUS
 70
0
 71
3
 72
15
 73
11
 74
0
 42
0.0000001
 43
0.0000001
 44
0.0000000001
 40
0.0
 40
0.0
 40
0.0
 40
0.0
 40
0.0964308848
 40
0.1966606143
 40
0.3039304154
 40
0.4206175696
 40
0.5481669225
 40
0.6872849551
 40
0.8380970119
 40
1.0
 40
1.0
 40
1.0
 40
1.0
 10
40.5455704696
 20
74.3409165303
 30
0.0
 10
40.5853737492
 20
74.3719969602
 30
0.0
 10
40.6742671642
 20
74.4260777259
 30
0.0
 10
40.8262717038
 20
74.4769681165
 30
0.0
 10
40.9956820269
 20
74.4982423119
 30
0.0
 10
41.1803067956
 20
74.4901304197
 30
0.0
 10
41.3782006321
 20
74.453200751
 30
0.0
 10
41.5873257219
 20
74.3879821723
 30
0.0
 10
41.8053871096
 20
74.2952907056
 30
0.0
 10
41.9502752259
 20
74.2185207958
 30
0.0
 10
42.0237041121
 20
74.1761275676
 30
0.0
  0
SPLINE
  5
306
100
AcDbEntity
  8
0
100
AcDbSpline
 62
7
  6
CONTINUOUS
 70
0
 71
3
 72
13
 73
9
 74
0
 42
0.0000001
 43
0.0000001
 44
0.0000000001
 40
0.0
 40
0.0
 40
0.0
 40
0.0
 40
0.1052720857
 40
0.2183807409
 40
0.3383580324
 40
0.464192846
 40
0.728347431
 40
1.0
 40
1.0
 40
1.0
 40
1.0
 10
24.6133550248
 20
60.0130730353
 30
0.0
 10
24.623385344
 20
59.9531783946
 30
0.0
 10
24.6506224202
 20
59.829960496
 30
0.0
 10
24.7087661415
 20
59.6434374399
 30
0.0
 10
24.7850366334
 20
59.450750526
 30
0.0
 10
24.9115086428
 20
59.1849363234
 30
0.0
 10
25.1073419351
 20
58.8562517534
 30
0.0
 10
25.2942306
 20
58.6091822799
 30
0.0
 10
25.3954835105
 20
58.4895761247
 30
0.0
  0
SPLINE
  5
307
100
AcDbEntity
  8
0
100
AcDbSpline
 62
7
  6
CONTINUOUS
 70
0
 71
3
 72
11
 73
7
 74
0
 42
0.0000001
 43
0.0000001
 44
0.0000000001
 40
0.0
 40
0.0
 40
0.0
 40
0.0
 40
0.2740727502
 40
0.5283572876
 40
0.7680758416
 40
1.0
 40
1.0
 40
1.0
 40
1.0
 10
26.8797313448
 20
57.5198540602
 30
0.0
 10
26.9162305379
 20
57.5175047754
 30
0.0
 10
26.9870416518
 20
57.5176009917
 30
0.0
 10
27.0886764523
 20
57.5343686381
 30
0.0
 10
27.1802578425
 20
57.5677476864
 30
0.0
 10
27.2341762169
 20
57.6012714352
 30
0.0
 10
27.2585680403
 20
57.6203225158
 30
0.0
  0
SPLINE
  5
308
100
AcDbEntity
  8
0
100
AcDbSpline
 62
7
  6
CONTINUOUS
 70
0
 71
3
 72
15
 73
11
 74
0
 42
0.0000001
 43
0.0000001
 44
0.0000000001
 40
0.0
 40
0.0
 40
0.0
 40
0.0
 40
0.1619022592
 40
0.3127117397
 40
0.4518290014
 40
0.5793787714
 40
0.6960663307
 40
0.8033369678
 40
0.9035677524
 40
1.0
 40
1.0
 40
1.0
 40
1.0
 10
40.2828007594
 20
72.816562156
 30
0.0
 10
40.2093721972
 20
72.8589551971
 30
0.0
 10
40.0644858722
 20
72.9357248472
 30
0.0
 10
39.8464262367
 20
73.0284150185
 30
0.0
 10
39.6373029226
 20
73.0936340384
 30
0.0
 10
39.4394091673
 20
73.1305646061
 30
0.0
 10
39.2547835996
 20
73.1386770843
 30
0.0
 10
39.0853718035
 20
73.1174041762
 30
0.0
 10
38.9333657774
 20
73.0665128929
 30
0.0
 10
38.8444707604
 20
73.0124322514
 30
0.0
 10
38.8046670002
 20
72.98135127
 30
0.0
  0
SPLINE
  5
309
100
AcDbEntity
  8
0
100
AcDbSpline
 62
7
  6
CONTINUOUS
 70
0
 71
3
 72
11
 73
7
 74
0
 42
0.0000001
 43
0.0000001
 44
0.0000000001
 40
0.0
 40
0.0
 40
0.0
 40
0.0
 40
0.2894569869
 40
0.5514798451
 40
0.7870117298
 40
1.0
 40
1.0
 40
1.0
 40
1.0
 10
42.065382088
 20
69.8004594748
 30
0.0
 10
42.0753693279
 20
69.7408220753
 30
0.0
 10
42.0885911568
 20
69.6260741947
 30
0.0
 10
42.0861785051
 20
69.46112299
 30
0.0
 10
42.0603169067
 20
69.3142290387
 30
0.0
 10
42.0257805802
 20
69.2261555236
 30
0.0
 10
42.0045169786
 20
69.1870719069
 30
0.0
  0
SPLINE
  5
30A
100
AcDbEntity
  8
0
100
AcDbSpline
 62
7
  6
CONTINUOUS
 70
0
 71
3
 72
23
 73
19
 74
0
 42
0.0000001
 43
0.0000001
 44
0.0000000001
 40
0.0
 40
0.0
 40
0.0
 40
0.0
 40
0.0405744775
 40
0.0855531442
 40
0.1352822814
 40
0.1897618695
 40
0.2487345902
 40
0.311750516
 40
0.3782118293
 40
0.4474109264
 40
0.5185625613
 40
0.590827442
 40
0.6633349133
 40
0.7352130493
 40
0.8056034345
 40
0.8736799021
 40
0.9387150585
 40
1.0
 40
1.0
 40
1.0
 40
1.0
 10
42.7379200362
 20
68.600606374
 30
0.0
 10
42.7610104053
 20
68.6662501025
 30
0.0
 10
42.794838382
 20
68.8100748586
 30
0.0
 10
42.8097196553
 20
69.0423922205
 30
0.0
 10
42.7914688996
 20
69.2982621952
 30
0.0
 10
42.7405012342
 20
69.5739276253
 30
0.0
 10
42.6576509666
 20
69.8654148419
 30
0.0
 10
42.5441542877
 20
70.1683643589
 30
0.0
 10
42.401724772
 20
70.4782004661
 30
0.0
 10
42.2325309172
 20
70.7902055777
 30
0.0
 10
42.0391477074
 20
71.0996045063
 30
0.0
 10
41.8245248073
 20
71.4016427586
 30
0.0
 10
41.5919648629
 20
71.6916927766
 30
0.0
 10
41.3450330544
 20
71.9653028852
 30
0.0
 10
41.0875242712
 20
72.2182673733
 30
0.0
 10
40.8233639673
 20
72.4467594752
 30
0.0
 10
40.5566315591
 20
72.647217166
 30
0.0
 10
40.3738252317
 20
72.7640103413
 30
0.0
 10
40.2828007594
 20
72.816562156
 30
0.0
  0
SPLINE
  5
30B
100
AcDbEntity
  8
0
100
AcDbSpline
 62
7
  6
CONTINUOUS
 70
0
 71
3
 72
26
 73
22
 74
0
 42
0.0000001
 43
0.0000001
 44
0.0000000001
 40
0.0
 40
0.0
 40
0.0
 40
0.0
 40
0.0180714056
 40
0.0365070747
 40
0.0556406297
 40
0.075757411
 40
0.0970830342
 40
0.1197787195
 40
0.1696215616
 40
0.2256493107
 40
0.2875906487
 40
0.3547730781
 40
0.426239314
 40
0.5008313741
 40
0.5772612098
 40
0.6541673435
 40
0.7301702163
 40
0.8039284223
 40
0.8741781049
 40
0.9398432628
 40
1.0
 40
1.0
 40
1.0
 40
1.0
 10
39.42016875
 20
72.1932104062
 30
0.0
 10
39.4388926263
 20
72.2078347821
 30
0.0
 10
39.4792077527
 20
72.2343344374
 30
0.0
 10
39.5462310532
 20
72.2643369722
 30
0.0
 10
39.61956619
 20
72.2846841838
 30
0.0
 10
39.6987237395
 20
72.2952725488
 30
0.0
 10
39.78323054
 20
72.2961160566
 30
0.0
 10
39.9062349626
 20
72.2839526477
 30
0.0
 10
40.0710805085
 20
72.2426353073
 30
0.0
 10
40.275411987
 20
72.157920781
 30
0.0
 10
40.4880724933
 20
72.0384856248
 30
0.0
 10
40.7043739026
 20
71.886986571
 30
0.0
 10
40.9195269418
 20
71.7067708446
 30
0.0
 10
41.1286720104
 20
71.5018893169
 30
0.0
 10
41.3270638603
 20
71.2769741943
 30
0.0
 10
41.5101903724
 20
71.0371331784
 30
0.0
 10
41.6738883457
 20
70.7878124441
 30
0.0
 10
41.8144299131
 20
70.5346859013
 30
0.0
 10
41.9287028273
 20
70.2834612296
 30
0.0
 10
42.014072664
 20
70.0398554865
 30
0.0
 10
42.0523195338
 20
69.878460681
 30
0.0
 10
42.065382088
 20
69.8004594748
 30
0.0
  0
SPLINE
  5
30C
100
AcDbEntity
  8
0
100
AcDbSpline
 62
7
  6
CONTINUOUS
 70
0
 71
3
 72
26
 73
22
 74
0
 42
0.0000001
 43
0.0000001
 44
0.0000000001
 40
0.0
 40
0.0
 40
0.0
 40
0.0
 40
0.0601562128
 40
0.1258200142
 40
0.1960690079
 40
0.2698266692
 40
0.3458295057
 40
0.4227364186
 40
0.4991674842
 40
0.5737608938
 40
0.6452281881
 40
0.7124111228
 40
0.7743524749
 40
0.8303798432
 40
0.8802220815
 40
0.9029175027
 40
0.9242428944
 40
0.9443594432
 40
0.9634929302
 40
0.9819285436
 40
1.0
 40
1.0
 40
1.0
 40
1.0
 10
27.4417939254
 20
58.3801100172
 30
0.0
 10
27.4287314854
 20
58.4581105417
 30
0.0
 10
27.3904857315
 20
58.6195030576
 30
0.0
 10
27.3051170155
 20
58.86310561
 30
0.0
 10
27.1908462938
 20
59.1143275067
 30
0.0
 10
27.0503062529
 20
59.3674529776
 30
0.0
 10
26.8866091607
 20
59.6167745929
 30
0.0
 10
26.7034815747
 20
59.8566180701
 30
0.0
 10
26.5050869388
 20
60.0815366238
 30
0.0
 10
26.2959385836
 20
60.28642163
 30
0.0
 10
26.0807825464
 20
60.4666397601
 30
0.0
 10
25.8644791034
 20
60.6181395409
 30
0.0
 10
25.6518180833
 20
60.737574156
 30
0.0
 10
25.447487468
 20
60.8222874311
 30
0.0
 10
25.2826433242
 20
60.8636036018
 30
0.0
 10
25.1596403585
 20
60.8757665286
 30
0.0
 10
25.0751344599
 20
60.8749233796
 30
0.0
 10
24.9959778201
 20
60.8643337743
 30
0.0
 10
24.9226428994
 20
60.8439877151
 30
0.0
 10
24.855619733
 20
60.8139848819
 30
0.0
 10
24.8153049403
 20
60.7874848231
 30
0.0
 10
24.7965809099
 20
60.7728605367
 30
0.0
  0
SPLINE
  5
30D
100
AcDbEntity
  8
0
100
AcDbSpline
 62
7
  6
CONTINUOUS
 70
0
 71
3
 72
15
 73
11
 74
0
 42
0.0000001
 43
0.0000001
 44
0.0000000001
 40
0.0
 40
0.0
 40
0.0
 40
0.0
 40
0.1021295763
 40
0.2070676739
 40
0.3173142008
 40
0.4348668838
 40
0.5612032006
 40
0.6972972615
 40
0.8436097854
 40
1.0
 40
1.0
 40
1.0
 40
1.0
 10
27.2585680403
 20
57.6203225158
 30
0.0
 10
27.2805405132
 20
57.6374839778
 30
0.0
 10
27.3218479917
 20
57.676658021
 30
0.0
 10
27.3727644467
 20
57.7472880559
 30
0.0
 10
27.412690493
 20
57.8293254197
 30
0.0
 10
27.4414035725
 20
57.9219768304
 30
0.0
 10
27.4587992321
 20
58.0245025132
 30
0.0
 10
27.4648437716
 20
58.1361299436
 30
0.0
 10
27.4595214167
 20
58.2559588408
 30
0.0
 10
27.4488453136
 20
58.338003644
 30
0.0
 10
27.4417939254
 20
58.3801100172
 30
0.0
  0
SPLINE
  5
30E
100
AcDbEntity
  8
0
100
AcDbSpline
 62
7
  6
CONTINUOUS
 70
0
 71
3
 72
11
 73
7
 74
0
 42
0.0000001
 43
0.0000001
 44
0.0000000001
 40
0.0
 40
0.0
 40
0.0
 40
0.0
 40
0.2177843137
 40
0.4509117637
 40
0.7102976701
 40
1.0
 40
1.0
 40
1.0
 40
1.0
 10
21.592481478
 20
62.8743091222
 30
0.0
 10
21.6254673419
 20
62.8933533914
 30
0.0
 10
21.7012574924
 20
62.9208582577
 30
0.0
 10
21.827143641
 20
62.9240456707
 30
0.0
 10
21.9613087725
 20
62.8916471833
 30
0.0
 10
22.0485979206
 20
62.8501220423
 30
0.0
 10
22.0924767446
 20
62.8247891646
 30
0.0
  0
SPLINE
  5
30F
100
AcDbEntity
  8
0
100
AcDbSpline
 62
7
  6
CONTINUOUS
 70
0
 71
3
 72
15
 73
11
 74
0
 42
0.0000001
 43
0.0000001
 44
0.0000000001
 40
0.0
 40
0.0
 40
0.0
 40
0.0
 40
0.0918743595
 40
0.1896446483
 40
0.2975555395
 40
0.4175953586
 40
0.5497939509
 40
0.6926583951
 40
0.8438517505
 40
1.0
 40
1.0
 40
1.0
 40
1.0
 10
36.0265990189
 20
60.1657509777
 30
0.0
 10
35.9734935226
 20
60.1964006926
 30
0.0
 10
35.873855972
 20
60.2785509319
 30
0.0
 10
35.7649038275
 20
60.4475711487
 30
0.0
 10
35.6962448463
 20
60.6558265113
 30
0.0
 10
35.6687478326
 20
60.895945783
 30
0.0
 10
35.6823991819
 20
61.1602765473
 30
0.0
 10
35.7364787331
 20
61.4403819301
 30
0.0
 10
35.8290549108
 20
61.7268972321
 30
0.0
 10
35.9135612529
 20
61.9143239695
 30
0.0
 10
35.9614470228
 20
62.006881436
 30
0.0
  0
SPLINE
  5
310
100
AcDbEntity
  8
0
100
AcDbSpline
 62
7
  6
CONTINUOUS
 70
0
 71
3
 72
11
 73
7
 74
0
 42
0.0000001
 43
0.0000001
 44
0.0000000001
 40
0.0
 40
0.0
 40
0.0
 40
0.0
 40
0.2177512726
 40
0.4508864534
 40
0.7104462763
 40
1.0
 40
1.0
 40
1.0
 40
1.0
 10
27.0841955362
 20
68.2308566011
 30
0.0
 10
27.1010197615
 20
68.2405677277
 30
0.0
 10
27.1396598189
 20
68.2546405932
 30
0.0
 10
27.2038962902
 20
68.2562527849
 30
0.0
 10
27.2723237538
 20
68.2396944081
 30
0.0
 10
27.3168601946
 20
68.2185331061
 30
0.0
 10
27.3392309052
 20
68.2056176625
 30
0.0
  0
SPLINE
  5
311
100
AcDbEntity
  8
0
100
AcDbSpline
 62
7
  6
CONTINUOUS
 70
0
 71
3
 72
15
 73
11
 74
0
 42
0.0000001
 43
0.0000001
 44
0.0000000001
 40
0.0
 40
0.0
 40
0.0
 40
0.0
 40
0.0918743595
 40
0.1896446483
 40
0.2975555395
 40
0.4175953586
 40
0.5497939509
 40
0.6926583951
 40
0.8438517505
 40
1.0
 40
1.0
 40
1.0
 40
1.0
 10
28.2483920422
 20
64.6563992775
 30
0.0
 10
28.195286546
 20
64.6870489924
 30
0.0
 10
28.0956489954
 20
64.7691992317
 30
0.0
 10
27.9866968509
 20
64.9382194484
 30
0.0
 10
27.9180378696
 20
65.146474811
 30
0.0
 10
27.890540856
 20
65.3865940827
 30
0.0
 10
27.9041922053
 20
65.6509248471
 30
0.0
 10
27.9582717565
 20
65.9310302298
 30
0.0
 10
28.0508479342
 20
66.2175455318
 30
0.0
 10
28.1353542762
 20
66.4049722692
 30
0.0
 10
28.1832400462
 20
66.4975297357
 30
0.0
  0
SPLINE
  5
312
100
AcDbEntity
  8
0
100
AcDbSpline
 62
7
  6
CONTINUOUS
 70
0
 71
3
 72
9
 73
5
 74
0
 42
0.0000001
 43
0.0000001
 44
0.0000000001
 40
0.0
 40
0.0
 40
0.0
 40
0.0
 40
0.4921208943
 40
1.0
 40
1.0
 40
1.0
 40
1.0
 10
24.6472444352
 20
67.3812245463
 30
0.0
 10
24.7291686205
 20
67.4285232144
 30
0.0
 10
24.9070852828
 20
67.5059651623
 30
0.0
 10
25.097316328
 20
67.5428722657
 30
0.0
 10
25.19450235
 20
67.5521396327
 30
0.0
  0
SPLINE
  5
313
100
AcDbEntity
  8
0
100
AcDbSpline
 62
7
  6
CONTINUOUS
 70
0
 71
3
 72
15
 73
11
 74
0
 42
0.0000001
 43
0.0000001
 44
0.0000000001
 40
0.0
 40
0.0
 40
0.0
 40
0.0
 40
0.1141546703
 40
0.2373261017
 40
0.3669753162
 40
0.4999989361
 40
0.6330227034
 40
0.7626723508
 40
0.8858444607
 40
1.0
 40
1.0
 40
1.0
 40
1.0
 10
41.9127270129
 20
58.3219663085
 30
0.0
 10
42.0966748322
 20
58.2157663881
 30
0.0
 10
42.4600048018
 20
57.9610785764
 30
0.0
 10
42.9599273536
 20
57.4933668289
 30
0.0
 10
43.4206329952
 20
56.9404960013
 30
0.0
 10
43.8247690073
 20
56.3232060507
 30
0.0
 10
44.1572932478
 20
55.6645698754
 30
0.0
 10
44.4057449365
 20
54.9891507884
 30
0.0
 10
44.560838968
 20
54.3223467044
 30
0.0
 10
44.5997439684
 20
53.8803473181
 30
0.0
 10
44.5997439684
 20
53.6679422563
 30
0.0
  0
SPLINE
  5
314
100
AcDbEntity
  8
0
100
AcDbSpline
 62
7
  6
CONTINUOUS
 70
0
 71
3
 72
13
 73
9
 74
0
 42
0.0000001
 43
0.0000001
 44
0.0000000001
 40
0.0
 40
0.0
 40
0.0
 40
0.0
 40
0.1141767831
 40
0.2375713001
 40
0.500001251
 40
0.7624305195
 40
0.8858241805
 40
1.0
 40
1.0
 40
1.0
 40
1.0
 10
38.9994349453
 20
60.4121694257
 30
0.0
 10
38.9994349453
 20
60.3842414414
 30
0.0
 10
39.0045823511
 20
60.3260758589
 30
0.0
 10
39.032322421
 20
60.2066604199
 30
0.0
 10
39.0969577542
 20
60.0602247809
 30
0.0
 10
39.1914575828
 20
59.9310317407
 30
0.0
 10
39.2810044301
 20
59.8473013862
 30
0.0
 10
39.3288035313
 20
59.8137614773
 30
0.0
 10
39.3529898079
 20
59.7997978399
 30
0.0
  0
SPLINE
  5
315
100
AcDbEntity
  8
0
100
AcDbSpline
 62
7
  6
CONTINUOUS
 70
0
 71
3
 72
15
 73
11
 74
0
 42
0.0000001
 43
0.0000001
 44
0.0000000001
 40
0.0
 40
0.0
 40
0.0
 40
0.0
 40
0.1141546703
 40
0.2373261017
 40
0.3669753162
 40
0.4999989361
 40
0.6330227034
 40
0.7626723508
 40
0.8858444607
 40
1.0
 40
1.0
 40
1.0
 40
1.0
 10
36.3124179897
 20
69.9652079808
 30
0.0
 10
36.4963658091
 20
69.8590080603
 30
0.0
 10
36.8596957787
 20
69.6043202486
 30
0.0
 10
37.3596183304
 20
69.1366085011
 30
0.0
 10
37.820323972
 20
68.5837376736
 30
0.0
 10
38.2244599842
 20
67.9664477229
 30
0.0
 10
38.5569842246
 20
67.3078115476
 30
0.0
 10
38.8054359133
 20
66.6323924607
 30
0.0
 10
38.9605299448
 20
65.9655883767
 30
0.0
 10
38.9994349453
 20
65.5235889903
 30
0.0
 10
38.9994349453
 20
65.3111839285
 30
0.0
  0
SPLINE
  5
316
100
AcDbEntity
  8
0
100
AcDbSpline
 62
7
  6
CONTINUOUS
 70
0
 71
3
 72
14
 73
10
 74
0
 42
0.0000001
 43
0.0000001
 44
0.0000000001
 40
0.0
 40
0.0
 40
0.0
 40
0.0
 40
0.1080466357
 40
0.2181307812
 40
0.3321113461
 40
0.4515001674
 40
0.5774437985
 40
0.7107269735
 40
1.0
 40
1.0
 40
1.0
 40
1.0
 10
20.4046214119
 20
64.931759623
 30
0.0
 10
20.3423188921
 20
64.8957894687
 30
0.0
 10
20.2225495726
 20
64.8121838732
 30
0.0
 10
20.0642424032
 20
64.6564436266
 30
0.0
 10
19.9281595156
 20
64.4715380826
 30
0.0
 10
19.815418796
 20
64.2596718456
 30
0.0
 10
19.7270042421
 20
64.0228722964
 30
0.0
 10
19.640079544
 20
63.6675197715
 30
0.0
 10
19.6175927066
 20
63.3847851901
 30
0.0
 10
19.6175927066
 20
63.1921786631
 30
0.0
  0
SPLINE
  5
317
100
AcDbEntity
  8
0
100
AcDbSpline
 62
7
  6
CONTINUOUS
 70
0
 71
3
 72
14
 73
10
 74
0
 42
0.0000001
 43
0.0000001
 44
0.0000000001
 40
0.0
 40
0.0
 40
0.0
 40
0.0
 40
0.1080471695
 40
0.2181317599
 40
0.3321126402
 40
0.4515013778
 40
0.5774449063
 40
0.7107281627
 40
1.0
 40
1.0
 40
1.0
 40
1.0
 10
30.2475439942
 20
72.5579380996
 30
0.0
 10
30.309845394
 20
72.5939070457
 30
0.0
 10
30.4421315051
 20
72.6558262417
 30
0.0
 10
30.6561552703
 20
72.7150526866
 30
0.0
 10
30.8843238013
 20
72.7404510881
 30
0.0
 10
31.124169403
 20
72.732156354
 30
0.0
 10
31.3734446327
 20
72.6903285993
 30
0.0
 10
31.7246418887
 20
72.5879371013
 30
0.0
 10
31.9807342882
 20
72.4660501553
 30
0.0
 10
32.1475322175
 20
72.3697515045
 30
0.0
  0
SPLINE
  5
318
100
AcDbEntity
  8
0
100
AcDbSpline
 62
7
  6
CONTINUOUS
 70
0
 71
3
 72
14
 73
10
 74
0
 42
0.0000001
 43
0.0000001
 44
0.0000000001
 40
0.0
 40
0.0
 40
0.0
 40
0.0
 40
0.1079685449
 40
0.2179866223
 40
0.3319229485
 40
0.451295502
 40
0.5772525962
 40
0.7105775524
 40
1.0
 40
1.0
 40
1.0
 40
1.0
 10
26.004920971
 20
70.1084731761
 30
0.0
 10
25.9424065401
 20
70.0723812465
 30
0.0
 10
25.8222434171
 20
69.9884471128
 30
0.0
 10
25.6635020269
 20
69.8320147771
 30
0.0
 10
25.527149588
 20
69.6462319401
 30
0.0
 10
25.4143119998
 20
69.4333288054
 30
0.0
 10
25.3259783864
 20
69.1953568661
 30
0.0
 10
25.2394058997
 20
68.8382233441
 30
0.0
 10
25.2174569214
 20
68.5541401579
 30
0.0
 10
25.2179017298
 20
68.3606401093
 30
0.0
  0
SPLINE
  5
319
100
AcDbEntity
  8
0
100
AcDbSpline
 62
7
  6
CONTINUOUS
 70
0
 71
3
 72
15
 73
11
 74
0
 42
0.0000001
 43
0.0000001
 44
0.0000000001
 40
0.0
 40
0.0
 40
0.0
 40
0.0
 40
0.1141555516
 40
0.2373276756
 40
0.3669773296
 40
0.5000011
 40
0.6330247168
 40
0.7626739247
 40
0.885845342
 40
1.0
 40
1.0
 40
1.0
 40
1.0
 10
32.9890376091
 20
59.6365083225
 30
0.0
 10
32.9890376091
 20
59.4241032378
 30
0.0
 10
33.0279426223
 20
58.9821038028
 30
0.0
 10
33.1830366764
 20
58.3152996607
 30
0.0
 10
33.431488403
 20
57.6398805403
 30
0.0
 10
33.7640126657
 20
56.9812443627
 30
0.0
 10
34.1681486871
 20
56.3639544324
 30
0.0
 10
34.6288543186
 20
55.8110836545
 30
0.0
 10
35.1287768313
 20
55.3433719556
 30
0.0
 10
35.4921067652
 20
55.0886841792
 30
0.0
 10
35.6760545647
 20
54.9824842702
 30
0.0
  0
SPLINE
  5
31A
100
AcDbEntity
  8
0
100
AcDbSpline
 62
7
  6
CONTINUOUS
 70
0
 71
3
 72
13
 73
9
 74
0
 42
0.0000001
 43
0.0000001
 44
0.0000000001
 40
0.0
 40
0.0
 40
0.0
 40
0.0
 40
0.1141759018
 40
0.2375697245
 40
0.4999990825
 40
0.762428944
 40
0.8858232992
 40
1.0
 40
1.0
 40
1.0
 40
1.0
 10
32.6354827466
 20
65.1478944111
 30
0.0
 10
32.6596690406
 20
65.1339307636
 30
0.0
 10
32.7074681752
 20
65.1003907981
 30
0.0
 10
32.7970150919
 20
65.0166603999
 30
0.0
 10
32.8915149046
 20
64.8874672892
 30
0.0
 10
32.9561501688
 20
64.7410316718
 30
0.0
 10
32.9838902356
 20
64.6216163146
 30
0.0
 10
32.9890376091
 20
64.5634507895
 30
0.0
 10
32.9890376091
 20
64.5355228253
 30
0.0
  0
SPLINE
  5
31B
100
AcDbEntity
  8
0
100
AcDbSpline
 62
7
  6
CONTINUOUS
 70
0
 71
3
 72
10
 73
6
 74
0
 42
0.0000001
 43
0.0000001
 44
0.0000000001
 40
0.0
 40
0.0
 40
0.0
 40
0.0
 40
0.2716265159
 40
0.5289960456
 40
1.0
 40
1.0
 40
1.0
 40
1.0
 10
24.2915879898
 20
61.555160418
 30
0.0
 10
24.3797734435
 20
61.5042476744
 30
0.0
 10
24.555958486
 20
61.4123445979
 30
0.0
 10
24.9036425358
 20
61.2716632087
 30
0.0
 10
25.1732263951
 20
61.2095916973
 30
0.0
 10
25.3491933232
 20
61.195013968
 30
0.0
  0
SPLINE
  5
31C
100
AcDbEntity
  8
0
100
AcDbSpline
 62
7
  6
CONTINUOUS
 70
0
 71
3
 72
11
 73
7
 74
0
 42
0.0000001
 43
0.0000001
 44
0.0000000001
 40
0.0
 40
0.0
 40
0.0
 40
0.0
 40
0.2895401978
 40
0.5491171512
 40
0.782255066
 40
1.0
 40
1.0
 40
1.0
 40
1.0
 10
25.2179017298
 20
63.469872281
 30
0.0
 10
25.2179017298
 20
63.4445529694
 30
0.0
 10
25.2140357049
 20
63.3963747102
 30
0.0
 10
25.1945591703
 20
63.3301692891
 30
0.0
 10
25.1617059375
 20
63.2764286955
 30
0.0
 10
25.1308218266
 20
63.2505240223
 30
0.0
 10
25.11433176
 20
63.2410035386
 30
0.0
  0
SPLINE
  5
31D
100
AcDbEntity
  8
0
100
AcDbSpline
 62
7
  6
CONTINUOUS
 70
0
 71
3
 72
15
 73
11
 74
0
 42
0.0000001
 43
0.0000001
 44
0.0000000001
 40
0.0
 40
0.0
 40
0.0
 40
0.0
 40
0.1141232787
 40
0.2373467935
 40
0.3669716251
 40
0.4999988493
 40
0.6330262331
 40
0.7626515288
 40
0.885875802
 40
1.0
 40
1.0
 40
1.0
 40
1.0
 10
37.8822369072
 20
53.7087731161
 30
0.0
 10
37.9306307138
 20
53.6808335709
 30
0.0
 10
38.026238605
 20
53.6137877844
 30
0.0
 10
38.1578173326
 20
53.4907312187
 30
0.0
 10
38.2790471153
 20
53.3452121527
 30
0.0
 10
38.3854099086
 20
53.1827860575
 30
0.0
 10
38.4728945807
 20
53.0094603526
 30
0.0
 10
38.5383040841
 20
52.8317124676
 30
0.0
 10
38.5790861798
 20
52.6562329081
 30
0.0
 10
38.5893466323
 20
52.5399104332
 30
0.0
 10
38.5893466323
 20
52.4840299445
 30
0.0
  0
SPLINE
  5
31E
100
AcDbEntity
  8
0
100
AcDbSpline
 62
7
  6
CONTINUOUS
 70
0
 71
3
 72
11
 73
7
 74
0
 42
0.0000001
 43
0.0000001
 44
0.0000000001
 40
0.0
 40
0.0
 40
0.0
 40
0.0
 40
0.2823211154
 40
0.5393538486
 40
0.7755100621
 40
1.0
 40
1.0
 40
1.0
 40
1.0
 10
36.9947449916
 20
62.8404436001
 30
0.0
 10
37.0467104241
 20
62.8632223322
 30
0.0
 10
37.149674275
 20
62.8991440884
 30
0.0
 10
37.3051845824
 20
62.9210906258
 30
0.0
 10
37.4502706969
 20
62.9068199154
 30
0.0
 10
37.5377462954
 20
62.8722035178
 30
0.0
 10
37.5768201687
 20
62.8496490176
 30
0.0
  0
SPLINE
  5
31F
100
AcDbEntity
  8
0
100
AcDbSpline
 62
7
  6
CONTINUOUS
 70
0
 71
3
 72
14
 73
10
 74
0
 42
0.0000001
 43
0.0000001
 44
0.0000000001
 40
0.0
 40
0.0
 40
0.0
 40
0.0
 40
0.289271846
 40
0.4225551122
 40
0.5484986403
 40
0.6678873729
 40
0.7818682504
 40
0.8919528364
 40
1.0
 40
1.0
 40
1.0
 40
1.0
 10
27.9049091942
 20
69.9202865812
 30
0.0
 10
27.7381112601
 20
70.0165852348
 30
0.0
 10
27.4820188472
 20
70.1384721812
 30
0.0
 10
27.1308215802
 20
70.2408636824
 30
0.0
 10
26.8815463469
 20
70.2826914349
 30
0.0
 10
26.6417007504
 20
70.2909861583
 30
0.0
 10
26.4135322288
 20
70.2655877556
 30
0.0
 10
26.1995084703
 20
70.2063613164
 30
0.0
 10
26.0672223705
 20
70.1444421147
 30
0.0
 10
26.004920971
 20
70.1084731761
 30
0.0
  0
SPLINE
  5
320
100
AcDbEntity
  8
0
100
AcDbSpline
 62
7
  6
CONTINUOUS
 70
0
 71
3
 72
15
 73
11
 74
0
 42
0.0000001
 43
0.0000001
 44
0.0000000001
 40
0.0
 40
0.0
 40
0.0
 40
0.0
 40
0.1141555516
 40
0.2373276756
 40
0.3669773296
 40
0.5000011
 40
0.6330247168
 40
0.7626739247
 40
0.885845342
 40
1.0
 40
1.0
 40
1.0
 40
1.0
 10
34.756811922
 20
62.8617190053
 30
0.0
 10
34.756811922
 20
63.07412409
 30
0.0
 10
34.7179069088
 20
63.516123525
 30
0.0
 10
34.5628128547
 20
64.1829276671
 30
0.0
 10
34.3143611281
 20
64.8583467875
 30
0.0
 10
33.9818368654
 20
65.5169829651
 30
0.0
 10
33.5777008441
 20
66.1342728953
 30
0.0
 10
33.1169952126
 20
66.6871436733
 30
0.0
 10
32.6170726998
 20
67.1548553722
 30
0.0
 10
32.253742766
 20
67.4095431485
 30
0.0
 10
32.0697949664
 20
67.5157430575
 30
0.0
  0
SPLINE
  5
321
100
AcDbEntity
  8
0
100
AcDbSpline
 62
7
  6
CONTINUOUS
 70
0
 71
3
 72
13
 73
9
 74
0
 42
0.0000001
 43
0.0000001
 44
0.0000000001
 40
0.0
 40
0.0
 40
0.0
 40
0.0
 40
0.1141759018
 40
0.2375697245
 40
0.4999990825
 40
0.762428944
 40
0.8858232992
 40
1.0
 40
1.0
 40
1.0
 40
1.0
 10
35.1103667846
 20
57.3503329167
 30
0.0
 10
35.0861804905
 20
57.3642965641
 30
0.0
 10
35.0383813559
 20
57.3978365297
 30
0.0
 10
34.9488344392
 20
57.4815669278
 30
0.0
 10
34.8543346265
 20
57.6107600385
 30
0.0
 10
34.7896993624
 20
57.757195656
 30
0.0
 10
34.7619592955
 20
57.8766110131
 30
0.0
 10
34.756811922
 20
57.9347765383
 30
0.0
 10
34.756811922
 20
57.9627045025
 30
0.0
  0
SPLINE
  5
322
100
AcDbEntity
  8
0
100
AcDbSpline
 62
7
  6
CONTINUOUS
 70
0
 71
3
 72
15
 73
11
 74
0
 42
0.0000001
 43
0.0000001
 44
0.0000000001
 40
0.0
 40
0.0
 40
0.0
 40
0.0
 40
0.1141555516
 40
0.2373276756
 40
0.3669773296
 40
0.5000011
 40
0.6330247168
 40
0.7626739247
 40
0.885845342
 40
1.0
 40
1.0
 40
1.0
 40
1.0
 10
40.3571209452
 20
51.218477333
 30
0.0
 10
40.3571209452
 20
51.4308824177
 30
0.0
 10
40.318215932
 20
51.8728818527
 30
0.0
 10
40.1631218779
 20
52.5396859948
 30
0.0
 10
39.9146701513
 20
53.2151051153
 30
0.0
 10
39.5821458886
 20
53.8737412929
 30
0.0
 10
39.1780098672
 20
54.4910312231
 30
0.0
 10
38.7173042357
 20
55.0439020011
 30
0.0
 10
38.217381723
 20
55.5116137
 30
0.0
 10
37.8540517891
 20
55.7663014763
 30
0.0
 10
37.6701039896
 20
55.8725013853
 30
0.0
  0
SPLINE
  5
323
100
AcDbEntity
  8
0
100
AcDbSpline
 62
7
  6
CONTINUOUS
 70
0
 71
3
 72
16
 73
12
 74
0
 42
0.0000001
 43
0.0000001
 44
0.0000000001
 40
0.0
 40
0.0
 40
0.0
 40
0.0
 40
0.0443631996
 40
0.0896881487
 40
0.186216919
 40
0.2946628138
 40
0.4166414855
 40
0.5512800699
 40
0.6959327943
 40
0.8470012789
 40
1.0
 40
1.0
 40
1.0
 40
1.0
 10
37.5768201687
 20
62.8496490176
 30
0.0
 10
37.6015064581
 20
62.8353994214
 30
0.0
 10
37.6488769941
 20
62.8019175853
 30
0.0
 10
37.7329610976
 20
62.7160211416
 30
0.0
 10
37.813697582
 20
62.5736519957
 30
0.0
 10
37.8644742138
 20
62.36786364
 30
0.0
 10
37.871896403
 20
62.1320311444
 30
0.0
 10
37.8362127426
 20
61.8756670226
 30
0.0
 10
37.759284792
 20
61.6091989571
 30
0.0
 10
37.6443171945
 20
61.3440447296
 30
0.0
 10
37.5452828991
 20
61.1749847076
 30
0.0
 10
37.4904933198
 20
61.0933661399
 30
0.0
  0
SPLINE
  5
324
100
AcDbEntity
  8
0
100
AcDbSpline
 62
7
  6
CONTINUOUS
 70
0
 71
3
 72
11
 73
7
 74
0
 42
0.0000001
 43
0.0000001
 44
0.0000000001
 40
0.0
 40
0.0
 40
0.0
 40
0.0
 40
0.2177460211
 40
0.4508843679
 40
0.7104607696
 40
1.0
 40
1.0
 40
1.0
 40
1.0
 10
25.11433176
 20
63.2410035386
 30
0.0
 10
25.0978420516
 20
63.2314832617
 30
0.0
 10
25.0599667994
 20
63.2176895384
 30
0.0
 10
24.9970010942
 20
63.2161078424
 30
0.0
 10
24.9299290059
 20
63.2323423378
 30
0.0
 10
24.8862734992
 20
63.2530823892
 30
0.0
 10
24.8643468672
 20
63.2657414497
 30
0.0
  0
SPLINE
  5
325
100
AcDbEntity
  8
0
100
AcDbSpline
 62
7
  6
CONTINUOUS
 70
0
 71
3
 72
11
 73
7
 74
0
 42
0.0000001
 43
0.0000001
 44
0.0000000001
 40
0.0
 40
0.0
 40
0.0
 40
0.0
 40
0.2883918327
 40
0.547549673
 40
0.7811593074
 40
1.0
 40
1.0
 40
1.0
 40
1.0
 10
26.9786049454
 20
68.0055692387
 30
0.0
 10
26.9790369663
 20
68.0305095873
 30
0.0
 10
26.9836563267
 20
68.077951561
 30
0.0
 10
27.0038979116
 20
68.1430282622
 30
0.0
 10
27.0370629536
 20
68.1958502069
 30
0.0
 10
27.067802114
 20
68.2213941387
 30
0.0
 10
27.0841955362
 20
68.2308566011
 30
0.0
  0
SPLINE
  5
326
100
AcDbEntity
  8
0
100
AcDbSpline
 62
7
  6
CONTINUOUS
 70
0
 71
3
 72
9
 73
5
 74
0
 42
0.0000001
 43
0.0000001
 44
0.0000000001
 40
0.0
 40
0.0
 40
0.0
 40
0.0
 40
0.481242504
 40
1.0
 40
1.0
 40
1.0
 40
1.0
 10
26.8792452227
 20
62.3279844175
 30
0.0
 10
26.9134660591
 20
62.4494565768
 30
0.0
 10
26.9637201536
 20
62.7079658735
 30
0.0
 10
26.9786049454
 20
62.9705164104
 30
0.0
 10
26.9786049454
 20
63.1065547359
 30
0.0
  0
SPLINE
  5
327
100
AcDbEntity
  8
0
100
AcDbSpline
 62
7
  6
CONTINUOUS
 70
0
 71
3
 72
11
 73
7
 74
0
 42
0.0000001
 43
0.0000001
 44
0.0000000001
 40
0.0
 40
0.0
 40
0.0
 40
0.0
 40
0.2897033281
 40
0.5490895198
 40
0.7822165953
 40
1.0
 40
1.0
 40
1.0
 40
1.0
 10
21.3853670195
 20
62.416527502
 30
0.0
 10
21.3853670195
 20
62.4671956464
 30
0.0
 10
21.3930490556
 20
62.5635557184
 30
0.0
 10
21.4320737287
 20
62.6959494077
 30
0.0
 10
21.4977783176
 20
62.8033793995
 30
0.0
 10
21.5594948699
 20
62.8552644234
 30
0.0
 10
21.592481478
 20
62.8743091222
 30
0.0
  0
SPLINE
  5
328
100
AcDbEntity
  8
0
100
AcDbSpline
 62
7
  6
CONTINUOUS
 70
0
 71
3
 72
14
 73
10
 74
0
 42
0.0000001
 43
0.0000001
 44
0.0000000001
 40
0.0
 40
0.0
 40
0.0
 40
0.0
 40
0.2892720607
 40
0.422554976
 40
0.5484985194
 40
0.6678874407
 40
0.781868291
 40
0.8919528621
 40
1.0
 40
1.0
 40
1.0
 40
1.0
 10
22.3046096622
 20
64.743572981
 30
0.0
 10
22.1378115989
 20
64.8398717092
 30
0.0
 10
21.8817193146
 20
64.9617587522
 30
0.0
 10
21.5305220536
 20
65.0641500825
 30
0.0
 10
21.2812469009
 20
65.1059776393
 30
0.0
 10
21.0414011978
 20
65.1142728401
 30
0.0
 10
20.813232548
 20
65.0888742273
 30
0.0
 10
20.5992089594
 20
65.0296476315
 30
0.0
 10
20.4669225523
 20
64.9677289809
 30
0.0
 10
20.4046214119
 20
64.931759623
 30
0.0
  0
SPLINE
  5
329
100
AcDbEntity
  8
0
100
AcDbSpline
 62
7
  6
CONTINUOUS
 70
0
 71
3
 72
23
 73
19
 74
0
 42
0.0000001
 43
0.0000001
 44
0.0000000001
 40
0.0
 40
0.0
 40
0.0
 40
0.0
 40
0.0566149266
 40
0.1159658208
 40
0.1777345069
 40
0.2415730378
 40
0.3070585871
 40
0.3737323959
 40
0.4411078192
 40
0.5086809988
 40
0.575943775
 40
0.6423952203
 40
0.7075534732
 40
0.7709673305
 40
0.8322291943
 40
0.8909900696
 40
0.9469748534
 40
1.0
 40
1.0
 40
1.0
 40
1.0
 10
25.780087623
 20
58.3495245805
 30
0.0
 10
26.1288998299
 20
58.1481423148
 30
0.0
 10
26.8242425425
 20
57.7018151459
 30
0.0
 10
27.8291484004
 20
56.9323376184
 30
0.0
 10
28.8109887285
 20
56.0545196909
 30
0.0
 10
29.7587425772
 20
55.078398825
 30
0.0
 10
30.661883893
 20
54.0147397599
 30
0.0
 10
31.5103186864
 20
52.8754894792
 30
0.0
 10
32.2945680984
 20
51.6733994712
 30
0.0
 10
33.0058330484
 20
50.4219230167
 30
0.0
 10
33.6361329099
 20
49.1350792664
 30
0.0
 10
34.1784273514
 20
47.8272892483
 30
0.0
 10
34.6266501742
 20
46.5131864469
 30
0.0
 10
34.9757726405
 20
45.2074449479
 30
0.0
 10
35.221869468
 20
43.9246348189
 30
0.0
 10
35.3621731668
 20
42.6789619798
 30
0.0
 10
35.3950769543
 20
41.4843950346
 30
0.0
 10
35.3435560911
 20
40.7090463952
 30
0.0
 10
35.2982330307
 20
40.3345461272
 30
0.0
  0
SPLINE
  5
32A
100
AcDbEntity
  8
0
100
AcDbSpline
 62
7
  6
CONTINUOUS
 70
0
 71
3
 72
15
 73
11
 74
0
 42
0.0000001
 43
0.0000001
 44
0.0000000001
 40
0.0
 40
0.0
 40
0.0
 40
0.0
 40
0.1085848191
 40
0.2191188397
 40
0.3333820962
 40
0.4528628192
 40
0.5786851242
 40
0.7115895781
 40
0.8520132681
 40
1.0
 40
1.0
 40
1.0
 40
1.0
 10
17.253152082
 20
59.6668290012
 30
0.0
 10
17.493014171
 20
59.8053133791
 30
0.0
 10
18.0013964668
 20
60.0447310033
 30
0.0
 10
18.8229033649
 20
60.2774150521
 30
0.0
 10
19.6979633659
 20
60.3835596291
 30
0.0
 10
20.6177113775
 20
60.3628688221
 30
0.0
 10
21.5736655635
 20
60.2163455523
 30
0.0
 10
22.5573540396
 20
59.9459413428
 30
0.0
 10
23.5599667973
 20
59.5544823763
 30
0.0
 10
24.2183481404
 20
59.2237670481
 30
0.0
 10
24.5484207172
 20
59.0406356483
 30
0.0
  0
SPLINE
  5
32B
100
AcDbEntity
  8
0
100
AcDbSpline
 62
7
  6
CONTINUOUS
 70
0
 71
3
 72
15
 73
11
 74
0
 42
0.0000001
 43
0.0000001
 44
0.0000000001
 40
0.0
 40
0.0
 40
0.0
 40
0.0
 40
0.1241303212
 40
0.2481409534
 40
0.3720102104
 40
0.4958709675
 40
0.6200638077
 40
0.7450880875
 40
0.8715561876
 40
1.0
 40
1.0
 40
1.0
 40
1.0
 10
28.5313465473
 20
31.5295195242
 30
0.0
 10
28.1556756556
 20
31.3126271284
 30
0.0
 10
27.3692995111
 20
30.9373314831
 30
0.0
 10
26.1189157382
 20
30.5641698808
 30
0.0
 10
24.8277655341
 20
30.3826641239
 30
0.0
 10
23.5238925541
 20
30.3872348091
 30
0.0
 10
22.2288439096
 20
30.5662170503
 30
0.0
 10
20.957410745
 20
30.9056132436
 30
0.0
 10
19.7191252728
 20
31.3915132265
 30
0.0
 10
18.9262465575
 20
31.8012580934
 30
0.0
 10
18.5375195973
 20
32.0256846313
 30
0.0
  0
SPLINE
  5
32C
100
AcDbEntity
  8
0
100
AcDbSpline
 62
7
  6
CONTINUOUS
 70
0
 71
3
 72
29
 73
25
 74
0
 42
0.0000001
 43
0.0000001
 44
0.0000000001
 40
0.0
 40
0.0
 40
0.0
 40
0.0
 40
0.0616762712
 40
0.1250800407
 40
0.1574075541
 40
0.1901053568
 40
0.2563573498
 40
0.3233022892
 40
0.3902909151
 40
0.4566657543
 40
0.521858748
 40
0.5854781128
 40
0.6166544436
 40
0.6474049111
 40
0.7077143218
 40
0.76680976
 40
0.796082765
 40
0.8252461668
 40
0.8543499222
 40
0.8834420107
 40
0.9125490315
 40
0.9416809556
 40
0.9708139025
 40
1.0
 40
1.0
 40
1.0
 40
1.0
 10
18.5375195973
 20
32.0256846313
 30
0.0
 10
17.9957997351
 20
32.3384396641
 30
0.0
 10
16.9375735745
 20
33.0446289436
 30
0.0
 10
15.7170038624
 20
34.0784604695
 30
0.0
 10
14.7909551933
 20
34.9951173276
 30
0.0
 10
13.8924379041
 20
35.9782843325
 30
0.0
 10
12.8492555383
 20
37.3018559146
 30
0.0
 10
11.7435909566
 20
39.0079348793
 30
0.0
 10
10.7968213705
 20
40.8085589008
 30
0.0
 10
10.0264306768
 20
42.6723464969
 30
0.0
 10
9.4480708213
 20
44.5688198747
 30
0.0
 10
9.135761271
 20
46.1646081354
 30
0.0
 10
8.9983865241
 20
47.4311369377
 30
0.0
 10
8.9383176435
 20
48.6700203669
 30
0.0
 10
9.0078952004
 20
50.1959750579
 30
0.0
 10
9.2918146494
 20
51.6834148415
 30
0.0
 10
9.6561782008
 20
52.8196590905
 30
0.0
 10
9.9992117656
 20
53.6398241349
 30
0.0
 10
10.4141076282
 20
54.4241032844
 30
0.0
 10
10.9013442706
 20
55.1650848366
 30
0.0
 10
11.4596541687
 20
55.8545941947
 30
0.0
 10
12.0858247388
 20
56.483861719
 30
0.0
 10
12.7748139779
 20
57.0448589222
 30
0.0
 10
13.2716691356
 20
57.3682004849
 30
0.0
 10
13.5280176892
 20
57.5162025078
 30
0.0
  0
LINE
  5
32D
100
AcDbEntity
  8
0
100
AcDbLine
 62
7
  6
CONTINUOUS
 10
28.5657993236
 20
31.5495207998
 11
28.55276702
 21
31.5419290711
  0
SPLINE
  5
32E
100
AcDbEntity
  8
0
100
AcDbSpline
 62
7
  6
CONTINUOUS
 70
0
 71
3
 72
15
 73
11
 74
0
 42
0.0000001
 43
0.0000001
 44
0.0000000001
 40
0.0
 40
0.0
 40
0.0
 40
0.0
 40
0.1485242795
 40
0.2894179175
 40
0.4226331458
 40
0.5485764877
 40
0.6679733992
 40
0.7819469816
 40
0.8920117869
 40
1.0
 40
1.0
 40
1.0
 40
1.0
 10
21.0434542478
 20
56.7810903613
 30
0.0
 10
20.7062352478
 20
56.9757794373
 30
0.0
 10
20.0330250336
 20
57.3283103142
 30
0.0
 10
19.0061923874
 20
57.7491963224
 30
0.0
 10
17.9975139172
 20
58.0442827978
 30
0.0
 10
17.016491875
 20
58.2103641321
 30
0.0
 10
16.0721566973
 20
58.2452601385
 30
0.0
 10
15.1735481589
 20
58.1477103461
 30
0.0
 10
14.3301577525
 20
57.9178748167
 30
0.0
 10
13.8084301172
 20
57.6764060791
 30
0.0
 10
13.5625737677
 20
57.5360248066
 30
0.0
  0
SPLINE
  5
32F
100
AcDbEntity
  8
0
100
AcDbSpline
 62
7
  6
CONTINUOUS
 70
0
 71
3
 72
38
 73
34
 74
0
 42
0.0000001
 43
0.0000001
 44
0.0000000001
 40
0.0
 40
0.0
 40
0.0
 40
0.0
 40
0.0325458643
 40
0.0665628051
 40
0.1018897686
 40
0.1383647507
 40
0.2139041641
 40
0.2914094853
 40
0.3689148796
 40
0.4070655041
 40
0.4444884188
 40
0.4809638171
 40
0.5162930208
 40
0.550303108
 40
0.5828541515
 40
0.6138474953
 40
0.6432325166
 40
0.6710174458
 40
0.6843373161
 40
0.6972923238
 40
0.7221857988
 40
0.7459487329
 40
0.768900777
 40
0.7914280401
 40
0.8139552601
 40
0.8369070203
 40
0.8606698814
 40
0.8855636384
 40
0.8985185961
 40
0.9118374471
 40
0.9396206005
 40
0.9690125014
 40
1.0
 40
1.0
 40
1.0
 40
1.0
 10
17.7615511372
 20
52.3403209937
 30
0.0
 10
18.0430776468
 20
52.1777852646
 30
0.0
 10
18.6046144514
 20
51.8202147963
 30
0.0
 10
19.4191022097
 20
51.2085981668
 30
0.0
 10
20.2176864495
 20
50.514878074
 30
0.0
 10
21.2628892736
 20
49.4775824292
 30
0.0
 10
22.477886674
 20
48.0194008727
 30
0.0
 10
23.741750365
 20
46.0889645708
 30
0.0
 10
24.6133734084
 20
44.3625635666
 30
0.0
 10
25.1814601008
 20
42.9422282248
 30
0.0
 10
25.5343535727
 20
41.8793800004
 30
0.0
 10
25.8128489178
 20
40.8237593127
 30
0.0
 10
26.0143359936
 20
39.7853924863
 30
0.0
 10
26.1368343176
 20
38.7741478908
 30
0.0
 10
26.1791257532
 20
37.7996123247
 30
0.0
 10
26.1407675714
 20
36.8709599025
 30
0.0
 10
26.0219500042
 20
35.9970186122
 30
0.0
 10
25.8542368672
 20
35.3115597785
 30
0.0
 10
25.6795308292
 20
34.8003048154
 30
0.0
 10
25.4844042883
 20
34.3276502222
 30
0.0
 10
25.1944387379
 20
33.7824735109
 30
0.0
 10
24.7687368026
 20
33.2043122965
 30
0.0
 10
24.2735891848
 20
32.7170076099
 30
0.0
 10
23.7138553799
 20
32.3263782372
 30
0.0
 10
23.0956959555
 20
32.0369616369
 30
0.0
 10
22.4261268004
 20
31.8517343198
 30
0.0
 10
21.7125689847
 20
31.7721631139
 30
0.0
 10
21.0954494342
 20
31.7936344866
 30
0.0
 10
20.5885621003
 20
31.8609674386
 30
0.0
 10
20.0584683449
 20
31.9652365723
 30
0.0
 10
19.3809354722
 20
32.1627467663
 30
0.0
 10
18.5647455784
 20
32.4968328739
 30
0.0
 10
18.0295975547
 20
32.7769577905
 30
0.0
 10
17.7615511372
 20
32.9317109608
 30
0.0
  0
SPLINE
  5
330
100
AcDbEntity
  8
0
100
AcDbSpline
 62
7
  6
CONTINUOUS
 70
0
 71
3
 72
27
 73
23
 74
0
 42
0.0000001
 43
0.0000001
 44
0.0000000001
 40
0.0
 40
0.0
 40
0.0
 40
0.0
 40
0.0213262743
 40
0.0428888259
 40
0.0649026068
 40
0.0875610788
 40
0.1110275634
 40
0.1354338408
 40
0.1608767529
 40
0.1874221092
 40
0.2438944731
 40
0.3048668129
 40
0.3699661621
 40
0.4385615064
 40
0.5098332088
 40
0.582831608
 40
0.6565286039
 40
0.7298655131
 40
0.8017991676
 40
0.87134983
 40
0.9376490155
 40
1.0
 40
1.0
 40
1.0
 40
1.0
 10
28.5657912986
 20
31.5495346487
 30
0.0
 10
28.7494319641
 20
31.6567331402
 30
0.0
 10
29.1053635473
 20
31.8962235716
 30
0.0
 10
29.5935382095
 20
32.3234548848
 30
0.0
 10
30.0348522676
 20
32.8169047029
 30
0.0
 10
30.4267033673
 20
33.3736608186
 30
0.0
 10
30.7672665921
 20
33.9904228283
 30
0.0
 10
31.0547304181
 20
34.663780278
 30
0.0
 10
31.2878569336
 20
35.3900170287
 30
0.0
 10
31.5295062532
 20
36.4452404427
 30
0.0
 10
31.681354723
 20
37.8785311193
 30
0.0
 10
31.6321490903
 20
39.7022926155
 30
0.0
 10
31.3572948568
 20
41.627587004
 30
0.0
 10
30.8628659373
 20
43.6138498438
 30
0.0
 10
30.1594468144
 20
45.6193860463
 30
0.0
 10
29.2619812744
 20
47.6016715606
 30
0.0
 10
28.1895615321
 20
49.5185778151
 30
0.0
 10
26.965001666
 20
51.3293058488
 30
0.0
 10
25.6143813801
 20
52.9953260456
 30
0.0
 10
24.1662193659
 20
54.4813200463
 30
0.0
 10
22.6514290084
 20
55.7556180579
 30
0.0
 10
21.5818537532
 20
56.4702522941
 30
0.0
 10
21.0434542478
 20
56.7810903613
 30
0.0
  0
SPLINE
  5
331
100
AcDbEntity
  8
0
100
AcDbSpline
 62
7
  6
CONTINUOUS
 70
0
 71
3
 72
38
 73
34
 74
0
 42
0.0000001
 43
0.0000001
 44
0.0000000001
 40
0.0
 40
0.0
 40
0.0
 40
0.0
 40
0.0309874986
 40
0.0603793995
 40
0.0881625529
 40
0.1014814039
 40
0.1144363616
 40
0.1393301186
 40
0.1630929797
 40
0.1860447399
 40
0.2085719599
 40
0.231099223
 40
0.2540512671
 40
0.2778142012
 40
0.3027076762
 40
0.3156626839
 40
0.3289825542
 40
0.3567674834
 40
0.3861525047
 40
0.4171458485
 40
0.449696892
 40
0.4837069792
 40
0.5190361829
 40
0.5555115812
 40
0.5929344959
 40
0.6310851204
 40
0.7085905147
 40
0.7860958359
 40
0.8616352493
 40
0.8981102314
 40
0.9334371949
 40
0.9674541357
 40
1.0
 40
1.0
 40
1.0
 40
1.0
 10
17.7615511372
 20
52.3403209937
 30
0.0
 10
17.4935047197
 20
52.495074164
 30
0.0
 10
16.9583566959
 20
52.7751990806
 30
0.0
 10
16.1421668021
 20
53.1092851882
 30
0.0
 10
15.4646339294
 20
53.3067953822
 30
0.0
 10
14.9345401741
 20
53.4110645159
 30
0.0
 10
14.4276528402
 20
53.478397468
 30
0.0
 10
13.8105332896
 20
53.4998688407
 30
0.0
 10
13.0969754739
 20
53.4202976348
 30
0.0
 10
12.4274063188
 20
53.2350703176
 30
0.0
 10
11.8092468945
 20
52.9456537173
 30
0.0
 10
11.2495130895
 20
52.5550243447
 30
0.0
 10
10.7543654717
 20
52.067719658
 30
0.0
 10
10.3286635364
 20
51.4895584436
 30
0.0
 10
10.0386979861
 20
50.9443817323
 30
0.0
 10
9.8435714451
 20
50.4717271391
 30
0.0
 10
9.6688654072
 20
49.960472176
 30
0.0
 10
9.5011522701
 20
49.2750133423
 30
0.0
 10
9.382334703
 20
48.401072052
 30
0.0
 10
9.3439765211
 20
47.4724196298
 30
0.0
 10
9.3862679568
 20
46.4978840638
 30
0.0
 10
9.5087662807
 20
45.4866394682
 30
0.0
 10
9.7102533565
 20
44.4482726418
 30
0.0
 10
9.9887487016
 20
43.3926519541
 30
0.0
 10
10.3416421735
 20
42.3298037297
 30
0.0
 10
10.909728866
 20
40.9094683879
 30
0.0
 10
11.7813519094
 20
39.1830673837
 30
0.0
 10
13.0452156004
 20
37.2526310819
 30
0.0
 10
14.2602130007
 20
35.7944495253
 30
0.0
 10
15.3054158248
 20
34.7571538805
 30
0.0
 10
16.1040000646
 20
34.0634337877
 30
0.0
 10
16.9184878229
 20
33.4518171583
 30
0.0
 10
17.4800246275
 20
33.0942466899
 30
0.0
 10
17.7615511372
 20
32.9317109608
 30
0.0
  0
SPLINE
  5
332
100
AcDbEntity
  8
0
100
AcDbSpline
 62
7
  6
CONTINUOUS
 70
0
 71
3
 72
9
 73
5
 74
0
 42
0.0000001
 43
0.0000001
 44
0.0000000001
 40
0.0
 40
0.0
 40
0.0
 40
0.0
 40
0.4797077787
 40
1.0
 40
1.0
 40
1.0
 40
1.0
 10
39.3918369313
 20
71.8216516757
 30
0.0
 10
39.5664425712
 20
71.720845343
 30
0.0
 10
39.9102511699
 20
71.475030468
 30
0.0
 10
40.2120181163
 20
71.1803467804
 30
0.0
 10
40.3582010467
 20
71.0177166434
 30
0.0
  0
SPLINE
  5
333
100
AcDbEntity
  8
0
100
AcDbSpline
 62
7
  6
CONTINUOUS
 70
0
 71
3
 72
10
 73
6
 74
0
 42
0.0000001
 43
0.0000001
 44
0.0000000001
 40
0.0
 40
0.0
 40
0.0
 40
0.0
 40
0.2275479107
 40
0.5961401861
 40
1.0
 40
1.0
 40
1.0
 40
1.0
 10
38.425472816
 20
72.1335525642
 30
0.0
 10
38.5030751845
 20
72.1302805932
 30
0.0
 10
38.7058869536
 20
72.1057600615
 30
0.0
 10
39.0348026368
 20
72.0074019707
 30
0.0
 10
39.2724514425
 20
71.8905773605
 30
0.0
 10
39.3918369313
 20
71.8216516757
 30
0.0
  0
SPLINE
  5
334
100
AcDbEntity
  8
0
100
AcDbSpline
 62
7
  6
CONTINUOUS
 70
0
 71
3
 72
13
 73
9
 74
0
 42
0.0000001
 43
0.0000001
 44
0.0000000001
 40
0.0
 40
0.0
 40
0.0
 40
0.0
 40
0.204933573
 40
0.3190994883
 40
0.4413434113
 40
0.5713780962
 40
0.7085483997
 40
1.0
 40
1.0
 40
1.0
 40
1.0
 10
37.3230122785
 20
71.5765403029
 30
0.0
 10
37.5009551272
 20
71.5848491052
 30
0.0
 10
37.7815493745
 20
71.5430339012
 30
0.0
 10
38.1420603241
 20
71.4110476875
 30
0.0
 10
38.4265402487
 20
71.2658680325
 30
0.0
 10
38.7104375813
 20
71.080479544
 30
0.0
 10
39.0904108785
 20
70.7772357386
 30
0.0
 10
39.3502857003
 20
70.507260586
 30
0.0
 10
39.5123620754
 20
70.3125472035
 30
0.0
  0
SPLINE
  5
335
100
AcDbEntity
  8
0
100
AcDbSpline
 62
7
  6
CONTINUOUS
 70
0
 71
3
 72
12
 73
8
 74
0
 42
0.0000001
 43
0.0000001
 44
0.0000000001
 40
0.0
 40
0.0
 40
0.0
 40
0.0
 40
0.1083126459
 40
0.2186613808
 40
0.4517684375
 40
0.710782992
 40
1.0
 40
1.0
 40
1.0
 40
1.0
 10
48.8621459328
 20
45.6819166605
 30
0.0
 10
48.8375299893
 20
45.6961277473
 30
0.0
 10
48.7901918081
 20
45.7291342735
 30
0.0
 10
48.7052093226
 20
45.8124595377
 30
0.0
 10
48.6207294121
 20
45.9490622874
 30
0.0
 10
48.561510134
 20
46.1471471289
 30
0.0
 10
48.5492905264
 20
46.2914638727
 30
0.0
 10
48.5489205773
 20
46.3673597557
 30
0.0
  0
SPLINE
  5
336
100
AcDbEntity
  8
0
100
AcDbSpline
 62
7
  6
CONTINUOUS
 70
0
 71
3
 72
9
 73
5
 74
0
 42
0.0000001
 43
0.0000001
 44
0.0000000001
 40
0.0
 40
0.0
 40
0.0
 40
0.0
 40
0.5146504488
 40
1.0
 40
1.0
 40
1.0
 40
1.0
 10
48.6514541726
 20
45.9657830186
 30
0.0
 10
48.6832885804
 20
45.9675825699
 30
0.0
 10
48.7459838882
 20
45.9636843079
 30
0.0
 10
48.8049969533
 20
45.9413154773
 30
0.0
 10
48.8310346606
 20
45.9262743317
 30
0.0
  0
SPLINE
  5
337
100
AcDbEntity
  8
0
100
AcDbSpline
 62
7
  6
CONTINUOUS
 70
0
 71
3
 72
13
 73
9
 74
0
 42
0.0000001
 43
0.0000001
 44
0.0000000001
 40
0.0
 40
0.0
 40
0.0
 40
0.0
 40
0.1141759018
 40
0.2375697245
 40
0.4999990825
 40
0.762428944
 40
0.8858232992
 40
1.0
 40
1.0
 40
1.0
 40
1.0
 10
44.4123487042
 20
30.4251484348
 30
0.0
 10
44.4365349982
 20
30.4111847873
 30
0.0
 10
44.4843341328
 20
30.3776448217
 30
0.0
 10
44.5738810495
 20
30.2939144236
 30
0.0
 10
44.6683808622
 20
30.1647213129
 30
0.0
 10
44.7330161264
 20
30.0182856955
 30
0.0
 10
44.7607561933
 20
29.8988703383
 30
0.0
 10
44.7659035668
 20
29.8407048132
 30
0.0
 10
44.7659035668
 20
29.8127768489
 30
0.0
  0
SPLINE
  5
338
100
AcDbEntity
  8
0
100
AcDbSpline
 62
7
  6
CONTINUOUS
 70
0
 71
3
 72
11
 73
7
 74
0
 42
0.0000001
 43
0.0000001
 44
0.0000000001
 40
0.0
 40
0.0
 40
0.0
 40
0.0
 40
0.2895401978
 40
0.5491171512
 40
0.782255066
 40
1.0
 40
1.0
 40
1.0
 40
1.0
 10
44.7659035668
 20
29.2412251569
 30
0.0
 10
44.7659035668
 20
29.2159058454
 30
0.0
 10
44.7620375419
 20
29.1677275861
 30
0.0
 10
44.7425610073
 20
29.101522165
 30
0.0
 10
44.7097077746
 20
29.0477815715
 30
0.0
 10
44.6788236636
 20
29.0218768983
 30
0.0
 10
44.662333597
 20
29.0123564146
 30
0.0
  0
SPLINE
  5
339
100
AcDbEntity
  8
0
100
AcDbSpline
 62
7
  6
CONTINUOUS
 70
0
 71
3
 72
11
 73
7
 74
0
 42
0.0000001
 43
0.0000001
 44
0.0000000001
 40
0.0
 40
0.0
 40
0.0
 40
0.0
 40
0.2895391946
 40
0.5491157945
 40
0.7822541179
 40
1.0
 40
1.0
 40
1.0
 40
1.0
 10
43.3516929484
 20
28.4247280948
 30
0.0
 10
43.3736195773
 20
28.4120690361
 30
0.0
 10
43.4172751064
 20
28.3913290066
 30
0.0
 10
43.4843471991
 20
28.375094473
 30
0.0
 10
43.5473129048
 20
28.3766762004
 30
0.0
 10
43.5851881483
 20
28.3904699041
 30
0.0
 10
43.6016778408
 20
28.3999901836
 30
0.0
  0
SPLINE
  5
33A
100
AcDbEntity
  8
0
100
AcDbSpline
 62
7
  6
CONTINUOUS
 70
0
 71
3
 72
11
 73
7
 74
0
 42
0.0000001
 43
0.0000001
 44
0.0000000001
 40
0.0
 40
0.0
 40
0.0
 40
0.0
 40
0.2642640356
 40
0.5246068865
 40
0.7722810426
 40
1.0
 40
1.0
 40
1.0
 40
1.0
 10
51.4540082868
 20
55.5154347036
 30
0.0
 10
51.4970258128
 20
55.5783533094
 30
0.0
 10
51.5741847165
 20
55.7091032895
 30
0.0
 10
51.6615517072
 20
55.9147102337
 30
0.0
 10
51.7167410334
 20
56.120337529
 30
0.0
 10
51.7308878448
 20
56.2575935138
 30
0.0
 10
51.7308878448
 20
56.323271749
 30
0.0
  0
SPLINE
  5
33B
100
AcDbEntity
  8
0
100
AcDbSpline
 62
7
  6
CONTINUOUS
 70
0
 71
3
 72
10
 73
6
 74
0
 42
0.0000001
 43
0.0000001
 44
0.0000000001
 40
0.0
 40
0.0
 40
0.0
 40
0.0
 40
0.2279110288
 40
0.4759426991
 40
1.0
 40
1.0
 40
1.0
 40
1.0
 10
48.5489205773
 20
51.0649415289
 30
0.0
 10
48.5489205773
 20
51.0977698141
 30
0.0
 10
48.5560219843
 20
51.1664140661
 30
0.0
 10
48.5934097704
 20
51.305864779
 30
0.0
 10
48.6447567159
 20
51.4065468061
 30
0.0
 10
48.6873603564
 20
51.4688600516
 30
0.0
  0
SPLINE
  5
33C
100
AcDbEntity
  8
0
100
AcDbSpline
 62
7
  6
CONTINUOUS
 70
0
 71
3
 72
11
 73
7
 74
0
 42
0.0000001
 43
0.0000001
 44
0.0000000001
 40
0.0
 40
0.0
 40
0.0
 40
0.0
 40
0.2892962821
 40
0.5487084707
 40
0.781970853
 40
1.0
 40
1.0
 40
1.0
 40
1.0
 10
49.6095763332
 20
45.190858818
 30
0.0
 10
49.6093667968
 20
45.233845682
 30
0.0
 10
49.6024305522
 20
45.3156202528
 30
0.0
 10
49.5688213646
 20
45.4279198735
 30
0.0
 10
49.512672319
 20
45.5190560228
 30
0.0
 10
49.4601311996
 20
45.5630642175
 30
0.0
 10
49.432077927
 20
45.5792696903
 30
0.0
  0
SPLINE
  5
33D
100
AcDbEntity
  8
0
100
AcDbSpline
 62
7
  6
CONTINUOUS
 70
0
 71
3
 72
11
 73
7
 74
0
 42
0.0000001
 43
0.0000001
 44
0.0000000001
 40
0.0
 40
0.0
 40
0.0
 40
0.0
 40
0.289702329
 40
0.5490881649
 40
0.7822156415
 40
1.0
 40
1.0
 40
1.0
 40
1.0
 10
35.1492580675
 20
33.0379605057
 30
0.0
 10
35.1931368916
 20
33.0126276279
 30
0.0
 10
35.2804260217
 20
32.9711024775
 30
0.0
 10
35.4145911514
 20
32.9387040025
 30
0.0
 10
35.5404772933
 20
32.9418914167
 30
0.0
 10
35.6162674722
 20
32.9693962596
 30
0.0
 10
35.6492533342
 20
32.9884405481
 30
0.0
  0
SPLINE
  5
33E
100
AcDbEntity
  8
0
100
AcDbSpline
 62
7
  6
CONTINUOUS
 70
0
 71
3
 72
11
 73
7
 74
0
 42
0.0000001
 43
0.0000001
 44
0.0000000001
 40
0.0
 40
0.0
 40
0.0
 40
0.0
 40
0.2177565409
 40
0.4519535784
 40
0.7115540706
 40
1.0
 40
1.0
 40
1.0
 40
1.0
 10
35.7207436836
 20
38.926618734
 30
0.0
 10
35.7371257202
 20
38.9347524179
 30
0.0
 10
35.7741826848
 20
38.9459457166
 30
0.0
 10
35.8346515956
 20
38.9455558521
 30
0.0
 10
35.898783164
 20
38.9290500195
 30
0.0
 10
35.9405327404
 20
38.9090219334
 30
0.0
 10
35.9615145281
 20
38.8969083666
 30
0.0
  0
SPLINE
  5
33F
100
AcDbEntity
  8
0
100
AcDbSpline
 62
7
  6
CONTINUOUS
 70
0
 71
3
 72
11
 73
7
 74
0
 42
0.0000001
 43
0.0000001
 44
0.0000000001
 40
0.0
 40
0.0
 40
0.0
 40
0.0
 40
0.289540198
 40
0.5491171511
 40
0.7822550659
 40
1.0
 40
1.0
 40
1.0
 40
1.0
 10
35.1492579622
 20
34.5484893073
 30
0.0
 10
35.1492579622
 20
34.5231700443
 30
0.0
 10
35.1453919448
 20
34.4749918776
 30
0.0
 10
35.1259154475
 20
34.4087865837
 30
0.0
 10
35.0930622779
 20
34.3550460934
 30
0.0
 10
35.0621782263
 20
34.32914147
 30
0.0
 10
35.0456881914
 20
34.3196210045
 30
0.0
  0
SPLINE
  5
340
100
AcDbEntity
  8
0
100
AcDbSpline
 62
7
  6
CONTINUOUS
 70
0
 71
3
 72
11
 73
7
 74
0
 42
0.0000001
 43
0.0000001
 44
0.0000000001
 40
0.0
 40
0.0
 40
0.0
 40
0.0
 40
0.2177176035
 40
0.4509429755
 40
0.7102958835
 40
1.0
 40
1.0
 40
1.0
 40
1.0
 10
35.2528112651
 20
36.0575698829
 30
0.0
 10
35.2363233464
 20
36.0480503116
 30
0.0
 10
35.2054732559
 20
36.0220974948
 30
0.0
 10
35.1726001506
 20
35.9683965219
 30
0.0
 10
35.1531055148
 20
35.9021875411
 30
0.0
 10
35.1492579668
 20
35.8540131901
 30
0.0
 10
35.1492579622
 20
35.8286794465
 30
0.0
  0
SPLINE
  5
341
100
AcDbEntity
  8
0
100
AcDbSpline
 62
7
  6
CONTINUOUS
 70
0
 71
3
 72
11
 73
7
 74
0
 42
0.0000001
 43
0.0000001
 44
0.0000000001
 40
0.0
 40
0.0
 40
0.0
 40
0.0
 40
0.2897041237
 40
0.5490570375
 40
0.7822824085
 40
1.0
 40
1.0
 40
1.0
 40
1.0
 10
37.358975964
 20
37.4427026331
 30
0.0
 10
37.358975964
 20
37.4173687492
 30
0.0
 10
37.3551284038
 20
37.3691941306
 30
0.0
 10
37.3356336749
 20
37.3029847795
 30
0.0
 10
37.3027604023
 20
37.2492835028
 30
0.0
 10
37.2719101494
 20
37.2233305353
 30
0.0
 10
37.2554221431
 20
37.2138109079
 30
0.0
  0
SPLINE
  5
342
100
AcDbEntity
  8
0
100
AcDbSpline
 62
7
  6
CONTINUOUS
 70
0
 71
3
 72
13
 73
9
 74
0
 42
0.0000001
 43
0.0000001
 44
0.0000000001
 40
0.0
 40
0.0
 40
0.0
 40
0.0
 40
0.1141759018
 40
0.2375697245
 40
0.4999990825
 40
0.762428944
 40
0.8858232992
 40
1.0
 40
1.0
 40
1.0
 40
1.0
 10
37.005421097
 20
38.2942222627
 30
0.0
 10
37.0296073913
 20
38.280258615
 30
0.0
 10
37.0774065264
 20
38.2467186491
 30
0.0
 10
37.1669534442
 20
38.16298825
 30
0.0
 10
37.261453258
 20
38.0337951377
 30
0.0
 10
37.326088523
 20
37.8873595186
 30
0.0
 10
37.3538285902
 20
37.76794416
 30
0.0
 10
37.3589759637
 20
37.7097786341
 30
0.0
 10
37.3589759637
 20
37.6818506696
 30
0.0
  0
SPLINE
  5
343
100
AcDbEntity
  8
0
100
AcDbSpline
 62
7
  6
CONTINUOUS
 70
0
 71
3
 72
15
 73
11
 74
0
 42
0.0000001
 43
0.0000001
 44
0.0000000001
 40
0.0
 40
0.0
 40
0.0
 40
0.0
 40
0.1481859171
 40
0.2889355646
 40
0.422151441
 40
0.5482124156
 40
0.6678078152
 40
0.7819713546
 40
0.8921253626
 40
1.0
 40
1.0
 40
1.0
 40
1.0
 10
37.4120036108
 20
45.2447068091
 30
0.0
 10
37.4120036108
 20
44.9721111143
 30
0.0
 10
37.3904604292
 20
44.4402523398
 30
0.0
 10
37.2881951097
 20
43.6692766414
 30
0.0
 10
37.1172909978
 20
42.952052534
 30
0.0
 10
36.8790659813
 20
42.2952876918
 30
0.0
 10
36.5753935892
 20
41.7049302144
 30
0.0
 10
36.2083785484
 20
41.1867638343
 30
0.0
 10
35.7813524761
 20
40.7462360102
 30
0.0
 10
35.4573485011
 20
40.5061818503
 30
0.0
 10
35.2885791114
 20
40.4017992655
 30
0.0
  0
SPLINE
  5
344
100
AcDbEntity
  8
0
100
AcDbSpline
 62
7
  6
CONTINUOUS
 70
0
 71
3
 72
11
 73
7
 74
0
 42
0.0000001
 43
0.0000001
 44
0.0000000001
 40
0.0
 40
0.0
 40
0.0
 40
0.0
 40
0.2177460349
 40
0.4508843876
 40
0.710460784
 40
1.0
 40
1.0
 40
1.0
 40
1.0
 10
35.0456881914
 20
34.3196210045
 30
0.0
 10
35.02919852
 20
34.310100749
 30
0.0
 10
34.9913233549
 20
34.2963070549
 30
0.0
 10
34.9283577945
 20
34.294725353
 30
0.0
 10
34.8612858591
 20
34.3109597976
 30
0.0
 10
34.8176304504
 20
34.331699791
 30
0.0
 10
34.7957038674
 20
34.3443588169
 30
0.0
  0
SPLINE
  5
345
100
AcDbEntity
  8
0
100
AcDbSpline
 62
7
  6
CONTINUOUS
 70
0
 71
3
 72
21
 73
17
 74
0
 42
0.0000001
 43
0.0000001
 44
0.0000000001
 40
0.0
 40
0.0
 40
0.0
 40
0.0
 40
0.0609107535
 40
0.125515332
 40
0.1931602995
 40
0.263159253
 40
0.4067314975
 40
0.549249462
 40
0.6179710441
 40
0.6839061013
 40
0.7464085422
 40
0.8050029484
 40
0.8594346704
 40
0.9097430871
 40
0.9563278348
 40
1.0
 40
1.0
 40
1.0
 40
1.0
 10
39.0072969963
 20
66.2873991146
 30
0.0
 10
39.0072969963
 20
66.4133273814
 30
0.0
 10
38.9913670056
 20
66.6729765423
 30
0.0
 10
38.9256030623
 20
67.0674678848
 30
0.0
 10
38.8183108037
 20
67.4722169581
 30
0.0
 10
38.6210330131
 20
68.0197461957
 30
0.0
 10
38.2870035031
 20
68.6794765438
 30
0.0
 10
37.8561823782
 20
69.2773872522
 30
0.0
 10
37.4645951093
 20
69.6966349219
 30
0.0
 10
37.1600750075
 20
69.9685234846
 30
0.0
 10
36.846938164
 20
70.1965767207
 30
0.0
 10
36.5308381285
 20
70.376577787
 30
0.0
 10
36.217400189
 20
70.5050699854
 30
0.0
 10
35.9120671364
 20
70.5794173265
 30
0.0
 10
35.6203834374
 20
70.5977450494
 30
0.0
 10
35.4339531262
 20
70.5708568342
 30
0.0
 10
35.3466993052
 20
70.5476438687
 30
0.0
  0
SPLINE
  5
346
100
AcDbEntity
  8
0
100
AcDbSpline
 62
7
  6
CONTINUOUS
 70
0
 71
3
 72
9
 73
5
 74
0
 42
0.0000001
 43
0.0000001
 44
0.0000000001
 40
0.0
 40
0.0
 40
0.0
 40
0.0
 40
0.5189230379
 40
1.0
 40
1.0
 40
1.0
 40
1.0
 10
35.1481411
 20
38.5156177814
 30
0.0
 10
35.1809653468
 20
38.4815123242
 30
0.0
 10
35.2482063226
 20
38.4194821566
 30
0.0
 10
35.3233558815
 20
38.3670776743
 30
0.0
 10
35.3613597808
 20
38.3451366092
 30
0.0
  0
SPLINE
  5
347
100
AcDbEntity
  8
0
100
AcDbSpline
 62
7
  6
CONTINUOUS
 70
0
 71
3
 72
11
 73
7
 74
0
 42
0.0000001
 43
0.0000001
 44
0.0000000001
 40
0.0
 40
0.0
 40
0.0
 40
0.0
 40
0.217745073
 40
0.4508830113
 40
0.7104597664
 40
1.0
 40
1.0
 40
1.0
 40
1.0
 10
43.6016778408
 20
28.3999901836
 30
0.0
 10
43.6181679131
 20
28.4095106823
 30
0.0
 10
43.6490520454
 20
28.4354153532
 30
0.0
 10
43.6819052508
 20
28.4891559621
 30
0.0
 10
43.7013818162
 20
28.5553613602
 30
0.0
 10
43.705247811
 20
28.603539611
 30
0.0
 10
43.705247811
 20
28.6288589261
 30
0.0
  0
SPLINE
  5
348
100
AcDbEntity
  8
0
100
AcDbSpline
 62
7
  6
CONTINUOUS
 70
0
 71
3
 72
9
 73
5
 74
0
 42
0.0000001
 43
0.0000001
 44
0.0000000001
 40
0.0
 40
0.0
 40
0.0
 40
0.0
 40
0.4774298778
 40
1.0
 40
1.0
 40
1.0
 40
1.0
 10
43.705247811
 20
29.2004106181
 30
0.0
 10
43.705247811
 20
29.2375130374
 30
0.0
 10
43.6962055848
 20
29.3152954345
 30
0.0
 10
43.6738574432
 20
29.3900963951
 30
0.0
 10
43.6593618873
 20
29.4280316428
 30
0.0
  0
SPLINE
  5
349
100
AcDbEntity
  8
0
100
AcDbSpline
 62
7
  6
CONTINUOUS
 70
0
 71
3
 72
11
 73
7
 74
0
 42
0.0000001
 43
0.0000001
 44
0.0000000001
 40
0.0
 40
0.0
 40
0.0
 40
0.0
 40
0.2177833598
 40
0.4509104088
 40
0.7102966711
 40
1.0
 40
1.0
 40
1.0
 40
1.0
 10
35.6492533342
 20
32.9884405481
 30
0.0
 10
35.6822399265
 20
33.0074852583
 30
0.0
 10
35.743956485
 20
33.0593702458
 30
0.0
 10
35.8096610761
 20
33.166800244
 30
0.0
 10
35.8486857393
 20
33.2991939411
 30
0.0
 10
35.8563677927
 20
33.3955540239
 30
0.0
 10
35.8563677927
 20
33.4462221683
 30
0.0
  0
SPLINE
  5
34A
100
AcDbEntity
  8
0
100
AcDbSpline
 62
7
  6
CONTINUOUS
 70
0
 71
3
 72
15
 73
11
 74
0
 42
0.0000001
 43
0.0000001
 44
0.0000000001
 40
0.0
 40
0.0
 40
0.0
 40
0.0
 40
0.1341097503
 40
0.2675341727
 40
0.3991815393
 40
0.5281157894
 40
0.6534145904
 40
0.7742615419
 40
0.8899679372
 40
1.0
 40
1.0
 40
1.0
 40
1.0
 10
35.8829021102
 20
52.659534843
 30
0.0
 10
35.6796668846
 20
53.0273147749
 30
0.0
 10
35.2512827956
 20
53.7485774697
 30
0.0
 10
34.5465072177
 20
54.7827819931
 30
0.0
 10
33.7874417887
 20
55.7574538669
 30
0.0
 10
32.9830099579
 20
56.6612806173
 30
0.0
 10
32.1423442911
 20
57.4839154659
 30
0.0
 10
31.2750739424
 20
58.2159194561
 30
0.0
 10
30.3912203269
 20
58.8488458648
 30
0.0
 10
29.7813401605
 20
59.2094270603
 30
0.0
 10
29.4761818552
 20
59.3698510861
 30
0.0
  0
SPLINE
  5
34B
100
AcDbEntity
  8
0
100
AcDbSpline
 62
7
  6
CONTINUOUS
 70
0
 71
3
 72
11
 73
7
 74
0
 42
0.0000001
 43
0.0000001
 44
0.0000000001
 40
0.0
 40
0.0
 40
0.0
 40
0.0
 40
0.22989169
 40
0.4687565591
 40
0.7238738646
 40
1.0
 40
1.0
 40
1.0
 40
1.0
 10
38.0660856838
 20
36.5271523341
 30
0.0
 10
38.1102746436
 20
36.5526655714
 30
0.0
 10
38.1941420725
 20
36.616309685
 30
0.0
 10
38.2961827487
 20
36.7421368446
 30
0.0
 10
38.3736401836
 20
36.8957488741
 30
0.0
 10
38.406877064
 20
37.0095471824
 30
0.0
 10
38.4196405463
 20
37.0694907119
 30
0.0
  0
SPLINE
  5
34C
100
AcDbEntity
  8
0
100
AcDbSpline
 62
7
  6
CONTINUOUS
 70
0
 71
3
 72
11
 73
7
 74
0
 42
0.0000001
 43
0.0000001
 44
0.0000000001
 40
0.0
 40
0.0
 40
0.0
 40
0.0
 40
0.2553139917
 40
0.5129537788
 40
0.7639350768
 40
1.0
 40
1.0
 40
1.0
 40
1.0
 10
39.5123620754
 20
70.3125472036
 30
0.0
 10
39.6703086862
 20
70.1227951881
 30
0.0
 10
39.9609545755
 20
69.718641958
 30
0.0
 10
40.3108875543
 20
69.065727454
 30
0.0
 10
40.5644271117
 20
68.3894559322
 30
0.0
 10
40.6645478432
 20
67.9268343805
 30
0.0
 10
40.6928340077
 20
67.7003208436
 30
0.0
  0
SPLINE
  5
34D
100
AcDbEntity
  8
0
100
AcDbSpline
 62
7
  6
CONTINUOUS
 70
0
 71
3
 72
10
 73
6
 74
0
 42
0.0000001
 43
0.0000001
 44
0.0000000001
 40
0.0
 40
0.0
 40
0.0
 40
0.0
 40
0.2685510883
 40
0.5248011776
 40
1.0
 40
1.0
 40
1.0
 40
1.0
 10
52.489551526
 20
82.4045660971
 30
0.0
 10
52.6906318765
 20
82.5206591986
 30
0.0
 10
53.0922767139
 20
82.7331859149
 30
0.0
 10
53.8874901111
 20
83.0734735051
 30
0.0
 10
54.5021116767
 20
83.2446828133
 30
0.0
 10
54.9079890835
 20
83.3084321283
 30
0.0
  0
SPLINE
  5
34E
100
AcDbEntity
  8
0
100
AcDbSpline
 62
7
  6
CONTINUOUS
 70
0
 71
3
 72
10
 73
6
 74
0
 42
0.0000001
 43
0.0000001
 44
0.0000000001
 40
0.0
 40
0.0
 40
0.0
 40
0.0
 40
0.2685510883
 40
0.5248011776
 40
1.0
 40
1.0
 40
1.0
 40
1.0
 10
58.4646287034
 20
78.9549317214
 30
0.0
 10
58.665709054
 20
79.0710248229
 30
0.0
 10
59.0673538914
 20
79.2835515393
 30
0.0
 10
59.8625672886
 20
79.6238391294
 30
0.0
 10
60.4771888542
 20
79.7950484376
 30
0.0
 10
60.883066261
 20
79.8587977526
 30
0.0
  0
SPLINE
  5
34F
100
AcDbEntity
  8
0
100
AcDbSpline
 62
7
  6
CONTINUOUS
 70
0
 71
3
 72
9
 73
5
 74
0
 42
0.0000001
 43
0.0000001
 44
0.0000000001
 40
0.0
 40
0.0
 40
0.0
 40
0.0
 40
0.4825210054
 40
1.0
 40
1.0
 40
1.0
 40
1.0
 10
59.4899378049
 20
47.3358907764
 30
0.0
 10
59.9182569221
 20
47.5831794579
 30
0.0
 10
60.7665511385
 20
48.1653322576
 30
0.0
 10
61.5328729672
 20
48.8499674461
 30
0.0
 10
61.9083753624
 20
49.2245792256
 30
0.0
  0
SPLINE
  5
350
100
AcDbEntity
  8
0
100
AcDbSpline
 62
7
  6
CONTINUOUS
 70
0
 71
3
 72
10
 73
6
 74
0
 42
0.0000001
 43
0.0000001
 44
0.0000000001
 40
0.0
 40
0.0
 40
0.0
 40
0.0
 40
0.4751988224
 40
0.7314489117
 40
1.0
 40
1.0
 40
1.0
 40
1.0
 10
61.9083753624
 20
79.2668486585
 30
0.0
 10
61.5024979557
 20
79.2030993436
 30
0.0
 10
60.8878763901
 20
79.0318900353
 30
0.0
 10
60.0926629929
 20
78.6916024452
 30
0.0
 10
59.6910181555
 20
78.4790757288
 30
0.0
 10
59.4899378049
 20
78.3629826273
 30
0.0
  0
SPLINE
  5
351
100
AcDbEntity
  8
0
100
AcDbSpline
 62
7
  6
CONTINUOUS
 70
0
 71
3
 72
10
 73
6
 74
0
 42
0.0000001
 43
0.0000001
 44
0.0000000001
 40
0.0
 40
0.0
 40
0.0
 40
0.0
 40
0.4751988224
 40
0.7314489117
 40
1.0
 40
1.0
 40
1.0
 40
1.0
 10
55.9332981849
 20
82.7164830342
 30
0.0
 10
55.5274207782
 20
82.6527337193
 30
0.0
 10
54.9127992126
 20
82.481524411
 30
0.0
 10
54.1175858154
 20
82.1412368209
 30
0.0
 10
53.715940978
 20
81.9287101045
 30
0.0
 10
53.5148606274
 20
81.812617003
 30
0.0
  0
SPLINE
  5
352
100
AcDbEntity
  8
0
100
AcDbSpline
 62
7
  6
CONTINUOUS
 70
0
 71
3
 72
13
 73
9
 74
0
 42
0.0000001
 43
0.0000001
 44
0.0000000001
 40
0.0
 40
0.0
 40
0.0
 40
0.0
 40
0.2834470463
 40
0.4186354833
 40
0.5482188567
 40
0.6715102328
 40
0.7880327558
 40
1.0
 40
1.0
 40
1.0
 40
1.0
 10
54.5373110931
 20
80.5647123478
 30
0.0
 10
54.800599027
 20
80.8993957419
 30
0.0
 10
55.222349227
 20
81.3696575733
 30
0.0
 10
55.8378111968
 20
81.9179160261
 30
0.0
 10
56.3032319417
 20
82.2701094804
 30
0.0
 10
56.7741376119
 20
82.5655721124
 30
0.0
 10
57.3816955744
 20
82.8689221903
 30
0.0
 10
57.8588967299
 20
83.0189280238
 30
0.0
 10
58.1734860221
 20
83.0683391305
 30
0.0
  0
SPLINE
  5
353
100
AcDbEntity
  8
0
100
AcDbSpline
 62
7
  6
CONTINUOUS
 70
0
 71
3
 72
11
 73
7
 74
0
 42
0.0000001
 43
0.0000001
 44
0.0000000001
 40
0.0
 40
0.0
 40
0.0
 40
0.0
 40
0.2895396729
 40
0.5491163863
 40
0.7822545095
 40
1.0
 40
1.0
 40
1.0
 40
1.0
 10
51.7580529256
 20
80.7983296579
 30
0.0
 10
51.7931350338
 20
80.8185842016
 30
0.0
 10
51.8629828799
 20
80.8517684317
 30
0.0
 10
51.9702968063
 20
80.877744294
 30
0.0
 10
52.0710407137
 20
80.8752144198
 30
0.0
 10
52.1316404963
 20
80.8531452528
 30
0.0
 10
52.1580237577
 20
80.8379132002
 30
0.0
  0
ELLIPSE
  5
354
100
AcDbEntity
  8
0
100
AcDbEllipse
 62
7
  6
CONTINUOUS
 10
34.2299852356
 20
52.1440005512
 30
0.0
 11
-1.4498876296
 21
12.0871392975
 31
0.0
 40
0.7117190456
 41
-1.0744882353
 42
-0.7713344862
  0
ENDSEC
  0
SECTION
  2
OBJECTS
  0
DICTIONARY
  5
C
100
AcDbDictionary
280
0
281
1
  3
ACAD_GROUP
350
D
  3
ACAD_MLINESTYLE
350
17
  3
ACAD_LAYOUT
350
1A
  3
ACAD_PLOTSETTINGS
350
19
  3
ACAD_PLOTSTYLENAME
350
E
  0
DICTIONARY
  5
D
102
{ACAD_REACTORS
330
C
102
}
100
AcDbDictionary
280
0
281
1
  0
ACDBDICTIONARYWDFLT
  5
E
102
{ACAD_REACTORS
330
C
102
}
100
AcDbDictionary
281
1
  3
Normal
350
F
100
AcDbDictionaryWithDefault
340
F
  0
DICTIONARY
  5
17
102
{ACAD_REACTORS
330
C
102
}
100
AcDbDictionary
280
0
281
1
  3
Standard
350
18
  0
DICTIONARY
  5
19
102
{ACAD_REACTORS
330
C
102
}
100
AcDbDictionary
281
1
  0
DICTIONARY
  5
1A
102
{ACAD_REACTORS
330
C
102
}
100
AcDbDictionary
281
1
  3
Model
350
355
  3
Layout1
350
356
  0
ACDBPLACEHOLDER
  5
F
102
{ACAD_REACTORS
330
E
102
}
  0
MLINESTYLE
  5
18
102
{ACAD_REACTORS
330
17
102
}
100
AcDbMlineStyle
  2
STANDARD
 70
0
  3

 62
256
 51
90.0
 52
90.0
 71
2
 49
0.5
 62
256
  6
BYLAYER
 49
-0.5
 62
256
  6
BYLAYER
  0
LAYOUT
  5
355
102
{ACAD_REACTORS
330
1A
102
}
100
AcDbPlotSettings
  1

  2
none_device
  4

  6

 40
0.0
 41
0.0
 42
0.0
 43
0.0
 44
210.0
 45
297.0
 46
0.0
 47
0.0
 48
0.0
 49
0.0
140
0.0
141
0.0
142
1.0
143
1.0
 70
1024
 72
1
 73
0
 74
0
  7

 75
0
147
1.0
148
0.0
149
0.0
100
AcDbLayout
  1
Model
 70
0
 71
0
 10
0.0
 20
0.0
 11
210.0
 21
297.0
 12
0.0
 22
0.0
 32
0.0
 14
0.0
 24
0.0
 34
0.0
 15
0.0
 25
0.0
 35
0.0
146
0.0
 13
0.0
 23
0.0
 33
0.0
 16
1.0
 26
0.0
 36
0.0
 17
0.0
 27
1.0
 37
0.0
 76
0
330
210
345
0
346
0
  0
LAYOUT
  5
356
102
{ACAD_REACTORS
330
1A
102
}
100
AcDbPlotSettings
  1

  2
none_device
  4

  6

 40
0.0
 41
0.0
 42
0.0
 43
0.0
 44
210.0
 45
297.0
 46
0.0
 47
0.0
 48
0.0
 49
0.0
140
0.0
141
0.0
142
1.0
143
1.0
 70
0
 72
1
 73
0
 74
0
  7

 75
0
147
1.0
148
0.0
149
0.0
100
AcDbLayout
  1
Layout1
 70
0
 71
1
 10
0.0
 20
0.0
 11
210.0
 21
297.0
 12
0.0
 22
0.0
 32
0.0
 14
0.0
 24
0.0
 34
0.0
 15
0.0
 25
0.0
 35
0.0
146
0.0
 13
0.0
 23
0.0
 33
0.0
 16
1.0
 26
0.0
 36
0.0
 17
0.0
 27
1.0
 37
0.0
 76
0
330
211
345
0
346
0
  0
ENDSEC
  0
EOF
