999
DXF file: C:\Users\sesa63760\Dev\_Creo\CAD\MCADID0002055_3D-CAD\drw0001_5.dxf
999
Pro/ENGINEER 2019471 by Parametric Technology Corporation
  0
SECTION
  2
HEADER
  9
$ACADVER
  1
AC1024
  9
$DWGCODEPAGE
  3
ANSI_1252
  9
$EXTMAX
 10
113.5380889781
 20
160.5752972691
 30
0.0
  9
$EXTMIN
 10
0.0
 20
0.0
 30
0.0
  9
$LIMMIN
 10
0.0
 20
0.0
  9
$LIMMAX
 10
113.5380889781
 20
160.5752972691
  9
$VIEWCTR
 10
56.7690444891
 20
80.2876486345
  9
$VIEWSIZE
 40
160.5752972691
  9
$CLAYER
  8
0
  9
$LTSCALE
 40
10.4671304887
  9
$CELTYPE
  6
BYLAYER
  9
$DIMSCALE
 40
1.0
  9
$DIMASZ
 40
1.3516439164
  9
$DIMEXO
 40
1.0
  9
$DIMDLI
 40
7.2318356103
  9
$DIMEXE
 40
1.0
  9
$DIMCEN
 40
1.7128031709
  9
$DIMLFAC
 40
1.0
  9
$DIMBLK
  1
_FILLED
  9
$DIMALT
 70
0
  9
$DIMALTF
 40
0.0393700787
  9
$DIMTXT
 40
1.892301483
  9
$DIMTOL
 70
1
  9
$DIMLIM
 70
0
  9
$DIMTFAC
 40
1.0
  9
$DIMTP
 40
0.01
  9
$DIMTM
 40
0.01
  9
$DIMGAP
 40
0.625
  9
$DIMDSEP
 70
46
  9
$AUNITS
 70
0
  9
$PDMODE
 70
3
  9
$PDSIZE
 40
0.3125
  9
$HANDSEED
  5
376
  9
$TILEMODE
 70
1
  9
$MEASUREMENT
 70
1
  9
$INSUNITS
 70
4
  0
ENDSEC
  0
SECTION
  2
CLASSES
  0
CLASS
  1
ACDBDICTIONARYWDFLT
  2
AcDbDictionaryWithDefault
  3
AutoCAD 2000
 90
0
 91
1
280
0
281
0
  0
CLASS
  1
ACDBPLACEHOLDER
  2
AcDbPlaceHolder
  3
AutoCAD 2000
 90
0
 91
1
280
0
281
0
  0
CLASS
  1
LAYOUT
  2
AcDbLayout
  3
AutoCAD 2000
 90
0
 91
0
280
0
281
0
  0
ENDSEC
  0
SECTION
  2
TABLES
  0
TABLE
  2
VPORT
  5
8
100
AcDbSymbolTable
 70
2
  0
VPORT
  5
1F4
100
AcDbSymbolTableRecord
100
AcDbViewportTableRecord
  2
*ACTIVE
 70
0
 10
0.0
 20
0.0
 11
1.0
 21
1.0
 12
56.7690444891
 22
80.2876486345
 13
0.0
 23
0.0
 14
1.0
 24
1.0
 15
0.0
 25
0.0
 16
0.0
 26
0.0
 36
1.0
 17
0.0
 27
0.0
 37
0.0
 40
160.5752972691
 41
0.7070707071
 42
50.0
 43
0.0
 44
0.0
 50
0.0
 51
0.0
 71
0
 72
100
 73
1
 74
1
 75
0
 76
0
 77
0
 78
0
  0
ENDTAB
  0
TABLE
  2
LTYPE
  5
5
100
AcDbSymbolTable
 70
6
  0
LTYPE
  5
14
100
AcDbSymbolTableRecord
100
AcDbLinetypeTableRecord
  2
BYBLOCK
 70
0
  3

 72
65
 73
0
 40
0.0
  0
LTYPE
  5
15
100
AcDbSymbolTableRecord
100
AcDbLinetypeTableRecord
  2
BYLAYER
 70
0
  3

 72
65
 73
0
 40
0.0
  0
LTYPE
  5
16
100
AcDbSymbolTableRecord
100
AcDbLinetypeTableRecord
  2
CONTINUOUS
 70
64
  3
Solid line
 72
65
 73
0
 40
0.0
  0
LTYPE
  5
1F5
100
AcDbSymbolTableRecord
100
AcDbLinetypeTableRecord
  2
CENTER
 70
64
  3
____ _ ____ _ ____ _ ____ _ ____ _ ____ _ ____
 72
65
 73
4
 40
0.6
 49
0.375
 74
0
 49
-0.075
 74
0
 49
0.075
 74
0
 49
-0.075
 74
0
  0
LTYPE
  5
1F6
100
AcDbSymbolTableRecord
100
AcDbLinetypeTableRecord
  2
HIDDEN
 70
64
  3
- - - - - - - - - - - - - - - - - - - -
 72
65
 73
2
 40
0.2
 49
0.1
 74
0
 49
-0.1
 74
0
  0
LTYPE
  5
1F7
100
AcDbSymbolTableRecord
100
AcDbLinetypeTableRecord
  2
PHANTOM
 70
64
  3
_____ _ _ _____ _ _ _____ _ _ _____
 72
65
 73
6
 40
0.8
 49
0.45
 74
0
 49
-0.05
 74
0
 49
0.1
 74
0
 49
-0.05
 74
0
 49
0.1
 74
0
 49
-0.05
 74
0
  0
LTYPE
  5
1F8
100
AcDbSymbolTableRecord
100
AcDbLinetypeTableRecord
  2
DOT
 70
64
  3
. . . . . . . . . . . . . . . . . . . .
 72
65
 73
2
 40
0.2
 49
0.1
 74
0
 49
-0.1
 74
0
  0
LTYPE
  5
1F9
100
AcDbSymbolTableRecord
100
AcDbLinetypeTableRecord
  2
DASHED
 70
64
  3
- - - - - - - - - - - - - - - - - - - -
 72
65
 73
2
 40
0.2
 49
0.1
 74
0
 49
-0.1
 74
0
  0
ENDTAB
  0
TABLE
  2
LAYER
  5
2
100
AcDbSymbolTable
 70
36
  0
LAYER
  5
10
100
AcDbSymbolTableRecord
100
AcDbLayerTableRecord
  2
0
 70
0
 62
7
  6
CONTINUOUS
370
-3
390
F
  0
LAYER
  5
1FA
100
AcDbSymbolTableRecord
100
AcDbLayerTableRecord
  2
DEFAULT_1
 70
0
 62
7
  6
CENTER
370
-3
390
F
  0
LAYER
  5
1FB
100
AcDbSymbolTableRecord
100
AcDbLayerTableRecord
  2
DEFAULT_2
 70
0
 62
8
  6
HIDDEN
370
-3
390
F
  0
LAYER
  5
1FC
100
AcDbSymbolTableRecord
100
AcDbLayerTableRecord
  2
DEFAULT_3
 70
0
 62
7
  6
PHANTOM
370
-3
390
F
  0
LAYER
  5
1FD
100
AcDbSymbolTableRecord
100
AcDbLayerTableRecord
  2
00_COMPONENTS
 70
0
 62
7
  6
CONTINUOUS
370
-3
390
F
  0
LAYER
  5
1FE
100
AcDbSymbolTableRecord
100
AcDbLayerTableRecord
  2
01_1_DEFAULT_DATUMS
 70
0
 62
7
  6
CONTINUOUS
370
-3
390
F
  0
LAYER
  5
1FF
100
AcDbSymbolTableRecord
100
AcDbLayerTableRecord
  2
01_PLANES
 70
0
 62
7
  6
CONTINUOUS
370
-3
390
F
  0
LAYER
  5
200
100
AcDbSymbolTableRecord
100
AcDbLayerTableRecord
  2
02_COORD_SYS
 70
0
 62
7
  6
CONTINUOUS
370
-3
390
F
  0
LAYER
  5
201
100
AcDbSymbolTableRecord
100
AcDbLayerTableRecord
  2
03_AXES
 70
0
 62
7
  6
CONTINUOUS
370
-3
390
F
  0
LAYER
  5
202
100
AcDbSymbolTableRecord
100
AcDbLayerTableRecord
  2
04_POINTS
 70
0
 62
7
  6
CONTINUOUS
370
-3
390
F
  0
LAYER
  5
203
100
AcDbSymbolTableRecord
100
AcDbLayerTableRecord
  2
05_CURVES
 70
0
 62
7
  6
CONTINUOUS
370
-3
390
F
  0
LAYER
  5
204
100
AcDbSymbolTableRecord
100
AcDbLayerTableRecord
  2
06_SURFS
 70
0
 62
7
  6
CONTINUOUS
370
-3
390
F
  0
LAYER
  5
205
100
AcDbSymbolTableRecord
100
AcDbLayerTableRecord
  2
07_COSMETICS
 70
0
 62
7
  6
CONTINUOUS
370
-3
390
F
  0
LAYER
  5
206
100
AcDbSymbolTableRecord
100
AcDbLayerTableRecord
  2
10_NOTES
 70
0
 62
7
  6
CONTINUOUS
370
-3
390
F
  0
LAYER
  5
207
100
AcDbSymbolTableRecord
100
AcDbLayerTableRecord
  2
11_NOTES_PUB
 70
0
 62
7
  6
CONTINUOUS
370
-3
390
F
  0
LAYER
  5
208
100
AcDbSymbolTableRecord
100
AcDbLayerTableRecord
  2
13_REF_GTOL
 70
0
 62
7
  6
CONTINUOUS
370
-3
390
F
  0
LAYER
  5
209
100
AcDbSymbolTableRecord
100
AcDbLayerTableRecord
  2
16_MISC
 70
0
 62
7
  6
CONTINUOUS
370
-3
390
F
  0
LAYER
  5
20A
100
AcDbSymbolTableRecord
100
AcDbLayerTableRecord
  2
17_NO_PRINT
 70
0
 62
7
  6
CONTINUOUS
370
-3
390
F
  0
LAYER
  5
20B
100
AcDbSymbolTableRecord
100
AcDbLayerTableRecord
  2
18_DATUM_CAMS_JOINTS
 70
0
 62
7
  6
CONTINUOUS
370
-3
390
F
  0
LAYER
  5
20C
100
AcDbSymbolTableRecord
100
AcDbLayerTableRecord
  2
19_DATUM_FUNCTIONAL
 70
0
 62
7
  6
CONTINUOUS
370
-3
390
F
  0
LAYER
  5
20D
100
AcDbSymbolTableRecord
100
AcDbLayerTableRecord
  2
20_DATUM_KINEMATIC_SCHEME
 70
0
 62
7
  6
CONTINUOUS
370
-3
390
F
  0
LAYER
  5
20E
100
AcDbSymbolTableRecord
100
AcDbLayerTableRecord
  2
_1
 70
0
 62
7
  6
CONTINUOUS
370
-3
390
F
  0
ENDTAB
  0
TABLE
  2
STYLE
  5
3
100
AcDbSymbolTable
 70
1
  0
STYLE
  5
11
100
AcDbSymbolTableRecord
100
AcDbTextStyleTableRecord
  2
STANDARD
 70
0
 40
0.0
 41
0.8
 50
0.0
 71
0
 42
0.2
  3
txt
  4

  0
STYLE
  5
20F
100
AcDbSymbolTableRecord
100
AcDbTextStyleTableRecord
  2
TEXTSTYLE_1
 70
0
 40
0.0
 41
0.8
 50
0.0
 71
0
 42
0.2
  3
gdt
  4

  0
ENDTAB
  0
TABLE
  2
VIEW
  5
6
100
AcDbSymbolTable
 70
0
  0
ENDTAB
  0
TABLE
  2
UCS
  5
7
100
AcDbSymbolTable
 70
0
  0
ENDTAB
  0
TABLE
  2
APPID
  5
9
100
AcDbSymbolTable
 70
1
  0
APPID
  5
210
100
AcDbSymbolTableRecord
100
AcDbRegAppTableRecord
  2
ACAD
 70
0
  0
ENDTAB
  0
TABLE
  2
BLOCK_RECORD
  5
1
100
AcDbSymbolTable
 70
0
  0
BLOCK_RECORD
  5
211
100
AcDbSymbolTableRecord
100
AcDbBlockTableRecord
  2
*Model_Space
  0
BLOCK_RECORD
  5
212
100
AcDbSymbolTableRecord
100
AcDbBlockTableRecord
  2
*Paper_Space
  0
BLOCK_RECORD
  5
213
100
AcDbSymbolTableRecord
100
AcDbBlockTableRecord
  2
_FILLED
  0
ENDTAB
  0
TABLE
  2
DIMSTYLE
  5
A
100
AcDbSymbolTable
 70
1
100
AcDbDimStyleTable
 71
0
  0
DIMSTYLE
105
214
100
AcDbSymbolTableRecord
100
AcDbDimStyleTableRecord
  2
STANDARD
 70
0
  3

  4

 40
1.0
 41
1.3516439164
 42
1.0
 43
0.38
 44
1.0
 45
0.0
 46
0.0
 47
0.01
 48
0.01
140
1.892301483
141
0.09
142
0.0
143
25.4
144
1.0
145
0.0
146
1.0
147
0.625
 71
1
 72
0
 73
0
 74
0
 75
0
 76
0
 77
1
 78
8
 79
2
170
0
171
1
172
0
173
0
174
0
175
0
176
0
177
0
178
0
270
2
179
2
271
2
272
2
273
2
274
2
275
0
280
0
281
0
282
0
283
1
284
8
285
0
286
0
287
3
288
0
340
11
278
46
341
213
342
213
343
213
344
213
  0
ENDTAB
  0
ENDSEC
  0
SECTION
  2
BLOCKS
  0
BLOCK
  5
20
100
AcDbEntity
  8
0
100
AcDbBlockBegin
  2
*Model_Space
 70
0
 10
0.0
 20
0.0
 30
0.0
  3
*Model_Space
  1

  0
ENDBLK
  5
21
100
AcDbEntity
  8
0
100
AcDbBlockEnd
  0
BLOCK
  5
1C
100
AcDbEntity
  8
0
100
AcDbBlockBegin
  2
*Paper_Space
 70
0
 10
0.0
 20
0.0
 30
0.0
  3
*Paper_Space
  1

  0
ENDBLK
  5
1D
100
AcDbEntity
  8
0
100
AcDbBlockEnd
  0
BLOCK
  5
215
100
AcDbEntity
  8
0
100
AcDbBlockBegin
  2
_FILLED
 70
64
 10
0.0
 20
0.0
  3
_FILLED
  1

  0
SOLID
  5
216
100
AcDbEntity
  8
0
  6
BYBLOCK
 62
0
100
AcDbTrace
 10
0.0
 20
0.0
 11
-1.0
 21
0.25
 12
-1.0
 22
-0.25
 13
-1.0
 23
-0.25
  0
ENDBLK
  5
217
100
AcDbEntity
  8
0
  6
BYBLOCK
 62
0
100
AcDbBlockEnd
  0
ENDSEC
  0
SECTION
  2
ENTITIES
  0
LINE
  5
218
100
AcDbEntity
  8
_1
100
AcDbLine
 62
7
  6
CONTINUOUS
 10
52.2453852202
 20
13.0700823359
 11
64.4373852202
 21
13.0700823359
  0
LINE
  5
219
100
AcDbEntity
  8
_1
100
AcDbLine
 62
7
  6
CONTINUOUS
 10
50.4673852202
 20
14.196713592
 11
50.6421247604
 21
14.196713592
  0
LINE
  5
21A
100
AcDbEntity
  8
_1
100
AcDbLine
 62
7
  6
CONTINUOUS
 10
66.040634679
 20
14.196713592
 11
66.2153852202
 21
14.196713592
  0
LINE
  5
21B
100
AcDbEntity
  8
_1
100
AcDbLine
 62
7
  6
CONTINUOUS
 10
52.2453852202
 20
14.5940823359
 11
64.4373852202
 21
14.5940823359
  0
LINE
  5
21C
100
AcDbEntity
  8
_1
100
AcDbLine
 62
7
  6
CONTINUOUS
 10
64.5643852202
 20
14.6639085379
 11
63.0403852202
 21
14.6639085379
  0
LINE
  5
21D
100
AcDbEntity
  8
_1
100
AcDbLine
 62
7
  6
CONTINUOUS
 10
52.1183852202
 20
14.6639085379
 11
53.6423852202
 21
14.6639085379
  0
LINE
  5
21E
100
AcDbEntity
  8
_1
100
AcDbLine
 62
7
  6
CONTINUOUS
 10
60.8813852202
 20
14.8480823359
 11
55.8013852202
 21
14.8480823359
  0
LINE
  5
21F
100
AcDbEntity
  8
_1
100
AcDbLine
 62
7
  6
CONTINUOUS
 10
62.7863852202
 20
15.1020823359
 11
60.8813852202
 21
15.1020823359
  0
LINE
  5
220
100
AcDbEntity
  8
_1
100
AcDbLine
 62
7
  6
CONTINUOUS
 10
55.8013852202
 20
15.1020823359
 11
53.8963852202
 21
15.1020823359
  0
LINE
  5
221
100
AcDbEntity
  8
_1
100
AcDbLine
 62
7
  6
CONTINUOUS
 10
69.5913852222
 20
19.4857277319
 11
66.3913852222
 21
19.4857277319
  0
LINE
  5
222
100
AcDbEntity
  8
_1
100
AcDbLine
 62
7
  6
CONTINUOUS
 10
50.2913852222
 20
19.4857277319
 11
47.0913852222
 21
19.4857277319
  0
LINE
  5
223
100
AcDbEntity
  8
_1
100
AcDbLine
 62
7
  6
CONTINUOUS
 10
56.8173852202
 20
19.8561532678
 11
59.8653852202
 21
19.8561532678
  0
LINE
  5
224
100
AcDbEntity
  8
_1
100
AcDbLine
 62
7
  6
CONTINUOUS
 10
55.8013852202
 20
20.7251277319
 11
60.8813852202
 21
20.7251277319
  0
LINE
  5
225
100
AcDbEntity
  8
_1
100
AcDbLine
 62
7
  6
CONTINUOUS
 10
51.9913852202
 20
20.9537277319
 11
52.1183852202
 21
20.9537277319
  0
LINE
  5
226
100
AcDbEntity
  8
_1
100
AcDbLine
 62
7
  6
CONTINUOUS
 10
53.6423852202
 20
20.9537277319
 11
55.8013852202
 21
20.9537277319
  0
LINE
  5
227
100
AcDbEntity
  8
_1
100
AcDbLine
 62
7
  6
CONTINUOUS
 10
60.8813852202
 20
20.9537277319
 11
63.0403852202
 21
20.9537277319
  0
LINE
  5
228
100
AcDbEntity
  8
_1
100
AcDbLine
 62
7
  6
CONTINUOUS
 10
64.5643852202
 20
20.9537277319
 11
64.6913852202
 21
20.9537277319
  0
LINE
  5
229
100
AcDbEntity
  8
_1
100
AcDbLine
 62
7
  6
CONTINUOUS
 10
48.9481975022
 20
21.2357277319
 11
50.2913852222
 21
21.2357277319
  0
LINE
  5
22A
100
AcDbEntity
  8
_1
100
AcDbLine
 62
7
  6
CONTINUOUS
 10
66.3913852222
 20
21.2357277319
 11
67.7345729382
 21
21.2357277319
  0
LINE
  5
22B
100
AcDbEntity
  8
_1
100
AcDbLine
 62
7
  6
CONTINUOUS
 10
64.7254570404
 20
21.4617277319
 11
64.5356234956
 21
21.4617277319
  0
LINE
  5
22C
100
AcDbEntity
  8
_1
100
AcDbLine
 62
7
  6
CONTINUOUS
 10
52.1471469448
 20
21.4617277319
 11
51.9573155449
 21
21.4617277319
  0
LINE
  5
22D
100
AcDbEntity
  8
_1
100
AcDbLine
 62
7
  6
CONTINUOUS
 10
49.1513976187
 20
21.4617277319
 11
50.3403852202
 21
21.4617277319
  0
LINE
  5
22E
100
AcDbEntity
  8
_1
100
AcDbLine
 62
7
  6
CONTINUOUS
 10
53.8963852202
 20
21.4617277319
 11
62.7863852202
 21
21.4617277319
  0
LINE
  5
22F
100
AcDbEntity
  8
_1
100
AcDbLine
 62
7
  6
CONTINUOUS
 10
66.3423852202
 20
21.4617277319
 11
67.5313728217
 21
21.4617277319
  0
LINE
  5
230
100
AcDbEntity
  8
_1
100
AcDbLine
 62
7
  6
CONTINUOUS
 10
67.7345729382
 20
22.9857277319
 11
62.7863852202
 21
22.9857277319
  0
LINE
  5
231
100
AcDbEntity
  8
_1
100
AcDbLine
 62
7
  6
CONTINUOUS
 10
53.8963852202
 20
22.9857277319
 11
48.9481975022
 21
22.9857277319
  0
LINE
  5
232
100
AcDbEntity
  8
_1
100
AcDbLine
 62
7
  6
CONTINUOUS
 10
62.7863852202
 20
23.7223277319
 11
53.8963852202
 21
23.7223277319
  0
LINE
  5
233
100
AcDbEntity
  8
_1
100
AcDbLine
 62
7
  6
CONTINUOUS
 10
62.7863852202
 20
28.3197277319
 11
53.8963852202
 21
28.3197277319
  0
LINE
  5
234
100
AcDbEntity
  8
_1
100
AcDbLine
 62
7
  6
CONTINUOUS
 10
54.1850851951
 20
138.3438000196
 11
55.0313852202
 21
138.9483000375
  0
LINE
  5
235
100
AcDbEntity
  8
_1
100
AcDbLine
 62
7
  6
CONTINUOUS
 10
59.1850851951
 20
138.3438000196
 11
60.0313852202
 21
138.9483000375
  0
LINE
  5
236
100
AcDbEntity
  8
_1
100
AcDbLine
 62
7
  6
CONTINUOUS
 10
57.3313852202
 20
141.7483000375
 11
57.8555152874
 21
142.298313071
  0
LINE
  5
237
100
AcDbEntity
  8
_1
100
AcDbLine
 62
7
  6
CONTINUOUS
 10
62.3313852202
 20
141.7483000375
 11
62.8555152874
 21
142.298313071
  0
LINE
  5
238
100
AcDbEntity
  8
_1
100
AcDbLine
 62
7
  6
CONTINUOUS
 10
65.0723902148
 20
129.78851284
 11
64.8675294638
 21
129.5836520878
  0
LINE
  5
239
100
AcDbEntity
  8
_1
100
AcDbLine
 62
7
  6
CONTINUOUS
 10
49.9904203256
 20
109.1413143463
 11
49.9695456037
 21
109.1204396243
  0
LINE
  5
23A
100
AcDbEntity
  8
_1
100
AcDbLine
 62
7
  6
CONTINUOUS
 10
50.9443501148
 20
110.0952441354
 11
50.9672385949
 21
110.1181326155
  0
LINE
  5
23B
100
AcDbEntity
  8
_1
100
AcDbLine
 62
7
  6
CONTINUOUS
 10
66.6923501148
 20
118.2232441354
 11
66.71600548
 21
118.2468995006
  0
LINE
  5
23C
100
AcDbEntity
  8
_1
100
AcDbLine
 62
7
  6
CONTINUOUS
 10
65.7561546716
 20
117.2693143463
 11
65.7328042707
 21
117.2459639453
  0
LINE
  5
23D
100
AcDbEntity
  8
_1
100
AcDbLine
 62
7
  6
CONTINUOUS
 10
48.3486461919
 20
127.9261098513
 11
48.3505095964
 21
127.7125848448
  0
LINE
  5
23E
100
AcDbEntity
  8
_1
100
AcDbLine
 62
7
  6
CONTINUOUS
 10
47.0913852222
 20
19.4857277319
 11
47.0913852222
 21
99.4857277319
  0
LINE
  5
23F
100
AcDbEntity
  8
_1
100
AcDbLine
 62
7
  6
CONTINUOUS
 10
48.0819851142
 20
99.6386192408
 11
48.0819851142
 21
99.8926192408
  0
LINE
  5
240
100
AcDbEntity
  8
_1
100
AcDbLine
 62
7
  6
CONTINUOUS
 10
48.1030075654
 20
128.8289040978
 11
48.1030075654
 21
129.2483446581
  0
LINE
  5
241
100
AcDbEntity
  8
_1
100
AcDbLine
 62
7
  6
CONTINUOUS
 10
48.2978849662
 20
104.8456192408
 11
48.2978849662
 21
104.8964192408
  0
LINE
  5
242
100
AcDbEntity
  8
_1
100
AcDbLine
 62
7
  6
CONTINUOUS
 10
48.6385852202
 20
124.9121312899
 11
48.6385852202
 21
119.3241312899
  0
LINE
  5
243
100
AcDbEntity
  8
_1
100
AcDbLine
 62
7
  6
CONTINUOUS
 10
48.9481975022
 20
22.9857277319
 11
48.9481975022
 21
21.2357277319
  0
LINE
  5
244
100
AcDbEntity
  8
_1
100
AcDbLine
 62
7
  6
CONTINUOUS
 10
49.1513976187
 20
21.4617277319
 11
49.1513976187
 21
22.9857277319
  0
LINE
  5
245
100
AcDbEntity
  8
_1
100
AcDbLine
 62
7
  6
CONTINUOUS
 10
49.5113852222
 20
32.2515277319
 11
49.5113852222
 21
87.4715277319
  0
LINE
  5
246
100
AcDbEntity
  8
_1
100
AcDbLine
 62
7
  6
CONTINUOUS
 10
49.7834860451
 20
127.7125848448
 11
49.7853494496
 21
127.9261098513
  0
LINE
  5
247
100
AcDbEntity
  8
_1
100
AcDbLine
 62
7
  6
CONTINUOUS
 10
48.0708238117
 20
127.4041554655
 11
48.0360250566
 21
124.9121312899
  0
LINE
  5
248
100
AcDbEntity
  8
_1
100
AcDbLine
 62
7
  6
CONTINUOUS
 10
48.1030075654
 20
129.2487578866
 11
48.1113816733
 21
129.7888327477
  0
LINE
  5
249
100
AcDbEntity
  8
_1
100
AcDbLine
 62
7
  6
CONTINUOUS
 10
47.0913852202
 20
99.8926192408
 11
47.603171407
 21
129.2291071299
  0
LINE
  5
24A
100
AcDbEntity
  8
_1
100
AcDbLine
 62
7
  6
CONTINUOUS
 10
48.0708238117
 20
127.4041570215
 11
48.0801318893
 21
127.9377731217
  0
LINE
  5
24B
100
AcDbEntity
  8
_1
100
AcDbLine
 62
7
  6
CONTINUOUS
 10
48.094773689
 20
128.3571856373
 11
48.1030075654
 21
128.8289040978
  0
LINE
  5
24C
100
AcDbEntity
  8
_1
100
AcDbLine
 62
7
  6
CONTINUOUS
 10
48.0360250566
 20
124.9121312899
 11
47.6866495032
 21
104.8964192408
  0
LINE
  5
24D
100
AcDbEntity
  8
_1
100
AcDbLine
 62
7
  6
CONTINUOUS
 10
47.6857627859
 20
104.8456192408
 11
47.5993078493
 21
99.8926192408
  0
LINE
  5
24E
100
AcDbEntity
  8
_1
100
AcDbLine
 62
7
  6
CONTINUOUS
 10
48.094773689
 20
128.3571856373
 11
48.0801318893
 21
127.9377715647
  0
LINE
  5
24F
100
AcDbEntity
  8
_1
100
AcDbLine
 62
7
  6
CONTINUOUS
 10
60.2463852202
 20
114.3172792408
 11
61.134701309
 21
116.2222792408
  0
LINE
  5
250
100
AcDbEntity
  8
_1
100
AcDbLine
 62
7
  6
CONTINUOUS
 10
49.8757654513
 20
120.6763134924
 11
49.8672333152
 21
121.1651192408
  0
LINE
  5
251
100
AcDbEntity
  8
_1
100
AcDbLine
 62
7
  6
CONTINUOUS
 10
49.9667649604
 20
118.2468995006
 11
49.9695456037
 21
109.1204396243
  0
LINE
  5
252
100
AcDbEntity
  8
_1
100
AcDbLine
 62
7
  6
CONTINUOUS
 10
49.9904203256
 20
118.2232441354
 11
49.9904203256
 21
109.1413143463
  0
LINE
  5
253
100
AcDbEntity
  8
_1
100
AcDbLine
 62
7
  6
CONTINUOUS
 10
50.2913852222
 20
21.2357277319
 11
50.2913852222
 21
19.4857277319
  0
LINE
  5
254
100
AcDbEntity
  8
_1
100
AcDbLine
 62
7
  6
CONTINUOUS
 10
50.4673852202
 20
14.196713592
 11
50.4673852202
 21
21.3347277319
  0
LINE
  5
255
100
AcDbEntity
  8
_1
100
AcDbLine
 62
7
  6
CONTINUOUS
 10
50.5435852202
 20
119.3241312899
 11
50.5435852202
 21
124.9121312899
  0
LINE
  5
256
100
AcDbEntity
  8
_1
100
AcDbLine
 62
7
  6
CONTINUOUS
 10
50.9443501148
 20
117.2693143463
 11
50.9443501148
 21
110.0952441354
  0
LINE
  5
257
100
AcDbEntity
  8
_1
100
AcDbLine
 62
7
  6
CONTINUOUS
 10
50.9672385949
 20
115.7298754244
 11
50.9672385949
 21
110.1181326155
  0
LINE
  5
258
100
AcDbEntity
  8
_1
100
AcDbLine
 62
7
  6
CONTINUOUS
 10
51.6103852202
 20
129.7888327477
 11
51.6103852202
 21
129.5832849233
  0
LINE
  5
259
100
AcDbEntity
  8
_1
100
AcDbLine
 62
7
  6
CONTINUOUS
 10
51.9913852202
 20
21.3347277319
 11
51.9913852202
 21
14.8480823359
  0
LINE
  5
25A
100
AcDbEntity
  8
_1
100
AcDbLine
 62
7
  6
CONTINUOUS
 10
51.9913852202
 20
111.1422792408
 11
51.9913852202
 21
116.2222792408
  0
LINE
  5
25B
100
AcDbEntity
  8
_1
100
AcDbLine
 62
7
  6
CONTINUOUS
 10
52.1183852202
 20
14.6466913545
 11
52.1183852202
 21
21.2077277319
  0
LINE
  5
25C
100
AcDbEntity
  8
_1
100
AcDbLine
 62
7
  6
CONTINUOUS
 10
52.9413852202
 20
129.7983000375
 11
52.9413852202
 21
147.8983000375
  0
LINE
  5
25D
100
AcDbEntity
  8
_1
100
AcDbLine
 62
7
  6
CONTINUOUS
 10
53.2601152202
 20
127.6997725773
 11
53.2601152202
 21
128.9712654531
  0
LINE
  5
25E
100
AcDbEntity
  8
_1
100
AcDbLine
 62
7
  6
CONTINUOUS
 10
53.4663852202
 20
129.7983000375
 11
53.4663852202
 21
129.5836520878
  0
LINE
  5
25F
100
AcDbEntity
  8
_1
100
AcDbLine
 62
7
  6
CONTINUOUS
 10
53.6413852202
 20
141.5984757665
 11
53.6413852202
 21
139.098236704
  0
LINE
  5
260
100
AcDbEntity
  8
_1
100
AcDbLine
 62
7
  6
CONTINUOUS
 10
53.6423852202
 20
21.2077277319
 11
53.6423852202
 21
14.5940823359
  0
LINE
  5
261
100
AcDbEntity
  8
_1
100
AcDbLine
 62
7
  6
CONTINUOUS
 10
53.8413852202
 20
139.0983000375
 11
53.8413852202
 21
141.5983000369
  0
LINE
  5
262
100
AcDbEntity
  8
_1
100
AcDbLine
 62
7
  6
CONTINUOUS
 10
53.8963852202
 20
14.5940823359
 11
53.8963852202
 21
28.3197277319
  0
LINE
  5
263
100
AcDbEntity
  8
_1
100
AcDbLine
 62
7
  6
CONTINUOUS
 10
54.2292526325
 20
129.7983000375
 11
54.2292526325
 21
129.5836520878
  0
LINE
  5
264
100
AcDbEntity
  8
_1
100
AcDbLine
 62
7
  6
CONTINUOUS
 10
54.3792531858
 20
129.7983000375
 11
54.3792531858
 21
129.5836520878
  0
LINE
  5
265
100
AcDbEntity
  8
_1
100
AcDbLine
 62
7
  6
CONTINUOUS
 10
50.9672385949
 20
115.7298754244
 11
50.9677005157
 21
117.2459639453
  0
LINE
  5
266
100
AcDbEntity
  8
_1
100
AcDbLine
 62
7
  6
CONTINUOUS
 10
52.1415942809
 20
111.1676792408
 11
52.2298226521
 21
116.2222792408
  0
LINE
  5
267
100
AcDbEntity
  8
_1
100
AcDbLine
 62
7
  6
CONTINUOUS
 10
54.2888195364
 20
115.6888792408
 11
54.2099016969
 21
111.1676792408
  0
LINE
  5
268
100
AcDbEntity
  8
_1
100
AcDbLine
 62
7
  6
CONTINUOUS
 10
54.5413852202
 20
143.3983000375
 11
54.5413852202
 21
143.4083000375
  0
LINE
  5
269
100
AcDbEntity
  8
_1
100
AcDbLine
 62
7
  6
CONTINUOUS
 10
54.7793316488
 20
143.3983000375
 11
54.7793316488
 21
143.4083000375
  0
LINE
  5
26A
100
AcDbEntity
  8
_1
100
AcDbLine
 62
7
  6
CONTINUOUS
 10
54.8413852203
 20
137.8983000375
 11
54.8413852203
 21
138.0983000375
  0
LINE
  5
26B
100
AcDbEntity
  8
_1
100
AcDbLine
 62
7
  6
CONTINUOUS
 10
54.8413852202
 20
142.5983000375
 11
54.8413852202
 21
142.7983000375
  0
LINE
  5
26C
100
AcDbEntity
  8
_1
100
AcDbLine
 62
7
  6
CONTINUOUS
 10
54.9712959345
 20
143.3983000375
 11
54.9712959345
 21
143.4083000375
  0
LINE
  5
26D
100
AcDbEntity
  8
_1
100
AcDbLine
 62
7
  6
CONTINUOUS
 10
55.0313852202
 20
138.9483000375
 11
55.0313852202
 21
141.7483000375
  0
LINE
  5
26E
100
AcDbEntity
  8
_1
100
AcDbLine
 62
7
  6
CONTINUOUS
 10
55.4203852202
 20
19.7424050339
 11
55.4203852202
 21
16.3134050339
  0
LINE
  5
26F
100
AcDbEntity
  8
_1
100
AcDbLine
 62
7
  6
CONTINUOUS
 10
55.7400459345
 20
143.3983000375
 11
55.7400459345
 21
143.4083000375
  0
LINE
  5
270
100
AcDbEntity
  8
_1
100
AcDbLine
 62
7
  6
CONTINUOUS
 10
55.8013852202
 20
14.5940823359
 11
55.8013852202
 21
21.4617277319
  0
LINE
  5
271
100
AcDbEntity
  8
_1
100
AcDbLine
 62
7
  6
CONTINUOUS
 10
55.9324566488
 20
143.3983000375
 11
55.9324566488
 21
143.4083000375
  0
LINE
  5
272
100
AcDbEntity
  8
_1
100
AcDbLine
 62
7
  6
CONTINUOUS
 10
56.1699566488
 20
143.3983000375
 11
56.1699566488
 21
143.4083000375
  0
LINE
  5
273
100
AcDbEntity
  8
_1
100
AcDbLine
 62
7
  6
CONTINUOUS
 10
56.4842423631
 20
143.4083000375
 11
56.4842423631
 21
143.3983000375
  0
LINE
  5
274
100
AcDbEntity
  8
_1
100
AcDbLine
 62
7
  6
CONTINUOUS
 10
56.8808852222
 20
87.4715277319
 11
56.8808852222
 21
32.2515277319
  0
LINE
  5
275
100
AcDbEntity
  8
_1
100
AcDbLine
 62
7
  6
CONTINUOUS
 10
56.9413852202
 20
143.3983000375
 11
56.9413852202
 21
143.4083000375
  0
LINE
  5
276
100
AcDbEntity
  8
_1
100
AcDbLine
 62
7
  6
CONTINUOUS
 10
57.1413852202
 20
142.7983000375
 11
57.1413852202
 21
142.5983000375
  0
LINE
  5
277
100
AcDbEntity
  8
_1
100
AcDbLine
 62
7
  6
CONTINUOUS
 10
57.1413852202
 20
138.0983000375
 11
57.1413852202
 21
137.8983000375
  0
LINE
  5
278
100
AcDbEntity
  8
_1
100
AcDbLine
 62
7
  6
CONTINUOUS
 10
57.1699566488
 20
143.3983000375
 11
57.1699566488
 21
143.4083000375
  0
LINE
  5
279
100
AcDbEntity
  8
_1
100
AcDbLine
 62
7
  6
CONTINUOUS
 10
57.3035172546
 20
129.5836520878
 11
57.3035172546
 21
129.7983000375
  0
LINE
  5
27A
100
AcDbEntity
  8
_1
100
AcDbLine
 62
7
  6
CONTINUOUS
 10
57.3313852202
 20
141.7483000375
 11
57.3313852202
 21
138.9483000375
  0
LINE
  5
27B
100
AcDbEntity
  8
_1
100
AcDbLine
 62
7
  6
CONTINUOUS
 10
57.4535172546
 20
129.5836520878
 11
57.4535172546
 21
129.7983000375
  0
LINE
  5
27C
100
AcDbEntity
  8
_1
100
AcDbLine
 62
7
  6
CONTINUOUS
 10
58.1413852202
 20
141.5983000375
 11
58.1413852202
 21
139.0983000381
  0
LINE
  5
27D
100
AcDbEntity
  8
_1
100
AcDbLine
 62
7
  6
CONTINUOUS
 10
58.3413852202
 20
129.5836520878
 11
58.3413852202
 21
129.7983000375
  0
LINE
  5
27E
100
AcDbEntity
  8
_1
100
AcDbLine
 62
7
  6
CONTINUOUS
 10
58.3413852202
 20
139.0981242829
 11
58.3413852202
 21
141.5983643646
  0
LINE
  5
27F
100
AcDbEntity
  8
_1
100
AcDbLine
 62
7
  6
CONTINUOUS
 10
58.6413852202
 20
141.5984757671
 11
58.6413852202
 21
139.0982367138
  0
LINE
  5
280
100
AcDbEntity
  8
_1
100
AcDbLine
 62
7
  6
CONTINUOUS
 10
58.8413852202
 20
139.0983000375
 11
58.8413852202
 21
141.5983000373
  0
LINE
  5
281
100
AcDbEntity
  8
_1
100
AcDbLine
 62
7
  6
CONTINUOUS
 10
55.0763539723
 20
115.6888792408
 11
55.0802105207
 21
116.2222792408
  0
LINE
  5
282
100
AcDbEntity
  8
_1
100
AcDbLine
 62
7
  6
CONTINUOUS
 10
62.4105768533
 20
114.7363792408
 11
62.4728687435
 21
111.1676792408
  0
LINE
  5
283
100
AcDbEntity
  8
_1
100
AcDbLine
 62
7
  6
CONTINUOUS
 10
61.6064164681
 20
115.6888792408
 11
61.6025599197
 21
116.2222792408
  0
LINE
  5
284
100
AcDbEntity
  8
_1
100
AcDbLine
 62
7
  6
CONTINUOUS
 10
59.0556709345
 20
143.3983000375
 11
59.0556709345
 21
143.4083000375
  0
LINE
  5
285
100
AcDbEntity
  8
_1
100
AcDbLine
 62
7
  6
CONTINUOUS
 10
59.2936173631
 20
143.3983000375
 11
59.2936173631
 21
143.4083000375
  0
LINE
  5
286
100
AcDbEntity
  8
_1
100
AcDbLine
 62
7
  6
CONTINUOUS
 10
59.4855816488
 20
143.3983000375
 11
59.4855816488
 21
143.4083000375
  0
LINE
  5
287
100
AcDbEntity
  8
_1
100
AcDbLine
 62
7
  6
CONTINUOUS
 10
59.8018852222
 20
32.2515277319
 11
59.8018852222
 21
87.4715277319
  0
LINE
  5
288
100
AcDbEntity
  8
_1
100
AcDbLine
 62
7
  6
CONTINUOUS
 10
59.8413852202
 20
129.7983000375
 11
59.8413852202
 21
129.5836520878
  0
LINE
  5
289
100
AcDbEntity
  8
_1
100
AcDbLine
 62
7
  6
CONTINUOUS
 10
59.8413852202
 20
137.8983000375
 11
59.8413852202
 21
138.0983000375
  0
LINE
  5
28A
100
AcDbEntity
  8
_1
100
AcDbLine
 62
7
  6
CONTINUOUS
 10
59.8413852202
 20
142.5983000375
 11
59.8413852202
 21
142.7983000375
  0
LINE
  5
28B
100
AcDbEntity
  8
_1
100
AcDbLine
 62
7
  6
CONTINUOUS
 10
60.0313852202
 20
138.9483000375
 11
60.0313852202
 21
141.7483000375
  0
LINE
  5
28C
100
AcDbEntity
  8
_1
100
AcDbLine
 62
7
  6
CONTINUOUS
 10
60.2543316488
 20
143.3983000375
 11
60.2543316488
 21
143.4083000375
  0
LINE
  5
28D
100
AcDbEntity
  8
_1
100
AcDbLine
 62
7
  6
CONTINUOUS
 10
60.4467423631
 20
143.3983000375
 11
60.4467423631
 21
143.4083000375
  0
LINE
  5
28E
100
AcDbEntity
  8
_1
100
AcDbLine
 62
7
  6
CONTINUOUS
 10
60.6842423631
 20
143.3983000375
 11
60.6842423631
 21
143.4083000375
  0
LINE
  5
28F
100
AcDbEntity
  8
_1
100
AcDbLine
 62
7
  6
CONTINUOUS
 10
60.8556709345
 20
143.3983000375
 11
60.8556709345
 21
143.4083000375
  0
LINE
  5
290
100
AcDbEntity
  8
_1
100
AcDbLine
 62
7
  6
CONTINUOUS
 10
60.8813852202
 20
14.5940823359
 11
60.8813852202
 21
21.4617277319
  0
LINE
  5
291
100
AcDbEntity
  8
_1
100
AcDbLine
 62
7
  6
CONTINUOUS
 10
61.2623852202
 20
16.3134050339
 11
61.2623852202
 21
19.7424050339
  0
LINE
  5
292
100
AcDbEntity
  8
_1
100
AcDbLine
 62
7
  6
CONTINUOUS
 10
62.0270995059
 20
143.3983000375
 11
62.0270995059
 21
143.4083000375
  0
LINE
  5
293
100
AcDbEntity
  8
_1
100
AcDbLine
 62
7
  6
CONTINUOUS
 10
62.1413852202
 20
142.7983000375
 11
62.1413852202
 21
142.5983000375
  0
LINE
  5
294
100
AcDbEntity
  8
_1
100
AcDbLine
 62
7
  6
CONTINUOUS
 10
62.1413852202
 20
138.0983000375
 11
62.1413852202
 21
137.8983000375
  0
LINE
  5
295
100
AcDbEntity
  8
_1
100
AcDbLine
 62
7
  6
CONTINUOUS
 10
62.3035172546
 20
129.5836520878
 11
62.3035172546
 21
129.7983000375
  0
LINE
  5
296
100
AcDbEntity
  8
_1
100
AcDbLine
 62
7
  6
CONTINUOUS
 10
62.3313852202
 20
141.7483000375
 11
62.3313852202
 21
138.9483000375
  0
LINE
  5
297
100
AcDbEntity
  8
_1
100
AcDbLine
 62
7
  6
CONTINUOUS
 10
62.4535172546
 20
129.5836520878
 11
62.4535172546
 21
129.7983000375
  0
LINE
  5
298
100
AcDbEntity
  8
_1
100
AcDbLine
 62
7
  6
CONTINUOUS
 10
62.7863852202
 20
14.5940823359
 11
62.7863852202
 21
28.3197277319
  0
LINE
  5
299
100
AcDbEntity
  8
_1
100
AcDbLine
 62
7
  6
CONTINUOUS
 10
63.0403852202
 20
14.5940823359
 11
63.0403852202
 21
21.2077277319
  0
LINE
  5
29A
100
AcDbEntity
  8
_1
100
AcDbLine
 62
7
  6
CONTINUOUS
 10
63.1292852202
 20
115.6888792408
 11
63.1292852202
 21
114.7363792408
  0
LINE
  5
29B
100
AcDbEntity
  8
_1
100
AcDbLine
 62
7
  6
CONTINUOUS
 10
63.1413852202
 20
141.5983000375
 11
63.1413852202
 21
139.0983000378
  0
LINE
  5
29C
100
AcDbEntity
  8
_1
100
AcDbLine
 62
7
  6
CONTINUOUS
 10
63.2163852202
 20
129.5836520878
 11
63.2163852202
 21
129.7983000375
  0
LINE
  5
29D
100
AcDbEntity
  8
_1
100
AcDbLine
 62
7
  6
CONTINUOUS
 10
63.3413852202
 20
139.0981242826
 11
63.3413852202
 21
141.5983643633
  0
LINE
  5
29E
100
AcDbEntity
  8
_1
100
AcDbLine
 62
7
  6
CONTINUOUS
 10
63.4226552202
 20
127.6997725773
 11
63.4226552202
 21
128.9712654531
  0
LINE
  5
29F
100
AcDbEntity
  8
_1
100
AcDbLine
 62
7
  6
CONTINUOUS
 10
63.2292415844
 20
115.6888792408
 11
63.1503237449
 21
111.1676792408
  0
LINE
  5
2A0
100
AcDbEntity
  8
_1
100
AcDbLine
 62
7
  6
CONTINUOUS
 10
64.5411761595
 20
111.1676792408
 11
64.4529477884
 21
116.2222792408
  0
LINE
  5
2A1
100
AcDbEntity
  8
_1
100
AcDbLine
 62
7
  6
CONTINUOUS
 10
66.8974209908
 20
127.9261098513
 11
66.8992843953
 21
127.7125848448
  0
LINE
  5
2A2
100
AcDbEntity
  8
_1
100
AcDbLine
 62
7
  6
CONTINUOUS
 10
65.0723852202
 20
129.5832849233
 11
65.0723095652
 21
129.7888328529
  0
LINE
  5
2A3
100
AcDbEntity
  8
_1
100
AcDbLine
 62
7
  6
CONTINUOUS
 10
65.7328042707
 20
117.2459639453
 11
65.7333191427
 21
115.5560821707
  0
LINE
  5
2A4
100
AcDbEntity
  8
_1
100
AcDbLine
 62
7
  6
CONTINUOUS
 10
63.7413852202
 20
147.8983000375
 11
63.7413852202
 21
129.7983000375
  0
LINE
  5
2A5
100
AcDbEntity
  8
_1
100
AcDbLine
 62
7
  6
CONTINUOUS
 10
64.5643852202
 20
14.6466913545
 11
64.5643852202
 21
21.2077277319
  0
LINE
  5
2A6
100
AcDbEntity
  8
_1
100
AcDbLine
 62
7
  6
CONTINUOUS
 10
64.6913852202
 20
116.2222792408
 11
64.6913852202
 21
111.1422792408
  0
LINE
  5
2A7
100
AcDbEntity
  8
_1
100
AcDbLine
 62
7
  6
CONTINUOUS
 10
64.6913852202
 20
14.8480823359
 11
64.6913852202
 21
21.3347277319
  0
LINE
  5
2A8
100
AcDbEntity
  8
_1
100
AcDbLine
 62
7
  6
CONTINUOUS
 10
65.7333191427
 20
110.1180796643
 11
65.7333191427
 21
115.5560821707
  0
LINE
  5
2A9
100
AcDbEntity
  8
_1
100
AcDbLine
 62
7
  6
CONTINUOUS
 10
65.7561546716
 20
110.0952441354
 11
65.7561546716
 21
117.2693143463
  0
LINE
  5
2AA
100
AcDbEntity
  8
_1
100
AcDbLine
 62
7
  6
CONTINUOUS
 10
66.1391852202
 20
124.9121312899
 11
66.1391852202
 21
119.3241312899
  0
LINE
  5
2AB
100
AcDbEntity
  8
_1
100
AcDbLine
 62
7
  6
CONTINUOUS
 10
66.2153852202
 20
14.196713592
 11
66.2153852202
 21
21.3347277319
  0
LINE
  5
2AC
100
AcDbEntity
  8
_1
100
AcDbLine
 62
7
  6
CONTINUOUS
 10
66.3913852222
 20
19.4857277319
 11
66.3913852222
 21
21.2357277319
  0
LINE
  5
2AD
100
AcDbEntity
  8
_1
100
AcDbLine
 62
7
  6
CONTINUOUS
 10
66.6923501148
 20
109.1413143463
 11
66.6923501148
 21
118.2232441354
  0
LINE
  5
2AE
100
AcDbEntity
  8
_1
100
AcDbLine
 62
7
  6
CONTINUOUS
 10
67.1713852222
 20
87.4715277319
 11
67.1713852222
 21
32.2515277319
  0
LINE
  5
2AF
100
AcDbEntity
  8
_1
100
AcDbLine
 62
7
  6
CONTINUOUS
 10
67.5313728217
 20
21.4617277319
 11
67.5313728217
 21
22.9857277319
  0
LINE
  5
2B0
100
AcDbEntity
  8
_1
100
AcDbLine
 62
7
  6
CONTINUOUS
 10
67.7345729382
 20
21.2357277319
 11
67.7345729382
 21
22.9857277319
  0
LINE
  5
2B1
100
AcDbEntity
  8
_1
100
AcDbLine
 62
7
  6
CONTINUOUS
 10
68.0441852202
 20
119.3241312899
 11
68.0441852202
 21
124.9121312899
  0
LINE
  5
2B2
100
AcDbEntity
  8
_1
100
AcDbLine
 62
7
  6
CONTINUOUS
 10
66.7132248367
 20
109.1204396243
 11
66.71600548
 21
118.2468995006
  0
LINE
  5
2B3
100
AcDbEntity
  8
_1
100
AcDbLine
 62
7
  6
CONTINUOUS
 10
68.332260844
 20
127.7125848448
 11
68.3341242485
 21
127.9261098513
  0
LINE
  5
2B4
100
AcDbEntity
  8
_1
100
AcDbLine
 62
7
  6
CONTINUOUS
 10
66.8070049891
 20
120.6763134924
 11
66.8155371252
 21
121.1651192408
  0
LINE
  5
2B5
100
AcDbEntity
  8
_1
100
AcDbLine
 62
7
  6
CONTINUOUS
 10
68.6026385511
 20
127.9377715647
 11
68.5879967514
 21
128.3571856373
  0
LINE
  5
2B6
100
AcDbEntity
  8
_1
100
AcDbLine
 62
7
  6
CONTINUOUS
 10
69.0834625911
 20
99.8926192408
 11
68.9970076545
 21
104.8456192408
  0
LINE
  5
2B7
100
AcDbEntity
  8
_1
100
AcDbLine
 62
7
  6
CONTINUOUS
 10
68.9961209372
 20
104.8964192408
 11
68.6467453838
 21
124.9121312899
  0
LINE
  5
2B8
100
AcDbEntity
  8
_1
100
AcDbLine
 62
7
  6
CONTINUOUS
 10
68.579762875
 20
128.8289040978
 11
68.5879967514
 21
128.3571856373
  0
LINE
  5
2B9
100
AcDbEntity
  8
_1
100
AcDbLine
 62
7
  6
CONTINUOUS
 10
68.6026385511
 20
127.9377731217
 11
68.6119466287
 21
127.4041570215
  0
LINE
  5
2BA
100
AcDbEntity
  8
_1
100
AcDbLine
 62
7
  6
CONTINUOUS
 10
69.5913852202
 20
99.8926192408
 11
69.078633253
 21
129.2890848086
  0
LINE
  5
2BB
100
AcDbEntity
  8
_1
100
AcDbLine
 62
7
  6
CONTINUOUS
 10
68.5713887672
 20
129.7888327477
 11
68.579762875
 21
129.2487578866
  0
LINE
  5
2BC
100
AcDbEntity
  8
_1
100
AcDbLine
 62
7
  6
CONTINUOUS
 10
68.6467453838
 20
124.9121312899
 11
68.6119466287
 21
127.4041554655
  0
LINE
  5
2BD
100
AcDbEntity
  8
_1
100
AcDbLine
 62
7
  6
CONTINUOUS
 10
68.3848854742
 20
104.8456192408
 11
68.3848854742
 21
104.8964192408
  0
LINE
  5
2BE
100
AcDbEntity
  8
_1
100
AcDbLine
 62
7
  6
CONTINUOUS
 10
68.579762875
 20
129.2483446581
 11
68.579762875
 21
128.8289040978
  0
LINE
  5
2BF
100
AcDbEntity
  8
_1
100
AcDbLine
 62
7
  6
CONTINUOUS
 10
68.6007853262
 20
99.6386192408
 11
68.6007853262
 21
99.8926192408
  0
LINE
  5
2C0
100
AcDbEntity
  8
_1
100
AcDbLine
 62
7
  6
CONTINUOUS
 10
69.5913852222
 20
99.4857277319
 11
69.5913852222
 21
19.4857277319
  0
LINE
  5
2C1
100
AcDbEntity
  8
_1
100
AcDbLine
 62
7
  6
CONTINUOUS
 10
55.5480691314
 20
116.2222792408
 11
56.4363852202
 21
114.3172792408
  0
LINE
  5
2C2
100
AcDbEntity
  8
_1
100
AcDbLine
 62
7
  6
CONTINUOUS
 10
47.0913852222
 20
99.4857277319
 11
69.5913852222
 21
99.4857277319
  0
LINE
  5
2C3
100
AcDbEntity
  8
_1
100
AcDbLine
 62
7
  6
CONTINUOUS
 10
68.6007853262
 20
99.6386192408
 11
48.0819851142
 21
99.6386192408
  0
LINE
  5
2C4
100
AcDbEntity
  8
_1
100
AcDbLine
 62
7
  6
CONTINUOUS
 10
47.0913852202
 20
99.8926192408
 11
69.5913852202
 21
99.8926192408
  0
LINE
  5
2C5
100
AcDbEntity
  8
_1
100
AcDbLine
 62
7
  6
CONTINUOUS
 10
50.9443501148
 20
117.2693143463
 11
50.9677005157
 21
117.2459639453
  0
LINE
  5
2C6
100
AcDbEntity
  8
_1
100
AcDbLine
 62
7
  6
CONTINUOUS
 10
49.9904203256
 20
118.2232441354
 11
49.9667649604
 21
118.2468995006
  0
LINE
  5
2C7
100
AcDbEntity
  8
_1
100
AcDbLine
 62
7
  6
CONTINUOUS
 10
69.5049302836
 20
104.8456192408
 11
47.1778401568
 21
104.8456192408
  0
LINE
  5
2C8
100
AcDbEntity
  8
_1
100
AcDbLine
 62
7
  6
CONTINUOUS
 10
47.1787268741
 20
104.8964192408
 11
69.5040435663
 21
104.8964192408
  0
LINE
  5
2C9
100
AcDbEntity
  8
_1
100
AcDbLine
 62
7
  6
CONTINUOUS
 10
66.6923501148
 20
109.1413143463
 11
66.7132248367
 21
109.1204396243
  0
LINE
  5
2CA
100
AcDbEntity
  8
_1
100
AcDbLine
 62
7
  6
CONTINUOUS
 10
65.7561546716
 20
110.0952441354
 11
65.7333191427
 21
110.1180796643
  0
LINE
  5
2CB
100
AcDbEntity
  8
_1
100
AcDbLine
 62
7
  6
CONTINUOUS
 10
49.9695456037
 20
109.1204396243
 11
50.3185001079
 21
109.1204396243
  0
LINE
  5
2CC
100
AcDbEntity
  8
_1
100
AcDbLine
 62
7
  6
CONTINUOUS
 10
66.3642703325
 20
109.1204396243
 11
66.7132248367
 21
109.1204396243
  0
LINE
  5
2CD
100
AcDbEntity
  8
_1
100
AcDbLine
 62
7
  6
CONTINUOUS
 10
49.9904203256
 20
109.1413143463
 11
66.6923501148
 21
109.1413143463
  0
LINE
  5
2CE
100
AcDbEntity
  8
_1
100
AcDbLine
 62
7
  6
CONTINUOUS
 10
50.9443501148
 20
110.0952441354
 11
65.7561546716
 21
110.0952441354
  0
LINE
  5
2CF
100
AcDbEntity
  8
_1
100
AcDbLine
 62
7
  6
CONTINUOUS
 10
51.9913852202
 20
111.1422792408
 11
64.6913852202
 21
111.1422792408
  0
LINE
  5
2D0
100
AcDbEntity
  8
_1
100
AcDbLine
 62
7
  6
CONTINUOUS
 10
51.9913852202
 20
111.1676792408
 11
54.2099016969
 21
111.1676792408
  0
LINE
  5
2D1
100
AcDbEntity
  8
_1
100
AcDbLine
 62
7
  6
CONTINUOUS
 10
62.4728687435
 20
111.1676792408
 11
64.6913852202
 21
111.1676792408
  0
LINE
  5
2D2
100
AcDbEntity
  8
_1
100
AcDbLine
 62
7
  6
CONTINUOUS
 10
51.8152409766
 20
129.5836520878
 11
51.6103802256
 21
129.78851284
  0
LINE
  5
2D3
100
AcDbEntity
  8
_1
100
AcDbLine
 62
7
  6
CONTINUOUS
 10
60.2463852202
 20
114.3172792408
 11
56.4363852202
 21
114.3172792408
  0
LINE
  5
2D4
100
AcDbEntity
  8
_1
100
AcDbLine
 62
7
  6
CONTINUOUS
 10
63.1292852202
 20
114.7363792408
 11
60.4418147597
 21
114.7363792408
  0
LINE
  5
2D5
100
AcDbEntity
  8
_1
100
AcDbLine
 62
7
  6
CONTINUOUS
 10
56.2409556807
 20
114.7363792408
 11
54.2721935871
 21
114.7363792408
  0
LINE
  5
2D6
100
AcDbEntity
  8
_1
100
AcDbLine
 62
7
  6
CONTINUOUS
 10
55.7967976363
 20
115.6888792408
 11
54.2888195364
 21
115.6888792408
  0
LINE
  5
2D7
100
AcDbEntity
  8
_1
100
AcDbLine
 62
7
  6
CONTINUOUS
 10
60.8859728041
 20
115.6888792408
 11
64.46225832
 21
115.6888792408
  0
LINE
  5
2D8
100
AcDbEntity
  8
_1
100
AcDbLine
 62
7
  6
CONTINUOUS
 10
55.7257323492
 20
115.8412792408
 11
60.9570380912
 21
115.8412792408
  0
LINE
  5
2D9
100
AcDbEntity
  8
_1
100
AcDbLine
 62
7
  6
CONTINUOUS
 10
64.6913852202
 20
116.2222792408
 11
51.9913852202
 21
116.2222792408
  0
LINE
  5
2DA
100
AcDbEntity
  8
_1
100
AcDbLine
 62
7
  6
CONTINUOUS
 10
65.7328042707
 20
117.2459639453
 11
65.5585050195
 21
117.2459639453
  0
LINE
  5
2DB
100
AcDbEntity
  8
_1
100
AcDbLine
 62
7
  6
CONTINUOUS
 10
51.1242654209
 20
117.2459639453
 11
50.9677005157
 21
117.2459639453
  0
LINE
  5
2DC
100
AcDbEntity
  8
_1
100
AcDbLine
 62
7
  6
CONTINUOUS
 10
65.7561546716
 20
117.2693143463
 11
50.9443501148
 21
117.2693143463
  0
LINE
  5
2DD
100
AcDbEntity
  8
_1
100
AcDbLine
 62
7
  6
CONTINUOUS
 10
66.6923501148
 20
118.2232441354
 11
49.9904203256
 21
118.2232441354
  0
LINE
  5
2DE
100
AcDbEntity
  8
_1
100
AcDbLine
 62
7
  6
CONTINUOUS
 10
66.71600548
 20
118.2468995006
 11
65.4529345281
 21
118.2468995006
  0
LINE
  5
2DF
100
AcDbEntity
  8
_1
100
AcDbLine
 62
7
  6
CONTINUOUS
 10
51.2298359123
 20
118.2468995006
 11
49.9667649604
 21
118.2468995006
  0
LINE
  5
2E0
100
AcDbEntity
  8
_1
100
AcDbLine
 62
7
  6
CONTINUOUS
 10
68.0441852202
 20
119.3241312899
 11
66.1391852202
 21
119.3241312899
  0
LINE
  5
2E1
100
AcDbEntity
  8
_1
100
AcDbLine
 62
7
  6
CONTINUOUS
 10
48.6385852202
 20
119.3241312899
 11
50.5435852202
 21
119.3241312899
  0
LINE
  5
2E2
100
AcDbEntity
  8
_1
100
AcDbLine
 62
7
  6
CONTINUOUS
 10
65.2564674286
 20
120.0703792408
 11
51.4263030123
 21
120.0703792408
  0
LINE
  5
2E3
100
AcDbEntity
  8
_1
100
AcDbLine
 62
7
  6
CONTINUOUS
 10
68.0441852202
 20
120.6763134924
 11
66.1391852202
 21
120.6763134924
  0
LINE
  5
2E4
100
AcDbEntity
  8
_1
100
AcDbLine
 62
7
  6
CONTINUOUS
 10
48.6385852202
 20
120.6763134924
 11
50.5435852202
 21
120.6763134924
  0
LINE
  5
2E5
100
AcDbEntity
  8
_1
100
AcDbLine
 62
7
  6
CONTINUOUS
 10
48.6385852202
 20
121.1651192408
 11
49.8672333152
 21
121.1651192408
  0
LINE
  5
2E6
100
AcDbEntity
  8
_1
100
AcDbLine
 62
7
  6
CONTINUOUS
 10
66.8155371252
 20
121.1651192408
 11
68.0441852202
 21
121.1651192408
  0
LINE
  5
2E7
100
AcDbEntity
  8
_1
100
AcDbLine
 62
7
  6
CONTINUOUS
 10
57.8555152874
 20
138.398287004
 11
57.3313852202
 21
138.9483000375
  0
LINE
  5
2E8
100
AcDbEntity
  8
_1
100
AcDbLine
 62
7
  6
CONTINUOUS
 10
68.0441852202
 20
123.9943922781
 11
66.1391852202
 21
123.9943922781
  0
LINE
  5
2E9
100
AcDbEntity
  8
_1
100
AcDbLine
 62
7
  6
CONTINUOUS
 10
48.6385852202
 20
123.9943922781
 11
50.5435852202
 21
123.9943922781
  0
LINE
  5
2EA
100
AcDbEntity
  8
_1
100
AcDbLine
 62
7
  6
CONTINUOUS
 10
48.0360250566
 20
124.9121312899
 11
68.6467453838
 21
124.9121312899
  0
LINE
  5
2EB
100
AcDbEntity
  8
_1
100
AcDbLine
 62
7
  6
CONTINUOUS
 10
62.8555152874
 20
138.398287004
 11
62.3313852202
 21
138.9483000375
  0
LWPOLYLINE
  5
2EC
100
AcDbEntity
  8
_1
100
AcDbPolyline
 62
7
  6
CONTINUOUS
 90
3
 70
0
 10
63.4609852697
 20
129.3924575858
 10
63.4617944746
 20
129.3926443342
 10
63.4097942101
 20
129.3859425625
  0
LWPOLYLINE
  5
2ED
100
AcDbEntity
  8
_1
100
AcDbPolyline
 62
7
  6
CONTINUOUS
 90
20
 70
0
 10
63.4097942101
 20
129.3859425625
 10
63.1998940786
 20
129.3664847018
 10
62.8453288706
 20
129.3438515191
 10
62.3279026939
 20
129.3201283499
 10
61.6202632869
 20
129.2967856082
 10
60.6760387297
 20
129.2756818486
 10
59.535753182
 20
129.2610141535
 10
58.4143383641
 20
129.2560482302
 10
57.4353853502
 20
129.2588936911
 10
56.5761726102
 20
129.2670415639
 10
55.8406819101
 20
129.2787296356
 10
55.5154255895
 20
129.2854852404
 10
54.945195465
 20
129.3001266599
 10
54.4727255929
 20
129.3156404133
 10
54.0870028104
 20
129.3314563202
 10
53.7800611536
 20
129.3470440118
 10
53.5435915911
 20
129.3619974995
 10
53.3691604684
 20
129.3760167482
 10
53.2547612827
 20
129.3881579821
 10
53.2209228341
 20
129.3928982153
  0
LINE
  5
2EE
100
AcDbEntity
  8
_1
100
AcDbLine
 62
7
  6
CONTINUOUS
 10
48.0708238117
 20
127.4041570215
 11
68.6119466287
 21
127.4041570215
  0
LINE
  5
2EF
100
AcDbEntity
  8
_1
100
AcDbLine
 62
7
  6
CONTINUOUS
 10
68.332260844
 20
127.7125848448
 11
66.8992843953
 21
127.7125848448
  0
LINE
  5
2F0
100
AcDbEntity
  8
_1
100
AcDbLine
 62
7
  6
CONTINUOUS
 10
49.7834860451
 20
127.7125848448
 11
48.3505095964
 21
127.7125848448
  0
LINE
  5
2F1
100
AcDbEntity
  8
_1
100
AcDbLine
 62
7
  6
CONTINUOUS
 10
48.3486461919
 20
127.9261098513
 11
49.7853494496
 21
127.9261098513
  0
LINE
  5
2F2
100
AcDbEntity
  8
_1
100
AcDbLine
 62
7
  6
CONTINUOUS
 10
66.8974209908
 20
127.9261098513
 11
68.3341242485
 21
127.9261098513
  0
LINE
  5
2F3
100
AcDbEntity
  8
_1
100
AcDbLine
 62
7
  6
CONTINUOUS
 10
68.6026385511
 20
127.9377731217
 11
63.4226552202
 21
127.9377731217
  0
LINE
  5
2F4
100
AcDbEntity
  8
_1
100
AcDbLine
 62
7
  6
CONTINUOUS
 10
53.2601152202
 20
127.9377731217
 11
48.0801318893
 21
127.9377731217
  0
LINE
  5
2F5
100
AcDbEntity
  8
_1
100
AcDbLine
 62
7
  6
CONTINUOUS
 10
68.5879967514
 20
128.3571856373
 11
63.4226552202
 21
128.3571856373
  0
LINE
  5
2F6
100
AcDbEntity
  8
_1
100
AcDbLine
 62
7
  6
CONTINUOUS
 10
53.2601152202
 20
128.3571856373
 11
48.094773689
 21
128.3571856373
  0
LINE
  5
2F7
100
AcDbEntity
  8
_1
100
AcDbLine
 62
7
  6
CONTINUOUS
 10
48.1030075654
 20
128.8289040978
 11
53.2601152202
 21
128.8289040978
  0
LINE
  5
2F8
100
AcDbEntity
  8
_1
100
AcDbLine
 62
7
  6
CONTINUOUS
 10
63.4226552202
 20
128.8289040978
 11
68.579762875
 21
128.8289040978
  0
LINE
  5
2F9
100
AcDbEntity
  8
_1
100
AcDbLine
 62
7
  6
CONTINUOUS
 10
48.1030075654
 20
129.2487578866
 11
68.579762875
 21
129.2487578866
  0
LINE
  5
2FA
100
AcDbEntity
  8
_1
100
AcDbLine
 62
7
  6
CONTINUOUS
 10
65.0723852202
 20
129.5836520878
 11
51.6103852202
 21
129.5836520878
  0
LINE
  5
2FB
100
AcDbEntity
  8
_1
100
AcDbLine
 62
7
  6
CONTINUOUS
 10
68.5713887672
 20
129.7888327477
 11
65.0727101224
 21
129.7888327477
  0
LINE
  5
2FC
100
AcDbEntity
  8
_1
100
AcDbLine
 62
7
  6
CONTINUOUS
 10
51.610060318
 20
129.7888327477
 11
48.1113816733
 21
129.7888327477
  0
LINE
  5
2FD
100
AcDbEntity
  8
_1
100
AcDbLine
 62
7
  6
CONTINUOUS
 10
52.9413852202
 20
129.7983000375
 11
63.7413852202
 21
129.7983000375
  0
LINE
  5
2FE
100
AcDbEntity
  8
_1
100
AcDbLine
 62
7
  6
CONTINUOUS
 10
54.1850851951
 20
142.3528000555
 11
55.0313852202
 21
141.7483000375
  0
LINE
  5
2FF
100
AcDbEntity
  8
_1
100
AcDbLine
 62
7
  6
CONTINUOUS
 10
59.1850851951
 20
142.3528000555
 11
60.0313852202
 21
141.7483000375
  0
LINE
  5
300
100
AcDbEntity
  8
_1
100
AcDbLine
 62
7
  6
CONTINUOUS
 10
54.8412089777
 20
137.8983000375
 11
57.1414495713
 21
137.8983000375
  0
LINE
  5
301
100
AcDbEntity
  8
_1
100
AcDbLine
 62
7
  6
CONTINUOUS
 10
59.8412089727
 20
137.8983000375
 11
62.1414495712
 21
137.8983000375
  0
LINE
  5
302
100
AcDbEntity
  8
_1
100
AcDbLine
 62
7
  6
CONTINUOUS
 10
62.1413852202
 20
138.0983000375
 11
59.8413852205
 21
138.0983000375
  0
LINE
  5
303
100
AcDbEntity
  8
_1
100
AcDbLine
 62
7
  6
CONTINUOUS
 10
57.1413852202
 20
138.0983000375
 11
54.8413852208
 21
138.0983000375
  0
LINE
  5
304
100
AcDbEntity
  8
_1
100
AcDbLine
 62
7
  6
CONTINUOUS
 10
62.3313852202
 20
138.9483000375
 11
60.0313852202
 21
138.9483000375
  0
LINE
  5
305
100
AcDbEntity
  8
_1
100
AcDbLine
 62
7
  6
CONTINUOUS
 10
57.3313852202
 20
138.9483000375
 11
55.0313852202
 21
138.9483000375
  0
LINE
  5
306
100
AcDbEntity
  8
_1
100
AcDbLine
 62
7
  6
CONTINUOUS
 10
63.3413852202
 20
139.0983000376
 11
63.1413852202
 21
139.0983000376
  0
LINE
  5
307
100
AcDbEntity
  8
_1
100
AcDbLine
 62
7
  6
CONTINUOUS
 10
58.8413852202
 20
139.0983000375
 11
58.6413852202
 21
139.0983000375
  0
LINE
  5
308
100
AcDbEntity
  8
_1
100
AcDbLine
 62
7
  6
CONTINUOUS
 10
58.3413852202
 20
139.0983000376
 11
58.1413852202
 21
139.0983000376
  0
LINE
  5
309
100
AcDbEntity
  8
_1
100
AcDbLine
 62
7
  6
CONTINUOUS
 10
53.8413852202
 20
139.0983000375
 11
53.6413852202
 21
139.0983000375
  0
LINE
  5
30A
100
AcDbEntity
  8
_1
100
AcDbLine
 62
7
  6
CONTINUOUS
 10
53.6413852202
 20
141.5983000375
 11
53.8413852202
 21
141.5983000375
  0
LINE
  5
30B
100
AcDbEntity
  8
_1
100
AcDbLine
 62
7
  6
CONTINUOUS
 10
58.1413852202
 20
141.5983000375
 11
58.3413852202
 21
141.5983000375
  0
LINE
  5
30C
100
AcDbEntity
  8
_1
100
AcDbLine
 62
7
  6
CONTINUOUS
 10
58.6413852202
 20
141.5983000375
 11
58.8413852202
 21
141.5983000375
  0
LINE
  5
30D
100
AcDbEntity
  8
_1
100
AcDbLine
 62
7
  6
CONTINUOUS
 10
63.1413852202
 20
141.5983000375
 11
63.3413852202
 21
141.5983000375
  0
LINE
  5
30E
100
AcDbEntity
  8
_1
100
AcDbLine
 62
7
  6
CONTINUOUS
 10
55.0313852202
 20
141.7483000375
 11
57.3313852202
 21
141.7483000375
  0
LINE
  5
30F
100
AcDbEntity
  8
_1
100
AcDbLine
 62
7
  6
CONTINUOUS
 10
60.0313852202
 20
141.7483000375
 11
62.3313852202
 21
141.7483000375
  0
LINE
  5
310
100
AcDbEntity
  8
_1
100
AcDbLine
 62
7
  6
CONTINUOUS
 10
54.8413852202
 20
142.5983000375
 11
57.1413852202
 21
142.5983000375
  0
LINE
  5
311
100
AcDbEntity
  8
_1
100
AcDbLine
 62
7
  6
CONTINUOUS
 10
59.8413852202
 20
142.5983000375
 11
62.1413852202
 21
142.5983000375
  0
LINE
  5
312
100
AcDbEntity
  8
_1
100
AcDbLine
 62
7
  6
CONTINUOUS
 10
62.1415609496
 20
142.7983000375
 11
59.8413208936
 21
142.7983000375
  0
LINE
  5
313
100
AcDbEntity
  8
_1
100
AcDbLine
 62
7
  6
CONTINUOUS
 10
57.1415609503
 20
142.7983000375
 11
54.8413208942
 21
142.7983000375
  0
LINE
  5
314
100
AcDbEntity
  8
_1
100
AcDbLine
 62
7
  6
CONTINUOUS
 10
52.9413852202
 20
143.3983000375
 11
63.7413852202
 21
143.3983000375
  0
LINE
  5
315
100
AcDbEntity
  8
_1
100
AcDbLine
 62
7
  6
CONTINUOUS
 10
54.5413852202
 20
143.4083000375
 11
56.1699566488
 21
143.4083000375
  0
LINE
  5
316
100
AcDbEntity
  8
_1
100
AcDbLine
 62
7
  6
CONTINUOUS
 10
56.4842423631
 20
143.4083000375
 11
57.1699566488
 21
143.4083000375
  0
LINE
  5
317
100
AcDbEntity
  8
_1
100
AcDbLine
 62
7
  6
CONTINUOUS
 10
59.0556709345
 20
143.4083000375
 11
60.6842423631
 21
143.4083000375
  0
LINE
  5
318
100
AcDbEntity
  8
_1
100
AcDbLine
 62
7
  6
CONTINUOUS
 10
60.8556202741
 20
143.4083000375
 11
62.0270995059
 21
143.4083000375
  0
LINE
  5
319
100
AcDbEntity
  8
_1
100
AcDbLine
 62
7
  6
CONTINUOUS
 10
52.9413852202
 20
147.7111622452
 11
63.7413852202
 21
147.7111622452
  0
LINE
  5
31A
100
AcDbEntity
  8
_1
100
AcDbLine
 62
7
  6
CONTINUOUS
 10
63.7413852202
 20
147.8983000375
 11
52.9413852202
 21
147.8983000375
  0
ARC
  5
31B
100
AcDbEntity
  8
_1
100
AcDbCircle
 62
7
  6
CONTINUOUS
 10
-912.8202238392
 20
16.9458863802
 40
983.5133053966
100
AcDbArc
 50
5.1305201846
 51
5.3776341584
  0
ARC
  5
31C
100
AcDbEntity
  8
_1
100
AcDbCircle
 62
7
  6
CONTINUOUS
 10
-533.7024140439
 20
54.6144542858
 40
602.5248706954
100
AcDbArc
 50
6.0622926625
 51
6.2366960872
  0
ARC
  5
31D
100
AcDbEntity
  8
_1
100
AcDbCircle
 62
7
  6
CONTINUOUS
 10
53.1961352222
 20
87.4715277319
 40
3.68475
100
AcDbArc
 50
0.0
 51
180.0
  0
ARC
  5
31E
100
AcDbEntity
  8
_1
100
AcDbCircle
 62
7
  6
CONTINUOUS
 10
53.1961352222
 20
32.2515277319
 40
3.68475
100
AcDbArc
 50
180.0
 51
360.0
  0
ARC
  5
31F
100
AcDbEntity
  8
_1
100
AcDbCircle
 62
7
  6
CONTINUOUS
 10
52.2453852202
 20
14.8480823359
 40
1.778
100
AcDbArc
 50
180.0
 51
270.0
  0
ARC
  5
320
100
AcDbEntity
  8
_1
100
AcDbCircle
 62
7
  6
CONTINUOUS
 10
53.8963852202
 20
21.2077277319
 40
1.778
100
AcDbArc
 50
90.0
 51
180.0
  0
ARC
  5
321
100
AcDbEntity
  8
_1
100
AcDbCircle
 62
7
  6
CONTINUOUS
 10
50.3403852202
 20
21.3347277319
 40
1.651
100
AcDbArc
 50
0.0
 51
90.0
  0
ARC
  5
322
100
AcDbEntity
  8
_1
100
AcDbCircle
 62
7
  6
CONTINUOUS
 10
56.8173852202
 20
18.8401532678
 40
1.016
100
AcDbArc
 50
90.0
 51
180.0
  0
ARC
  5
323
100
AcDbEntity
  8
_1
100
AcDbCircle
 62
7
  6
CONTINUOUS
 10
55.9283852202
 20
19.7424050339
 40
0.508
100
AcDbArc
 50
102.8796346791
 51
180.0
  0
ARC
  5
324
100
AcDbEntity
  8
_1
100
AcDbCircle
 62
7
  6
CONTINUOUS
 10
55.9283852202
 20
16.3134050339
 40
0.508
100
AcDbArc
 50
180.0
 51
257.1196688988
  0
ARC
  5
325
100
AcDbEntity
  8
_1
100
AcDbCircle
 62
7
  6
CONTINUOUS
 10
52.2453852202
 20
14.8480823359
 40
0.254
100
AcDbArc
 50
180.0
 51
270.0
  0
ARC
  5
326
100
AcDbEntity
  8
_1
100
AcDbCircle
 62
7
  6
CONTINUOUS
 10
53.8963852202
 20
21.2077277319
 40
0.254
100
AcDbArc
 50
90.0
 51
180.0000000001
  0
ARC
  5
327
100
AcDbEntity
  8
_1
100
AcDbCircle
 62
7
  6
CONTINUOUS
 10
50.3403852202
 20
21.3347277319
 40
0.127
100
AcDbArc
 50
0.0
 51
90.0
  0
ARC
  5
328
100
AcDbEntity
  8
_1
100
AcDbCircle
 62
7
  6
CONTINUOUS
 10
57.1413852202
 20
139.0983000375
 40
1.2000747175
100
AcDbArc
 50
270.0030725382
 51
359.991608332
  0
ARC
  5
329
100
AcDbEntity
  8
_1
100
AcDbCircle
 62
7
  6
CONTINUOUS
 10
54.8413852202
 20
141.5983000375
 40
1.2000747145
100
AcDbArc
 50
90.003071341
 51
179.9916095585
  0
ARC
  5
32A
100
AcDbEntity
  8
_1
100
AcDbCircle
 62
7
  6
CONTINUOUS
 10
57.1413852202
 20
141.5983000375
 40
1.2000747146
100
AcDbArc
 50
0.0030713908
 51
89.9916095045
  0
ARC
  5
32B
100
AcDbEntity
  8
_1
100
AcDbCircle
 62
7
  6
CONTINUOUS
 10
54.8413852202
 20
139.0983000375
 40
1.2000747131
100
AcDbArc
 50
180.0030239556
 51
269.9915850423
  0
ARC
  5
32C
100
AcDbEntity
  8
_1
100
AcDbCircle
 62
7
  6
CONTINUOUS
 10
57.1413852202
 20
141.5983000375
 40
1.0
100
AcDbArc
 50
0.0
 51
90.0
  0
ARC
  5
32D
100
AcDbEntity
  8
_1
100
AcDbCircle
 62
7
  6
CONTINUOUS
 10
57.1413852202
 20
139.0983000375
 40
1.0
100
AcDbArc
 50
270.0
 51
360.0
  0
ARC
  5
32E
100
AcDbEntity
  8
_1
100
AcDbCircle
 62
7
  6
CONTINUOUS
 10
54.8413852202
 20
139.0983000375
 40
1.0
100
AcDbArc
 50
180.0
 51
270.0000000336
  0
ARC
  5
32F
100
AcDbEntity
  8
_1
100
AcDbCircle
 62
7
  6
CONTINUOUS
 10
54.8413852202
 20
141.5983000375
 40
1.0
100
AcDbArc
 50
90.0
 51
180.0
  0
ARC
  5
330
100
AcDbEntity
  8
_1
100
AcDbCircle
 62
7
  6
CONTINUOUS
 10
53.0317078001
 20
128.6929559948
 40
0.7575305187
100
AcDbArc
 50
74.8953295462
 51
89.7799321137
  0
ARC
  5
331
100
AcDbEntity
  8
_1
100
AcDbCircle
 62
7
  6
CONTINUOUS
 10
48.1033519673
 20
128.7406251175
 40
0.5081944867
100
AcDbArc
 50
90.040056437
 51
135.368065408
  0
ARC
  5
332
100
AcDbEntity
  8
_1
100
AcDbCircle
 62
7
  6
CONTINUOUS
 10
48.1120722478
 20
129.2809058643
 40
0.5080009062
100
AcDbArc
 50
90.0779857912
 51
179.0711579782
  0
ARC
  5
333
100
AcDbEntity
  8
_1
100
AcDbCircle
 62
7
  6
CONTINUOUS
 10
48.0799214637
 20
127.4299529091
 40
0.5078058359
100
AcDbArc
 50
89.9762582657
 51
178.9780007331
  0
ARC
  5
334
100
AcDbEntity
  8
_1
100
AcDbCircle
 62
7
  6
CONTINUOUS
 10
48.0704120422
 20
126.896510229
 40
0.5076201903
100
AcDbArc
 50
89.9535252995
 51
178.9569109281
  0
ARC
  5
335
100
AcDbEntity
  8
_1
100
AcDbCircle
 62
7
  6
CONTINUOUS
 10
48.1028778089
 20
128.7411360543
 40
0.5074981016
100
AcDbArc
 50
135.371506606
 51
179.0499588548
  0
ARC
  5
336
100
AcDbEntity
  8
_1
100
AcDbCircle
 62
7
  6
CONTINUOUS
 10
58.3413946991
 20
-2367.3394721288
 40
2477.4685793132
100
AcDbArc
 50
89.8290486083
 51
90.170540466
  0
ARC
  5
337
100
AcDbEntity
  8
_1
100
AcDbCircle
 62
7
  6
CONTINUOUS
 10
58.3413852202
 20
-2357.8413663051
 40
2476.0984782909
100
AcDbArc
 50
89.8354417949
 51
90.1645582051
  0
ARC
  5
338
100
AcDbEntity
  8
_1
100
AcDbCircle
 62
7
  6
CONTINUOUS
 10
1029.5029942681
 20
16.9458863811
 40
983.513305385
100
AcDbArc
 50
174.6223658416
 51
174.8694798154
  0
ARC
  5
339
100
AcDbEntity
  8
_1
100
AcDbCircle
 62
7
  6
CONTINUOUS
 10
650.3851845303
 20
54.6144542825
 40
602.5248707415
100
AcDbArc
 50
173.7633039129
 51
173.9377073376
  0
ARC
  5
33A
100
AcDbEntity
  8
_1
100
AcDbCircle
 62
7
  6
CONTINUOUS
 10
63.4866352222
 20
32.2515277319
 40
3.68475
100
AcDbArc
 50
180.0
 51
360.0
  0
ARC
  5
33B
100
AcDbEntity
  8
_1
100
AcDbCircle
 62
7
  6
CONTINUOUS
 10
63.4866352222
 20
87.4715277319
 40
3.68475
100
AcDbArc
 50
0.0
 51
180.0
  0
ARC
  5
33C
100
AcDbEntity
  8
_1
100
AcDbCircle
 62
7
  6
CONTINUOUS
 10
58.3413852222
 20
26.7957277319
 40
1.9812
100
AcDbArc
 50
52.8199056083
 51
127.1231360182
  0
ARC
  5
33D
100
AcDbEntity
  8
_1
100
AcDbCircle
 62
7
  6
CONTINUOUS
 10
64.4373852202
 20
14.8480823359
 40
1.778
100
AcDbArc
 50
270.0
 51
360.0
  0
ARC
  5
33E
100
AcDbEntity
  8
_1
100
AcDbCircle
 62
7
  6
CONTINUOUS
 10
62.7863852202
 20
21.2077277319
 40
1.778
100
AcDbArc
 50
0.0
 51
90.0
  0
ARC
  5
33F
100
AcDbEntity
  8
_1
100
AcDbCircle
 62
7
  6
CONTINUOUS
 10
66.3423852202
 20
21.3347277319
 40
1.651
100
AcDbArc
 50
90.0
 51
180.0
  0
CIRCLE
  5
340
100
AcDbEntity
  8
_1
100
AcDbCircle
 62
7
  6
CONTINUOUS
 10
58.3413852202
 20
17.9511532678
 40
1.27
  0
ARC
  5
341
100
AcDbEntity
  8
_1
100
AcDbCircle
 62
7
  6
CONTINUOUS
 10
59.8653852202
 20
18.8401532678
 40
1.016
100
AcDbArc
 50
0.0
 51
90.0
  0
ARC
  5
342
100
AcDbEntity
  8
_1
100
AcDbCircle
 62
7
  6
CONTINUOUS
 10
60.7543852202
 20
19.7424050339
 40
0.508
100
AcDbArc
 50
0.0
 51
77.1196688988
  0
ARC
  5
343
100
AcDbEntity
  8
_1
100
AcDbCircle
 62
7
  6
CONTINUOUS
 10
60.7543852202
 20
16.3134050339
 40
0.508
100
AcDbArc
 50
282.8796346791
 51
360.0
  0
ARC
  5
344
100
AcDbEntity
  8
_1
100
AcDbCircle
 62
7
  6
CONTINUOUS
 10
64.4373852202
 20
14.8480823359
 40
0.254
100
AcDbArc
 50
270.0
 51
359.9999999999
  0
ARC
  5
345
100
AcDbEntity
  8
_1
100
AcDbCircle
 62
7
  6
CONTINUOUS
 10
62.7863852202
 20
21.2077277319
 40
0.254
100
AcDbArc
 50
0.0
 51
89.9999999999
  0
ARC
  5
346
100
AcDbEntity
  8
_1
100
AcDbCircle
 62
7
  6
CONTINUOUS
 10
66.3423852202
 20
21.3347277319
 40
0.127
100
AcDbArc
 50
90.0
 51
180.0000000001
  0
ARC
  5
347
100
AcDbEntity
  8
_1
100
AcDbCircle
 62
7
  6
CONTINUOUS
 10
58.3413852202
 20
2589.6633781824
 40
2480.5559128381
100
AcDbArc
 50
269.8146874031
 51
270.1853125969
  0
ARC
  5
348
100
AcDbEntity
  8
_1
100
AcDbCircle
 62
7
  6
CONTINUOUS
 10
58.3413852202
 20
2594.944433489
 40
2477.7089806508
100
AcDbArc
 50
269.8331074825
 51
270.1668925175
  0
ARC
  5
349
100
AcDbEntity
  8
_1
100
AcDbCircle
 62
7
  6
CONTINUOUS
 10
62.7684639466
 20
136.0267137331
 40
6.6762382088
100
AcDbArc
 50
274.7427060684
 51
275.4971077275
  0
ARC
  5
34A
100
AcDbEntity
  8
_1
100
AcDbCircle
 62
7
  6
CONTINUOUS
 10
63.308722122
 20
127.5542561061
 40
1.9282845842
100
AcDbArc
 50
82.5870852403
 51
82.941243865
  0
ARC
  5
34B
100
AcDbEntity
  8
_1
100
AcDbCircle
 62
7
  6
CONTINUOUS
 10
62.1413852202
 20
139.0983000375
 40
1.2000747175
100
AcDbArc
 50
270.003072535
 51
359.9916083204
  0
ARC
  5
34C
100
AcDbEntity
  8
_1
100
AcDbCircle
 62
7
  6
CONTINUOUS
 10
59.8413852202
 20
141.5983000375
 40
1.2000747145
100
AcDbArc
 50
90.0030713693
 51
179.9916095299
  0
ARC
  5
34D
100
AcDbEntity
  8
_1
100
AcDbCircle
 62
7
  6
CONTINUOUS
 10
62.1413852202
 20
141.5983000375
 40
1.2000747146
100
AcDbArc
 50
0.0030713296
 51
89.9916095371
  0
ARC
  5
34E
100
AcDbEntity
  8
_1
100
AcDbCircle
 62
7
  6
CONTINUOUS
 10
59.8413852202
 20
139.0983000375
 40
1.2000747131
100
AcDbArc
 50
180.0030234863
 51
269.9915848007
  0
ARC
  5
34F
100
AcDbEntity
  8
_1
100
AcDbCircle
 62
7
  6
CONTINUOUS
 10
62.1413852202
 20
141.5983000375
 40
1.0
100
AcDbArc
 50
0.0
 51
90.0
  0
ARC
  5
350
100
AcDbEntity
  8
_1
100
AcDbCircle
 62
7
  6
CONTINUOUS
 10
62.1413852202
 20
139.0983000375
 40
1.0
100
AcDbArc
 50
270.0
 51
360.0
  0
ARC
  5
351
100
AcDbEntity
  8
_1
100
AcDbCircle
 62
7
  6
CONTINUOUS
 10
59.8413852202
 20
139.0983000375
 40
1.0
100
AcDbArc
 50
180.0
 51
270.0000000151
  0
ARC
  5
352
100
AcDbEntity
  8
_1
100
AcDbCircle
 62
7
  6
CONTINUOUS
 10
59.8413852202
 20
141.5983000375
 40
1.0
100
AcDbArc
 50
90.0
 51
180.0
  0
ARC
  5
353
100
AcDbEntity
  8
_1
100
AcDbCircle
 62
7
  6
CONTINUOUS
 10
63.6459645122
 20
128.6597823938
 40
0.7558099734
100
AcDbArc
 50
89.8400223603
 51
104.1869987697
  0
ARC
  5
354
100
AcDbEntity
  8
_1
100
AcDbCircle
 62
7
  6
CONTINUOUS
 10
68.5794195186
 20
128.7406221873
 40
0.5081974222
100
AcDbArc
 50
46.2841868128
 51
89.9612483318
  0
ARC
  5
355
100
AcDbEntity
  8
_1
100
AcDbCircle
 62
7
  6
CONTINUOUS
 10
68.5706981925
 20
129.2809058701
 40
0.5080009062
100
AcDbArc
 50
0.9330890555
 51
89.9220141993
  0
ARC
  5
356
100
AcDbEntity
  8
_1
100
AcDbCircle
 62
7
  6
CONTINUOUS
 10
68.6028490095
 20
127.4299528924
 40
0.5078058334
100
AcDbArc
 50
1.0220019522
 51
90.0237454617
  0
ARC
  5
357
100
AcDbEntity
  8
_1
100
AcDbCircle
 62
7
  6
CONTINUOUS
 10
68.5797514646
 20
128.741075126
 40
0.507640148
100
AcDbArc
 50
0.8886974783
 51
44.4036764667
  0
ARC
  5
358
100
AcDbEntity
  8
_1
100
AcDbCircle
 62
7
  6
CONTINUOUS
 10
68.6123583972
 20
126.8965102283
 40
0.5076201913
100
AcDbArc
 50
1.043086145
 51
90.0465431861
  0
ARC
  5
359
100
AcDbEntity
  8
_1
100
AcDbCircle
 62
7
  6
CONTINUOUS
 10
68.5812303086
 20
128.7425934755
 40
0.5055212202
100
AcDbArc
 50
44.3980105526
 51
46.2781202518
  0
SPLINE
  5
35A
100
AcDbEntity
  8
_1
100
AcDbSpline
 62
7
  6
CONTINUOUS
 70
0
 71
3
 72
37
 73
33
 74
0
 42
0.0000001
 43
0.0000001
 44
0.0000000001
 40
0.0
 40
0.0
 40
0.0
 40
0.0
 40
0.0009674525
 40
0.0029211428
 40
0.0060070605
 40
0.0102498874
 40
0.0222154202
 40
0.0387690852
 40
0.0597421802
 40
0.0849409991
 40
0.114139894
 40
0.1470413838
 40
0.1833365871
 40
0.2226864749
 40
0.3089775871
 40
0.4026134391
 40
0.4999865625
 40
0.5973594682
 40
0.6909966412
 40
0.7772918891
 40
0.8166450058
 40
0.8529430012
 40
0.8858487714
 40
0.9150513252
 40
0.9402526388
 40
0.9612284537
 40
0.9777838839
 40
0.9897499347
 40
0.9939928751
 40
0.9970788437
 40
0.9990325472
 40
1.0
 40
1.0
 40
1.0
 40
1.0
 10
52.3723102973
 20
129.4042090851
 30
0.0
 10
52.3723102973
 20
129.4031421194
 30
0.0
 10
52.3692854954
 20
129.4007240354
 30
0.0
 10
52.3633091506
 20
129.3987882683
 30
0.0
 10
52.353199452
 20
129.3962436481
 30
0.0
 10
52.3323117559
 20
129.3926932231
 30
0.0
 10
52.2963412894
 20
129.3884463415
 30
0.0
 10
52.2419860112
 20
129.3838257981
 30
0.0
 10
52.1729410297
 20
129.3792816208
 30
0.0
 10
52.0899351597
 20
129.3749215344
 30
0.0
 10
51.9937417529
 20
129.3707999424
 30
0.0
 10
51.8852925823
 20
129.3669653222
 30
0.0
 10
51.7656310672
 20
129.3634682863
 30
0.0
 10
51.5870887795
 20
129.3591826821
 30
0.0
 10
51.3452892377
 20
129.35504414
 30
0.0
 10
51.0394782145
 20
129.352046637
 30
0.0
 10
50.7214324322
 20
129.3510325244
 30
0.0
 10
50.4033851941
 20
129.3520462921
 30
0.0
 10
50.0975683817
 20
129.3550427921
 30
0.0
 10
49.8557592608
 20
129.3591813508
 30
0.0
 10
49.6772057571
 20
129.3634665053
 30
0.0
 10
49.5575328882
 20
129.366963953
 30
0.0
 10
49.4490718721
 20
129.3707984628
 30
0.0
 10
49.3528669466
 20
129.3749200691
 30
0.0
 10
49.2698513007
 20
129.379280607
 30
0.0
 10
49.2007986179
 20
129.3838249846
 30
0.0
 10
49.1464378199
 20
129.3884457356
 30
0.0
 10
49.1104647334
 20
129.3926930179
 30
0.0
 10
49.0895762981
 20
129.3962435696
 30
0.0
 10
49.0794664091
 20
129.3987882412
 30
0.0
 10
49.0734899943
 20
129.4007240284
 30
0.0
 10
49.0704651902
 20
129.4031421311
 30
0.0
 10
49.0704651902
 20
129.4042090971
 30
0.0
  0
SPLINE
  5
35B
100
AcDbEntity
  8
_1
100
AcDbSpline
 62
7
  6
CONTINUOUS
 70
0
 71
3
 72
37
 73
33
 74
0
 42
0.0000001
 43
0.0000001
 44
0.0000000001
 40
0.0
 40
0.0
 40
0.0
 40
0.0
 40
0.0009650573
 40
0.0029176253
 40
0.0060029061
 40
0.0102453391
 40
0.0222104736
 40
0.0387639989
 40
0.059737113
 40
0.0849360765
 40
0.1141352232
 40
0.1470370509
 40
0.1833326606
 40
0.2226830097
 40
0.308975176
 40
0.402612204
 40
0.4999865624
 40
0.5973607031
 40
0.6909990521
 40
0.7772953542
 40
0.8166489323
 40
0.8529473342
 40
0.8858534422
 40
0.9150562476
 40
0.9402577055
 40
0.9612335399
 40
0.9777888309
 40
0.9897544835
 40
0.9939970299
 40
0.9970823614
 40
0.9990349424
 40
1.0
 40
1.0
 40
1.0
 40
1.0
 10
67.6123109625
 20
129.4073496113
 30
0.0
 10
67.6123109625
 20
129.406285303
 30
0.0
 10
67.6092806576
 20
129.4038769588
 30
0.0
 10
67.6033097923
 20
129.4019510798
 30
0.0
 10
67.5931983323
 20
129.3994162701
 30
0.0
 10
67.5723113022
 20
129.3958806478
 30
0.0
 10
67.5363396848
 20
129.3916506041
 30
0.0
 10
67.4819846408
 20
129.3870487079
 30
0.0
 10
67.4129393475
 20
129.3825225635
 30
0.0
 10
67.329933411
 20
129.3781797511
 30
0.0
 10
67.2337399174
 20
129.3740743793
 30
0.0
 10
67.125290736
 20
129.370254786
 30
0.0
 10
67.0056292684
 20
129.3667713926
 30
0.0
 10
66.8270871108
 20
129.3625024415
 30
0.0
 10
66.5852879293
 20
129.3583798901
 30
0.0
 10
66.2794775146
 20
129.3553939176
 30
0.0
 10
65.9614324221
 20
129.354383698
 30
0.0
 10
65.6433858738
 20
129.3553935742
 30
0.0
 10
65.33756967
 20
129.3583785473
 30
0.0
 10
65.0957609094
 20
129.3625011155
 30
0.0
 10
64.9172075358
 20
129.3667696185
 30
0.0
 10
64.7975347142
 20
129.3702534221
 30
0.0
 10
64.6890736879
 20
129.3740729055
 30
0.0
 10
64.5928686765
 20
129.3781782917
 30
0.0
 10
64.5098529643
 20
129.3825215537
 30
0.0
 10
64.4407999692
 20
129.3870478976
 30
0.0
 10
64.3864394046
 20
129.3916500006
 30
0.0
 10
64.3504651662
 20
129.3958804433
 30
0.0
 10
64.3295773969
 20
129.3994161918
 30
0.0
 10
64.3194657472
 20
129.4019510528
 30
0.0
 10
64.3134948121
 20
129.4038769517
 30
0.0
 10
64.3104645054
 20
129.4062853147
 30
0.0
 10
64.3104645054
 20
129.4073496233
 30
0.0
  0
SPLINE
  5
35C
100
AcDbEntity
  8
_1
100
AcDbSpline
 62
7
  6
CONTINUOUS
 70
0
 71
3
 72
41
 73
37
 74
0
 42
0.0000001
 43
0.0000001
 44
0.0000000001
 40
0.0
 40
0.0
 40
0.0
 40
0.0
 40
0.0012623257
 40
0.0021930342
 40
0.0033761515
 40
0.0065566789
 40
0.0108658383
 40
0.0163202665
 40
0.0229172749
 40
0.0394892727
 40
0.0604600427
 40
0.0856362701
 40
0.1147870952
 40
0.1476361896
 40
0.1838726893
 40
0.223151509
 40
0.3092999379
 40
0.4027782359
 40
0.4999949905
 40
0.5972117667
 40
0.6906891456
 40
0.7768365096
 40
0.8161161975
 40
0.852353508
 40
0.8852047309
 40
0.9143570439
 40
0.9395353343
 40
0.9605074697
 40
0.977081084
 40
0.9836788578
 40
0.9891337464
 40
0.993443143
 40
0.9966237901
 40
0.9978069372
 40
0.9987376624
 40
1.0
 40
1.0
 40
1.0
 40
1.0
 10
53.2601152202
 20
128.9712654531
 30
0.0
 10
53.2601152202
 20
128.9755579762
 30
0.0
 10
53.2651386395
 20
128.9824678135
 30
0.0
 10
53.2744690828
 20
128.9888284309
 30
0.0
 10
53.2906145224
 20
128.9970885552
 30
0.0
 10
53.3186136646
 20
129.0064970704
 30
0.0
 10
53.3613534434
 20
129.0171485391
 30
0.0
 10
53.4160076123
 20
129.0276370797
 30
0.0
 10
53.5121916102
 20
129.042635394
 30
0.0
 10
53.6613323805
 20
129.0599475449
 30
0.0
 10
53.8737900198
 20
129.0787167934
 30
0.0
 10
54.1292422971
 20
129.0963890044
 30
0.0
 10
54.4252350346
 20
129.1127999111
 30
0.0
 10
54.7589551001
 20
129.1277953513
 30
0.0
 10
55.1272036289
 20
129.1412777561
 30
0.0
 10
55.6767003146
 20
129.1576018463
 30
0.0
 10
56.4209419032
 20
129.1730016553
 30
0.0
 10
57.3622908521
 20
129.1839586946
 30
0.0
 10
58.3413341351
 20
129.1876734237
 30
0.0
 10
59.3203745554
 20
129.1839797724
 30
0.0
 10
60.2617163226
 20
129.1729832915
 30
0.0
 10
61.0059544793
 20
129.1576051997
 30
0.0
 10
61.5554533799
 20
129.1412842721
 30
0.0
 10
61.9237148558
 20
129.1278017163
 30
0.0
 10
62.2574499502
 20
129.1128050735
 30
0.0
 10
62.5534617996
 20
129.096390133
 30
0.0
 10
62.8089308283
 20
129.0787179882
 30
0.0
 10
63.0214056477
 20
129.0599482628
 30
0.0
 10
63.1705592807
 20
129.0426365972
 30
0.0
 10
63.2667531454
 20
129.0276388146
 30
0.0
 10
63.3214123427
 20
129.0171500232
 30
0.0
 10
63.3641548711
 20
129.0064980728
 30
0.0
 10
63.3921552782
 20
128.997089166
 30
0.0
 10
63.4083012005
 20
128.9888287329
 30
0.0
 10
63.4176317724
 20
128.9824679518
 30
0.0
 10
63.4226552202
 20
128.9755580167
 30
0.0
 10
63.4226552202
 20
128.9712654531
 30
0.0
  0
SPLINE
  5
35D
100
AcDbEntity
  8
_1
100
AcDbSpline
 62
7
  6
CONTINUOUS
 70
0
 71
3
 72
35
 73
31
 74
0
 42
0.0000001
 43
0.0000001
 44
0.0000000001
 40
0.0
 40
0.0
 40
0.0
 40
0.0
 40
0.0012677455
 40
0.0033842404
 40
0.0108835531
 40
0.0229597761
 40
0.0395631722
 40
0.0605489205
 40
0.0857281013
 40
0.1148695222
 40
0.1477150824
 40
0.1839457422
 40
0.2232233058
 40
0.3093521155
 40
0.4027924364
 40
0.4999877378
 40
0.5971800756
 40
0.6906312948
 40
0.7767736189
 40
0.8160420408
 40
0.8522545781
 40
0.8850973473
 40
0.9142686313
 40
0.939481883
 40
0.9604639239
 40
0.9770353496
 40
0.9890945524
 40
0.9966066683
 40
0.9987304543
 40
1.0
 40
1.0
 40
1.0
 40
1.0
 10
62.2796552202
 20
128.9712663488
 30
0.0
 10
62.2796552202
 20
128.9679239014
 30
0.0
 10
62.2736936334
 20
128.9598219948
 30
0.0
 10
62.2482418752
 20
128.9469762674
 30
0.0
 10
62.1923820933
 20
128.9319348982
 30
0.0
 10
62.0986509345
 20
128.9155534773
 30
0.0
 10
61.9686133432
 20
128.8989413269
 30
0.0
 10
61.8039582641
 20
128.8826649681
 30
0.0
 10
61.6060088301
 20
128.8669447929
 30
0.0
 10
61.3766765602
 20
128.8520326086
 30
0.0
 10
61.1180898218
 20
128.8381383937
 30
0.0
 10
60.8326922276
 20
128.8254223689
 30
0.0
 10
60.4068141759
 20
128.8098029399
 30
0.0
 10
59.8300009589
 20
128.7946592312
 30
0.0
 10
59.1003742006
 20
128.7836297224
 30
0.0
 10
58.3415038889
 20
128.7799141524
 30
0.0
 10
57.5826049247
 20
128.7836374729
 30
0.0
 10
56.8529215087
 20
128.7946546562
 30
0.0
 10
56.2760675576
 20
128.8097841513
 30
0.0
 10
55.8502260275
 20
128.8254115636
 30
0.0
 10
55.5649083418
 20
128.8381410416
 30
0.0
 10
55.3062986514
 20
128.8520471512
 30
0.0
 10
55.0768044328
 20
128.8669494401
 30
0.0
 10
54.878693393
 20
128.8826438
 30
0.0
 10
54.7140422286
 20
128.8989135227
 30
0.0
 10
54.5841458692
 20
128.9155515202
 30
0.0
 10
54.4905201696
 20
128.9319576372
 30
0.0
 10
54.4346457457
 20
128.9470022024
 30
0.0
 10
54.4091322201
 20
128.9598136869
 30
0.0
 10
54.4031152202
 20
128.9679191552
 30
0.0
 10
54.4031152202
 20
128.9712663488
 30
0.0
  0
SPLINE
  5
35E
100
AcDbEntity
  8
_1
100
AcDbSpline
 62
7
  6
CONTINUOUS
 70
0
 71
3
 72
20
 73
16
 74
0
 42
0.0000001
 43
0.0000001
 44
0.0000000001
 40
0.0
 40
0.0
 40
0.0
 40
0.0
 40
0.0012768278
 40
0.0044616693
 40
0.0172392274
 40
0.0391290378
 40
0.0707284366
 40
0.112425191
 40
0.1638213192
 40
0.2243210405
 40
0.2933277702
 40
0.4531809485
 40
0.6321235775
 40
0.8179654569
 40
1.0
 40
1.0
 40
1.0
 40
1.0
 10
47.5281024275
 20
124.9121312899
 30
0.0
 10
47.5281062023
 20
124.9123475471
 30
0.0
 10
47.5290515906
 20
124.9126719887
 30
0.0
 10
47.5315931264
 20
124.9131891555
 30
0.0
 10
47.5383326273
 20
124.9137663714
 30
0.0
 10
47.5493324036
 20
124.9143427246
 30
0.0
 10
47.5655465233
 20
124.9148530872
 30
0.0
 10
47.5866259881
 20
124.9152653298
 30
0.0
 10
47.6126567612
 20
124.9155733251
 30
0.0
 10
47.6432956561
 20
124.9157633012
 30
0.0
 10
47.6923142489
 20
124.9158482196
 30
0.0
 10
47.7613933136
 20
124.9155791661
 30
0.0
 10
47.8502624931
 20
124.914820998
 30
0.0
 10
47.9428844697
 20
124.9136568107
 30
0.0
 10
48.0051937458
 20
124.9126692844
 30
0.0
 10
48.0360250566
 20
124.9121312899
 30
0.0
  0
SPLINE
  5
35F
100
AcDbEntity
  8
_1
100
AcDbSpline
 62
7
  6
CONTINUOUS
 70
0
 71
3
 72
18
 73
14
 74
0
 42
0.0000001
 43
0.0000001
 44
0.0000000001
 40
0.0
 40
0.0
 40
0.0
 40
0.0
 40
0.0095568391
 40
0.0243567198
 40
0.0460771063
 40
0.0751954187
 40
0.1118788678
 40
0.1561790742
 40
0.2674451306
 40
0.4084323797
 40
0.5783364214
 40
0.7759623028
 40
1.0
 40
1.0
 40
1.0
 40
1.0
 10
63.4226552202
 20
128.9712654531
 30
0.0
 10
63.4226552202
 20
128.9676860813
 30
0.0
 10
63.4174511849
 20
128.9590533567
 30
0.0
 10
63.4026699146
 20
128.9500634192
 30
0.0
 10
63.3799648872
 20
128.9404245138
 30
0.0
 10
63.3485563216
 20
128.9309398332
 30
0.0
 10
63.3084551506
 20
128.9212682794
 30
0.0
 10
63.2377978041
 20
128.9073283264
 30
0.0
 10
63.1279345427
 20
128.8907153815
 30
0.0
 10
62.9709121435
 20
128.8720822962
 30
0.0
 10
62.7813152364
 20
128.853857132
 30
0.0
 10
62.5604521926
 20
128.8361855501
 30
0.0
 10
62.4028787622
 20
128.8255516169
 30
0.0
 10
62.3191333247
 20
128.8202992759
 30
0.0
  0
SPLINE
  5
360
100
AcDbEntity
  8
_1
100
AcDbSpline
 62
7
  6
CONTINUOUS
 70
0
 71
3
 72
13
 73
9
 74
0
 42
0.0000001
 43
0.0000001
 44
0.0000000001
 40
0.0
 40
0.0
 40
0.0
 40
0.0
 40
0.1012150477
 40
0.2224483119
 40
0.4999803469
 40
0.7775212746
 40
0.8987663918
 40
1.0
 40
1.0
 40
1.0
 40
1.0
 10
62.3191333247
 20
128.8202992759
 30
0.0
 10
62.0511589482
 20
128.8034924761
 30
0.0
 10
61.4616833425
 20
128.7750246423
 30
0.0
 10
60.1359629118
 20
128.7334791119
 30
0.0
 10
58.3417874834
 20
128.7143225898
 30
0.0
 10
56.5475814917
 20
128.7334834481
 30
0.0
 10
55.2217551818
 20
128.7749858986
 30
0.0
 10
54.632199352
 20
128.803464707
 30
0.0
 10
54.3641754591
 20
128.8202685914
 30
0.0
  0
SPLINE
  5
361
100
AcDbEntity
  8
_1
100
AcDbSpline
 62
7
  6
CONTINUOUS
 70
0
 71
3
 72
18
 73
14
 74
0
 42
0.0000001
 43
0.0000001
 44
0.0000000001
 40
0.0
 40
0.0
 40
0.0
 40
0.0
 40
0.2240380446
 40
0.4216637231
 40
0.5915679737
 40
0.732557284
 40
0.843826998
 40
0.8881289429
 40
0.9248128835
 40
0.9539299534
 40
0.9756480964
 40
0.9904454258
 40
1.0
 40
1.0
 40
1.0
 40
1.0
 10
54.3641754591
 20
128.8202685914
 30
0.0
 10
54.2803895585
 20
128.8255215879
 30
0.0
 10
54.1227401183
 20
128.8361562634
 30
0.0
 10
53.9017702328
 20
128.8538281528
 30
0.0
 10
53.7120808209
 20
128.8720550769
 30
0.0
 10
53.554980346
 20
128.8906936551
 30
0.0
 10
53.4450612492
 20
128.9073127661
 30
0.0
 10
53.37436728
 20
128.9212570972
 30
0.0
 10
53.3342459444
 20
128.9309310518
 30
0.0
 10
53.3028227088
 20
128.9404177707
 30
0.0
 10
53.2801081527
 20
128.9500586634
 30
0.0
 10
53.2653211945
 20
128.9590501636
 30
0.0
 10
53.2601152202
 20
128.9676852111
 30
0.0
 10
53.2601152202
 20
128.9712654531
 30
0.0
  0
SPLINE
  5
362
100
AcDbEntity
  8
_1
100
AcDbSpline
 62
7
  6
CONTINUOUS
 70
0
 71
3
 72
41
 73
37
 74
0
 42
0.0000001
 43
0.0000001
 44
0.0000000001
 40
0.0
 40
0.0
 40
0.0
 40
0.0
 40
0.0012701741
 40
0.002206947
 40
0.0033965256
 40
0.0065901743
 40
0.0109120429
 40
0.0163784254
 40
0.0229864142
 40
0.0395768691
 40
0.0605608269
 40
0.0857447266
 40
0.1148977993
 40
0.1477441974
 40
0.1839737657
 40
0.2232422979
 40
0.3093634571
 40
0.4028104566
 40
0.4999950149
 40
0.5971795761
 40
0.6906256563
 40
0.7767457328
 40
0.8160151326
 40
0.8522455094
 40
0.8850940259
 40
0.9142485823
 40
0.9394345449
 40
0.9604198714
 40
0.9770119385
 40
0.9836206884
 40
0.9890875281
 40
0.9934096343
 40
0.9966034064
 40
0.9977930175
 40
0.9987298101
 40
1.0
 40
1.0
 40
1.0
 40
1.0
 10
53.2601152202
 20
127.6997725773
 30
0.0
 10
53.2601152202
 20
127.6954513812
 30
0.0
 10
53.2651421614
 20
127.6884936705
 30
0.0
 10
53.2744664489
 20
127.6819964673
 30
0.0
 10
53.2906067814
 20
127.6735181122
 30
0.0
 10
53.3186025514
 20
127.6637256666
 30
0.0
 10
53.3613499533
 20
127.6525006662
 30
0.0
 10
53.4160093214
 20
127.6412862878
 30
0.0
 10
53.5121779853
 20
127.6250346739
 30
0.0
 10
53.6613033181
 20
127.6058299256
 30
0.0
 10
53.8737504643
 20
127.5844748506
 30
0.0
 10
54.129179782
 20
127.5638577196
 30
0.0
 10
54.4251402123
 20
127.5442528346
 30
0.0
 10
54.7588239181
 20
127.5259346723
 30
0.0
 10
55.1270385638
 20
127.5091322696
 30
0.0
 10
55.6764895873
 20
127.4884138767
 30
0.0
 10
56.4207343816
 20
127.4683177685
 30
0.0
 10
57.362164853
 20
127.4537113871
 30
0.0
 10
58.3413343095
 20
127.4487076037
 30
0.0
 10
59.3205011048
 20
127.4536836454
 30
0.0
 10
60.261923867
 20
127.4683424164
 30
0.0
 10
61.0061655045
 20
127.4884078042
 30
0.0
 10
61.5556186344
 20
127.5091253427
 30
0.0
 10
61.9238461669
 20
127.5259282465
 30
0.0
 10
62.2575449189
 20
127.5442462613
 30
0.0
 10
62.5535244482
 20
127.5638544121
 30
0.0
 10
62.8089704462
 20
127.5844726616
 30
0.0
 10
63.0214347126
 20
127.6058289273
 30
0.0
 10
63.1705729114
 20
127.6250332448
 30
0.0
 10
63.2667514313
 20
127.6412843321
 30
0.0
 10
63.3214158257
 20
127.6524989113
 30
0.0
 10
63.3641659787
 20
127.6637244239
 30
0.0
 10
63.3921630128
 20
127.6735173436
 30
0.0
 10
63.4083038284
 20
127.681996077
 30
0.0
 10
63.4176282452
 20
127.6884934976
 30
0.0
 10
63.4226552202
 20
127.6954513275
 30
0.0
 10
63.4226552202
 20
127.6997725773
 30
0.0
  0
SPLINE
  5
363
100
AcDbEntity
  8
_1
100
AcDbSpline
 62
7
  6
CONTINUOUS
 70
0
 71
3
 72
37
 73
33
 74
0
 42
0.0000001
 43
0.0000001
 44
0.0000000001
 40
0.0
 40
0.0
 40
0.0
 40
0.0
 40
0.0012626995
 40
0.0033707131
 40
0.0065515305
 40
0.0108619221
 40
0.022922983
 40
0.0395106151
 40
0.060476844
 40
0.0856379922
 40
0.1147786691
 40
0.1476462147
 40
0.1838977845
 40
0.2231729215
 40
0.3092963451
 40
0.4027823977
 40
0.4999945236
 40
0.5972062015
 40
0.6906935154
 40
0.7768206711
 40
0.8160956052
 40
0.8523434571
 40
0.8852099652
 40
0.9143586167
 40
0.9395302049
 40
0.9604962142
 40
0.9770751493
 40
0.9891316902
 40
0.9934434459
 40
0.9966266785
 40
0.9987367888
 40
1.0
 40
1.0
 40
1.0
 40
1.0
 10
54.4031152202
 20
128.9712663488
 30
0.0
 10
54.4031152202
 20
128.9745943909
 30
0.0
 10
54.4090824598
 20
128.9826577153
 30
0.0
 10
54.4244486206
 20
128.9902480024
 30
0.0
 10
54.4484124785
 20
128.9987768404
 30
0.0
 10
54.4984662354
 20
129.0110448751
 30
0.0
 10
54.58429655
 20
129.0251490928
 30
0.0
 10
54.714156812
 20
129.0404846726
 30
0.0
 10
54.8788185231
 20
129.0552323297
 30
0.0
 10
55.0767108232
 20
129.0692018102
 30
0.0
 10
55.3060978609
 20
129.0822080255
 30
0.0
 10
55.5648068319
 20
129.0941055656
 30
0.0
 10
55.8502983571
 20
129.1048308711
 30
0.0
 10
56.2761563344
 20
129.1178489592
 30
0.0
 10
56.8529410586
 20
129.1302043039
 30
0.0
 10
57.5825028506
 20
129.1390068139
 30
0.0
 10
58.3413365708
 20
129.1419862884
 30
0.0
 10
59.1001736052
 20
129.1390060581
 30
0.0
 10
59.8297474012
 20
129.1302059318
 30
0.0
 10
60.4065447964
 20
129.117852424
 30
0.0
 10
60.8324023006
 20
129.1048349406
 30
0.0
 10
61.1178806623
 20
129.094107129
 30
0.0
 10
61.3765979595
 20
129.0822061508
 30
0.0
 10
61.6060308977
 20
129.0692010586
 30
0.0
 10
61.803971738
 20
129.055238399
 30
0.0
 10
61.9686377083
 20
129.0404918776
 30
0.0
 10
62.0984616396
 20
129.0251500988
 30
0.0
 10
62.1842592868
 20
129.0110385819
 30
0.0
 10
62.234310995
 20
128.9987744376
 30
0.0
 10
62.2582925897
 20
128.9902454607
 30
0.0
 10
62.273672105
 20
128.9826601336
 30
0.0
 10
62.2796552202
 20
128.9745957396
 30
0.0
 10
62.2796552202
 20
128.9712663488
 30
0.0
  0
SPLINE
  5
364
100
AcDbEntity
  8
_1
100
AcDbSpline
 62
7
  6
CONTINUOUS
 70
0
 71
3
 72
9
 73
5
 74
0
 42
0.0000001
 43
0.0000001
 44
0.0000000001
 40
0.0
 40
0.0
 40
0.0
 40
0.0
 40
0.4999999774
 40
1.0
 40
1.0
 40
1.0
 40
1.0
 10
51.1242654209
 20
117.2459639453
 30
0.0
 10
51.0979862514
 20
116.993293749
 30
0.0
 10
51.0461057238
 20
116.487883262
 30
0.0
 10
50.9929483085
 20
115.982604222
 30
0.0
 10
50.9672385949
 20
115.7298754244
 30
0.0
  0
SPLINE
  5
365
100
AcDbEntity
  8
_1
100
AcDbSpline
 62
7
  6
CONTINUOUS
 70
0
 71
3
 72
37
 73
33
 74
0
 42
0.0000001
 43
0.0000001
 44
0.0000000001
 40
0.0
 40
0.0
 40
0.0
 40
0.0
 40
0.0009653335
 40
0.0029154681
 40
0.0059975219
 40
0.0102365857
 40
0.0221961432
 40
0.0387470985
 40
0.0597198035
 40
0.0849190371
 40
0.1141181395
 40
0.1470199175
 40
0.1833159501
 40
0.2226674139
 40
0.3089634991
 40
0.4026058372
 40
0.4999862664
 40
0.5973664756
 40
0.6910101323
 40
0.7773103348
 40
0.8166650196
 40
0.8529638493
 40
0.8858699318
 40
0.9150727031
 40
0.940274378
 40
0.9612497253
 40
0.9778024761
 40
0.9897627925
 40
0.9940021319
 40
0.997084386
 40
0.9990346387
 40
1.0
 40
1.0
 40
1.0
 40
1.0
 10
49.0704651902
 20
129.4042090971
 30
0.0
 10
49.0704651902
 20
129.4052736236
 30
0.0
 10
49.0734890398
 20
129.4076843442
 30
0.0
 10
49.0794637504
 20
129.4095915955
 30
0.0
 10
49.0895691905
 20
129.4120965334
 30
0.0
 10
49.1104542963
 20
129.4155613639
 30
0.0
 10
49.1464237466
 20
129.4196656433
 30
0.0
 10
49.2007813887
 20
129.4240741192
 30
0.0
 10
49.2698330634
 20
129.4283613617
 30
0.0
 10
49.3528460102
 20
129.4324285601
 30
0.0
 10
49.4490441906
 20
129.4362321648
 30
0.0
 10
49.5574955153
 20
129.4397360551
 30
0.0
 10
49.6771576258
 20
129.4429026077
 30
0.0
 10
49.8557007657
 20
129.4467509604
 30
0.0
 10
50.0974984972
 20
129.4504219725
 30
0.0
 10
50.4033036765
 20
129.4530555133
 30
0.0
 10
50.7213420173
 20
129.4539425491
 30
0.0
 10
51.039381812
 20
129.453055868
 30
0.0
 10
51.3451927508
 20
129.4504230886
 30
0.0
 10
51.5870000305
 20
129.4467521805
 30
0.0
 10
51.7655543582
 20
129.4429041877
 30
0.0
 10
51.8852278466
 20
129.439737278
 30
0.0
 10
51.993691058
 20
129.4362335292
 30
0.0
 10
52.0899007343
 20
129.4324299273
 30
0.0
 10
52.1729233216
 20
129.4283622825
 30
0.0
 10
52.2419825886
 20
129.4240748671
 30
0.0
 10
52.296345956
 20
129.4196661822
 30
0.0
 10
52.3323185222
 20
129.4155615042
 30
0.0
 10
52.3532049646
 20
129.4120965862
 30
0.0
 10
52.3633111149
 20
129.4095916019
 30
0.0
 10
52.3692861393
 20
129.4076843661
 30
0.0
 10
52.3723102973
 20
129.4052736421
 30
0.0
 10
52.3723102973
 20
129.4042090851
 30
0.0
  0
SPLINE
  5
366
100
AcDbEntity
  8
_1
100
AcDbSpline
 62
7
  6
CONTINUOUS
 70
0
 71
3
 72
37
 73
33
 74
0
 42
0.0000001
 43
0.0000001
 44
0.0000000001
 40
0.0
 40
0.0
 40
0.0
 40
0.0
 40
0.0009629423
 40
0.0029119709
 40
0.0059934084
 40
0.0102320994
 40
0.0221912922
 40
0.0387421197
 40
0.0597148408
 40
0.0849142118
 40
0.1141135623
 40
0.1470156759
 40
0.1833121107
 40
0.2226640284
 40
0.3089611454
 40
0.4026046322
 40
0.4999862662
 40
0.5973676802
 40
0.6910124856
 40
0.77731372
 40
0.8166688588
 40
0.852968091
 40
0.8858745089
 40
0.9150775277
 40
0.9402793398
 40
0.9612547036
 40
0.9778073274
 40
0.9897672793
 40
0.9940062458
 40
0.9970878834
 40
0.9990370299
 40
1.0
 40
1.0
 40
1.0
 40
1.0
 10
64.3104645054
 20
129.4073496233
 30
0.0
 10
64.3104645054
 20
129.4084114976
 30
0.0
 10
64.3134938972
 20
129.4108124639
 30
0.0
 10
64.3194631175
 20
129.4127098259
 30
0.0
 10
64.3295703648
 20
129.4152049594
 30
0.0
 10
64.3504548309
 20
129.4186549809
 30
0.0
 10
64.3864254595
 20
129.4227424264
 30
0.0
 10
64.4407828592
 20
129.4271322614
 30
0.0
 10
64.5098348076
 20
129.4314014767
 30
0.0
 10
64.5928477753
 20
129.435451405
 30
0.0
 10
64.6890460105
 20
129.4392387922
 30
0.0
 10
64.7974973293
 20
129.4427276584
 30
0.0
 10
64.9171593841
 20
129.4458805714
 30
0.0
 10
65.0957023822
 20
129.4497122747
 30
0.0
 10
65.3374997512
 20
129.4533673006
 30
0.0
 10
65.6433043356
 20
129.4559893142
 30
0.0
 10
65.9613420081
 20
129.4568724583
 30
0.0
 10
66.2793811344
 20
129.4559896675
 30
0.0
 10
66.5851914781
 20
129.4533684116
 30
0.0
 10
66.8269983954
 20
129.4497134896
 30
0.0
 10
67.0055525815
 20
129.4458821446
 30
0.0
 10
67.1252260142
 20
129.442728876
 30
0.0
 10
67.233689219
 20
129.4392401508
 30
0.0
 10
67.3298989486
 20
129.4354527664
 30
0.0
 10
67.4129215563
 20
129.4314023934
 30
0.0
 10
67.4819810981
 20
129.4271330061
 30
0.0
 10
67.5363442247
 20
129.4227429631
 30
0.0
 10
67.5723179705
 20
129.4186551207
 30
0.0
 10
67.5932037729
 20
129.4152050119
 30
0.0
 10
67.6033117298
 20
129.4127098325
 30
0.0
 10
67.6092812628
 20
129.4108124853
 30
0.0
 10
67.6123109625
 20
129.4084115162
 30
0.0
 10
67.6123109625
 20
129.4073496113
 30
0.0
  0
SPLINE
  5
367
100
AcDbEntity
  8
_1
100
AcDbSpline
 62
7
  6
CONTINUOUS
 70
0
 71
3
 72
10
 73
6
 74
0
 42
0.0000001
 43
0.0000001
 44
0.0000000001
 40
0.0
 40
0.0
 40
0.0
 40
0.0
 40
0.1623526966
 40
0.3833316683
 40
1.0
 40
1.0
 40
1.0
 40
1.0
 10
63.6480781934
 20
129.415589409
 30
0.0
 10
63.6354241047
 20
129.4120694735
 30
0.0
 10
63.6050306459
 20
129.4056823653
 30
0.0
 10
63.5251114834
 20
129.3931083559
 30
0.0
 10
63.4576762829
 20
129.3859694323
 30
0.0
 10
63.4080175581
 20
129.3811793078
 30
0.0
  0
SPLINE
  5
368
100
AcDbEntity
  8
_1
100
AcDbSpline
 62
7
  6
CONTINUOUS
 70
0
 71
3
 72
17
 73
13
 74
0
 42
0.0000001
 43
0.0000001
 44
0.0000000001
 40
0.0
 40
0.0
 40
0.0
 40
0.0
 40
0.0337350442
 40
0.0769005815
 40
0.1892319845
 40
0.3277837721
 40
0.4812953416
 40
0.6373482225
 40
0.783282217
 40
0.9075616842
 40
0.9584038422
 40
1.0
 40
1.0
 40
1.0
 40
1.0
 10
63.3204642742
 20
129.3733347225
 30
0.0
 10
63.2117572597
 20
129.3642496752
 30
0.0
 10
62.9636017452
 20
129.3478560646
 30
0.0
 10
62.3524391541
 20
129.31759576
 30
0.0
 10
61.4020033116
 20
129.2876660749
 30
0.0
 10
60.0945498353
 20
129.2637046937
 30
0.0
 10
58.6455230979
 20
129.2533000451
 30
0.0
 10
57.172598546
 20
129.2577078429
 30
0.0
 10
55.7943235105
 20
129.276384244
 30
0.0
 10
54.756446114
 20
129.3029209105
 30
0.0
 10
54.0562086029
 20
129.3307375531
 30
0.0
 10
53.7576862043
 20
129.3462394894
 30
0.0
 10
53.6234419577
 20
129.3546230385
 30
0.0
  0
SPLINE
  5
369
100
AcDbEntity
  8
_1
100
AcDbSpline
 62
7
  6
CONTINUOUS
 70
0
 71
3
 72
9
 73
5
 74
0
 42
0.0000001
 43
0.0000001
 44
0.0000000001
 40
0.0
 40
0.0
 40
0.0
 40
0.0
 40
0.58973368
 40
1.0
 40
1.0
 40
1.0
 40
1.0
 10
53.6234419577
 20
129.3546230385
 30
0.0
 10
53.5259266199
 20
129.3607128683
 30
0.0
 10
53.3606761016
 20
129.3723942958
 30
0.0
 10
53.1956797455
 20
129.388448229
 30
0.0
 10
53.1283774687
 20
129.3979642506
 30
0.0
  0
SPLINE
  5
36A
100
AcDbEntity
  8
_1
100
AcDbSpline
 62
7
  6
CONTINUOUS
 70
0
 71
3
 72
18
 73
14
 74
0
 42
0.0000001
 43
0.0000001
 44
0.0000000001
 40
0.0
 40
0.0
 40
0.0
 40
0.0
 40
0.2526116856
 40
0.4542890927
 40
0.6057222378
 40
0.7083075856
 40
0.7424681859
 40
0.767032223
 40
0.7863748945
 40
0.8083446224
 40
0.8388811045
 40
0.8804391447
 40
1.0
 40
1.0
 40
1.0
 40
1.0
 10
53.1283774687
 20
129.3979642506
 30
0.0
 10
53.1141438788
 20
129.3999767701
 30
0.0
 10
53.0885934206
 20
129.4038874329
 30
0.0
 10
53.0546899657
 20
129.4103172419
 30
0.0
 10
53.0295944574
 20
129.4166946775
 30
0.0
 10
53.0140037422
 20
129.4222761234
 30
0.0
 10
53.0062709032
 20
129.4272393305
 30
0.0
 10
53.0031459298
 20
129.4306013925
 30
0.0
 10
53.0025836518
 20
129.434609626
 30
0.0
 10
53.0050079409
 20
129.4381951974
 30
0.0
 10
53.0093524087
 20
129.441342912
 30
0.0
 10
53.0191968363
 20
129.4461442163
 30
0.0
 10
53.0280372864
 20
129.4487381675
 30
0.0
 10
53.0346140466
 20
129.450480936
 30
0.0
  0
SPLINE
  5
36B
100
AcDbEntity
  8
_1
100
AcDbSpline
 62
7
  6
CONTINUOUS
 70
0
 71
3
 72
10
 73
6
 74
0
 42
0.0000001
 43
0.0000001
 44
0.0000000001
 40
0.0
 40
0.0
 40
0.0
 40
0.0
 40
0.1617647737
 40
0.3833842639
 40
1.0
 40
1.0
 40
1.0
 40
1.0
 10
53.0346168867
 20
129.4504809269
 30
0.0
 10
53.0471641982
 20
129.4538058254
 30
0.0
 10
53.077399562
 20
129.459726487
 30
0.0
 10
53.1568180644
 20
129.4711872813
 30
0.0
 10
53.2238315636
 20
129.4774658565
 30
0.0
 10
53.2731362043
 20
129.481611628
 30
0.0
  0
SPLINE
  5
36C
100
AcDbEntity
  8
_1
100
AcDbSpline
 62
7
  6
CONTINUOUS
 70
0
 71
3
 72
21
 73
17
 74
0
 42
0.0000001
 43
0.0000001
 44
0.0000000001
 40
0.0
 40
0.0
 40
0.0
 40
0.0
 40
0.0327897961
 40
0.0779562699
 40
0.1336675306
 40
0.1992192216
 40
0.3512322855
 40
0.5179813175
 40
0.6821564151
 40
0.7578600977
 40
0.8267985896
 40
0.8867070286
 40
0.9364634989
 40
0.9745432411
 40
0.9888427245
 40
1.0
 40
1.0
 40
1.0
 40
1.0
 10
53.2731362043
 20
129.481611628
 30
0.0
 10
53.3850614773
 20
129.4910228435
 30
0.0
 10
53.6517028869
 20
129.5065868924
 30
0.0
 10
54.1092090449
 20
129.5248408566
 30
0.0
 10
54.6791055106
 20
129.540595513
 30
0.0
 10
55.6150277375
 20
129.5588751814
 30
0.0
 10
56.9314378054
 20
129.572418179
 30
0.0
 10
58.5857261045
 20
129.5765917787
 30
0.0
 10
59.9786167808
 20
129.5701585169
 30
0.0
 10
61.036395666
 20
129.5581781781
 30
0.0
 10
61.7369793456
 20
129.5463526251
 30
0.0
 10
62.3486164014
 20
129.5317685237
 30
0.0
 10
62.8544126736
 20
129.5143817961
 30
0.0
 10
63.2039000248
 20
129.4972852674
 30
0.0
 10
63.4209530136
 20
129.4811890834
 30
0.0
 10
63.507754633
 20
129.4726248257
 30
0.0
 10
63.5456834675
 20
129.4679255546
 30
0.0
  0
SPLINE
  5
36D
100
AcDbEntity
  8
_1
100
AcDbSpline
 62
7
  6
CONTINUOUS
 70
0
 71
3
 72
18
 73
14
 74
0
 42
0.0000001
 43
0.0000001
 44
0.0000000001
 40
0.0
 40
0.0
 40
0.0
 40
0.0
 40
0.2531951621
 40
0.4539900419
 40
0.6036766461
 40
0.704406564
 40
0.7377243808
 40
0.7616458147
 40
0.7808919038
 40
0.8034536588
 40
0.8349582907
 40
0.8776830215
 40
1.0
 40
1.0
 40
1.0
 40
1.0
 10
63.5575077042
 20
129.4664242921
 30
0.0
 10
63.5715610869
 20
129.4645948497
 30
0.0
 10
63.5967157679
 20
129.4610267022
 30
0.0
 10
63.6300152253
 20
129.4550573181
 30
0.0
 10
63.6545027089
 20
129.4490530588
 30
0.0
 10
63.6696470547
 20
129.4437389387
 30
0.0
 10
63.6770876714
 20
129.4389523291
 30
0.0
 10
63.680055418
 20
129.4356369981
 30
0.0
 10
63.6803967711
 20
129.4316762346
 30
0.0
 10
63.6778594235
 20
129.4281766312
 30
0.0
 10
63.6734567162
 20
129.4250118254
 30
0.0
 10
63.6635408097
 20
129.4201399375
 30
0.0
 10
63.6546712967
 20
129.4174241875
 30
0.0
 10
63.6480753439
 20
129.4155894186
 30
0.0
  0
SPLINE
  5
36E
100
AcDbEntity
  8
_1
100
AcDbSpline
 62
7
  6
CONTINUOUS
 70
0
 71
3
 72
9
 73
5
 74
0
 42
0.0000001
 43
0.0000001
 44
0.0000000001
 40
0.0
 40
0.0
 40
0.0
 40
0.0
 40
0.500000025
 40
1.0
 40
1.0
 40
1.0
 40
1.0
 10
65.7333191427
 20
115.5560821707
 30
0.0
 10
65.7047323806
 20
115.8377853922
 30
0.0
 10
65.645474245
 20
116.4009780276
 30
0.0
 10
65.5877967808
 20
116.964333186
 30
0.0
 10
65.5585050195
 20
117.2459639453
 30
0.0
  0
SPLINE
  5
36F
100
AcDbEntity
  8
_1
100
AcDbSpline
 62
7
  6
CONTINUOUS
 70
0
 71
3
 72
15
 73
11
 74
0
 42
0.0000001
 43
0.0000001
 44
0.0000000001
 40
0.0
 40
0.0
 40
0.0
 40
0.0
 40
0.3547927438
 40
0.5278867471
 40
0.6832560148
 40
0.8110347152
 40
0.9051933961
 40
0.9393394662
 40
0.9655686591
 40
1.0
 40
1.0
 40
1.0
 40
1.0
 10
48.094773689
 20
128.3571856373
 30
0.0
 10
48.0325575898
 20
128.3582388769
 30
0.0
 10
47.9398851398
 20
128.3569891099
 30
0.0
 10
47.8203258512
 20
128.3485360007
 30
0.0
 10
47.7408185161
 20
128.3390857759
 30
0.0
 10
47.6757336886
 20
128.3268429984
 30
0.0
 10
47.6324385001
 20
128.314437727
 30
0.0
 10
47.6077933498
 20
128.3026889559
 30
0.0
 10
47.5940922957
 20
128.2936918005
 30
0.0
 10
47.5869569429
 20
128.2838759677
 30
0.0
 10
47.5868510708
 20
128.2778381854
 30
0.0
  0
SPLINE
  5
370
100
AcDbEntity
  8
_1
100
AcDbSpline
 62
7
  6
CONTINUOUS
 70
0
 71
3
 72
15
 73
11
 74
0
 42
0.0000001
 43
0.0000001
 44
0.0000000001
 40
0.0
 40
0.0
 40
0.0
 40
0.0
 40
0.0374820152
 40
0.065404431
 40
0.1007592482
 40
0.1943393138
 40
0.3165950773
 40
0.463866321
 40
0.6311100978
 40
1.0
 40
1.0
 40
1.0
 40
1.0
 10
47.5950849362
 20
128.749556646
 30
0.0
 10
47.5951995321
 20
128.7561280413
 30
0.0
 10
47.6035067134
 20
128.7664553341
 30
0.0
 10
47.6182324908
 20
128.7755975591
 30
0.0
 10
47.643472185
 20
128.787084625
 30
0.0
 10
47.6859694778
 20
128.7989400555
 30
0.0
 10
47.7486112432
 20
128.8106658277
 30
0.0
 10
47.8246869005
 20
128.8198336019
 30
0.0
 10
47.9442233637
 20
128.8286353723
 30
0.0
 10
48.0383327454
 20
128.8299989604
 30
0.0
 10
48.1030075654
 20
128.8289040978
 30
0.0
  0
SPLINE
  5
371
100
AcDbEntity
  8
_1
100
AcDbSpline
 62
7
  6
CONTINUOUS
 70
0
 71
3
 72
15
 73
11
 74
0
 42
0.0000001
 43
0.0000001
 44
0.0000000001
 40
0.0
 40
0.0
 40
0.0
 40
0.0
 40
0.3688899797
 40
0.5361337412
 40
0.6834049268
 40
0.8056606639
 40
0.8992407206
 40
0.9345955408
 40
0.9625179696
 40
1.0
 40
1.0
 40
1.0
 40
1.0
 10
68.579762875
 20
128.8289040978
 30
0.0
 10
68.6444377082
 20
128.8299989606
 30
0.0
 10
68.7385471001
 20
128.8286353694
 30
0.0
 10
68.8580835635
 20
128.8198336019
 30
0.0
 10
68.9341592023
 20
128.8106658252
 30
0.0
 10
68.9968009516
 20
128.7989400598
 30
0.0
 10
69.0392982393
 20
128.7870846326
 30
0.0
 10
69.0645379333
 20
128.7755975623
 30
0.0
 10
69.0792637142
 20
128.7664553362
 30
0.0
 10
69.0875709082
 20
128.7561280439
 30
0.0
 10
69.0876855042
 20
128.749556646
 30
0.0
  0
SPLINE
  5
372
100
AcDbEntity
  8
_1
100
AcDbSpline
 62
7
  6
CONTINUOUS
 70
0
 71
3
 72
15
 73
11
 74
0
 42
0.0000001
 43
0.0000001
 44
0.0000000001
 40
0.0
 40
0.0
 40
0.0
 40
0.0
 40
0.0344313409
 40
0.0606605338
 40
0.0948066039
 40
0.1889652848
 40
0.3167439852
 40
0.4721132529
 40
0.6452072562
 40
1.0
 40
1.0
 40
1.0
 40
1.0
 10
69.0959193696
 20
128.2778381854
 30
0.0
 10
69.0958134975
 20
128.2838759677
 30
0.0
 10
69.0886781447
 20
128.2936918005
 30
0.0
 10
69.0749770906
 20
128.3026889559
 30
0.0
 10
69.0503319403
 20
128.314437727
 30
0.0
 10
69.0070367518
 20
128.3268429984
 30
0.0
 10
68.9419519243
 20
128.3390857759
 30
0.0
 10
68.8624445892
 20
128.3485360007
 30
0.0
 10
68.7428853006
 20
128.3569891099
 30
0.0
 10
68.6502128506
 20
128.3582388769
 30
0.0
 10
68.5879967514
 20
128.3571856373
 30
0.0
  0
SPLINE
  5
373
100
AcDbEntity
  8
_1
100
AcDbSpline
 62
7
  6
CONTINUOUS
 70
0
 71
3
 72
20
 73
16
 74
0
 42
0.0000001
 43
0.0000001
 44
0.0000000001
 40
0.0
 40
0.0
 40
0.0
 40
0.0
 40
0.1820342885
 40
0.3678767144
 40
0.5468187956
 40
0.7066724319
 40
0.7756794914
 40
0.8361789819
 40
0.887574759
 40
0.9292714825
 40
0.9608710481
 40
0.982760868
 40
0.9955383672
 40
0.9987231816
 40
1.0
 40
1.0
 40
1.0
 40
1.0
 10
68.6467453838
 20
124.9121312899
 30
0.0
 10
68.6775766515
 20
124.9126692878
 30
0.0
 10
68.7398859774
 20
124.9136568049
 30
0.0
 10
68.8325079108
 20
124.9148210028
 30
0.0
 10
68.921377168
 20
124.9155791699
 30
0.0
 10
68.9904562736
 20
124.9158482136
 30
0.0
 10
69.039474961
 20
124.9157633097
 30
0.0
 10
69.0701138133
 20
124.9155733311
 30
0.0
 10
69.0961444823
 20
124.9152653293
 30
0.0
 10
69.1172239111
 20
124.9148530833
 30
0.0
 10
69.133438055
 20
124.9143427243
 30
0.0
 10
69.1444378535
 20
124.9137663736
 30
0.0
 10
69.1511773358
 20
124.9131891543
 30
0.0
 10
69.153718862
 20
124.9126719902
 30
0.0
 10
69.1546642382
 20
124.9123475455
 30
0.0
 10
69.1546680129
 20
124.9121312899
 30
0.0
  0
ENDSEC
  0
SECTION
  2
OBJECTS
  0
DICTIONARY
  5
C
100
AcDbDictionary
280
0
281
1
  3
ACAD_GROUP
350
D
  3
ACAD_MLINESTYLE
350
17
  3
ACAD_LAYOUT
350
1A
  3
ACAD_PLOTSETTINGS
350
19
  3
ACAD_PLOTSTYLENAME
350
E
  0
DICTIONARY
  5
D
102
{ACAD_REACTORS
330
C
102
}
100
AcDbDictionary
280
0
281
1
  0
ACDBDICTIONARYWDFLT
  5
E
102
{ACAD_REACTORS
330
C
102
}
100
AcDbDictionary
281
1
  3
Normal
350
F
100
AcDbDictionaryWithDefault
340
F
  0
DICTIONARY
  5
17
102
{ACAD_REACTORS
330
C
102
}
100
AcDbDictionary
280
0
281
1
  3
Standard
350
18
  0
DICTIONARY
  5
19
102
{ACAD_REACTORS
330
C
102
}
100
AcDbDictionary
281
1
  0
DICTIONARY
  5
1A
102
{ACAD_REACTORS
330
C
102
}
100
AcDbDictionary
281
1
  3
Model
350
374
  3
Layout1
350
375
  0
ACDBPLACEHOLDER
  5
F
102
{ACAD_REACTORS
330
E
102
}
  0
MLINESTYLE
  5
18
102
{ACAD_REACTORS
330
17
102
}
100
AcDbMlineStyle
  2
STANDARD
 70
0
  3

 62
256
 51
90.0
 52
90.0
 71
2
 49
0.5
 62
256
  6
BYLAYER
 49
-0.5
 62
256
  6
BYLAYER
  0
LAYOUT
  5
374
102
{ACAD_REACTORS
330
1A
102
}
100
AcDbPlotSettings
  1

  2
none_device
  4

  6

 40
0.0
 41
0.0
 42
0.0
 43
0.0
 44
210.0
 45
297.0
 46
0.0
 47
0.0
 48
0.0
 49
0.0
140
0.0
141
0.0
142
1.0
143
1.0
 70
1024
 72
1
 73
0
 74
0
  7

 75
0
147
1.0
148
0.0
149
0.0
100
AcDbLayout
  1
Model
 70
0
 71
0
 10
0.0
 20
0.0
 11
210.0
 21
297.0
 12
0.0
 22
0.0
 32
0.0
 14
0.0
 24
0.0
 34
0.0
 15
0.0
 25
0.0
 35
0.0
146
0.0
 13
0.0
 23
0.0
 33
0.0
 16
1.0
 26
0.0
 36
0.0
 17
0.0
 27
1.0
 37
0.0
 76
0
330
211
345
0
346
0
  0
LAYOUT
  5
375
102
{ACAD_REACTORS
330
1A
102
}
100
AcDbPlotSettings
  1

  2
none_device
  4

  6

 40
0.0
 41
0.0
 42
0.0
 43
0.0
 44
210.0
 45
297.0
 46
0.0
 47
0.0
 48
0.0
 49
0.0
140
0.0
141
0.0
142
1.0
143
1.0
 70
0
 72
1
 73
0
 74
0
  7

 75
0
147
1.0
148
0.0
149
0.0
100
AcDbLayout
  1
Layout1
 70
0
 71
1
 10
0.0
 20
0.0
 11
210.0
 21
297.0
 12
0.0
 22
0.0
 32
0.0
 14
0.0
 24
0.0
 34
0.0
 15
0.0
 25
0.0
 35
0.0
146
0.0
 13
0.0
 23
0.0
 33
0.0
 16
1.0
 26
0.0
 36
0.0
 17
0.0
 27
1.0
 37
0.0
 76
0
330
212
345
0
346
0
  0
ENDSEC
  0
EOF
