999
DXF file: C:\Users\sesa63760\Dev\_Creo\CAD\MCADID0001896_3D-CAD\drw0001_3.dxf
999
Pro/ENGINEER 2019471 by Parametric Technology Corporation
  0
SECTION
  2
HEADER
  9
$ACADVER
  1
AC1024
  9
$DWGCODEPAGE
  3
ANSI_1252
  9
$EXTMAX
 10
104.6599112215
 20
148.019017299
 30
0.0
  9
$EXTMIN
 10
0.0
 20
0.0
 30
0.0
  9
$LIMMIN
 10
0.0
 20
0.0
  9
$LIMMAX
 10
104.6599112215
 20
148.019017299
  9
$VIEWCTR
 10
52.3299556108
 20
74.0095086495
  9
$VIEWSIZE
 40
148.019017299
  9
$CLAYER
  8
0
  9
$LTSCALE
 40
9.6486470536
  9
$CELTYPE
  6
BYLAYER
  9
$DIMSCALE
 40
1.0
  9
$DIMASZ
 40
1.2459513241
  9
$DIMEXO
 40
1.0
  9
$DIMDLI
 40
6.6663379643
  9
$DIMEXE
 40
1.0
  9
$DIMCEN
 40
1.5788695179
  9
$DIMLFAC
 40
1.0
  9
$DIMBLK
  1
_FILLED
  9
$DIMALT
 70
0
  9
$DIMALTF
 40
0.0393700787
  9
$DIMTXT
 40
1.7443318537
  9
$DIMTOL
 70
1
  9
$DIMLIM
 70
0
  9
$DIMTFAC
 40
1.0
  9
$DIMTP
 40
0.01
  9
$DIMTM
 40
0.01
  9
$DIMGAP
 40
0.625
  9
$DIMDSEP
 70
46
  9
$AUNITS
 70
0
  9
$PDMODE
 70
3
  9
$PDSIZE
 40
0.3125
  9
$HANDSEED
  5
305
  9
$TILEMODE
 70
1
  9
$MEASUREMENT
 70
1
  9
$INSUNITS
 70
4
  0
ENDSEC
  0
SECTION
  2
CLASSES
  0
CLASS
  1
ACDBDICTIONARYWDFLT
  2
AcDbDictionaryWithDefault
  3
AutoCAD 2000
 90
0
 91
1
280
0
281
0
  0
CLASS
  1
ACDBPLACEHOLDER
  2
AcDbPlaceHolder
  3
AutoCAD 2000
 90
0
 91
1
280
0
281
0
  0
CLASS
  1
LAYOUT
  2
AcDbLayout
  3
AutoCAD 2000
 90
0
 91
0
280
0
281
0
  0
ENDSEC
  0
SECTION
  2
TABLES
  0
TABLE
  2
VPORT
  5
8
100
AcDbSymbolTable
 70
2
  0
VPORT
  5
1F4
100
AcDbSymbolTableRecord
100
AcDbViewportTableRecord
  2
*ACTIVE
 70
0
 10
0.0
 20
0.0
 11
1.0
 21
1.0
 12
52.3299556108
 22
74.0095086495
 13
0.0
 23
0.0
 14
1.0
 24
1.0
 15
0.0
 25
0.0
 16
0.0
 26
0.0
 36
1.0
 17
0.0
 27
0.0
 37
0.0
 40
148.019017299
 41
0.7070707071
 42
50.0
 43
0.0
 44
0.0
 50
0.0
 51
0.0
 71
0
 72
100
 73
1
 74
1
 75
0
 76
0
 77
0
 78
0
  0
ENDTAB
  0
TABLE
  2
LTYPE
  5
5
100
AcDbSymbolTable
 70
6
  0
LTYPE
  5
14
100
AcDbSymbolTableRecord
100
AcDbLinetypeTableRecord
  2
BYBLOCK
 70
0
  3

 72
65
 73
0
 40
0.0
  0
LTYPE
  5
15
100
AcDbSymbolTableRecord
100
AcDbLinetypeTableRecord
  2
BYLAYER
 70
0
  3

 72
65
 73
0
 40
0.0
  0
LTYPE
  5
16
100
AcDbSymbolTableRecord
100
AcDbLinetypeTableRecord
  2
CONTINUOUS
 70
64
  3
Solid line
 72
65
 73
0
 40
0.0
  0
LTYPE
  5
1F5
100
AcDbSymbolTableRecord
100
AcDbLinetypeTableRecord
  2
CENTER
 70
64
  3
____ _ ____ _ ____ _ ____ _ ____ _ ____ _ ____
 72
65
 73
4
 40
0.6
 49
0.375
 74
0
 49
-0.075
 74
0
 49
0.075
 74
0
 49
-0.075
 74
0
  0
LTYPE
  5
1F6
100
AcDbSymbolTableRecord
100
AcDbLinetypeTableRecord
  2
HIDDEN
 70
64
  3
- - - - - - - - - - - - - - - - - - - -
 72
65
 73
2
 40
0.2
 49
0.1
 74
0
 49
-0.1
 74
0
  0
LTYPE
  5
1F7
100
AcDbSymbolTableRecord
100
AcDbLinetypeTableRecord
  2
PHANTOM
 70
64
  3
_____ _ _ _____ _ _ _____ _ _ _____
 72
65
 73
6
 40
0.8
 49
0.45
 74
0
 49
-0.05
 74
0
 49
0.1
 74
0
 49
-0.05
 74
0
 49
0.1
 74
0
 49
-0.05
 74
0
  0
LTYPE
  5
1F8
100
AcDbSymbolTableRecord
100
AcDbLinetypeTableRecord
  2
DOT
 70
64
  3
. . . . . . . . . . . . . . . . . . . .
 72
65
 73
2
 40
0.2
 49
0.1
 74
0
 49
-0.1
 74
0
  0
LTYPE
  5
1F9
100
AcDbSymbolTableRecord
100
AcDbLinetypeTableRecord
  2
DASHED
 70
64
  3
- - - - - - - - - - - - - - - - - - - -
 72
65
 73
2
 40
0.2
 49
0.1
 74
0
 49
-0.1
 74
0
  0
ENDTAB
  0
TABLE
  2
LAYER
  5
2
100
AcDbSymbolTable
 70
36
  0
LAYER
  5
10
100
AcDbSymbolTableRecord
100
AcDbLayerTableRecord
  2
0
 70
0
 62
7
  6
CONTINUOUS
370
-3
390
F
  0
LAYER
  5
1FA
100
AcDbSymbolTableRecord
100
AcDbLayerTableRecord
  2
DEFAULT_1
 70
0
 62
7
  6
CENTER
370
-3
390
F
  0
LAYER
  5
1FB
100
AcDbSymbolTableRecord
100
AcDbLayerTableRecord
  2
DEFAULT_2
 70
0
 62
8
  6
HIDDEN
370
-3
390
F
  0
LAYER
  5
1FC
100
AcDbSymbolTableRecord
100
AcDbLayerTableRecord
  2
DEFAULT_3
 70
0
 62
7
  6
PHANTOM
370
-3
390
F
  0
LAYER
  5
1FD
100
AcDbSymbolTableRecord
100
AcDbLayerTableRecord
  2
00_COMPONENTS
 70
0
 62
7
  6
CONTINUOUS
370
-3
390
F
  0
LAYER
  5
1FE
100
AcDbSymbolTableRecord
100
AcDbLayerTableRecord
  2
01_1_DEFAULT_DATUMS
 70
0
 62
7
  6
CONTINUOUS
370
-3
390
F
  0
LAYER
  5
1FF
100
AcDbSymbolTableRecord
100
AcDbLayerTableRecord
  2
01_PLANES
 70
0
 62
7
  6
CONTINUOUS
370
-3
390
F
  0
LAYER
  5
200
100
AcDbSymbolTableRecord
100
AcDbLayerTableRecord
  2
02_COORD_SYS
 70
0
 62
7
  6
CONTINUOUS
370
-3
390
F
  0
LAYER
  5
201
100
AcDbSymbolTableRecord
100
AcDbLayerTableRecord
  2
03_AXES
 70
0
 62
7
  6
CONTINUOUS
370
-3
390
F
  0
LAYER
  5
202
100
AcDbSymbolTableRecord
100
AcDbLayerTableRecord
  2
04_POINTS
 70
0
 62
7
  6
CONTINUOUS
370
-3
390
F
  0
LAYER
  5
203
100
AcDbSymbolTableRecord
100
AcDbLayerTableRecord
  2
05_CURVES
 70
0
 62
7
  6
CONTINUOUS
370
-3
390
F
  0
LAYER
  5
204
100
AcDbSymbolTableRecord
100
AcDbLayerTableRecord
  2
06_SURFS
 70
0
 62
7
  6
CONTINUOUS
370
-3
390
F
  0
LAYER
  5
205
100
AcDbSymbolTableRecord
100
AcDbLayerTableRecord
  2
07_COSMETICS
 70
0
 62
7
  6
CONTINUOUS
370
-3
390
F
  0
LAYER
  5
206
100
AcDbSymbolTableRecord
100
AcDbLayerTableRecord
  2
10_NOTES
 70
0
 62
7
  6
CONTINUOUS
370
-3
390
F
  0
LAYER
  5
207
100
AcDbSymbolTableRecord
100
AcDbLayerTableRecord
  2
11_NOTES_PUB
 70
0
 62
7
  6
CONTINUOUS
370
-3
390
F
  0
LAYER
  5
208
100
AcDbSymbolTableRecord
100
AcDbLayerTableRecord
  2
13_REF_GTOL
 70
0
 62
7
  6
CONTINUOUS
370
-3
390
F
  0
LAYER
  5
209
100
AcDbSymbolTableRecord
100
AcDbLayerTableRecord
  2
16_MISC
 70
0
 62
7
  6
CONTINUOUS
370
-3
390
F
  0
LAYER
  5
20A
100
AcDbSymbolTableRecord
100
AcDbLayerTableRecord
  2
17_NO_PRINT
 70
0
 62
7
  6
CONTINUOUS
370
-3
390
F
  0
LAYER
  5
20B
100
AcDbSymbolTableRecord
100
AcDbLayerTableRecord
  2
18_DATUM_CAMS_JOINTS
 70
0
 62
7
  6
CONTINUOUS
370
-3
390
F
  0
LAYER
  5
20C
100
AcDbSymbolTableRecord
100
AcDbLayerTableRecord
  2
19_DATUM_FUNCTIONAL
 70
0
 62
7
  6
CONTINUOUS
370
-3
390
F
  0
LAYER
  5
20D
100
AcDbSymbolTableRecord
100
AcDbLayerTableRecord
  2
20_DATUM_KINEMATIC_SCHEME
 70
0
 62
7
  6
CONTINUOUS
370
-3
390
F
  0
ENDTAB
  0
TABLE
  2
STYLE
  5
3
100
AcDbSymbolTable
 70
1
  0
STYLE
  5
11
100
AcDbSymbolTableRecord
100
AcDbTextStyleTableRecord
  2
STANDARD
 70
0
 40
0.0
 41
0.8
 50
0.0
 71
0
 42
0.2
  3
txt
  4

  0
STYLE
  5
20E
100
AcDbSymbolTableRecord
100
AcDbTextStyleTableRecord
  2
TEXTSTYLE_1
 70
0
 40
0.0
 41
0.8
 50
0.0
 71
0
 42
0.2
  3
gdt
  4

  0
ENDTAB
  0
TABLE
  2
VIEW
  5
6
100
AcDbSymbolTable
 70
0
  0
ENDTAB
  0
TABLE
  2
UCS
  5
7
100
AcDbSymbolTable
 70
0
  0
ENDTAB
  0
TABLE
  2
APPID
  5
9
100
AcDbSymbolTable
 70
1
  0
APPID
  5
20F
100
AcDbSymbolTableRecord
100
AcDbRegAppTableRecord
  2
ACAD
 70
0
  0
ENDTAB
  0
TABLE
  2
BLOCK_RECORD
  5
1
100
AcDbSymbolTable
 70
0
  0
BLOCK_RECORD
  5
210
100
AcDbSymbolTableRecord
100
AcDbBlockTableRecord
  2
*Model_Space
  0
BLOCK_RECORD
  5
211
100
AcDbSymbolTableRecord
100
AcDbBlockTableRecord
  2
*Paper_Space
  0
BLOCK_RECORD
  5
212
100
AcDbSymbolTableRecord
100
AcDbBlockTableRecord
  2
_FILLED
  0
ENDTAB
  0
TABLE
  2
DIMSTYLE
  5
A
100
AcDbSymbolTable
 70
1
100
AcDbDimStyleTable
 71
0
  0
DIMSTYLE
105
213
100
AcDbSymbolTableRecord
100
AcDbDimStyleTableRecord
  2
STANDARD
 70
0
  3

  4

 40
1.0
 41
1.2459513241
 42
1.0
 43
0.38
 44
1.0
 45
0.0
 46
0.0
 47
0.01
 48
0.01
140
1.7443318537
141
0.09
142
0.0
143
25.4
144
1.0
145
0.0
146
1.0
147
0.625
 71
1
 72
0
 73
0
 74
0
 75
0
 76
0
 77
1
 78
8
 79
2
170
0
171
1
172
0
173
0
174
0
175
0
176
0
177
0
178
0
270
2
179
2
271
2
272
2
273
2
274
2
275
0
280
0
281
0
282
0
283
1
284
8
285
0
286
0
287
3
288
0
340
11
278
46
341
212
342
212
343
212
344
212
  0
ENDTAB
  0
ENDSEC
  0
SECTION
  2
BLOCKS
  0
BLOCK
  5
20
100
AcDbEntity
  8
0
100
AcDbBlockBegin
  2
*Model_Space
 70
0
 10
0.0
 20
0.0
 30
0.0
  3
*Model_Space
  1

  0
ENDBLK
  5
21
100
AcDbEntity
  8
0
100
AcDbBlockEnd
  0
BLOCK
  5
1C
100
AcDbEntity
  8
0
100
AcDbBlockBegin
  2
*Paper_Space
 70
0
 10
0.0
 20
0.0
 30
0.0
  3
*Paper_Space
  1

  0
ENDBLK
  5
1D
100
AcDbEntity
  8
0
100
AcDbBlockEnd
  0
BLOCK
  5
214
100
AcDbEntity
  8
0
100
AcDbBlockBegin
  2
_FILLED
 70
64
 10
0.0
 20
0.0
  3
_FILLED
  1

  0
SOLID
  5
215
100
AcDbEntity
  8
0
  6
BYBLOCK
 62
0
100
AcDbTrace
 10
0.0
 20
0.0
 11
-1.0
 21
0.25
 12
-1.0
 22
-0.25
 13
-1.0
 23
-0.25
  0
ENDBLK
  5
216
100
AcDbEntity
  8
0
  6
BYBLOCK
 62
0
100
AcDbBlockEnd
  0
ENDSEC
  0
SECTION
  2
ENTITIES
  0
LINE
  5
217
100
AcDbEntity
  8
0
100
AcDbLine
 62
7
  6
CONTINUOUS
 10
12.3811265845
 20
71.1718570491
 11
12.3811268397
 21
77.7718568814
  0
LINE
  5
218
100
AcDbEntity
  8
0
100
AcDbLine
 62
7
  6
CONTINUOUS
 10
14.3811245165
 20
79.5859643221
 11
14.3811270116
 21
81.4718561415
  0
LINE
  5
219
100
AcDbEntity
  8
0
100
AcDbLine
 62
7
  6
CONTINUOUS
 10
14.3811266801
 20
67.4718562925
 11
14.3811267184
 21
69.3577498545
  0
LINE
  5
21A
100
AcDbEntity
  8
0
100
AcDbLine
 62
7
  6
CONTINUOUS
 10
15.3811266323
 20
70.9718574693
 11
15.38112666
 21
72.4718569961
  0
LINE
  5
21B
100
AcDbEntity
  8
0
100
AcDbLine
 62
7
  6
CONTINUOUS
 10
15.3811266242
 20
76.4718569886
 11
15.3811266242
 21
77.9718565474
  0
LINE
  5
21C
100
AcDbEntity
  8
0
100
AcDbLine
 62
7
  6
CONTINUOUS
 10
16.1775658815
 20
87.5218563051
 11
16.1775658815
 21
82.4718563051
  0
LINE
  5
21D
100
AcDbEntity
  8
0
100
AcDbLine
 62
7
  6
CONTINUOUS
 10
16.1775658815
 20
66.4718563051
 11
16.1775658815
 21
61.2218563051
  0
LINE
  5
21E
100
AcDbEntity
  8
0
100
AcDbLine
 62
7
  6
CONTINUOUS
 10
16.1775658815
 20
70.9718574547
 11
16.1775658815
 21
77.9718565024
  0
LINE
  5
21F
100
AcDbEntity
  8
0
100
AcDbLine
 62
7
  6
CONTINUOUS
 10
16.2811267577
 20
77.9718565474
 11
16.2811266665
 21
70.9718574575
  0
LINE
  5
220
100
AcDbEntity
  8
0
100
AcDbLine
 62
7
  6
CONTINUOUS
 10
17.2811268579
 20
80.2718567912
 11
17.2811265664
 21
68.6718567912
  0
LINE
  5
221
100
AcDbEntity
  8
0
100
AcDbLine
 62
7
  6
CONTINUOUS
 10
18.5811270537
 20
67.7218309597
 11
18.5811270537
 21
66.4718563051
  0
LINE
  5
222
100
AcDbEntity
  8
0
100
AcDbLine
 62
7
  6
CONTINUOUS
 10
18.5811270537
 20
81.2218309597
 11
18.5811270537
 21
82.4718563051
  0
LINE
  5
223
100
AcDbEntity
  8
0
100
AcDbLine
 62
7
  6
CONTINUOUS
 10
18.6775658815
 20
84.7218563051
 11
18.6775658815
 21
84.0218563045
  0
LINE
  5
224
100
AcDbEntity
  8
0
100
AcDbLine
 62
7
  6
CONTINUOUS
 10
18.6775658815
 20
64.7218563056
 11
18.6775658815
 21
64.0218563051
  0
LINE
  5
225
100
AcDbEntity
  8
0
100
AcDbLine
 62
7
  6
CONTINUOUS
 10
19.0909746735
 20
68.6718567931
 11
19.0912387765
 21
79.1000222595
  0
LINE
  5
226
100
AcDbEntity
  8
0
100
AcDbLine
 62
7
  6
CONTINUOUS
 10
19.1775658815
 20
66.2718563065
 11
19.1775658815
 21
67.5218563051
  0
LINE
  5
227
100
AcDbEntity
  8
0
100
AcDbLine
 62
7
  6
CONTINUOUS
 10
19.1775660346
 20
81.2218563051
 11
19.1775658815
 21
82.4718563036
  0
LINE
  5
228
100
AcDbEntity
  8
0
100
AcDbLine
 62
7
  6
CONTINUOUS
 10
19.8893100431
 20
79.1010014715
 11
19.8893100431
 21
71.3887069901
  0
LINE
  5
229
100
AcDbEntity
  8
0
100
AcDbLine
 62
7
  6
CONTINUOUS
 10
20.785420101
 20
71.4358847416
 11
20.785420101
 21
79.2718567912
  0
LINE
  5
22A
100
AcDbEntity
  8
0
100
AcDbLine
 62
7
  6
CONTINUOUS
 10
21.1775658815
 20
75.8718563051
 11
21.1775658815
 21
72.8718563051
  0
LINE
  5
22B
100
AcDbEntity
  8
0
100
AcDbLine
 62
7
  6
CONTINUOUS
 10
21.6697046545
 20
64.0218563051
 11
21.6697046545
 21
64.7218559282
  0
LINE
  5
22C
100
AcDbEntity
  8
0
100
AcDbLine
 62
7
  6
CONTINUOUS
 10
21.6775658815
 20
84.7218563051
 11
21.6775658815
 21
84.0218562981
  0
LINE
  5
22D
100
AcDbEntity
  8
0
100
AcDbLine
 62
7
  6
CONTINUOUS
 10
21.7857619719
 20
77.4943457703
 11
21.7857619719
 21
75.4338108838
  0
LINE
  5
22E
100
AcDbEntity
  8
0
100
AcDbLine
 62
7
  6
CONTINUOUS
 10
21.7857619719
 20
73.4844189362
 11
21.7857619719
 21
71.4238244108
  0
LINE
  5
22F
100
AcDbEntity
  8
0
100
AcDbLine
 62
7
  6
CONTINUOUS
 10
15.3811271838
 20
82.4718563051
 11
14.3811263878
 21
81.4718561415
  0
LINE
  5
230
100
AcDbEntity
  8
0
100
AcDbLine
 62
7
  6
CONTINUOUS
 10
14.3811266897
 20
67.4718562925
 11
15.3811282051
 21
66.471855601
  0
LINE
  5
231
100
AcDbEntity
  8
0
100
AcDbLine
 62
7
  6
CONTINUOUS
 10
23.0854398376
 20
75.4985180252
 11
23.0854398376
 21
78.3548967033
  0
LINE
  5
232
100
AcDbEntity
  8
0
100
AcDbLine
 62
7
  6
CONTINUOUS
 10
23.0855107967
 20
70.5586411372
 11
23.0854772447
 21
73.4197297314
  0
LINE
  5
233
100
AcDbEntity
  8
0
100
AcDbLine
 62
7
  6
CONTINUOUS
 10
23.5775658815
 20
87.5218563051
 11
23.5775658815
 21
86.7218563051
  0
LINE
  5
234
100
AcDbEntity
  8
0
100
AcDbLine
 62
7
  6
CONTINUOUS
 10
23.5775658815
 20
62.0218563051
 11
23.5775658815
 21
61.2218563051
  0
LINE
  5
235
100
AcDbEntity
  8
0
100
AcDbLine
 62
7
  6
CONTINUOUS
 10
23.6775658815
 20
72.8718563051
 11
23.6775658815
 21
74.3192987941
  0
LINE
  5
236
100
AcDbEntity
  8
0
100
AcDbLine
 62
7
  6
CONTINUOUS
 10
23.6775658815
 20
74.598931026
 11
23.6775658815
 21
75.8718563051
  0
LINE
  5
237
100
AcDbEntity
  8
0
100
AcDbLine
 62
7
  6
CONTINUOUS
 10
14.3811251381
 20
79.5859643221
 11
12.3811267762
 21
77.7718568814
  0
LINE
  5
238
100
AcDbEntity
  8
0
100
AcDbLine
 62
7
  6
CONTINUOUS
 10
12.3811266481
 20
71.1718570491
 11
14.3811267088
 21
69.3577498545
  0
LINE
  5
239
100
AcDbEntity
  8
0
100
AcDbLine
 62
7
  6
CONTINUOUS
 10
27.5775658815
 20
87.5218563051
 11
27.5775658815
 21
86.7218563051
  0
LINE
  5
23A
100
AcDbEntity
  8
0
100
AcDbLine
 62
7
  6
CONTINUOUS
 10
27.5775658815
 20
62.0218563051
 11
27.5775658815
 21
61.2218563051
  0
LINE
  5
23B
100
AcDbEntity
  8
0
100
AcDbLine
 62
7
  6
CONTINUOUS
 10
20.785420101
 20
79.2718567912
 11
21.785420101
 21
80.2718567912
  0
LINE
  5
23C
100
AcDbEntity
  8
0
100
AcDbLine
 62
7
  6
CONTINUOUS
 10
24.807829943
 20
77.0935074551
 11
26.3989700851
 21
69.952905052
  0
LINE
  5
23D
100
AcDbEntity
  8
0
100
AcDbLine
 62
7
  6
CONTINUOUS
 10
29.885628128
 20
80.2718567912
 11
29.885628128
 21
68.6718567912
  0
LINE
  5
23E
100
AcDbEntity
  8
0
100
AcDbLine
 62
7
  6
CONTINUOUS
 10
30.0775658815
 20
64.0218563051
 11
30.0775658815
 21
64.7056913582
  0
LINE
  5
23F
100
AcDbEntity
  8
0
100
AcDbLine
 62
7
  6
CONTINUOUS
 10
30.0775658815
 20
84.0218562833
 11
30.0775658815
 21
84.7218563051
  0
LINE
  5
240
100
AcDbEntity
  8
0
100
AcDbLine
 62
7
  6
CONTINUOUS
 10
30.8775658815
 20
62.0218563051
 11
30.8775658815
 21
67.5218563051
  0
LINE
  5
241
100
AcDbEntity
  8
0
100
AcDbLine
 62
7
  6
CONTINUOUS
 10
30.8775658815
 20
81.2218563051
 11
30.8775658815
 21
86.7218563051
  0
LINE
  5
242
100
AcDbEntity
  8
0
100
AcDbLine
 62
7
  6
CONTINUOUS
 10
28.286889622
 20
72.4508894427
 11
25.7339515983
 21
77.4587740318
  0
LINE
  5
243
100
AcDbEntity
  8
0
100
AcDbLine
 62
7
  6
CONTINUOUS
 10
31.281127302
 20
67.7218309597
 11
31.281127302
 21
81.2218309597
  0
LINE
  5
244
100
AcDbEntity
  8
0
100
AcDbLine
 62
7
  6
CONTINUOUS
 10
31.3775658815
 20
87.8218563051
 11
31.3775658815
 21
81.2218309597
  0
LINE
  5
245
100
AcDbEntity
  8
0
100
AcDbLine
 62
7
  6
CONTINUOUS
 10
31.3775658815
 20
67.5218563051
 11
31.3775658815
 21
60.9218563051
  0
LINE
  5
246
100
AcDbEntity
  8
0
100
AcDbLine
 62
7
  6
CONTINUOUS
 10
31.8811269455
 20
67.7218309597
 11
31.8811269152
 21
66.471855601
  0
LINE
  5
247
100
AcDbEntity
  8
0
100
AcDbLine
 62
7
  6
CONTINUOUS
 10
31.8811272589
 20
81.2218309597
 11
31.8811272734
 21
82.4718563051
  0
LINE
  5
248
100
AcDbEntity
  8
0
100
AcDbLine
 62
7
  6
CONTINUOUS
 10
33.881127302
 20
67.7218309597
 11
33.881127302
 21
81.2218309597
  0
LINE
  5
249
100
AcDbEntity
  8
0
100
AcDbLine
 62
7
  6
CONTINUOUS
 10
34.5775658815
 20
85.2218563051
 11
34.5775658815
 21
75.1218563051
  0
LINE
  5
24A
100
AcDbEntity
  8
0
100
AcDbLine
 62
7
  6
CONTINUOUS
 10
34.5775658815
 20
73.6218563051
 11
34.5775658815
 21
63.5218563051
  0
LINE
  5
24B
100
AcDbEntity
  8
0
100
AcDbLine
 62
7
  6
CONTINUOUS
 10
94.8775658815
 20
60.9218563051
 11
55.9275658815
 21
60.9218563051
  0
LINE
  5
24C
100
AcDbEntity
  8
0
100
AcDbLine
 62
7
  6
CONTINUOUS
 10
52.0275658815
 20
60.9218563051
 11
16.4775658815
 21
60.9218563051
  0
LINE
  5
24D
100
AcDbEntity
  8
0
100
AcDbLine
 62
7
  6
CONTINUOUS
 10
56.6275658843
 20
61.0218563051
 11
55.6275658843
 21
61.0218563051
  0
LINE
  5
24E
100
AcDbEntity
  8
0
100
AcDbLine
 62
7
  6
CONTINUOUS
 10
52.3275658843
 20
61.0218563051
 11
51.3275658843
 21
61.0218563051
  0
LINE
  5
24F
100
AcDbEntity
  8
0
100
AcDbLine
 62
7
  6
CONTINUOUS
 10
87.7775658815
 20
61.2218563051
 11
83.7775658815
 21
61.2218563051
  0
LINE
  5
250
100
AcDbEntity
  8
0
100
AcDbLine
 62
7
  6
CONTINUOUS
 10
27.5775658815
 20
61.2218563051
 11
23.5775658815
 21
61.2218563051
  0
LINE
  5
251
100
AcDbEntity
  8
0
100
AcDbLine
 62
7
  6
CONTINUOUS
 10
63.1775658815
 20
61.2218563051
 11
67.1775658815
 21
61.2218563051
  0
LINE
  5
252
100
AcDbEntity
  8
0
100
AcDbLine
 62
7
  6
CONTINUOUS
 10
55.6275658843
 20
61.2674382274
 11
52.3275658843
 21
61.2674382274
  0
LINE
  5
253
100
AcDbEntity
  8
0
100
AcDbLine
 62
7
  6
CONTINUOUS
 10
23.5775658815
 20
62.0218563051
 11
27.5775658815
 21
62.0218563051
  0
LINE
  5
254
100
AcDbEntity
  8
0
100
AcDbLine
 62
7
  6
CONTINUOUS
 10
30.8775658815
 20
62.0218563051
 11
31.3775658815
 21
62.0218563051
  0
LINE
  5
255
100
AcDbEntity
  8
0
100
AcDbLine
 62
7
  6
CONTINUOUS
 10
63.1775658815
 20
62.0218563051
 11
67.1775658815
 21
62.0218563051
  0
LINE
  5
256
100
AcDbEntity
  8
0
100
AcDbLine
 62
7
  6
CONTINUOUS
 10
83.7775658815
 20
62.0218563051
 11
87.7775658815
 21
62.0218563051
  0
LINE
  5
257
100
AcDbEntity
  8
0
100
AcDbLine
 62
7
  6
CONTINUOUS
 10
44.9775658815
 20
71.8718563051
 11
44.9775658815
 21
73.6218563051
  0
LINE
  5
258
100
AcDbEntity
  8
0
100
AcDbLine
 62
7
  6
CONTINUOUS
 10
44.9775658815
 20
75.1218563051
 11
44.9775658815
 21
76.8718563051
  0
LINE
  5
259
100
AcDbEntity
  8
0
100
AcDbLine
 62
7
  6
CONTINUOUS
 10
52.4069002603
 20
63.2675874992
 11
55.5482265136
 21
63.2675874992
  0
LINE
  5
25A
100
AcDbEntity
  8
0
100
AcDbLine
 62
7
  6
CONTINUOUS
 10
19.4275658815
 20
63.2718563051
 11
29.3275658815
 21
63.2718563051
  0
LINE
  5
25B
100
AcDbEntity
  8
0
100
AcDbLine
 62
7
  6
CONTINUOUS
 10
69.4197227443
 20
63.2718563051
 11
91.9275658815
 21
63.2718563051
  0
LINE
  5
25C
100
AcDbEntity
  8
0
100
AcDbLine
 62
7
  6
CONTINUOUS
 10
53.7675658815
 20
63.2972611096
 11
54.5675658815
 21
63.2972611096
  0
LINE
  5
25D
100
AcDbEntity
  8
0
100
AcDbLine
 62
7
  6
CONTINUOUS
 10
34.5775658815
 20
63.5218563051
 11
50.3692421737
 21
63.5218563051
  0
LINE
  5
25E
100
AcDbEntity
  8
0
100
AcDbLine
 62
7
  6
CONTINUOUS
 10
57.5858895948
 20
63.5218563051
 11
61.6775658815
 21
63.5218563051
  0
LINE
  5
25F
100
AcDbEntity
  8
0
100
AcDbLine
 62
7
  6
CONTINUOUS
 10
53.2675658815
 20
63.8968563051
 11
52.6482831808
 21
63.8968563051
  0
LINE
  5
260
100
AcDbEntity
  8
0
100
AcDbLine
 62
7
  6
CONTINUOUS
 10
54.9675658815
 20
63.9218563051
 11
55.2818605311
 21
63.9218563051
  0
LINE
  5
261
100
AcDbEntity
  8
0
100
AcDbLine
 62
7
  6
CONTINUOUS
 10
67.1775658815
 20
64.9218563051
 11
62.7775658815
 21
64.9218563051
  0
LINE
  5
262
100
AcDbEntity
  8
0
100
AcDbLine
 62
7
  6
CONTINUOUS
 10
29.3237669907
 20
65.4718552665
 11
22.4196864637
 21
65.4718559282
  0
LINE
  5
263
100
AcDbEntity
  8
0
100
AcDbLine
 62
7
  6
CONTINUOUS
 10
22.3354626798
 20
65.4671097707
 11
19.427565881
 21
65.4718563056
  0
LINE
  5
264
100
AcDbEntity
  8
0
100
AcDbLine
 62
7
  6
CONTINUOUS
 10
55.4916915538
 20
63.4783170654
 11
54.9778287731
 21
63.5087405529
  0
LINE
  5
265
100
AcDbEntity
  8
0
100
AcDbLine
 62
7
  6
CONTINUOUS
 10
53.2675658815
 20
63.6099974715
 11
52.5107768289
 21
63.6548035231
  0
LINE
  5
266
100
AcDbEntity
  8
0
100
AcDbLine
 62
7
  6
CONTINUOUS
 10
16.1775658815
 20
66.2718563051
 11
19.1775658815
 21
66.2718563051
  0
LINE
  5
267
100
AcDbEntity
  8
0
100
AcDbLine
 62
7
  6
CONTINUOUS
 10
31.3775658815
 20
66.4718556277
 11
31.8811269409
 21
66.471855601
  0
LINE
  5
268
100
AcDbEntity
  8
0
100
AcDbLine
 62
7
  6
CONTINUOUS
 10
19.1775658815
 20
66.4718562735
 11
15.3811282051
 21
66.4718563051
  0
LINE
  5
269
100
AcDbEntity
  8
0
100
AcDbLine
 62
7
  6
CONTINUOUS
 10
69.4197227443
 20
66.7218563051
 11
88.9275658815
 21
66.7218563051
  0
LINE
  5
26A
100
AcDbEntity
  8
0
100
AcDbLine
 62
7
  6
CONTINUOUS
 10
19.1775658815
 20
67.5218563051
 11
31.3775658815
 21
67.5218563051
  0
LINE
  5
26B
100
AcDbEntity
  8
0
100
AcDbLine
 62
7
  6
CONTINUOUS
 10
33.881127302
 20
67.7218309597
 11
18.5811270537
 21
67.7218309597
  0
LINE
  5
26C
100
AcDbEntity
  8
0
100
AcDbLine
 62
7
  6
CONTINUOUS
 10
29.885628128
 20
68.6718567912
 11
17.2811266366
 21
68.6718567912
  0
LINE
  5
26D
100
AcDbEntity
  8
0
100
AcDbLine
 62
7
  6
CONTINUOUS
 10
62.7775658815
 20
68.9218563051
 11
67.1775658815
 21
68.9218563051
  0
LINE
  5
26E
100
AcDbEntity
  8
0
100
AcDbLine
 62
7
  6
CONTINUOUS
 10
16.2811266665
 20
70.9718574575
 11
15.3811266323
 21
70.9718574693
  0
LINE
  5
26F
100
AcDbEntity
  8
0
100
AcDbLine
 62
7
  6
CONTINUOUS
 10
51.3275658843
 20
61.0218563051
 11
51.3275658843
 21
62.9718563051
  0
LINE
  5
270
100
AcDbEntity
  8
0
100
AcDbLine
 62
7
  6
CONTINUOUS
 10
51.3275658843
 20
85.7718563051
 11
51.3275658843
 21
87.7218563051
  0
LINE
  5
271
100
AcDbEntity
  8
0
100
AcDbLine
 62
7
  6
CONTINUOUS
 10
52.3275658843
 20
87.7218563051
 11
52.3275658843
 21
85.7718563051
  0
LINE
  5
272
100
AcDbEntity
  8
0
100
AcDbLine
 62
7
  6
CONTINUOUS
 10
52.3275658843
 20
62.9718563051
 11
52.3275658843
 21
61.0218563051
  0
LINE
  5
273
100
AcDbEntity
  8
0
100
AcDbLine
 62
7
  6
CONTINUOUS
 10
53.2675658815
 20
63.3353969145
 11
53.2675658815
 21
64.4313760496
  0
LINE
  5
274
100
AcDbEntity
  8
0
100
AcDbLine
 62
7
  6
CONTINUOUS
 10
53.2675658815
 20
84.312100233
 11
53.2675658815
 21
85.3997780839
  0
LINE
  5
275
100
AcDbEntity
  8
0
100
AcDbLine
 62
7
  6
CONTINUOUS
 10
53.7675658815
 20
63.2972611096
 11
53.7675658815
 21
64.1711749547
  0
LINE
  5
276
100
AcDbEntity
  8
0
100
AcDbLine
 62
7
  6
CONTINUOUS
 10
53.7675658815
 20
84.5640000438
 11
53.7675658815
 21
85.4379138889
  0
LINE
  5
277
100
AcDbEntity
  8
0
100
AcDbLine
 62
7
  6
CONTINUOUS
 10
29.3836141407
 20
72.1594197795
 11
28.739826254
 21
72.1588705988
  0
LINE
  5
278
100
AcDbEntity
  8
0
100
AcDbLine
 62
7
  6
CONTINUOUS
 10
61.6775658815
 20
71.8718563051
 11
44.9775658815
 21
71.8718563051
  0
LINE
  5
279
100
AcDbEntity
  8
0
100
AcDbLine
 62
7
  6
CONTINUOUS
 10
16.1775658815
 20
72.8718563051
 11
16.2811266719
 21
72.8718563051
  0
LINE
  5
27A
100
AcDbEntity
  8
0
100
AcDbLine
 62
7
  6
CONTINUOUS
 10
21.1775658815
 20
72.8718563051
 11
21.7857619719
 21
72.8718563051
  0
LINE
  5
27B
100
AcDbEntity
  8
0
100
AcDbLine
 62
7
  6
CONTINUOUS
 10
23.0854736206
 20
72.8718563051
 11
23.6775658815
 21
72.8718563051
  0
LINE
  5
27C
100
AcDbEntity
  8
0
100
AcDbLine
 62
7
  6
CONTINUOUS
 10
44.9775658815
 20
73.6218563051
 11
34.5775658815
 21
73.6218563051
  0
LINE
  5
27D
100
AcDbEntity
  8
0
100
AcDbLine
 62
7
  6
CONTINUOUS
 10
54.5675658815
 20
85.4379138889
 11
54.5675658815
 21
84.5488012185
  0
LINE
  5
27E
100
AcDbEntity
  8
0
100
AcDbLine
 62
7
  6
CONTINUOUS
 10
54.5675658815
 20
64.1863737799
 11
54.5675658815
 21
63.2972611096
  0
LINE
  5
27F
100
AcDbEntity
  8
0
100
AcDbLine
 62
7
  6
CONTINUOUS
 10
54.9675658815
 20
63.3353969145
 11
54.9675658815
 21
64.236141058
  0
LINE
  5
280
100
AcDbEntity
  8
0
100
AcDbLine
 62
7
  6
CONTINUOUS
 10
54.9675658815
 20
84.5079143866
 11
54.9675658815
 21
85.399778084
  0
LINE
  5
281
100
AcDbEntity
  8
0
100
AcDbLine
 62
7
  6
CONTINUOUS
 10
55.6275658843
 20
61.0218563051
 11
55.6275658843
 21
62.9718563051
  0
LINE
  5
282
100
AcDbEntity
  8
0
100
AcDbLine
 62
7
  6
CONTINUOUS
 10
55.6275658843
 20
85.7718563051
 11
55.6275658843
 21
87.7218563051
  0
LINE
  5
283
100
AcDbEntity
  8
0
100
AcDbLine
 62
7
  6
CONTINUOUS
 10
56.6275658843
 20
87.7218563051
 11
56.6275658843
 21
85.7718563051
  0
LINE
  5
284
100
AcDbEntity
  8
0
100
AcDbLine
 62
7
  6
CONTINUOUS
 10
56.6275658843
 20
62.9718563051
 11
56.6275658843
 21
61.0218563051
  0
LINE
  5
285
100
AcDbEntity
  8
0
100
AcDbLine
 62
7
  6
CONTINUOUS
 10
34.5775658815
 20
75.1218563051
 11
44.9775658815
 21
75.1218563051
  0
LINE
  5
286
100
AcDbEntity
  8
0
100
AcDbLine
 62
7
  6
CONTINUOUS
 10
23.6775658815
 20
75.8718563051
 11
23.0854398376
 21
75.8718563051
  0
LINE
  5
287
100
AcDbEntity
  8
0
100
AcDbLine
 62
7
  6
CONTINUOUS
 10
21.7857619719
 20
75.8718563051
 11
21.1775658815
 21
75.8718563051
  0
LINE
  5
288
100
AcDbEntity
  8
0
100
AcDbLine
 62
7
  6
CONTINUOUS
 10
16.1775658815
 20
75.8718563051
 11
16.2811267473
 21
75.8718563051
  0
LINE
  5
289
100
AcDbEntity
  8
0
100
AcDbLine
 62
7
  6
CONTINUOUS
 10
44.9775658815
 20
76.8718563051
 11
61.6775658815
 21
76.8718563051
  0
LINE
  5
28A
100
AcDbEntity
  8
0
100
AcDbLine
 62
7
  6
CONTINUOUS
 10
15.3811266242
 20
77.9718565474
 11
16.2811267577
 21
77.9718565474
  0
LINE
  5
28B
100
AcDbEntity
  8
0
100
AcDbLine
 62
7
  6
CONTINUOUS
 10
19.2912438249
 20
79.3010014715
 11
19.6893100431
 21
79.3010014715
  0
LINE
  5
28C
100
AcDbEntity
  8
0
100
AcDbLine
 62
7
  6
CONTINUOUS
 10
67.1775658815
 20
79.8218563051
 11
62.7775658815
 21
79.8218563051
  0
LINE
  5
28D
100
AcDbEntity
  8
0
100
AcDbLine
 62
7
  6
CONTINUOUS
 10
17.2811267877
 20
80.2718567912
 11
29.885628128
 21
80.2718567912
  0
LINE
  5
28E
100
AcDbEntity
  8
0
100
AcDbLine
 62
7
  6
CONTINUOUS
 10
61.6775658815
 20
63.5218563051
 11
61.6775658815
 21
71.8718563051
  0
LINE
  5
28F
100
AcDbEntity
  8
0
100
AcDbLine
 62
7
  6
CONTINUOUS
 10
61.6775658815
 20
76.8718563051
 11
61.6775658815
 21
85.2218563051
  0
LINE
  5
290
100
AcDbEntity
  8
0
100
AcDbLine
 62
7
  6
CONTINUOUS
 10
62.7775658815
 20
83.8218563051
 11
62.7775658815
 21
79.8218563051
  0
LINE
  5
291
100
AcDbEntity
  8
0
100
AcDbLine
 62
7
  6
CONTINUOUS
 10
62.7775658815
 20
68.9218563051
 11
62.7775658815
 21
64.9218563051
  0
LINE
  5
292
100
AcDbEntity
  8
0
100
AcDbLine
 62
7
  6
CONTINUOUS
 10
33.881127302
 20
81.2218309597
 11
18.5811270537
 21
81.2218309597
  0
LINE
  5
293
100
AcDbEntity
  8
0
100
AcDbLine
 62
7
  6
CONTINUOUS
 10
88.9275658815
 20
82.0218563051
 11
69.4197227443
 21
82.0218563051
  0
LINE
  5
294
100
AcDbEntity
  8
0
100
AcDbLine
 62
7
  6
CONTINUOUS
 10
31.8811272734
 20
82.4718563051
 11
31.3775658815
 21
82.4718563051
  0
LINE
  5
295
100
AcDbEntity
  8
0
100
AcDbLine
 62
7
  6
CONTINUOUS
 10
15.3811271838
 20
82.4718563051
 11
19.1775659184
 21
82.4718563051
  0
LINE
  5
296
100
AcDbEntity
  8
0
100
AcDbLine
 62
7
  6
CONTINUOUS
 10
19.4275659139
 20
83.2718563045
 11
29.3275659629
 21
83.2718562833
  0
LINE
  5
297
100
AcDbEntity
  8
0
100
AcDbLine
 62
7
  6
CONTINUOUS
 10
63.1775658815
 20
61.2218563051
 11
63.1775658815
 21
62.0218563051
  0
LINE
  5
298
100
AcDbEntity
  8
0
100
AcDbLine
 62
7
  6
CONTINUOUS
 10
63.1775658815
 20
86.7218563051
 11
63.1775658815
 21
87.5218563051
  0
LINE
  5
299
100
AcDbEntity
  8
0
100
AcDbLine
 62
7
  6
CONTINUOUS
 10
63.4624019774
 20
64.9218563051
 11
63.4624019774
 21
68.9218563051
  0
LINE
  5
29A
100
AcDbEntity
  8
0
100
AcDbLine
 62
7
  6
CONTINUOUS
 10
63.4624019774
 20
79.8218563051
 11
63.4624019774
 21
83.8218563051
  0
LINE
  5
29B
100
AcDbEntity
  8
0
100
AcDbLine
 62
7
  6
CONTINUOUS
 10
65.3775658815
 20
68.9218563051
 11
65.3775658815
 21
64.9218563051
  0
LINE
  5
29C
100
AcDbEntity
  8
0
100
AcDbLine
 62
7
  6
CONTINUOUS
 10
65.3775658815
 20
79.8218563051
 11
65.3775658815
 21
83.8218563051
  0
LINE
  5
29D
100
AcDbEntity
  8
0
100
AcDbLine
 62
7
  6
CONTINUOUS
 10
55.4895383722
 20
85.2567306182
 11
54.9778287679
 21
85.226434599
  0
LINE
  5
29E
100
AcDbEntity
  8
0
100
AcDbLine
 62
7
  6
CONTINUOUS
 10
53.2675658815
 20
85.1251776422
 11
52.512816305
 21
85.0804923217
  0
LINE
  5
29F
100
AcDbEntity
  8
0
100
AcDbLine
 62
7
  6
CONTINUOUS
 10
62.7775658815
 20
83.8218563051
 11
67.1775658815
 21
83.8218563051
  0
LINE
  5
2A0
100
AcDbEntity
  8
0
100
AcDbLine
 62
7
  6
CONTINUOUS
 10
52.5986239684
 20
84.8968563051
 11
53.2675658815
 21
84.8968563051
  0
LINE
  5
2A1
100
AcDbEntity
  8
0
100
AcDbLine
 62
7
  6
CONTINUOUS
 10
52.5736239685
 20
84.9218563051
 11
53.2675658815
 21
84.9218563051
  0
LINE
  5
2A2
100
AcDbEntity
  8
0
100
AcDbLine
 62
7
  6
CONTINUOUS
 10
54.9675658815
 20
84.9218563051
 11
55.381507801
 21
84.9218563051
  0
LINE
  5
2A3
100
AcDbEntity
  8
0
100
AcDbLine
 62
7
  6
CONTINUOUS
 10
61.6775658815
 20
85.2218563051
 11
57.5858895948
 21
85.2218563051
  0
LINE
  5
2A4
100
AcDbEntity
  8
0
100
AcDbLine
 62
7
  6
CONTINUOUS
 10
50.3692421737
 20
85.2218563051
 11
34.5775658815
 21
85.2218563051
  0
LINE
  5
2A5
100
AcDbEntity
  8
0
100
AcDbLine
 62
7
  6
CONTINUOUS
 10
53.7675658815
 20
85.4379138889
 11
54.5675658815
 21
85.4379138889
  0
LINE
  5
2A6
100
AcDbEntity
  8
0
100
AcDbLine
 62
7
  6
CONTINUOUS
 10
52.4090944649
 20
85.4675874992
 11
55.5460373033
 21
85.4675874992
  0
LINE
  5
2A7
100
AcDbEntity
  8
0
100
AcDbLine
 62
7
  6
CONTINUOUS
 10
91.9275658815
 20
85.4718563051
 11
69.4197227443
 21
85.4718563051
  0
LINE
  5
2A8
100
AcDbEntity
  8
0
100
AcDbLine
 62
7
  6
CONTINUOUS
 10
29.3275658815
 20
85.4718563051
 11
19.4275658815
 21
85.4718563051
  0
LINE
  5
2A9
100
AcDbEntity
  8
0
100
AcDbLine
 62
7
  6
CONTINUOUS
 10
67.1775658815
 20
60.9218563051
 11
67.1775658815
 21
87.8218563051
  0
LINE
  5
2AA
100
AcDbEntity
  8
0
100
AcDbLine
 62
7
  6
CONTINUOUS
 10
68.6697227443
 20
84.7218563051
 11
68.6697227443
 21
64.0218563051
  0
LINE
  5
2AB
100
AcDbEntity
  8
0
100
AcDbLine
 62
7
  6
CONTINUOUS
 10
31.3775658815
 20
86.7218563051
 11
30.8775658815
 21
86.7218563051
  0
LINE
  5
2AC
100
AcDbEntity
  8
0
100
AcDbLine
 62
7
  6
CONTINUOUS
 10
23.5775658815
 20
86.7218563051
 11
27.5775658815
 21
86.7218563051
  0
LINE
  5
2AD
100
AcDbEntity
  8
0
100
AcDbLine
 62
7
  6
CONTINUOUS
 10
63.1775658815
 20
86.7218563051
 11
67.1775658815
 21
86.7218563051
  0
LINE
  5
2AE
100
AcDbEntity
  8
0
100
AcDbLine
 62
7
  6
CONTINUOUS
 10
83.7775658815
 20
86.7218563051
 11
87.7775658815
 21
86.7218563051
  0
LINE
  5
2AF
100
AcDbEntity
  8
0
100
AcDbLine
 62
7
  6
CONTINUOUS
 10
55.6275658843
 20
87.467736771
 11
52.3275658815
 21
87.467736771
  0
LINE
  5
2B0
100
AcDbEntity
  8
0
100
AcDbLine
 62
7
  6
CONTINUOUS
 10
87.7775658815
 20
87.5218563051
 11
83.7775658815
 21
87.5218563051
  0
LINE
  5
2B1
100
AcDbEntity
  8
0
100
AcDbLine
 62
7
  6
CONTINUOUS
 10
27.5775658815
 20
87.5218563051
 11
23.5775658815
 21
87.5218563051
  0
LINE
  5
2B2
100
AcDbEntity
  8
0
100
AcDbLine
 62
7
  6
CONTINUOUS
 10
63.1775658815
 20
87.5218563051
 11
67.1775658815
 21
87.5218563051
  0
LINE
  5
2B3
100
AcDbEntity
  8
0
100
AcDbLine
 62
7
  6
CONTINUOUS
 10
51.3275658843
 20
87.7218563051
 11
52.3275658843
 21
87.7218563051
  0
LINE
  5
2B4
100
AcDbEntity
  8
0
100
AcDbLine
 62
7
  6
CONTINUOUS
 10
55.6275658843
 20
87.7218563051
 11
56.6275658843
 21
87.7218563051
  0
LINE
  5
2B5
100
AcDbEntity
  8
0
100
AcDbLine
 62
7
  6
CONTINUOUS
 10
16.4775658815
 20
87.8218563051
 11
52.0275658815
 21
87.8218563051
  0
LINE
  5
2B6
100
AcDbEntity
  8
0
100
AcDbLine
 62
7
  6
CONTINUOUS
 10
55.9275658815
 20
87.8218563051
 11
94.8775658815
 21
87.8218563051
  0
LINE
  5
2B7
100
AcDbEntity
  8
0
100
AcDbLine
 62
7
  6
CONTINUOUS
 10
82.6775658815
 20
85.4718563051
 11
82.6775658815
 21
82.0218563051
  0
LINE
  5
2B8
100
AcDbEntity
  8
0
100
AcDbLine
 62
7
  6
CONTINUOUS
 10
82.6775658815
 20
66.7218563051
 11
82.6775658815
 21
63.2718563051
  0
LINE
  5
2B9
100
AcDbEntity
  8
0
100
AcDbLine
 62
7
  6
CONTINUOUS
 10
83.7775658815
 20
87.5218563051
 11
83.7775658815
 21
86.7218563051
  0
LINE
  5
2BA
100
AcDbEntity
  8
0
100
AcDbLine
 62
7
  6
CONTINUOUS
 10
83.7775658815
 20
62.0218563051
 11
83.7775658815
 21
61.2218563051
  0
LINE
  5
2BB
100
AcDbEntity
  8
0
100
AcDbLine
 62
7
  6
CONTINUOUS
 10
87.7775658815
 20
87.5218563051
 11
87.7775658815
 21
86.7218563051
  0
LINE
  5
2BC
100
AcDbEntity
  8
0
100
AcDbLine
 62
7
  6
CONTINUOUS
 10
87.7775658815
 20
62.0218563051
 11
87.7775658815
 21
61.2218563051
  0
LINE
  5
2BD
100
AcDbEntity
  8
0
100
AcDbLine
 62
7
  6
CONTINUOUS
 10
89.6775658815
 20
84.7218563051
 11
89.6775658815
 21
82.7718563051
  0
LINE
  5
2BE
100
AcDbEntity
  8
0
100
AcDbLine
 62
7
  6
CONTINUOUS
 10
89.6775658815
 20
65.9718563051
 11
89.6775658815
 21
64.0218563051
  0
LINE
  5
2BF
100
AcDbEntity
  8
0
100
AcDbLine
 62
7
  6
CONTINUOUS
 10
92.6775658815
 20
64.0218563051
 11
92.6775658815
 21
84.7218563051
  0
LINE
  5
2C0
100
AcDbEntity
  8
0
100
AcDbLine
 62
7
  6
CONTINUOUS
 10
95.1775658815
 20
87.5218563051
 11
95.1775658815
 21
61.2218563051
  0
ARC
  5
2C1
100
AcDbEntity
  8
0
100
AcDbCircle
 62
7
  6
CONTINUOUS
 10
54.088773221
 20
27.1180673683
 40
58.2920586355
100
AcDbArc
 50
90.1199545181
 51
90.3362445584
  0
ARC
  5
2C2
100
AcDbEntity
  8
0
100
AcDbCircle
 62
7
  6
CONTINUOUS
 10
53.9775658843
 20
62.9718563051
 40
3.65
100
AcDbArc
 50
8.6666214167
 51
171.3333785833
  0
ARC
  5
2C3
100
AcDbEntity
  8
0
100
AcDbCircle
 62
7
  6
CONTINUOUS
 10
53.9775658843
 20
62.9718563051
 40
2.65
100
AcDbArc
 50
0.0
 51
180.0
  0
ARC
  5
2C4
100
AcDbEntity
  8
0
100
AcDbCircle
 62
7
  6
CONTINUOUS
 10
53.9775658843
 20
62.9718563051
 40
1.65
100
AcDbArc
 50
0.0
 51
180.0
  0
ARC
  5
2C5
100
AcDbEntity
  8
0
100
AcDbCircle
 62
7
  6
CONTINUOUS
 10
21.5041063391
 20
70.6302046308
 40
1.583024129
100
AcDbArc
 50
201.8489512641
 51
357.4089546495
  0
ARC
  5
2C6
100
AcDbEntity
  8
0
100
AcDbCircle
 62
7
  6
CONTINUOUS
 10
25.439276449
 20
69.6718567912
 40
1.0
100
AcDbArc
 50
270.0
 51
16.3227781445
  0
ARC
  5
2C7
100
AcDbEntity
  8
0
100
AcDbCircle
 62
7
  6
CONTINUOUS
 10
20.3717532687
 20
70.7591149076
 40
0.7931819818
100
AcDbArc
 50
127.4621897583
 51
244.8607274032
  0
ARC
  5
2C8
100
AcDbEntity
  8
0
100
AcDbCircle
 62
7
  6
CONTINUOUS
 10
20.3717532687
 20
70.7591149076
 40
0.7931819818
100
AcDbArc
 50
331.2664084692
 51
58.5651787719
  0
ARC
  5
2C9
100
AcDbEntity
  8
0
100
AcDbCircle
 62
7
  6
CONTINUOUS
 10
22.4197046545
 20
64.0218563051
 40
0.75
100
AcDbArc
 50
180.0
 51
270.0
  0
ARC
  5
2CA
100
AcDbEntity
  8
0
100
AcDbCircle
 62
7
  6
CONTINUOUS
 10
29.3275658815
 20
64.7056956217
 40
0.75
100
AcDbArc
 50
0.0000000226
 51
13.8579397577
  0
ARC
  5
2CB
100
AcDbEntity
  8
0
100
AcDbCircle
 62
7
  6
CONTINUOUS
 10
29.3237685704
 20
64.7218552665
 40
0.75
100
AcDbArc
 50
12.589781798
 51
90.0000491021
  0
ARC
  5
2CC
100
AcDbEntity
  8
0
100
AcDbCircle
 62
7
  6
CONTINUOUS
 10
22.4197046545
 20
64.7218559282
 40
0.75
100
AcDbArc
 50
90.0035792725
 51
180.0
  0
ARC
  5
2CD
100
AcDbEntity
  8
0
100
AcDbCircle
 62
7
  6
CONTINUOUS
 10
19.4275658815
 20
64.7218563056
 40
0.75
100
AcDbArc
 50
90.0000000049
 51
180.0
  0
ARC
  5
2CE
100
AcDbEntity
  8
0
100
AcDbCircle
 62
7
  6
CONTINUOUS
 10
19.4275658815
 20
64.0218563051
 40
0.75
100
AcDbArc
 50
180.0
 51
270.0
  0
ARC
  5
2CF
100
AcDbEntity
  8
0
100
AcDbCircle
 62
7
  6
CONTINUOUS
 10
29.3275658815
 20
64.0218563051
 40
0.75
100
AcDbArc
 50
270.0
 51
359.9999999988
  0
ARC
  5
2D0
100
AcDbEntity
  8
0
100
AcDbCircle
 62
7
  6
CONTINUOUS
 10
21.5041063391
 20
70.6302046308
 40
0.733024129
100
AcDbArc
 50
246.3393638129
 51
355.5737413026
  0
ARC
  5
2D1
100
AcDbEntity
  8
0
100
AcDbCircle
 62
7
  6
CONTINUOUS
 10
21.6656719629
 20
70.5522209878
 40
0.5696747853
100
AcDbArc
 50
2.1540263711
 51
54.5705854688
  0
ARC
  5
2D2
100
AcDbEntity
  8
0
100
AcDbCircle
 62
7
  6
CONTINUOUS
 10
29.385628128
 20
72.6595572909
 40
0.5
100
AcDbArc
 50
270.0
 51
359.9971266506
  0
ARC
  5
2D3
100
AcDbEntity
  8
0
100
AcDbCircle
 62
7
  6
CONTINUOUS
 10
28.741648088
 20
72.6587330851
 40
0.5
100
AcDbArc
 50
204.5623833713
 51
269.7911766986
  0
ARC
  5
2D4
100
AcDbEntity
  8
0
100
AcDbCircle
 62
7
  6
CONTINUOUS
 10
22.2857619719
 20
71.4238244108
 40
0.5
100
AcDbArc
 50
180.0
 51
234.570585535
  0
ARC
  5
2D5
100
AcDbEntity
  8
0
100
AcDbCircle
 62
7
  6
CONTINUOUS
 10
52.0275658815
 20
61.2218563051
 40
0.3
100
AcDbArc
 50
270.0
 51
318.1896851042
  0
ARC
  5
2D6
100
AcDbEntity
  8
0
100
AcDbCircle
 62
7
  6
CONTINUOUS
 10
21.3303257037
 20
70.2335811481
 40
0.3
100
AcDbArc
 50
151.2664084692
 51
246.3393638121
  0
ARC
  5
2D7
100
AcDbEntity
  8
0
100
AcDbCircle
 62
7
  6
CONTINUOUS
 10
16.4775658815
 20
61.2218563051
 40
0.3
100
AcDbArc
 50
180.0
 51
270.0
  0
ARC
  5
2D8
100
AcDbEntity
  8
0
100
AcDbCircle
 62
7
  6
CONTINUOUS
 10
54.0887605862
 20
121.6091133098
 40
58.2840645488
100
AcDbArc
 50
269.6636262583
 51
269.8800524715
  0
ARC
  5
2D9
100
AcDbEntity
  8
0
100
AcDbCircle
 62
7
  6
CONTINUOUS
 10
53.9775658843
 20
85.7718563051
 40
3.65
100
AcDbArc
 50
188.6666214167
 51
351.3333785833
  0
ARC
  5
2DA
100
AcDbEntity
  8
0
100
AcDbCircle
 62
7
  6
CONTINUOUS
 10
53.9775658843
 20
85.7718563051
 40
2.65
100
AcDbArc
 50
180.0
 51
360.0
  0
ARC
  5
2DB
100
AcDbEntity
  8
0
100
AcDbCircle
 62
7
  6
CONTINUOUS
 10
15.3811267121
 20
74.4718569886
 40
2.0
100
AcDbArc
 50
90.0000025196
 51
269.9999985069
  0
ARC
  5
2DC
100
AcDbEntity
  8
0
100
AcDbCircle
 62
7
  6
CONTINUOUS
 10
53.9775658843
 20
85.7718563051
 40
1.65
100
AcDbArc
 50
180.0
 51
360.0
  0
ARC
  5
2DD
100
AcDbEntity
  8
0
100
AcDbCircle
 62
7
  6
CONTINUOUS
 10
23.7536330432
 20
78.3660508692
 40
1.5182862974
100
AcDbArc
 50
10.0811491949
 51
180.0027901601
  0
ARC
  5
2DE
100
AcDbEntity
  8
0
100
AcDbCircle
 62
7
  6
CONTINUOUS
 10
22.485738942
 20
74.45911491
 40
1.2
100
AcDbArc
 50
299.9854858927
 51
60.0164891185
  0
ARC
  5
2DF
100
AcDbEntity
  8
0
100
AcDbCircle
 62
7
  6
CONTINUOUS
 10
22.485738942
 20
74.45911491
 40
1.2
100
AcDbArc
 50
125.683980928
 51
234.316019072
  0
ARC
  5
2E0
100
AcDbEntity
  8
0
100
AcDbCircle
 62
7
  6
CONTINUOUS
 10
25.0413245735
 20
77.8591040624
 40
0.8004110865
100
AcDbArc
 50
140.701689613
 51
253.0391386657
  0
ARC
  5
2E1
100
AcDbEntity
  8
0
100
AcDbCircle
 62
7
  6
CONTINUOUS
 10
25.0413245735
 20
77.8591040624
 40
0.7999977056
100
AcDbArc
 50
329.9726079554
 51
74.9926567613
  0
ARC
  5
2E2
100
AcDbEntity
  8
0
100
AcDbCircle
 62
7
  6
CONTINUOUS
 10
22.4275658815
 20
84.0218562981
 40
0.75
100
AcDbArc
 50
180.0
 51
269.9999987169
  0
ARC
  5
2E3
100
AcDbEntity
  8
0
100
AcDbCircle
 62
7
  6
CONTINUOUS
 10
22.4275658815
 20
84.7218563051
 40
0.75
100
AcDbArc
 50
90.0
 51
180.0
  0
ARC
  5
2E4
100
AcDbEntity
  8
0
100
AcDbCircle
 62
7
  6
CONTINUOUS
 10
19.4275658815
 20
84.7218563051
 40
0.75
100
AcDbArc
 50
90.0
 51
180.0
  0
ARC
  5
2E5
100
AcDbEntity
  8
0
100
AcDbCircle
 62
7
  6
CONTINUOUS
 10
29.3275658815
 20
84.7218563051
 40
0.75
100
AcDbArc
 50
0.0
 51
90.0
  0
ARC
  5
2E6
100
AcDbEntity
  8
0
100
AcDbCircle
 62
7
  6
CONTINUOUS
 10
29.3275658815
 20
84.0218562833
 40
0.75
100
AcDbArc
 50
270.0000170049
 51
360.0
  0
ARC
  5
2E7
100
AcDbEntity
  8
0
100
AcDbCircle
 62
7
  6
CONTINUOUS
 10
19.4275658815
 20
84.0218563045
 40
0.75
100
AcDbArc
 50
180.0
 51
270.0000017001
  0
ARC
  5
2E8
100
AcDbEntity
  8
0
100
AcDbCircle
 62
7
  6
CONTINUOUS
 10
23.7536330432
 20
78.3660508692
 40
0.6682862974
100
AcDbArc
 50
0.0
 51
180.9563510568
  0
ARC
  5
2E9
100
AcDbEntity
  8
0
100
AcDbCircle
 62
7
  6
CONTINUOUS
 10
21.6656719629
 20
78.3659491933
 40
0.5696747853
100
AcDbArc
 50
305.4293978344
 51
0.0027899071
  0
ARC
  5
2EA
100
AcDbEntity
  8
0
100
AcDbCircle
 62
7
  6
CONTINUOUS
 10
22.2857619719
 20
77.4943457703
 40
0.5
100
AcDbArc
 50
125.4294334885
 51
180.0
  0
ARC
  5
2EB
100
AcDbEntity
  8
0
100
AcDbCircle
 62
7
  6
CONTINUOUS
 10
52.0275658815
 20
87.5218563051
 40
0.3
100
AcDbArc
 50
41.8103148958
 51
90.0
  0
ARC
  5
2EC
100
AcDbEntity
  8
0
100
AcDbCircle
 62
7
  6
CONTINUOUS
 10
16.4775658815
 20
87.5218563051
 40
0.3
100
AcDbArc
 50
90.0
 51
180.0
  0
ARC
  5
2ED
100
AcDbEntity
  8
0
100
AcDbCircle
 62
7
  6
CONTINUOUS
 10
19.2913082924
 20
79.1010014715
 40
0.2
100
AcDbArc
 50
90.018468592
 51
180.2804238732
  0
ARC
  5
2EE
100
AcDbEntity
  8
0
100
AcDbCircle
 62
7
  6
CONTINUOUS
 10
19.6893100431
 20
79.1010014715
 40
0.2
100
AcDbArc
 50
0.0
 51
90.0
  0
ARC
  5
2EF
100
AcDbEntity
  8
0
100
AcDbCircle
 62
7
  6
CONTINUOUS
 10
69.4197227443
 20
64.0218563051
 40
0.75
100
AcDbArc
 50
180.0
 51
270.0
  0
ARC
  5
2F0
100
AcDbEntity
  8
0
100
AcDbCircle
 62
7
  6
CONTINUOUS
 10
91.9275658815
 20
64.0218563051
 40
0.75
100
AcDbArc
 50
270.0
 51
360.0
  0
ARC
  5
2F1
100
AcDbEntity
  8
0
100
AcDbCircle
 62
7
  6
CONTINUOUS
 10
88.9275658815
 20
64.0218563051
 40
0.75
100
AcDbArc
 50
270.0
 51
360.0
  0
ARC
  5
2F2
100
AcDbEntity
  8
0
100
AcDbCircle
 62
7
  6
CONTINUOUS
 10
88.9275658815
 20
65.9718563051
 40
0.75
100
AcDbArc
 50
0.0
 51
90.0
  0
ARC
  5
2F3
100
AcDbEntity
  8
0
100
AcDbCircle
 62
7
  6
CONTINUOUS
 10
69.4197227443
 20
65.9718563051
 40
0.75
100
AcDbArc
 50
90.0
 51
180.0
  0
ARC
  5
2F4
100
AcDbEntity
  8
0
100
AcDbCircle
 62
7
  6
CONTINUOUS
 10
55.9275658815
 20
61.2218563051
 40
0.3
100
AcDbArc
 50
221.8103148958
 51
270.0
  0
ARC
  5
2F5
100
AcDbEntity
  8
0
100
AcDbCircle
 62
7
  6
CONTINUOUS
 10
94.8775658815
 20
61.2218563051
 40
0.3
100
AcDbArc
 50
270.0
 51
360.0
  0
ARC
  5
2F6
100
AcDbEntity
  8
0
100
AcDbCircle
 62
7
  6
CONTINUOUS
 10
91.9275658815
 20
84.7218563051
 40
0.75
100
AcDbArc
 50
0.0
 51
90.0
  0
ARC
  5
2F7
100
AcDbEntity
  8
0
100
AcDbCircle
 62
7
  6
CONTINUOUS
 10
69.4197227443
 20
84.7218563051
 40
0.75
100
AcDbArc
 50
90.0
 51
180.0
  0
ARC
  5
2F8
100
AcDbEntity
  8
0
100
AcDbCircle
 62
7
  6
CONTINUOUS
 10
88.9275658815
 20
84.7218563051
 40
0.75
100
AcDbArc
 50
0.0
 51
90.0
  0
ARC
  5
2F9
100
AcDbEntity
  8
0
100
AcDbCircle
 62
7
  6
CONTINUOUS
 10
69.4197227443
 20
82.7718563051
 40
0.75
100
AcDbArc
 50
180.0
 51
270.0
  0
ARC
  5
2FA
100
AcDbEntity
  8
0
100
AcDbCircle
 62
7
  6
CONTINUOUS
 10
88.9275658815
 20
82.7718563051
 40
0.75
100
AcDbArc
 50
270.0
 51
360.0
  0
ARC
  5
2FB
100
AcDbEntity
  8
0
100
AcDbCircle
 62
7
  6
CONTINUOUS
 10
55.9275658815
 20
87.5218563051
 40
0.3
100
AcDbArc
 50
90.0
 51
138.1896851042
  0
ARC
  5
2FC
100
AcDbEntity
  8
0
100
AcDbCircle
 62
7
  6
CONTINUOUS
 10
94.8775658815
 20
87.5218563051
 40
0.3
100
AcDbArc
 50
0.0
 51
90.0
  0
SPLINE
  5
2FD
100
AcDbEntity
  8
0
100
AcDbSpline
 62
7
  6
CONTINUOUS
 70
0
 71
3
 72
20
 73
16
 74
0
 42
0.0000001
 43
0.0000001
 44
0.0000000001
 40
0.0
 40
0.0
 40
0.0
 40
0.0
 40
0.0013280765
 40
0.0046844078
 40
0.0177916254
 40
0.0394158761
 40
0.0694718879
 40
0.1078613726
 40
0.1544499527
 40
0.2089666894
 40
0.2711048336
 40
0.4170165421
 40
0.5895151957
 40
0.7850903461
 40
1.0
 40
1.0
 40
1.0
 40
1.0
 10
53.2675784528
 20
85.3997780839
 30
0.0
 10
53.2675784528
 20
85.3999903124
 30
0.0
 10
53.2685495218
 20
85.4002745512
 30
0.0
 10
53.2709806142
 20
85.4007982725
 30
0.0
 10
53.2774142923
 20
85.4013753215
 30
0.0
 10
53.2875296581
 20
85.4020548357
 30
0.0
 10
53.3020023392
 20
85.4027286585
 30
0.0
 10
53.3203360508
 20
85.4034052732
 30
0.0
 10
53.3426309757
 20
85.4040654037
 30
0.0
 10
53.3687052176
 20
85.4047090468
 30
0.0
 10
53.410656496
 20
85.4055851597
 30
0.0
 10
53.4714597698
 20
85.4065763309
 30
0.0
 10
53.5535896478
 20
85.4075912308
 30
0.0
 10
53.6467470793
 20
85.4084643426
 30
0.0
 10
53.7123416339
 20
85.4089189213
 30
0.0
 10
53.7466838878
 20
85.4091222125
 30
0.0
  0
SPLINE
  5
2FE
100
AcDbEntity
  8
0
100
AcDbSpline
 62
7
  6
CONTINUOUS
 70
0
 71
3
 72
18
 73
14
 74
0
 42
0.0000001
 43
0.0000001
 44
0.0000000001
 40
0.0
 40
0.0
 40
0.0
 40
0.0
 40
0.219635331
 40
0.4171362943
 40
0.58940841
 40
0.7340312242
 40
0.8489033988
 40
0.8945422731
 40
0.9320954786
 40
0.9614775949
 40
0.982608074
 40
0.9954230256
 40
1.0
 40
1.0
 40
1.0
 40
1.0
 10
54.5945954006
 20
85.4083731836
 30
0.0
 10
54.6219192173
 20
85.4081466124
 30
0.0
 10
54.6738131734
 20
85.407663245
 30
0.0
 10
54.7471347338
 20
85.4067923498
 30
0.0
 10
54.8111277575
 20
85.4058266419
 30
0.0
 10
54.8648212519
 20
85.4047738805
 30
0.0
 10
54.9028000495
 20
85.4038095436
 30
0.0
 10
54.927381517
 20
85.4029435798
 30
0.0
 10
54.9414701582
 20
85.4023813289
 30
0.0
 10
54.9521612434
 20
85.401698398
 30
0.0
 10
54.9605883858
 20
85.4013133125
 30
0.0
 10
54.9643357896
 20
85.4004189638
 30
0.0
 10
54.9675533103
 20
85.4003475038
 30
0.0
 10
54.9675533103
 20
85.3997780839
 30
0.0
  0
SPLINE
  5
2FF
100
AcDbEntity
  8
0
100
AcDbSpline
 62
7
  6
CONTINUOUS
 70
0
 71
3
 72
20
 73
16
 74
0
 42
0.0000001
 43
0.0000001
 44
0.0000000001
 40
0.0
 40
0.0
 40
0.0
 40
0.0
 40
0.0013278363
 40
0.0046832888
 40
0.0177875976
 40
0.0394084768
 40
0.0694619031
 40
0.1078508296
 40
0.1544388836
 40
0.2089532569
 40
0.2710885673
 40
0.4169986689
 40
0.5895012516
 40
0.7850818814
 40
1.0
 40
1.0
 40
1.0
 40
1.0
 10
53.267577937
 20
63.3353969145
 30
0.0
 10
53.267577937
 20
63.3351847672
 30
0.0
 10
53.2685484362
 20
63.3349004515
 30
0.0
 10
53.2709786227
 20
63.3343769168
 30
0.0
 10
53.2774096243
 20
63.3337998171
 30
0.0
 10
53.2875216485
 20
63.3331204892
 30
0.0
 10
53.3019903293
 20
63.3324467488
 30
0.0
 10
53.320319775
 20
63.3317702948
 30
0.0
 10
53.3426096521
 20
63.3311102573
 30
0.0
 10
53.3686777263
 20
63.3304666489
 30
0.0
 10
53.4106194627
 20
63.3295905402
 30
0.0
 10
53.4714104038
 20
63.3285993498
 30
0.0
 10
53.5535249814
 20
63.327584408
 30
0.0
 10
53.6466665008
 20
63.3267111805
 30
0.0
 10
53.7122500692
 20
63.3262565239
 30
0.0
 10
53.7465867573
 20
63.3260531859
 30
0.0
  0
SPLINE
  5
300
100
AcDbEntity
  8
0
100
AcDbSpline
 62
7
  6
CONTINUOUS
 70
0
 71
3
 72
18
 73
14
 74
0
 42
0.0000001
 43
0.0000001
 44
0.0000000001
 40
0.0
 40
0.0
 40
0.0
 40
0.0
 40
0.2196487135
 40
0.4171584305
 40
0.5894331165
 40
0.7340503524
 40
0.8489183988
 40
0.8945569866
 40
0.9321076733
 40
0.9614859508
 40
0.9826123637
 40
0.9954241277
 40
1.0
 40
1.0
 40
1.0
 40
1.0
 10
54.5947664134
 20
63.3268030824
 30
0.0
 10
54.6220794147
 20
63.3270296975
 30
0.0
 10
54.6739524216
 20
63.3275131349
 30
0.0
 10
54.7472435644
 20
63.3283840675
 30
0.0
 10
54.8112080717
 20
63.3293497296
 30
0.0
 10
54.8648761514
 20
63.3304024162
 30
0.0
 10
54.9028363492
 20
63.3313666208
 30
0.0
 10
54.9274057308
 20
63.3322322707
 30
0.0
 10
54.9414870879
 20
63.3327943988
 30
0.0
 10
54.9521720592
 20
63.3334770113
 30
0.0
 10
54.9605937533
 20
63.3338622702
 30
0.0
 10
54.964338827
 20
63.3347558483
 30
0.0
 10
54.967553826
 20
63.3348278918
 30
0.0
 10
54.967553826
 20
63.3353969145
 30
0.0
  0
ELLIPSE
  5
301
100
AcDbEntity
  8
0
100
AcDbEllipse
 62
7
  6
CONTINUOUS
 10
54.1175658815
 20
64.3912861664
 30
0.0
 11
0.85
 21
0.0
 31
0.0
 40
0.2841623524
 41
-1.9951860354
 42
-1.0128892868
  0
ELLIPSE
  5
302
100
AcDbEntity
  8
0
100
AcDbEllipse
 62
7
  6
CONTINUOUS
 10
54.1175658815
 20
84.3438888321
 30
0.0
 11
0.85
 21
-0.0
 31
0.0
 40
0.2841623524
 41
1.0128892868
 42
1.9951860354
  0
ENDSEC
  0
SECTION
  2
OBJECTS
  0
DICTIONARY
  5
C
100
AcDbDictionary
280
0
281
1
  3
ACAD_GROUP
350
D
  3
ACAD_MLINESTYLE
350
17
  3
ACAD_LAYOUT
350
1A
  3
ACAD_PLOTSETTINGS
350
19
  3
ACAD_PLOTSTYLENAME
350
E
  0
DICTIONARY
  5
D
102
{ACAD_REACTORS
330
C
102
}
100
AcDbDictionary
280
0
281
1
  0
ACDBDICTIONARYWDFLT
  5
E
102
{ACAD_REACTORS
330
C
102
}
100
AcDbDictionary
281
1
  3
Normal
350
F
100
AcDbDictionaryWithDefault
340
F
  0
DICTIONARY
  5
17
102
{ACAD_REACTORS
330
C
102
}
100
AcDbDictionary
280
0
281
1
  3
Standard
350
18
  0
DICTIONARY
  5
19
102
{ACAD_REACTORS
330
C
102
}
100
AcDbDictionary
281
1
  0
DICTIONARY
  5
1A
102
{ACAD_REACTORS
330
C
102
}
100
AcDbDictionary
281
1
  3
Model
350
303
  3
Layout1
350
304
  0
ACDBPLACEHOLDER
  5
F
102
{ACAD_REACTORS
330
E
102
}
  0
MLINESTYLE
  5
18
102
{ACAD_REACTORS
330
17
102
}
100
AcDbMlineStyle
  2
STANDARD
 70
0
  3

 62
256
 51
90.0
 52
90.0
 71
2
 49
0.5
 62
256
  6
BYLAYER
 49
-0.5
 62
256
  6
BYLAYER
  0
LAYOUT
  5
303
102
{ACAD_REACTORS
330
1A
102
}
100
AcDbPlotSettings
  1

  2
none_device
  4

  6

 40
0.0
 41
0.0
 42
0.0
 43
0.0
 44
210.0
 45
297.0
 46
0.0
 47
0.0
 48
0.0
 49
0.0
140
0.0
141
0.0
142
1.0
143
1.0
 70
1024
 72
1
 73
0
 74
0
  7

 75
0
147
1.0
148
0.0
149
0.0
100
AcDbLayout
  1
Model
 70
0
 71
0
 10
0.0
 20
0.0
 11
210.0
 21
297.0
 12
0.0
 22
0.0
 32
0.0
 14
0.0
 24
0.0
 34
0.0
 15
0.0
 25
0.0
 35
0.0
146
0.0
 13
0.0
 23
0.0
 33
0.0
 16
1.0
 26
0.0
 36
0.0
 17
0.0
 27
1.0
 37
0.0
 76
0
330
210
345
0
346
0
  0
LAYOUT
  5
304
102
{ACAD_REACTORS
330
1A
102
}
100
AcDbPlotSettings
  1

  2
none_device
  4

  6

 40
0.0
 41
0.0
 42
0.0
 43
0.0
 44
210.0
 45
297.0
 46
0.0
 47
0.0
 48
0.0
 49
0.0
140
0.0
141
0.0
142
1.0
143
1.0
 70
0
 72
1
 73
0
 74
0
  7

 75
0
147
1.0
148
0.0
149
0.0
100
AcDbLayout
  1
Layout1
 70
0
 71
1
 10
0.0
 20
0.0
 11
210.0
 21
297.0
 12
0.0
 22
0.0
 32
0.0
 14
0.0
 24
0.0
 34
0.0
 15
0.0
 25
0.0
 35
0.0
146
0.0
 13
0.0
 23
0.0
 33
0.0
 16
1.0
 26
0.0
 36
0.0
 17
0.0
 27
1.0
 37
0.0
 76
0
330
211
345
0
346
0
  0
ENDSEC
  0
EOF
