999
DXF file: C:\Users\sesa63760\Dev\_Creo\CAD\MCADID0002110_3D-CAD\drw0001_1.dxf
999
Pro/ENGINEER 2019471 by Parametric Technology Corporation
  0
SECTION
  2
HEADER
  9
$ACADVER
  1
AC1024
  9
$DWGCODEPAGE
  3
ANSI_1252
  9
$EXTMAX
 10
97.2067885127
 20
137.4781723251
 30
0.0
  9
$EXTMIN
 10
0.0
 20
0.0
 30
0.0
  9
$LIMMIN
 10
0.0
 20
0.0
  9
$LIMMAX
 10
97.2067885127
 20
137.4781723251
  9
$VIEWCTR
 10
48.6033942563
 20
68.7390861626
  9
$VIEWSIZE
 40
137.4781723251
  9
$CLAYER
  8
0
  9
$LTSCALE
 40
8.9615401219
  9
$CELTYPE
  6
BYLAYER
  9
$DIMSCALE
 40
1.0
  9
$DIMASZ
 40
1.1572236728
  9
$DIMEXO
 40
1.0
  9
$DIMDLI
 40
6.1916095388
  9
$DIMEXE
 40
1.0
  9
$DIMCEN
 40
1.4664338381
  9
$DIMLFAC
 40
1.0
  9
$DIMBLK
  1
_FILLED
  9
$DIMALT
 70
0
  9
$DIMALTF
 40
0.0393700787
  9
$DIMTXT
 40
1.6201131419
  9
$DIMTOL
 70
1
  9
$DIMLIM
 70
0
  9
$DIMTFAC
 40
1.0
  9
$DIMTP
 40
0.01
  9
$DIMTM
 40
0.01
  9
$DIMGAP
 40
0.625
  9
$DIMDSEP
 70
46
  9
$AUNITS
 70
0
  9
$PDMODE
 70
3
  9
$PDSIZE
 40
0.3125
  9
$HANDSEED
  5
3E4
  9
$TILEMODE
 70
1
  9
$MEASUREMENT
 70
1
  9
$INSUNITS
 70
4
  0
ENDSEC
  0
SECTION
  2
CLASSES
  0
CLASS
  1
ACDBDICTIONARYWDFLT
  2
AcDbDictionaryWithDefault
  3
AutoCAD 2000
 90
0
 91
1
280
0
281
0
  0
CLASS
  1
ACDBPLACEHOLDER
  2
AcDbPlaceHolder
  3
AutoCAD 2000
 90
0
 91
1
280
0
281
0
  0
CLASS
  1
LAYOUT
  2
AcDbLayout
  3
AutoCAD 2000
 90
0
 91
0
280
0
281
0
  0
ENDSEC
  0
SECTION
  2
TABLES
  0
TABLE
  2
VPORT
  5
8
100
AcDbSymbolTable
 70
2
  0
VPORT
  5
1F4
100
AcDbSymbolTableRecord
100
AcDbViewportTableRecord
  2
*ACTIVE
 70
0
 10
0.0
 20
0.0
 11
1.0
 21
1.0
 12
48.6033942563
 22
68.7390861626
 13
0.0
 23
0.0
 14
1.0
 24
1.0
 15
0.0
 25
0.0
 16
0.0
 26
0.0
 36
1.0
 17
0.0
 27
0.0
 37
0.0
 40
137.4781723251
 41
0.7070707071
 42
50.0
 43
0.0
 44
0.0
 50
0.0
 51
0.0
 71
0
 72
100
 73
1
 74
1
 75
0
 76
0
 77
0
 78
0
  0
ENDTAB
  0
TABLE
  2
LTYPE
  5
5
100
AcDbSymbolTable
 70
6
  0
LTYPE
  5
14
100
AcDbSymbolTableRecord
100
AcDbLinetypeTableRecord
  2
BYBLOCK
 70
0
  3

 72
65
 73
0
 40
0.0
  0
LTYPE
  5
15
100
AcDbSymbolTableRecord
100
AcDbLinetypeTableRecord
  2
BYLAYER
 70
0
  3

 72
65
 73
0
 40
0.0
  0
LTYPE
  5
16
100
AcDbSymbolTableRecord
100
AcDbLinetypeTableRecord
  2
CONTINUOUS
 70
64
  3
Solid line
 72
65
 73
0
 40
0.0
  0
LTYPE
  5
1F5
100
AcDbSymbolTableRecord
100
AcDbLinetypeTableRecord
  2
CENTER
 70
64
  3
____ _ ____ _ ____ _ ____ _ ____ _ ____ _ ____
 72
65
 73
4
 40
0.6
 49
0.375
 74
0
 49
-0.075
 74
0
 49
0.075
 74
0
 49
-0.075
 74
0
  0
LTYPE
  5
1F6
100
AcDbSymbolTableRecord
100
AcDbLinetypeTableRecord
  2
HIDDEN
 70
64
  3
- - - - - - - - - - - - - - - - - - - -
 72
65
 73
2
 40
0.2
 49
0.1
 74
0
 49
-0.1
 74
0
  0
LTYPE
  5
1F7
100
AcDbSymbolTableRecord
100
AcDbLinetypeTableRecord
  2
PHANTOM
 70
64
  3
_____ _ _ _____ _ _ _____ _ _ _____
 72
65
 73
6
 40
0.8
 49
0.45
 74
0
 49
-0.05
 74
0
 49
0.1
 74
0
 49
-0.05
 74
0
 49
0.1
 74
0
 49
-0.05
 74
0
  0
LTYPE
  5
1F8
100
AcDbSymbolTableRecord
100
AcDbLinetypeTableRecord
  2
DOT
 70
64
  3
. . . . . . . . . . . . . . . . . . . .
 72
65
 73
2
 40
0.2
 49
0.1
 74
0
 49
-0.1
 74
0
  0
LTYPE
  5
1F9
100
AcDbSymbolTableRecord
100
AcDbLinetypeTableRecord
  2
DASHED
 70
64
  3
- - - - - - - - - - - - - - - - - - - -
 72
65
 73
2
 40
0.2
 49
0.1
 74
0
 49
-0.1
 74
0
  0
ENDTAB
  0
TABLE
  2
LAYER
  5
2
100
AcDbSymbolTable
 70
36
  0
LAYER
  5
10
100
AcDbSymbolTableRecord
100
AcDbLayerTableRecord
  2
0
 70
0
 62
7
  6
CONTINUOUS
370
-3
390
F
  0
LAYER
  5
1FA
100
AcDbSymbolTableRecord
100
AcDbLayerTableRecord
  2
DEFAULT_1
 70
0
 62
7
  6
CENTER
370
-3
390
F
  0
LAYER
  5
1FB
100
AcDbSymbolTableRecord
100
AcDbLayerTableRecord
  2
DEFAULT_2
 70
0
 62
8
  6
HIDDEN
370
-3
390
F
  0
LAYER
  5
1FC
100
AcDbSymbolTableRecord
100
AcDbLayerTableRecord
  2
DEFAULT_3
 70
0
 62
7
  6
PHANTOM
370
-3
390
F
  0
LAYER
  5
1FD
100
AcDbSymbolTableRecord
100
AcDbLayerTableRecord
  2
00_COMPONENTS
 70
0
 62
7
  6
CONTINUOUS
370
-3
390
F
  0
LAYER
  5
1FE
100
AcDbSymbolTableRecord
100
AcDbLayerTableRecord
  2
01_1_DEFAULT_DATUMS
 70
0
 62
7
  6
CONTINUOUS
370
-3
390
F
  0
LAYER
  5
1FF
100
AcDbSymbolTableRecord
100
AcDbLayerTableRecord
  2
01_PLANES
 70
0
 62
7
  6
CONTINUOUS
370
-3
390
F
  0
LAYER
  5
200
100
AcDbSymbolTableRecord
100
AcDbLayerTableRecord
  2
02_COORD_SYS
 70
0
 62
7
  6
CONTINUOUS
370
-3
390
F
  0
LAYER
  5
201
100
AcDbSymbolTableRecord
100
AcDbLayerTableRecord
  2
03_AXES
 70
0
 62
7
  6
CONTINUOUS
370
-3
390
F
  0
LAYER
  5
202
100
AcDbSymbolTableRecord
100
AcDbLayerTableRecord
  2
04_POINTS
 70
0
 62
7
  6
CONTINUOUS
370
-3
390
F
  0
LAYER
  5
203
100
AcDbSymbolTableRecord
100
AcDbLayerTableRecord
  2
05_CURVES
 70
0
 62
7
  6
CONTINUOUS
370
-3
390
F
  0
LAYER
  5
204
100
AcDbSymbolTableRecord
100
AcDbLayerTableRecord
  2
06_SURFS
 70
0
 62
7
  6
CONTINUOUS
370
-3
390
F
  0
LAYER
  5
205
100
AcDbSymbolTableRecord
100
AcDbLayerTableRecord
  2
07_COSMETICS
 70
0
 62
7
  6
CONTINUOUS
370
-3
390
F
  0
LAYER
  5
206
100
AcDbSymbolTableRecord
100
AcDbLayerTableRecord
  2
10_NOTES
 70
0
 62
7
  6
CONTINUOUS
370
-3
390
F
  0
LAYER
  5
207
100
AcDbSymbolTableRecord
100
AcDbLayerTableRecord
  2
11_NOTES_PUB
 70
0
 62
7
  6
CONTINUOUS
370
-3
390
F
  0
LAYER
  5
208
100
AcDbSymbolTableRecord
100
AcDbLayerTableRecord
  2
13_REF_GTOL
 70
0
 62
7
  6
CONTINUOUS
370
-3
390
F
  0
LAYER
  5
209
100
AcDbSymbolTableRecord
100
AcDbLayerTableRecord
  2
16_MISC
 70
0
 62
7
  6
CONTINUOUS
370
-3
390
F
  0
LAYER
  5
20A
100
AcDbSymbolTableRecord
100
AcDbLayerTableRecord
  2
17_NO_PRINT
 70
0
 62
7
  6
CONTINUOUS
370
-3
390
F
  0
LAYER
  5
20B
100
AcDbSymbolTableRecord
100
AcDbLayerTableRecord
  2
18_DATUM_CAMS_JOINTS
 70
0
 62
7
  6
CONTINUOUS
370
-3
390
F
  0
LAYER
  5
20C
100
AcDbSymbolTableRecord
100
AcDbLayerTableRecord
  2
19_DATUM_FUNCTIONAL
 70
0
 62
7
  6
CONTINUOUS
370
-3
390
F
  0
LAYER
  5
20D
100
AcDbSymbolTableRecord
100
AcDbLayerTableRecord
  2
20_DATUM_KINEMATIC_SCHEME
 70
0
 62
7
  6
CONTINUOUS
370
-3
390
F
  0
ENDTAB
  0
TABLE
  2
STYLE
  5
3
100
AcDbSymbolTable
 70
1
  0
STYLE
  5
11
100
AcDbSymbolTableRecord
100
AcDbTextStyleTableRecord
  2
STANDARD
 70
0
 40
0.0
 41
0.8
 50
0.0
 71
0
 42
0.2
  3
txt
  4

  0
STYLE
  5
20E
100
AcDbSymbolTableRecord
100
AcDbTextStyleTableRecord
  2
TEXTSTYLE_1
 70
0
 40
0.0
 41
0.8
 50
0.0
 71
0
 42
0.2
  3
gdt
  4

  0
ENDTAB
  0
TABLE
  2
VIEW
  5
6
100
AcDbSymbolTable
 70
0
  0
ENDTAB
  0
TABLE
  2
UCS
  5
7
100
AcDbSymbolTable
 70
0
  0
ENDTAB
  0
TABLE
  2
APPID
  5
9
100
AcDbSymbolTable
 70
1
  0
APPID
  5
20F
100
AcDbSymbolTableRecord
100
AcDbRegAppTableRecord
  2
ACAD
 70
0
  0
ENDTAB
  0
TABLE
  2
BLOCK_RECORD
  5
1
100
AcDbSymbolTable
 70
0
  0
BLOCK_RECORD
  5
210
100
AcDbSymbolTableRecord
100
AcDbBlockTableRecord
  2
*Model_Space
  0
BLOCK_RECORD
  5
211
100
AcDbSymbolTableRecord
100
AcDbBlockTableRecord
  2
*Paper_Space
  0
BLOCK_RECORD
  5
212
100
AcDbSymbolTableRecord
100
AcDbBlockTableRecord
  2
_FILLED
  0
ENDTAB
  0
TABLE
  2
DIMSTYLE
  5
A
100
AcDbSymbolTable
 70
1
100
AcDbDimStyleTable
 71
0
  0
DIMSTYLE
105
213
100
AcDbSymbolTableRecord
100
AcDbDimStyleTableRecord
  2
STANDARD
 70
0
  3

  4

 40
1.0
 41
1.1572236728
 42
1.0
 43
0.38
 44
1.0
 45
0.0
 46
0.0
 47
0.01
 48
0.01
140
1.6201131419
141
0.09
142
0.0
143
25.4
144
1.0
145
0.0
146
1.0
147
0.625
 71
1
 72
0
 73
0
 74
0
 75
0
 76
0
 77
1
 78
8
 79
2
170
0
171
1
172
0
173
0
174
0
175
0
176
0
177
0
178
0
270
2
179
2
271
2
272
2
273
2
274
2
275
0
280
0
281
0
282
0
283
1
284
8
285
0
286
0
287
3
288
0
340
11
278
46
341
212
342
212
343
212
344
212
  0
ENDTAB
  0
ENDSEC
  0
SECTION
  2
BLOCKS
  0
BLOCK
  5
20
100
AcDbEntity
  8
0
100
AcDbBlockBegin
  2
*Model_Space
 70
0
 10
0.0
 20
0.0
 30
0.0
  3
*Model_Space
  1

  0
ENDBLK
  5
21
100
AcDbEntity
  8
0
100
AcDbBlockEnd
  0
BLOCK
  5
1C
100
AcDbEntity
  8
0
100
AcDbBlockBegin
  2
*Paper_Space
 70
0
 10
0.0
 20
0.0
 30
0.0
  3
*Paper_Space
  1

  0
ENDBLK
  5
1D
100
AcDbEntity
  8
0
100
AcDbBlockEnd
  0
BLOCK
  5
214
100
AcDbEntity
  8
0
100
AcDbBlockBegin
  2
_FILLED
 70
64
 10
0.0
 20
0.0
  3
_FILLED
  1

  0
SOLID
  5
215
100
AcDbEntity
  8
0
  6
BYBLOCK
 62
0
100
AcDbTrace
 10
0.0
 20
0.0
 11
-1.0
 21
0.25
 12
-1.0
 22
-0.25
 13
-1.0
 23
-0.25
  0
ENDBLK
  5
216
100
AcDbEntity
  8
0
  6
BYBLOCK
 62
0
100
AcDbBlockEnd
  0
ENDSEC
  0
SECTION
  2
ENTITIES
  0
LINE
  5
217
100
AcDbEntity
  8
0
100
AcDbLine
 62
7
  6
CONTINUOUS
 10
51.5292417659
 20
35.6495981335
 11
49.761467453
 21
36.6702000198
  0
LINE
  5
218
100
AcDbEntity
  8
0
100
AcDbLine
 62
7
  6
CONTINUOUS
 10
46.3213788882
 20
43.6788088961
 11
43.5335021251
 21
45.288353883
  0
LINE
  5
219
100
AcDbEntity
  8
0
100
AcDbLine
 62
7
  6
CONTINUOUS
 10
54.5238137691
 20
39.0655764852
 11
54.403393481
 21
39.1350995981
  0
LINE
  5
21A
100
AcDbEntity
  8
0
100
AcDbLine
 62
7
  6
CONTINUOUS
 10
54.7274682872
 20
95.807215333
 11
65.9700169733
 21
102.2980650982
  0
LINE
  5
21B
100
AcDbEntity
  8
0
100
AcDbLine
 62
7
  6
CONTINUOUS
 10
66.7478376709
 20
101.8490002682
 11
63.3943687441
 21
99.9128856377
  0
LINE
  5
21C
100
AcDbEntity
  8
0
100
AcDbLine
 62
7
  6
CONTINUOUS
 10
56.9524208568
 20
96.1936474916
 11
61.9372547159
 21
99.0716254829
  0
LINE
  5
21D
100
AcDbEntity
  8
0
100
AcDbLine
 62
7
  6
CONTINUOUS
 10
57.9179245524
 20
46.5774016286
 11
59.3321322268
 21
46.5773875192
  0
LINE
  5
21E
100
AcDbEntity
  8
0
100
AcDbLine
 62
7
  6
CONTINUOUS
 10
45.9678246881
 20
44.9852072073
 11
44.1680316663
 21
46.0242946856
  0
LINE
  5
21F
100
AcDbEntity
  8
0
100
AcDbLine
 62
7
  6
CONTINUOUS
 10
55.3351054128
 20
41.2099640054
 11
55.5844695249
 21
41.0659968251
  0
LINE
  5
220
100
AcDbEntity
  8
0
100
AcDbLine
 62
7
  6
CONTINUOUS
 10
49.5841067934
 20
45.224338088
 11
49.761467453
 21
45.1219411799
  0
LINE
  5
221
100
AcDbEntity
  8
0
100
AcDbLine
 62
7
  6
CONTINUOUS
 10
40.2576627742
 20
43.8550651413
 11
24.5587188394
 21
67.5981174581
  0
LINE
  5
222
100
AcDbEntity
  8
0
100
AcDbLine
 62
7
  6
CONTINUOUS
 10
30.7897135273
 20
70.2661785504
 11
30.7897135273
 21
73.8330270535
  0
LINE
  5
223
100
AcDbEntity
  8
0
100
AcDbLine
 62
7
  6
CONTINUOUS
 10
32.4443505322
 20
70.1856057509
 11
32.4443505322
 21
71.7356680441
  0
LINE
  5
224
100
AcDbEntity
  8
0
100
AcDbLine
 62
7
  6
CONTINUOUS
 10
32.5574878402
 20
73.0573758923
 11
32.5574878402
 21
71.8009875094
  0
LINE
  5
225
100
AcDbEntity
  8
0
100
AcDbLine
 62
7
  6
CONTINUOUS
 10
14.8370944081
 20
61.5633462816
 11
11.2771058581
 21
58.5423276839
  0
LINE
  5
226
100
AcDbEntity
  8
0
100
AcDbLine
 62
7
  6
CONTINUOUS
 10
37.9301868887
 20
83.9047975253
 11
40.6581620886
 21
85.4797853399
  0
LINE
  5
227
100
AcDbEntity
  8
0
100
AcDbLine
 62
7
  6
CONTINUOUS
 10
63.5448080358
 20
51.4998955912
 11
75.445783234
 21
52.8186693747
  0
LINE
  5
228
100
AcDbEntity
  8
0
100
AcDbLine
 62
7
  6
CONTINUOUS
 10
55.7718647891
 20
43.2848781806
 11
55.9733910608
 21
43.1685295656
  0
LINE
  5
229
100
AcDbEntity
  8
0
100
AcDbLine
 62
7
  6
CONTINUOUS
 10
48.4526704511
 20
47.87796529
 11
46.5334806015
 21
48.9859849996
  0
LINE
  5
22A
100
AcDbEntity
  8
0
100
AcDbLine
 62
7
  6
CONTINUOUS
 10
47.1336353488
 20
49.537756757
 11
48.1775419177
 21
48.935070653
  0
LINE
  5
22B
100
AcDbEntity
  8
0
100
AcDbLine
 62
7
  6
CONTINUOUS
 10
37.8752808163
 20
81.1524552027
 11
37.9301868887
 21
81.3736400322
  0
LINE
  5
22C
100
AcDbEntity
  8
0
100
AcDbLine
 62
7
  6
CONTINUOUS
 10
43.3470388642
 20
83.9273967294
 11
54.7274682872
 21
95.807215333
  0
LINE
  5
22D
100
AcDbEntity
  8
0
100
AcDbLine
 62
7
  6
CONTINUOUS
 10
37.177038521
 20
80.7493272319
 11
41.4196615443
 21
83.1987921551
  0
LINE
  5
22E
100
AcDbEntity
  8
0
100
AcDbLine
 62
7
  6
CONTINUOUS
 10
43.473308875
 20
83.1859786798
 11
45.2844169251
 21
84.2316161584
  0
LINE
  5
22F
100
AcDbEntity
  8
0
100
AcDbLine
 62
7
  6
CONTINUOUS
 10
39.0770300149
 20
80.5611349716
 11
43.3196530382
 21
83.0105998948
  0
LINE
  5
230
100
AcDbEntity
  8
0
100
AcDbLine
 62
7
  6
CONTINUOUS
 10
71.7329612332
 20
98.9709029488
 11
68.3794923064
 21
97.0347883183
  0
LINE
  5
231
100
AcDbEntity
  8
0
100
AcDbLine
 62
7
  6
CONTINUOUS
 10
61.9375444191
 20
93.3155501723
 11
66.9223782782
 21
96.1935281635
  0
LINE
  5
232
100
AcDbEntity
  8
0
100
AcDbLine
 62
7
  6
CONTINUOUS
 10
31.5767389889
 20
75.5726136317
 11
35.8193620122
 21
78.0220785549
  0
LINE
  5
233
100
AcDbEntity
  8
0
100
AcDbLine
 62
7
  6
CONTINUOUS
 10
38.1507257661
 20
78.6464176291
 11
38.5009495431
 21
78.848618214
  0
LINE
  5
234
100
AcDbEntity
  8
0
100
AcDbLine
 62
7
  6
CONTINUOUS
 10
45.8616780798
 20
82.9319194365
 11
44.8875283253
 21
82.3694971707
  0
LINE
  5
235
100
AcDbEntity
  8
0
100
AcDbLine
 62
7
  6
CONTINUOUS
 10
61.7278545661
 20
91.7656318633
 11
72.9704032522
 21
98.2564816284
  0
LINE
  5
236
100
AcDbEntity
  8
0
100
AcDbLine
 62
7
  6
CONTINUOUS
 10
33.4767304829
 20
75.3844213714
 11
36.3900225505
 21
77.0664012908
  0
LINE
  5
237
100
AcDbEntity
  8
0
100
AcDbLine
 62
7
  6
CONTINUOUS
 10
57.5997299235
 20
46.7611072273
 11
57.9179245524
 21
46.5774016286
  0
LINE
  5
238
100
AcDbEntity
  8
0
100
AcDbLine
 62
7
  6
CONTINUOUS
 10
36.3900225505
 20
74.1107206713
 11
36.3900225505
 21
79.0014884997
  0
LINE
  5
239
100
AcDbEntity
  8
0
100
AcDbLine
 62
7
  6
CONTINUOUS
 10
37.9301868887
 20
81.3736400322
 11
37.9301868887
 21
83.9047975253
  0
LINE
  5
23A
100
AcDbEntity
  8
0
100
AcDbLine
 62
7
  6
CONTINUOUS
 10
38.1507257661
 20
78.6464176291
 11
38.1507257661
 21
73.7474031263
  0
LINE
  5
23B
100
AcDbEntity
  8
0
100
AcDbLine
 62
7
  6
CONTINUOUS
 10
39.7072805102
 20
75.2502543061
 11
39.6768264818
 21
75.2198725085
  0
LINE
  5
23C
100
AcDbEntity
  8
0
100
AcDbLine
 62
7
  6
CONTINUOUS
 10
51.7176893422
 20
84.9817674186
 11
49.9767859895
 21
83.6222020069
  0
LINE
  5
23D
100
AcDbEntity
  8
0
100
AcDbLine
 62
7
  6
CONTINUOUS
 10
35.9686969833
 20
71.4137150051
 11
39.8530807448
 21
74.4472399848
  0
LINE
  5
23E
100
AcDbEntity
  8
0
100
AcDbLine
 62
7
  6
CONTINUOUS
 10
50.2898040763
 20
82.5978406659
 11
50.5922851458
 21
82.8340644627
  0
LINE
  5
23F
100
AcDbEntity
  8
0
100
AcDbLine
 62
7
  6
CONTINUOUS
 10
24.5587188394
 20
67.5981174581
 11
14.8370944081
 21
61.5633462816
  0
LINE
  5
240
100
AcDbEntity
  8
0
100
AcDbLine
 62
7
  6
CONTINUOUS
 10
39.5908128727
 20
77.2743155935
 11
39.3555259546
 21
77.1384734389
  0
LINE
  5
241
100
AcDbEntity
  8
0
100
AcDbLine
 62
7
  6
CONTINUOUS
 10
46.4584673147
 20
81.1984456237
 11
47.9617412707
 21
82.0663560662
  0
LINE
  5
242
100
AcDbEntity
  8
0
100
AcDbLine
 62
7
  6
CONTINUOUS
 10
32.5574878402
 20
73.0573758923
 11
33.2646036748
 21
73.4656269729
  0
LINE
  5
243
100
AcDbEntity
  8
0
100
AcDbLine
 62
7
  6
CONTINUOUS
 10
49.5975936366
 20
82.7744009546
 11
48.6234438822
 21
82.2119786888
  0
LINE
  5
244
100
AcDbEntity
  8
0
100
AcDbLine
 62
7
  6
CONTINUOUS
 10
47.4845388104
 20
80.6060563711
 11
43.2419157871
 21
78.1565914479
  0
LINE
  5
245
100
AcDbEntity
  8
0
100
AcDbLine
 62
7
  6
CONTINUOUS
 10
36.3900256052
 20
74.1107153803
 11
36.0364676879
 21
73.90658984
  0
LINE
  5
246
100
AcDbEntity
  8
0
100
AcDbLine
 62
7
  6
CONTINUOUS
 10
28.8585001792
 20
69.6879429416
 11
24.7466076175
 21
67.313954835
  0
LINE
  5
247
100
AcDbEntity
  8
0
100
AcDbLine
 62
7
  6
CONTINUOUS
 10
32.4443505322
 20
71.7356680441
 11
34.3526895962
 21
72.8374415397
  0
LINE
  5
248
100
AcDbEntity
  8
0
100
AcDbLine
 62
7
  6
CONTINUOUS
 10
50.556172113
 20
81.096142768
 11
51.5303218674
 21
81.6585650338
  0
LINE
  5
249
100
AcDbEntity
  8
0
100
AcDbLine
 62
7
  6
CONTINUOUS
 10
39.8149502092
 20
74.7082378211
 11
38.1507257661
 21
73.7474031263
  0
LINE
  5
24A
100
AcDbEntity
  8
0
100
AcDbLine
 62
7
  6
CONTINUOUS
 10
60.6041686782
 20
56.2200660076
 11
60.0343021738
 21
56.3228264028
  0
LINE
  5
24B
100
AcDbEntity
  8
0
100
AcDbLine
 62
7
  6
CONTINUOUS
 10
60.5695605705
 20
51.0069037783
 11
60.7816971539
 21
50.8844294355
  0
LINE
  5
24C
100
AcDbEntity
  8
0
100
AcDbLine
 62
7
  6
CONTINUOUS
 10
39.5035249495
 20
78.273647534
 11
39.644420351
 21
76.6605804581
  0
LINE
  5
24D
100
AcDbEntity
  8
0
100
AcDbLine
 62
7
  6
CONTINUOUS
 10
39.772243875
 20
75.1971691916
 11
39.8358164642
 21
74.4693466402
  0
LINE
  5
24E
100
AcDbEntity
  8
0
100
AcDbLine
 62
7
  6
CONTINUOUS
 10
43.4159697904
 20
82.95499265
 11
43.473308875
 21
83.1859786798
  0
LINE
  5
24F
100
AcDbEntity
  8
0
100
AcDbLine
 62
7
  6
CONTINUOUS
 10
61.7278545661
 20
91.7656318633
 11
54.2397774237
 21
83.9489674092
  0
LINE
  5
250
100
AcDbEntity
  8
0
100
AcDbLine
 62
7
  6
CONTINUOUS
 10
35.1682045627
 20
70.3860401234
 11
34.9810961796
 21
70.2711103944
  0
LINE
  5
251
100
AcDbEntity
  8
0
100
AcDbLine
 62
7
  6
CONTINUOUS
 10
35.1681044152
 20
70.3862136296
 11
35.7880616305
 21
70.7441439582
  0
LINE
  5
252
100
AcDbEntity
  8
0
100
AcDbLine
 62
7
  6
CONTINUOUS
 10
68.445396955
 20
87.8873446953
 11
79.6879456411
 21
94.3781944605
  0
LINE
  5
253
100
AcDbEntity
  8
0
100
AcDbLine
 62
7
  6
CONTINUOUS
 10
50.1750704844
 20
76.7674568984
 11
51.7222990603
 21
77.6607444009
  0
LINE
  5
254
100
AcDbEntity
  8
0
100
AcDbLine
 62
7
  6
CONTINUOUS
 10
55.7718647891
 20
56.7979931841
 11
55.9733910608
 21
56.6816445691
  0
LINE
  5
255
100
AcDbEntity
  8
0
100
AcDbLine
 62
7
  6
CONTINUOUS
 10
44.1611584298
 20
70.2773567129
 11
44.1611584298
 21
75.1763712156
  0
LINE
  5
256
100
AcDbEntity
  8
0
100
AcDbLine
 62
7
  6
CONTINUOUS
 10
45.9289327427
 20
73.5025673956
 11
45.9289327427
 21
68.6035528929
  0
LINE
  5
257
100
AcDbEntity
  8
0
100
AcDbLine
 62
7
  6
CONTINUOUS
 10
46.3213787829
 20
46.4695278368
 11
46.3213787829
 21
45.1893376976
  0
LINE
  5
258
100
AcDbEntity
  8
0
100
AcDbLine
 62
7
  6
CONTINUOUS
 10
47.6029796246
 20
72.9187432268
 11
48.1668658123
 21
73.4812919905
  0
LINE
  5
259
100
AcDbEntity
  8
0
100
AcDbLine
 62
7
  6
CONTINUOUS
 10
38.4306936084
 20
68.2611648281
 11
44.1611584298
 21
72.7363941691
  0
LINE
  5
25A
100
AcDbEntity
  8
0
100
AcDbLine
 62
7
  6
CONTINUOUS
 10
49.9629428015
 20
77.2673207971
 11
53.0542817709
 21
79.6815142858
  0
LINE
  5
25B
100
AcDbEntity
  8
0
100
AcDbLine
 62
7
  6
CONTINUOUS
 10
55.4106842799
 20
80.2529421532
 11
54.0357236481
 21
79.1791611679
  0
LINE
  5
25C
100
AcDbEntity
  8
0
100
AcDbLine
 62
7
  6
CONTINUOUS
 10
46.9447203087
 20
72.1153639256
 11
48.1137804817
 21
73.0283461271
  0
LINE
  5
25D
100
AcDbEntity
  8
0
100
AcDbLine
 62
7
  6
CONTINUOUS
 10
80.4657663388
 20
93.9291296305
 11
77.112297412
 21
91.993015
  0
LINE
  5
25E
100
AcDbEntity
  8
0
100
AcDbLine
 62
7
  6
CONTINUOUS
 10
70.6703495246
 20
88.273776854
 11
75.6551833838
 21
91.1517548452
  0
LINE
  5
25F
100
AcDbEntity
  8
0
100
AcDbLine
 62
7
  6
CONTINUOUS
 10
51.5330241528
 20
76.8982652006
 11
50.7995838864
 21
76.474815793
  0
LINE
  5
260
100
AcDbEntity
  8
0
100
AcDbLine
 62
7
  6
CONTINUOUS
 10
45.9289327427
 20
73.5025673956
 11
50.171555766
 21
75.9520323189
  0
LINE
  5
261
100
AcDbEntity
  8
0
100
AcDbLine
 62
7
  6
CONTINUOUS
 10
55.2662374242
 20
77.5023174014
 11
54.2920876698
 21
76.9398951356
  0
LINE
  5
262
100
AcDbEntity
  8
0
100
AcDbLine
 62
7
  6
CONTINUOUS
 10
47.6029796246
 20
72.9187432268
 11
47.1337329312
 21
72.6478251392
  0
LINE
  5
263
100
AcDbEntity
  8
0
100
AcDbLine
 62
7
  6
CONTINUOUS
 10
55.7063071201
 20
76.1234136266
 11
57.5174151701
 21
77.1690511052
  0
LINE
  5
264
100
AcDbEntity
  8
0
100
AcDbLine
 62
7
  6
CONTINUOUS
 10
32.4443505322
 20
71.7356680441
 11
34.9810961796
 21
70.2711103944
  0
LINE
  5
265
100
AcDbEntity
  8
0
100
AcDbLine
 62
7
  6
CONTINUOUS
 10
47.0550229309
 20
63.3003832333
 11
49.591761367
 21
61.835829747
  0
LINE
  5
266
100
AcDbEntity
  8
0
100
AcDbLine
 62
7
  6
CONTINUOUS
 10
59.7970124439
 20
56.604254742
 11
60.3980557103
 21
56.2572501007
  0
LINE
  5
267
100
AcDbEntity
  8
0
100
AcDbLine
 62
7
  6
CONTINUOUS
 10
60.6042032845
 20
56.220125861
 11
60.0031600181
 21
56.5671305024
  0
LINE
  5
268
100
AcDbEntity
  8
0
100
AcDbLine
 62
7
  6
CONTINUOUS
 10
60.5695642363
 20
56.2733422524
 11
59.7912158108
 21
56.7227117593
  0
LINE
  5
269
100
AcDbEntity
  8
0
100
AcDbLine
 62
7
  6
CONTINUOUS
 10
60.7816953875
 20
56.3958154985
 11
59.721025102
 21
57.0081799198
  0
LINE
  5
26A
100
AcDbEntity
  8
0
100
AcDbLine
 62
7
  6
CONTINUOUS
 10
49.0543577278
 20
64.3496215065
 11
46.8481753854
 21
65.6233326606
  0
LINE
  5
26B
100
AcDbEntity
  8
0
100
AcDbLine
 62
7
  6
CONTINUOUS
 10
35.4637088105
 20
72.1960088084
 11
33.2645975653
 21
73.4656375549
  0
LINE
  5
26C
100
AcDbEntity
  8
0
100
AcDbLine
 62
7
  6
CONTINUOUS
 10
39.8358164642
 20
74.4693466402
 11
39.8494757184
 21
74.444424625
  0
LINE
  5
26D
100
AcDbEntity
  8
0
100
AcDbLine
 62
7
  6
CONTINUOUS
 10
47.0284886134
 20
44.0870705587
 11
47.0284886134
 21
45.8921830288
  0
LINE
  5
26E
100
AcDbEntity
  8
0
100
AcDbLine
 62
7
  6
CONTINUOUS
 10
48.5310967844
 20
48.3226990599
 11
48.5310967847
 21
48.0835510235
  0
LINE
  5
26F
100
AcDbEntity
  8
0
100
AcDbLine
 62
7
  6
CONTINUOUS
 10
49.591761367
 20
61.835829747
 11
49.591761367
 21
47.7103391023
  0
LINE
  5
270
100
AcDbEntity
  8
0
100
AcDbLine
 62
7
  6
CONTINUOUS
 10
49.761467453
 20
36.6702000198
 11
49.761467453
 21
63.1248783348
  0
LINE
  5
271
100
AcDbEntity
  8
0
100
AcDbLine
 62
7
  6
CONTINUOUS
 10
50.3594063589
 20
72.1704374668
 11
50.7995838864
 21
73.9436582999
  0
LINE
  5
272
100
AcDbEntity
  8
0
100
AcDbLine
 62
7
  6
CONTINUOUS
 10
51.5330241528
 20
76.8982652006
 11
51.7222990603
 21
77.6607444009
  0
LINE
  5
273
100
AcDbEntity
  8
0
100
AcDbLine
 62
7
  6
CONTINUOUS
 10
48.1873938875
 20
71.459847627
 11
47.4550334584
 21
70.7292242088
  0
LINE
  5
274
100
AcDbEntity
  8
0
100
AcDbLine
 62
7
  6
CONTINUOUS
 10
48.1873938875
 20
71.459847627
 11
48.6626141405
 21
71.7342145303
  0
LINE
  5
275
100
AcDbEntity
  8
0
100
AcDbLine
 62
7
  6
CONTINUOUS
 10
50.3594063589
 20
72.1704374668
 11
50.1750704844
 21
72.0640117354
  0
LINE
  5
276
100
AcDbEntity
  8
0
100
AcDbLine
 62
7
  6
CONTINUOUS
 10
55.3514166686
 20
74.6937651262
 11
57.345951602
 21
75.8453035332
  0
LINE
  5
277
100
AcDbEntity
  8
0
100
AcDbLine
 62
7
  6
CONTINUOUS
 10
50.171555766
 20
71.0530178161
 11
45.9289327427
 21
68.6035528929
  0
LINE
  5
278
100
AcDbEntity
  8
0
100
AcDbLine
 62
7
  6
CONTINUOUS
 10
85.450889901
 20
91.0510323111
 11
82.0974209743
 21
89.1149176806
  0
LINE
  5
279
100
AcDbEntity
  8
0
100
AcDbLine
 62
7
  6
CONTINUOUS
 10
75.6554730869
 20
85.3956795346
 11
80.6403069461
 21
88.2736575258
  0
LINE
  5
27A
100
AcDbEntity
  8
0
100
AcDbLine
 62
7
  6
CONTINUOUS
 10
46.2824876053
 20
67.991181307
 11
50.5251106286
 21
70.4406462303
  0
LINE
  5
27B
100
AcDbEntity
  8
0
100
AcDbLine
 62
7
  6
CONTINUOUS
 10
75.445783234
 20
83.8457612256
 11
86.6883319201
 21
90.3366109907
  0
LINE
  5
27C
100
AcDbEntity
  8
0
100
AcDbLine
 62
7
  6
CONTINUOUS
 10
33.4767304829
 20
75.3844213714
 11
36.0364676879
 21
73.90658984
  0
LINE
  5
27D
100
AcDbEntity
  8
0
100
AcDbLine
 62
7
  6
CONTINUOUS
 10
46.2824876053
 20
67.991181307
 11
48.8422248103
 21
66.5133497757
  0
LINE
  5
27E
100
AcDbEntity
  8
0
100
AcDbLine
 62
7
  6
CONTINUOUS
 10
44.1611584298
 20
70.824998425
 11
42.7539522628
 21
71.6374309046
  0
LINE
  5
27F
100
AcDbEntity
  8
0
100
AcDbLine
 62
7
  6
CONTINUOUS
 10
59.8255661617
 20
62.0509645833
 11
60.0038746898
 21
61.9480204356
  0
LINE
  5
280
100
AcDbEntity
  8
0
100
AcDbLine
 62
7
  6
CONTINUOUS
 10
55.8685551619
 20
65.4597167024
 11
56.1690767951
 21
65.2862143817
  0
LINE
  5
281
100
AcDbEntity
  8
0
100
AcDbLine
 62
7
  6
CONTINUOUS
 10
39.1162768615
 20
75.733195676
 11
39.772243875
 21
75.1971691916
  0
LINE
  5
282
100
AcDbEntity
  8
0
100
AcDbLine
 62
7
  6
CONTINUOUS
 10
48.0563852814
 20
73.3710734971
 11
48.1137804817
 21
73.0283461271
  0
LINE
  5
283
100
AcDbEntity
  8
0
100
AcDbLine
 62
7
  6
CONTINUOUS
 10
50.171555766
 20
75.9520323189
 11
50.171555766
 21
71.0530178161
  0
LINE
  5
284
100
AcDbEntity
  8
0
100
AcDbLine
 62
7
  6
CONTINUOUS
 10
50.1750704844
 20
76.7674568984
 11
50.1750704844
 21
75.9520323189
  0
LINE
  5
285
100
AcDbEntity
  8
0
100
AcDbLine
 62
7
  6
CONTINUOUS
 10
50.7995838864
 20
76.474815793
 11
50.7995838864
 21
73.9436582999
  0
LINE
  5
286
100
AcDbEntity
  8
0
100
AcDbLine
 62
7
  6
CONTINUOUS
 10
51.5292417659
 20
61.8593257234
 11
51.5292417659
 21
35.6495981335
  0
LINE
  5
287
100
AcDbEntity
  8
0
100
AcDbLine
 62
7
  6
CONTINUOUS
 10
53.6633782732
 20
72.2902832441
 11
53.621847986
 21
72.1229817217
  0
LINE
  5
288
100
AcDbEntity
  8
0
100
AcDbLine
 62
7
  6
CONTINUOUS
 10
53.3924170123
 20
71.1987369411
 11
52.8684006087
 21
69.0877777354
  0
LINE
  5
289
100
AcDbEntity
  8
0
100
AcDbLine
 62
7
  6
CONTINUOUS
 10
60.8324551875
 20
96.9571715828
 11
61.312919085
 21
98.2779895386
  0
LINE
  5
28A
100
AcDbEntity
  8
0
100
AcDbLine
 62
7
  6
CONTINUOUS
 10
53.3924170123
 20
71.7255934124
 11
53.7046739545
 21
72.2664413037
  0
LINE
  5
28B
100
AcDbEntity
  8
0
100
AcDbLine
 62
7
  6
CONTINUOUS
 10
57.796842438
 20
76.7715166934
 11
68.445396955
 21
87.8873446953
  0
LINE
  5
28C
100
AcDbEntity
  8
0
100
AcDbLine
 62
7
  6
CONTINUOUS
 10
53.0848478336
 20
68.9628146989
 11
48.8422248103
 21
66.5133497757
  0
LINE
  5
28D
100
AcDbEntity
  8
0
100
AcDbLine
 62
7
  6
CONTINUOUS
 10
59.0727676706
 20
71.6983989652
 11
61.8007428705
 21
73.2733867797
  0
LINE
  5
28E
100
AcDbEntity
  8
0
100
AcDbLine
 62
7
  6
CONTINUOUS
 10
54.8066258643
 20
69.0311248283
 11
55.1323454651
 21
69.219178005
  0
LINE
  5
28F
100
AcDbEntity
  8
0
100
AcDbLine
 62
7
  6
CONTINUOUS
 10
53.9303482412
 20
68.2802551796
 11
54.6652039193
 21
68.7045217706
  0
LINE
  5
290
100
AcDbEntity
  8
0
100
AcDbLine
 62
7
  6
CONTINUOUS
 10
47.0550229309
 20
63.3003832333
 11
48.9633619949
 21
64.4021567289
  0
LINE
  5
291
100
AcDbEntity
  8
0
100
AcDbLine
 62
7
  6
CONTINUOUS
 10
56.786543693
 20
68.2641478185
 11
56.9016987671
 21
68.237524847
  0
LINE
  5
292
100
AcDbEntity
  8
0
100
AcDbLine
 62
7
  6
CONTINUOUS
 10
47.4550334584
 20
70.7292242088
 11
47.1987171685
 21
70.8065947411
  0
LINE
  5
293
100
AcDbEntity
  8
0
100
AcDbLine
 62
7
  6
CONTINUOUS
 10
39.6768264818
 20
75.2198725085
 11
39.4205101919
 21
75.2972430408
  0
LINE
  5
294
100
AcDbEntity
  8
0
100
AcDbLine
 62
7
  6
CONTINUOUS
 10
47.4550334584
 20
70.7292242088
 11
47.1156840366
 21
70.9251432566
  0
LINE
  5
295
100
AcDbEntity
  8
0
100
AcDbLine
 62
7
  6
CONTINUOUS
 10
39.6768264818
 20
75.2198725085
 11
39.33747706
 21
75.4157915563
  0
LINE
  5
296
100
AcDbEntity
  8
0
100
AcDbLine
 62
7
  6
CONTINUOUS
 10
60.7816953875
 20
63.3401685562
 11
60.7236573569
 21
63.3736760707
  0
LINE
  5
297
100
AcDbEntity
  8
0
100
AcDbLine
 62
7
  6
CONTINUOUS
 10
48.1873938875
 20
71.459847627
 11
46.9903109715
 21
72.1509681355
  0
LINE
  5
298
100
AcDbEntity
  8
0
100
AcDbLine
 62
7
  6
CONTINUOUS
 10
50.5251106286
 20
70.4406462303
 11
53.0848478336
 21
68.9628146989
  0
LINE
  5
299
100
AcDbEntity
  8
0
100
AcDbLine
 62
7
  6
CONTINUOUS
 10
47.3942959491
 20
72.4664618138
 11
48.6626141405
 21
71.7342145303
  0
LINE
  5
29A
100
AcDbEntity
  8
0
100
AcDbLine
 62
7
  6
CONTINUOUS
 10
54.6652039193
 20
68.7045217706
 11
56.722745693
 21
67.5166263475
  0
LINE
  5
29B
100
AcDbEntity
  8
0
100
AcDbLine
 62
7
  6
CONTINUOUS
 10
54.8066258643
 20
69.0311248283
 11
56.8113849793
 21
67.873702798
  0
LINE
  5
29C
100
AcDbEntity
  8
0
100
AcDbLine
 62
7
  6
CONTINUOUS
 10
53.3924170123
 20
70.2237034402
 11
56.786543693
 21
68.2641478185
  0
LINE
  5
29D
100
AcDbEntity
  8
0
100
AcDbLine
 62
7
  6
CONTINUOUS
 10
43.8076035673
 20
75.7887428015
 11
38.5113517259
 21
78.8464660528
  0
LINE
  5
29E
100
AcDbEntity
  8
0
100
AcDbLine
 62
7
  6
CONTINUOUS
 10
53.3924170123
 20
70.2237034402
 11
53.3924170123
 21
71.7255934124
  0
LINE
  5
29F
100
AcDbEntity
  8
0
100
AcDbLine
 62
7
  6
CONTINUOUS
 10
54.6652039193
 20
69.4888762008
 11
54.6652039193
 21
68.7045217706
  0
LINE
  5
2A0
100
AcDbEntity
  8
0
100
AcDbLine
 62
7
  6
CONTINUOUS
 10
54.8066258643
 20
69.4072280499
 11
54.8066258643
 21
69.0311248283
  0
LINE
  5
2A1
100
AcDbEntity
  8
0
100
AcDbLine
 62
7
  6
CONTINUOUS
 10
54.8773686317
 20
39.8412590085
 11
54.8773686317
 21
39.2697073165
  0
LINE
  5
2A2
100
AcDbEntity
  8
0
100
AcDbLine
 62
7
  6
CONTINUOUS
 10
55.7718647891
 20
64.3087906466
 11
55.7718647891
 21
42.1825999175
  0
LINE
  5
2A3
100
AcDbEntity
  8
0
100
AcDbLine
 62
7
  6
CONTINUOUS
 10
55.9380243875
 20
40.4536252393
 11
55.9380243875
 21
39.8820735473
  0
LINE
  5
2A4
100
AcDbEntity
  8
0
100
AcDbLine
 62
7
  6
CONTINUOUS
 10
55.9733910608
 20
56.6816445691
 11
55.9733910608
 21
43.1685295656
  0
LINE
  5
2A5
100
AcDbEntity
  8
0
100
AcDbLine
 62
7
  6
CONTINUOUS
 10
55.7063071201
 20
76.1234136266
 11
55.3514166686
 21
74.6937651262
  0
LINE
  5
2A6
100
AcDbEntity
  8
0
100
AcDbLine
 62
7
  6
CONTINUOUS
 10
55.6986826649
 20
64.775398599
 11
55.8685551619
 21
65.4597167024
  0
LINE
  5
2A7
100
AcDbEntity
  8
0
100
AcDbLine
 62
7
  6
CONTINUOUS
 10
57.0988008115
 20
70.3068859873
 11
56.786543693
 21
69.7660377908
  0
LINE
  5
2A8
100
AcDbEntity
  8
0
100
AcDbLine
 62
7
  6
CONTINUOUS
 10
49.591761367
 20
61.835829747
 11
49.761467453
 21
61.9338090165
  0
LINE
  5
2A9
100
AcDbEntity
  8
0
100
AcDbLine
 62
7
  6
CONTINUOUS
 10
55.6143715788
 20
65.3129646182
 11
55.8685551619
 21
65.4597167024
  0
LINE
  5
2AA
100
AcDbEntity
  8
0
100
AcDbLine
 62
7
  6
CONTINUOUS
 10
51.5292417659
 20
61.8593257234
 11
55.7718647891
 21
64.3087906466
  0
LINE
  5
2AB
100
AcDbEntity
  8
0
100
AcDbLine
 62
7
  6
CONTINUOUS
 10
39.644420351
 20
76.6605804581
 11
39.2099162803
 21
76.7970642952
  0
LINE
  5
2AC
100
AcDbEntity
  8
0
100
AcDbLine
 62
7
  6
CONTINUOUS
 10
53.3924170123
 20
71.7255934124
 11
56.786543693
 21
69.7660377908
  0
LINE
  5
2AD
100
AcDbEntity
  8
0
100
AcDbLine
 62
7
  6
CONTINUOUS
 10
39.0770300149
 20
80.5611349716
 11
43.2419157871
 21
78.1565914479
  0
LINE
  5
2AE
100
AcDbEntity
  8
0
100
AcDbLine
 62
7
  6
CONTINUOUS
 10
37.9301868887
 20
81.3736400322
 11
38.0942880436
 21
81.2788983296
  0
LINE
  5
2AF
100
AcDbEntity
  8
0
100
AcDbLine
 62
7
  6
CONTINUOUS
 10
50.7995838864
 20
73.9436582999
 11
59.0727676706
 21
69.1672414721
  0
LINE
  5
2B0
100
AcDbEntity
  8
0
100
AcDbLine
 62
7
  6
CONTINUOUS
 10
63.3979795852
 20
67.4185720274
 11
62.9030086655
 21
67.7043371562
  0
LINE
  5
2B1
100
AcDbEntity
  8
0
100
AcDbLine
 62
7
  6
CONTINUOUS
 10
56.786543693
 20
68.2641478185
 11
56.786543693
 21
69.7660377908
  0
LINE
  5
2B2
100
AcDbEntity
  8
0
100
AcDbLine
 62
7
  6
CONTINUOUS
 10
57.5997299235
 20
47.0468995542
 11
57.5997299235
 21
44.1074911409
  0
LINE
  5
2B3
100
AcDbEntity
  8
0
100
AcDbLine
 62
7
  6
CONTINUOUS
 10
57.9179245524
 20
46.5774016286
 11
57.9179245524
 21
47.5245471992
  0
LINE
  5
2B4
100
AcDbEntity
  8
0
100
AcDbLine
 62
7
  6
CONTINUOUS
 10
58.4482173971
 20
75.8448213026
 11
58.4482173971
 21
75.2089244765
  0
LINE
  5
2B5
100
AcDbEntity
  8
0
100
AcDbLine
 62
7
  6
CONTINUOUS
 10
59.0727676706
 20
69.1672414721
 11
59.0727676706
 21
71.6983989652
  0
LINE
  5
2B6
100
AcDbEntity
  8
0
100
AcDbLine
 62
7
  6
CONTINUOUS
 10
59.296772619
 20
46.5773875192
 11
59.296772619
 21
45.985410488
  0
LINE
  5
2B7
100
AcDbEntity
  8
0
100
AcDbLine
 62
7
  6
CONTINUOUS
 10
59.721041398
 20
57.008208146
 11
59.721041398
 21
61.7057899193
  0
LINE
  5
2B8
100
AcDbEntity
  8
0
100
AcDbLine
 62
7
  6
CONTINUOUS
 10
56.1690767951
 20
65.2862143817
 11
57.3757043302
 21
70.1470192829
  0
LINE
  5
2B9
100
AcDbEntity
  8
0
100
AcDbLine
 62
7
  6
CONTINUOUS
 10
59.0727676706
 20
69.1672414721
 11
55.9733910608
 21
56.6816445691
  0
LINE
  5
2BA
100
AcDbEntity
  8
0
100
AcDbLine
 62
7
  6
CONTINUOUS
 10
75.445783234
 20
83.8457612256
 11
63.3979795852
 21
71.2692830804
  0
LINE
  5
2BB
100
AcDbEntity
  8
0
100
AcDbLine
 62
7
  6
CONTINUOUS
 10
37.9301868887
 20
83.9047975253
 11
40.2863660712
 21
82.5444876143
  0
LINE
  5
2BC
100
AcDbEntity
  8
0
100
AcDbLine
 62
7
  6
CONTINUOUS
 10
50.7995838864
 20
76.474815793
 11
59.0727676706
 21
71.6983989652
  0
LINE
  5
2BD
100
AcDbEntity
  8
0
100
AcDbLine
 62
7
  6
CONTINUOUS
 10
55.3514166686
 20
74.6937651262
 11
51.5330241528
 21
76.8982652006
  0
LINE
  5
2BE
100
AcDbEntity
  8
0
100
AcDbLine
 62
7
  6
CONTINUOUS
 10
63.3979795852
 20
71.2692830804
 11
62.9030086655
 21
71.5550482093
  0
LINE
  5
2BF
100
AcDbEntity
  8
0
100
AcDbLine
 62
7
  6
CONTINUOUS
 10
43.3196530382
 20
83.0105998948
 11
47.4845388104
 21
80.6060563711
  0
LINE
  5
2C0
100
AcDbEntity
  8
0
100
AcDbLine
 62
7
  6
CONTINUOUS
 10
43.473308875
 20
83.1859786798
 11
46.6871792478
 21
81.3304917317
  0
LINE
  5
2C1
100
AcDbEntity
  8
0
100
AcDbLine
 62
7
  6
CONTINUOUS
 10
51.8649548284
 20
78.3411692339
 11
55.7063071201
 21
76.1234136266
  0
LINE
  5
2C2
100
AcDbEntity
  8
0
100
AcDbLine
 62
7
  6
CONTINUOUS
 10
40.6581620886
 20
85.4797853399
 11
44.0522704404
 21
83.5202403001
  0
LINE
  5
2C3
100
AcDbEntity
  8
0
100
AcDbLine
 62
7
  6
CONTINUOUS
 10
57.345951602
 20
75.8453035332
 11
61.8007428705
 21
73.2733867797
  0
LINE
  5
2C4
100
AcDbEntity
  8
0
100
AcDbLine
 62
7
  6
CONTINUOUS
 10
54.2920876698
 20
76.9398951356
 11
50.6844828961
 21
80.9533955939
  0
LINE
  5
2C5
100
AcDbEntity
  8
0
100
AcDbLine
 62
7
  6
CONTINUOUS
 10
51.5303218674
 20
81.6585650338
 11
55.2662374242
 21
77.5023174014
  0
LINE
  5
2C6
100
AcDbEntity
  8
0
100
AcDbLine
 62
7
  6
CONTINUOUS
 10
60.0038746898
 20
58.682010767
 11
60.0038746898
 21
61.9480204356
  0
LINE
  5
2C7
100
AcDbEntity
  8
0
100
AcDbLine
 62
7
  6
CONTINUOUS
 10
60.0745933166
 20
50.7211360068
 11
60.0745933166
 21
48.8431804474
  0
LINE
  5
2C8
100
AcDbEntity
  8
0
100
AcDbLine
 62
7
  6
CONTINUOUS
 10
60.5695642363
 20
56.2401242724
 11
60.5695642363
 21
56.2733422524
  0
LINE
  5
2C9
100
AcDbEntity
  8
0
100
AcDbLine
 62
7
  6
CONTINUOUS
 10
60.7816953875
 20
56.3958154985
 11
60.7816953875
 21
63.3401685562
  0
LINE
  5
2CA
100
AcDbEntity
  8
0
100
AcDbLine
 62
7
  6
CONTINUOUS
 10
60.7816971539
 20
50.8844294355
 11
60.7816971539
 21
49.2514246013
  0
LINE
  5
2CB
100
AcDbEntity
  8
0
100
AcDbLine
 62
7
  6
CONTINUOUS
 10
60.7816971539
 20
51.1293801607
 11
60.7816971539
 21
55.8317072084
  0
LINE
  5
2CC
100
AcDbEntity
  8
0
100
AcDbLine
 62
7
  6
CONTINUOUS
 10
61.3827333547
 20
50.0475023334
 11
61.3827333547
 21
47.7612955654
  0
LINE
  5
2CD
100
AcDbEntity
  8
0
100
AcDbLine
 62
7
  6
CONTINUOUS
 10
61.7049126571
 20
48.2103603954
 11
61.7049126571
 21
50.4376378398
  0
LINE
  5
2CE
100
AcDbEntity
  8
0
100
AcDbLine
 62
7
  6
CONTINUOUS
 10
62.9030086655
 20
71.7052199082
 11
62.9030086655
 21
66.9641201394
  0
LINE
  5
2CF
100
AcDbEntity
  8
0
100
AcDbLine
 62
7
  6
CONTINUOUS
 10
63.3979795852
 20
67.4185720274
 11
62.7652766001
 21
66.432280839
  0
LINE
  5
2D0
100
AcDbEntity
  8
0
100
AcDbLine
 62
7
  6
CONTINUOUS
 10
62.0120838016
 20
65.2581636974
 11
60.7816953875
 21
63.3401685562
  0
LINE
  5
2D1
100
AcDbEntity
  8
0
100
AcDbLine
 62
7
  6
CONTINUOUS
 10
59.859481177
 20
62.109708442
 11
62.6261291075
 21
66.156283094
  0
LINE
  5
2D2
100
AcDbEntity
  8
0
100
AcDbLine
 62
7
  6
CONTINUOUS
 10
26.586496124
 20
35.4178144549
 11
30.1464846739
 21
38.4388330526
  0
LINE
  5
2D3
100
AcDbEntity
  8
0
100
AcDbLine
 62
7
  6
CONTINUOUS
 10
40.2576627742
 20
43.8550651413
 11
36.6976742242
 21
40.8340465436
  0
LINE
  5
2D4
100
AcDbEntity
  8
0
100
AcDbLine
 62
7
  6
CONTINUOUS
 10
87.4395100504
 20
78.5227650408
 11
87.2273788993
 21
78.4002917946
  0
LINE
  5
2D5
100
AcDbEntity
  8
0
100
AcDbLine
 62
7
  6
CONTINUOUS
 10
60.0038746898
 20
61.9480204356
 11
59.7315683073
 21
61.7908052107
  0
LINE
  5
2D6
100
AcDbEntity
  8
0
100
AcDbLine
 62
7
  6
CONTINUOUS
 10
47.9617848031
 20
82.0662806486
 11
48.495133099
 21
82.2173886932
  0
LINE
  5
2D7
100
AcDbEntity
  8
0
100
AcDbLine
 62
7
  6
CONTINUOUS
 10
48.495133099
 20
82.2173886932
 11
44.8875283253
 21
82.3694971707
  0
LINE
  5
2D8
100
AcDbEntity
  8
0
100
AcDbLine
 62
7
  6
CONTINUOUS
 10
45.8616780798
 20
82.9319194365
 11
49.5975936367
 21
82.7744009546
  0
LINE
  5
2D9
100
AcDbEntity
  8
0
100
AcDbLine
 62
7
  6
CONTINUOUS
 10
45.2844169251
 20
84.2316161584
 11
47.6674880072
 21
82.8557805532
  0
LINE
  5
2DA
100
AcDbEntity
  8
0
100
AcDbLine
 62
7
  6
CONTINUOUS
 10
53.4604274969
 20
79.5113010417
 11
57.5174151701
 21
77.1690511052
  0
LINE
  5
2DB
100
AcDbEntity
  8
0
100
AcDbLine
 62
7
  6
CONTINUOUS
 10
86.7324003253
 20
61.2129033436
 11
87.4395100504
 21
60.8046625891
  0
LINE
  5
2DC
100
AcDbEntity
  8
0
100
AcDbLine
 62
7
  6
CONTINUOUS
 10
58.4482173971
 20
75.8448213026
 11
57.5174151701
 21
77.1690511052
  0
LINE
  5
2DD
100
AcDbEntity
  8
0
100
AcDbLine
 62
7
  6
CONTINUOUS
 10
62.9030086655
 20
71.7052199082
 11
61.8007428705
 21
73.2733867797
  0
LINE
  5
2DE
100
AcDbEntity
  8
0
100
AcDbLine
 62
7
  6
CONTINUOUS
 10
63.3979795852
 20
67.4185720274
 11
63.3979795852
 21
71.2692830804
  0
LINE
  5
2DF
100
AcDbEntity
  8
0
100
AcDbLine
 62
7
  6
CONTINUOUS
 10
59.5925575832
 20
46.7277432713
 11
59.5796106211
 21
46.6794242154
  0
LINE
  5
2E0
100
AcDbEntity
  8
0
100
AcDbLine
 62
7
  6
CONTINUOUS
 10
74.5503838553
 20
89.0373009451
 11
75.0308477528
 21
90.3581189009
  0
LINE
  5
2E1
100
AcDbEntity
  8
0
100
AcDbLine
 62
7
  6
CONTINUOUS
 10
53.2963801291
 20
36.6698498532
 11
55.7718647891
 21
42.1825999175
  0
LINE
  5
2E2
100
AcDbEntity
  8
0
100
AcDbLine
 62
7
  6
CONTINUOUS
 10
59.721041398
 20
58.5187178646
 11
60.0038746898
 21
58.682010767
  0
LINE
  5
2E3
100
AcDbEntity
  8
0
100
AcDbLine
 62
7
  6
CONTINUOUS
 10
45.68389417
 20
48.4954789725
 11
46.5334806015
 21
48.9859849996
  0
LINE
  5
2E4
100
AcDbEntity
  8
0
100
AcDbLine
 62
7
  6
CONTINUOUS
 10
87.2273788993
 20
71.8682724576
 11
87.4395100504
 21
71.9907457038
  0
LINE
  5
2E5
100
AcDbEntity
  8
0
100
AcDbLine
 62
7
  6
CONTINUOUS
 10
60.5695642363
 20
56.2733422524
 11
60.7816953875
 21
56.3958154985
  0
LINE
  5
2E6
100
AcDbEntity
  8
0
100
AcDbLine
 62
7
  6
CONTINUOUS
 10
86.0252964881
 20
65.0504717588
 11
86.7324062132
 21
64.6422310043
  0
LINE
  5
2E7
100
AcDbEntity
  8
0
100
AcDbLine
 62
7
  6
CONTINUOUS
 10
67.4990158013
 20
100.1761215463
 11
67.4779801
 21
101.4285266984
  0
LINE
  5
2E8
100
AcDbEntity
  8
0
100
AcDbLine
 62
7
  6
CONTINUOUS
 10
67.4990158013
 20
100.1761215463
 11
67.4990158013
 21
99.51314613
  0
LINE
  5
2E9
100
AcDbEntity
  8
0
100
AcDbLine
 62
7
  6
CONTINUOUS
 10
57.5997299235
 20
47.0468995542
 11
59.367489477
 21
49.700515018
  0
LINE
  5
2EA
100
AcDbEntity
  8
0
100
AcDbLine
 62
7
  6
CONTINUOUS
 10
43.1084542623
 20
45.0061511347
 11
38.4335252269
 21
42.3070957089
  0
LINE
  5
2EB
100
AcDbEntity
  8
0
100
AcDbLine
 62
7
  6
CONTINUOUS
 10
48.4275429638
 20
47.8546592983
 11
46.4249320858
 21
46.6984182733
  0
LINE
  5
2EC
100
AcDbEntity
  8
0
100
AcDbLine
 62
7
  6
CONTINUOUS
 10
49.761467453
 20
47.8083183718
 11
49.591761367
 21
47.7103391023
  0
LINE
  5
2ED
100
AcDbEntity
  8
0
100
AcDbLine
 62
7
  6
CONTINUOUS
 10
47.0284886134
 20
45.8921830288
 11
49.761467453
 21
47.4701037706
  0
LINE
  5
2EE
100
AcDbEntity
  8
0
100
AcDbLine
 62
7
  6
CONTINUOUS
 10
46.321381882
 20
45.1893323299
 11
45.9678246881
 21
44.9852072073
  0
LINE
  5
2EF
100
AcDbEntity
  8
0
100
AcDbLine
 62
7
  6
CONTINUOUS
 10
49.761467453
 20
45.6649472088
 11
47.0284886134
 21
44.0870705587
  0
LINE
  5
2F0
100
AcDbEntity
  8
0
100
AcDbLine
 62
7
  6
CONTINUOUS
 10
46.8213766498
 20
43.6292846171
 11
49.761467453
 21
45.3267367013
  0
LINE
  5
2F1
100
AcDbEntity
  8
0
100
AcDbLine
 62
7
  6
CONTINUOUS
 10
30.1464846739
 20
38.4388330526
 11
40.2576627742
 21
43.8550651413
  0
LINE
  5
2F2
100
AcDbEntity
  8
0
100
AcDbLine
 62
7
  6
CONTINUOUS
 10
36.6976742242
 20
40.8340465436
 11
26.586496124
 21
35.4178144549
  0
LINE
  5
2F3
100
AcDbEntity
  8
0
100
AcDbLine
 62
7
  6
CONTINUOUS
 10
70.7057005387
 20
88.2533673982
 11
73.5940830809
 21
88.1475795532
  0
LINE
  5
2F4
100
AcDbEntity
  8
0
100
AcDbLine
 62
7
  6
CONTINUOUS
 10
60.0745933166
 20
50.7211360068
 11
60.7816971539
 21
51.1293801607
  0
LINE
  5
2F5
100
AcDbEntity
  8
0
100
AcDbLine
 62
7
  6
CONTINUOUS
 10
60.0745933166
 20
50.4761852816
 11
60.7816971539
 21
50.8844294355
  0
LINE
  5
2F6
100
AcDbEntity
  8
0
100
AcDbLine
 62
7
  6
CONTINUOUS
 10
84.6110947016
 20
64.6422521684
 11
86.5453839862
 21
65.7590079414
  0
LINE
  5
2F7
100
AcDbEntity
  8
0
100
AcDbLine
 62
7
  6
CONTINUOUS
 10
59.367489477
 20
49.700515018
 11
60.0745933166
 21
50.1087591733
  0
LINE
  5
2F8
100
AcDbEntity
  8
0
100
AcDbLine
 62
7
  6
CONTINUOUS
 10
63.5448080358
 20
51.4998955912
 11
60.7816971539
 21
49.9046223022
  0
LINE
  5
2F9
100
AcDbEntity
  8
0
100
AcDbLine
 62
7
  6
CONTINUOUS
 10
60.7816971539
 20
49.7004959924
 11
61.3827333547
 21
50.0475023334
  0
LINE
  5
2FA
100
AcDbEntity
  8
0
100
AcDbLine
 62
7
  6
CONTINUOUS
 10
86.7324062132
 20
64.6422310043
 11
87.1566685156
 21
64.8871774966
  0
LINE
  5
2FB
100
AcDbEntity
  8
0
100
AcDbLine
 62
7
  6
CONTINUOUS
 10
60.0745933166
 20
48.8431804474
 11
60.7816971539
 21
49.2514246013
  0
LINE
  5
2FC
100
AcDbEntity
  8
0
100
AcDbLine
 62
7
  6
CONTINUOUS
 10
87.4395100504
 20
71.9907457038
 11
87.2273788993
 21
72.1132169103
  0
LINE
  5
2FD
100
AcDbEntity
  8
0
100
AcDbLine
 62
7
  6
CONTINUOUS
 10
73.7215813826
 20
96.5836029065
 11
73.7005456813
 21
97.8360080586
  0
LINE
  5
2FE
100
AcDbEntity
  8
0
100
AcDbLine
 62
7
  6
CONTINUOUS
 10
73.7215813826
 20
96.5836029065
 11
73.7215813826
 21
90.9335330116
  0
LINE
  5
2FF
100
AcDbEntity
  8
0
100
AcDbLine
 62
7
  6
CONTINUOUS
 10
68.7077628548
 20
52.0720142073
 11
62.2666072633
 21
48.3532334908
  0
LINE
  5
300
100
AcDbEntity
  8
0
100
AcDbLine
 62
7
  6
CONTINUOUS
 10
61.3827333547
 20
47.7612955654
 11
59.3321322268
 21
46.5773875192
  0
LINE
  5
301
100
AcDbEntity
  8
0
100
AcDbLine
 62
7
  6
CONTINUOUS
 10
59.296772619
 20
46.5161285935
 11
59.5796106211
 21
46.6794242154
  0
LINE
  5
302
100
AcDbEntity
  8
0
100
AcDbLine
 62
7
  6
CONTINUOUS
 10
57.5997299235
 20
45.0056282794
 11
59.296772619
 21
45.985410488
  0
LINE
  5
303
100
AcDbEntity
  8
0
100
AcDbLine
 62
7
  6
CONTINUOUS
 10
86.7324003253
 20
61.2129033436
 11
84.6110947016
 21
59.9881742814
  0
LINE
  5
304
100
AcDbEntity
  8
0
100
AcDbLine
 62
7
  6
CONTINUOUS
 10
57.5997299235
 20
44.1074911409
 11
55.9733910608
 21
43.1685295656
  0
LINE
  5
305
100
AcDbEntity
  8
0
100
AcDbLine
 62
7
  6
CONTINUOUS
 10
84.6110947016
 20
59.1716859736
 11
87.4395100504
 21
60.8046625891
  0
LINE
  5
306
100
AcDbEntity
  8
0
100
AcDbLine
 62
7
  6
CONTINUOUS
 10
86.6883319201
 20
59.3095191398
 11
75.445783234
 21
52.8186693747
  0
LINE
  5
307
100
AcDbEntity
  8
0
100
AcDbLine
 62
7
  6
CONTINUOUS
 10
55.5844695249
 20
41.0659968251
 11
55.1605550041
 21
40.8212511234
  0
LINE
  5
308
100
AcDbEntity
  8
0
100
AcDbLine
 62
7
  6
CONTINUOUS
 10
75.445783234
 20
83.8457612256
 11
68.445396955
 21
87.8873446953
  0
LINE
  5
309
100
AcDbEntity
  8
0
100
AcDbLine
 62
7
  6
CONTINUOUS
 10
61.7278545661
 20
91.7656318633
 11
54.7274682872
 21
95.807215333
  0
LINE
  5
30A
100
AcDbEntity
  8
0
100
AcDbLine
 62
7
  6
CONTINUOUS
 10
75.6554730869
 20
85.3956795346
 11
70.6703495246
 21
88.273776854
  0
LINE
  5
30B
100
AcDbEntity
  8
0
100
AcDbLine
 62
7
  6
CONTINUOUS
 10
61.9375444191
 20
93.3155501723
 11
56.9524208568
 21
96.1936474916
  0
LINE
  5
30C
100
AcDbEntity
  8
0
100
AcDbLine
 62
7
  6
CONTINUOUS
 10
54.8773686317
 20
39.8412590085
 11
55.9380243875
 21
40.4536252393
  0
LINE
  5
30D
100
AcDbEntity
  8
0
100
AcDbLine
 62
7
  6
CONTINUOUS
 10
55.9380243875
 20
39.8820735473
 11
54.8773686317
 21
39.2697073165
  0
LINE
  5
30E
100
AcDbEntity
  8
0
100
AcDbLine
 62
7
  6
CONTINUOUS
 10
54.7738126499
 20
39.0408143457
 11
55.8344684057
 21
39.6531805765
  0
LINE
  5
30F
100
AcDbEntity
  8
0
100
AcDbLine
 62
7
  6
CONTINUOUS
 10
51.5292417659
 20
35.6495981335
 11
53.2963801291
 21
36.6698498532
  0
LINE
  5
310
100
AcDbEntity
  8
0
100
AcDbLine
 62
7
  6
CONTINUOUS
 10
56.9877718709
 20
96.1732380359
 11
59.876154413
 21
96.0674501909
  0
LINE
  5
311
100
AcDbEntity
  8
0
100
AcDbLine
 62
7
  6
CONTINUOUS
 10
59.876154413
 20
96.0674501909
 11
63.2901073938
 21
94.0964481085
  0
LINE
  5
312
100
AcDbEntity
  8
0
100
AcDbLine
 62
7
  6
CONTINUOUS
 10
73.5940830809
 20
88.1475795532
 11
77.0080360616
 21
86.1765774708
  0
LINE
  5
313
100
AcDbEntity
  8
0
100
AcDbLine
 62
7
  6
CONTINUOUS
 10
78.2567148105
 20
86.8974981793
 11
74.5503838553
 21
89.0373009451
  0
LINE
  5
314
100
AcDbEntity
  8
0
100
AcDbLine
 62
7
  6
CONTINUOUS
 10
64.5387861426
 20
94.8173688169
 11
60.8324551875
 21
96.9571715828
  0
LINE
  5
315
100
AcDbEntity
  8
0
100
AcDbLine
 62
7
  6
CONTINUOUS
 10
81.2169444692
 20
92.2562509086
 11
81.1959087679
 21
93.5086560607
  0
LINE
  5
316
100
AcDbEntity
  8
0
100
AcDbLine
 62
7
  6
CONTINUOUS
 10
81.2169444692
 20
92.2562509086
 11
81.2169444692
 21
91.5932754923
  0
LINE
  5
317
100
AcDbEntity
  8
0
100
AcDbLine
 62
7
  6
CONTINUOUS
 10
61.312919085
 20
98.2779895386
 11
65.9228943472
 21
95.6164792914
  0
LINE
  5
318
100
AcDbEntity
  8
0
100
AcDbLine
 62
7
  6
CONTINUOUS
 10
75.0308477528
 20
90.3581189009
 11
79.640823015
 21
87.6966086537
  0
LINE
  5
319
100
AcDbEntity
  8
0
100
AcDbLine
 62
7
  6
CONTINUOUS
 10
80.6403069461
 20
88.2736575258
 11
75.6551833838
 21
91.1517548452
  0
LINE
  5
31A
100
AcDbEntity
  8
0
100
AcDbLine
 62
7
  6
CONTINUOUS
 10
66.9223782782
 20
96.1935281635
 11
61.9372547159
 21
99.0716254829
  0
LINE
  5
31B
100
AcDbEntity
  8
0
100
AcDbLine
 62
7
  6
CONTINUOUS
 10
82.0974209743
 20
89.1149176806
 11
77.112297412
 21
91.993015
  0
LINE
  5
31C
100
AcDbEntity
  8
0
100
AcDbLine
 62
7
  6
CONTINUOUS
 10
68.3794923064
 20
97.0347883183
 11
63.3943687441
 21
99.9128856377
  0
LINE
  5
31D
100
AcDbEntity
  8
0
100
AcDbLine
 62
7
  6
CONTINUOUS
 10
84.6110947016
 20
59.1716859736
 11
84.6110947016
 21
64.6422521684
  0
LINE
  5
31E
100
AcDbEntity
  8
0
100
AcDbLine
 62
7
  6
CONTINUOUS
 10
86.7324003253
 20
64.6422310043
 11
86.7324003253
 21
61.2129033436
  0
LINE
  5
31F
100
AcDbEntity
  8
0
100
AcDbLine
 62
7
  6
CONTINUOUS
 10
87.1566685156
 20
64.8871774966
 11
87.4395100504
 21
65.377076125
  0
LINE
  5
320
100
AcDbEntity
  8
0
100
AcDbLine
 62
7
  6
CONTINUOUS
 10
83.803537896
 20
90.0999388648
 11
80.8027198277
 21
91.8324227903
  0
LINE
  5
321
100
AcDbEntity
  8
0
100
AcDbLine
 62
7
  6
CONTINUOUS
 10
70.0856092281
 20
98.0198095025
 11
67.0847911598
 21
99.752293428
  0
LINE
  5
322
100
AcDbEntity
  8
0
100
AcDbLine
 62
7
  6
CONTINUOUS
 10
65.9700169732
 20
102.2980650982
 11
66.7478376709
 21
101.8490002682
  0
LINE
  5
323
100
AcDbEntity
  8
0
100
AcDbLine
 62
7
  6
CONTINUOUS
 10
71.7329612332
 20
98.9709029488
 11
72.9704032522
 21
98.2564816284
  0
LINE
  5
324
100
AcDbEntity
  8
0
100
AcDbLine
 62
7
  6
CONTINUOUS
 10
79.6879456411
 20
94.3781944605
 11
80.4657663388
 21
93.9291296305
  0
LINE
  5
325
100
AcDbEntity
  8
0
100
AcDbLine
 62
7
  6
CONTINUOUS
 10
85.450889901
 20
91.0510323111
 11
86.6883319201
 21
90.3366109907
  0
LINE
  5
326
100
AcDbEntity
  8
0
100
AcDbLine
 62
7
  6
CONTINUOUS
 10
87.2046144017
 20
90.3877526168
 11
85.9671723827
 21
91.1021739372
  0
LINE
  5
327
100
AcDbEntity
  8
0
100
AcDbLine
 62
7
  6
CONTINUOUS
 10
80.9820488204
 20
93.9802712565
 11
80.2042281228
 21
94.4293360865
  0
LINE
  5
328
100
AcDbEntity
  8
0
100
AcDbLine
 62
7
  6
CONTINUOUS
 10
73.4866857339
 20
98.3076232544
 11
72.2492437149
 21
99.0220445749
  0
LINE
  5
329
100
AcDbEntity
  8
0
100
AcDbLine
 62
7
  6
CONTINUOUS
 10
67.2641201526
 20
101.9001418942
 11
66.4862994549
 21
102.3492067242
  0
LINE
  5
32A
100
AcDbEntity
  8
0
100
AcDbLine
 62
7
  6
CONTINUOUS
 10
86.0252964881
 20
65.0504717588
 11
85.9629535912
 21
65.4227436033
  0
LINE
  5
32B
100
AcDbEntity
  8
0
100
AcDbLine
 62
7
  6
CONTINUOUS
 10
86.5453839862
 20
65.7590079414
 11
86.7324062132
 21
64.6422310043
  0
LINE
  5
32C
100
AcDbEntity
  8
0
100
AcDbLine
 62
7
  6
CONTINUOUS
 10
87.4395100504
 20
88.6637322688
 11
87.4184743492
 21
89.9161374209
  0
LINE
  5
32D
100
AcDbEntity
  8
0
100
AcDbLine
 62
7
  6
CONTINUOUS
 10
87.2273788993
 20
78.4002917946
 11
87.2273788993
 21
71.8682724576
  0
LINE
  5
32E
100
AcDbEntity
  8
0
100
AcDbLine
 62
7
  6
CONTINUOUS
 10
87.4395100504
 20
88.6637322688
 11
87.4395100504
 21
78.5227650408
  0
LINE
  5
32F
100
AcDbEntity
  8
0
100
AcDbLine
 62
7
  6
CONTINUOUS
 10
87.4395100504
 20
71.9907457038
 11
87.4395100504
 21
65.377076125
  0
LINE
  5
330
100
AcDbEntity
  8
0
100
AcDbLine
 62
7
  6
CONTINUOUS
 10
87.4395100504
 20
60.8046625891
 11
87.4395100504
 21
60.5871339706
  0
ARC
  5
331
100
AcDbEntity
  8
0
100
AcDbCircle
 62
7
  6
CONTINUOUS
 10
68.7972364183
 20
80.1301360905
 40
61.4893348658
100
AcDbArc
 50
215.0008461681
 51
226.6484750836
  0
ARC
  5
332
100
AcDbEntity
  8
0
100
AcDbCircle
 62
7
  6
CONTINUOUS
 10
72.3572249682
 20
83.1511546882
 40
61.4893348658
100
AcDbArc
 50
215.0008461681
 51
226.6484750836
  0
ARC
  5
333
100
AcDbEntity
  8
0
100
AcDbCircle
 62
7
  6
CONTINUOUS
 10
28.2541836426
 20
52.8844822334
 40
18.5150300001
100
AcDbArc
 50
26.6614401673
 51
35.3078995384
  0
ARC
  5
334
100
AcDbEntity
  8
0
100
AcDbCircle
 62
7
  6
CONTINUOUS
 10
28.3813792977
 20
52.9454094104
 40
18.3740196915
100
AcDbArc
 50
25.5590620776
 51
26.6696286117
  0
ARC
  5
335
100
AcDbEntity
  8
0
100
AcDbCircle
 62
7
  6
CONTINUOUS
 10
28.4683023603
 20
53.0080332483
 40
18.2127767275
100
AcDbArc
 50
26.6356013644
 51
35.3495370977
  0
ARC
  5
336
100
AcDbEntity
  8
0
100
AcDbCircle
 62
7
  6
CONTINUOUS
 10
28.6243326756
 20
53.0833714137
 40
18.0395299872
100
AcDbArc
 50
25.5223973389
 51
26.6438837463
  0
ARC
  5
337
100
AcDbEntity
  8
0
100
AcDbCircle
 62
7
  6
CONTINUOUS
 10
28.6760253756
 20
53.1780315378
 40
18.0011204871
100
AcDbArc
 50
35.3214545394
 51
36.7307892412
  0
ARC
  5
338
100
AcDbEntity
  8
0
100
AcDbCircle
 62
7
  6
CONTINUOUS
 10
28.9115136242
 20
53.317972967
 40
17.6719576312
100
AcDbArc
 50
35.3612969581
 51
36.7839376275
  0
ARC
  5
339
100
AcDbEntity
  8
0
100
AcDbCircle
 62
7
  6
CONTINUOUS
 10
31.0494067689
 20
55.3163940395
 40
14.8022111149
100
AcDbArc
 50
46.0043216915
 51
47.4238855809
  0
ARC
  5
33A
100
AcDbEntity
  8
0
100
AcDbCircle
 62
7
  6
CONTINUOUS
 10
31.2933237643
 20
55.4736640273
 40
14.4550839579
100
AcDbArc
 50
46.1558752935
 51
47.5937789728
  0
ARC
  5
33B
100
AcDbEntity
  8
0
100
AcDbCircle
 62
7
  6
CONTINUOUS
 10
33.4762585268
 20
58.7051503493
 40
10.5240708284
100
AcDbArc
 50
58.7512717591
 51
59.4251908001
  0
ARC
  5
33C
100
AcDbEntity
  8
0
100
AcDbCircle
 62
7
  6
CONTINUOUS
 10
33.7200731269
 20
58.8771659821
 40
10.3419966298
100
AcDbArc
 50
59.3142597926
 51
59.9993078306
  0
ARC
  5
33D
100
AcDbEntity
  8
0
100
AcDbCircle
 62
7
  6
CONTINUOUS
 10
33.5842360156
 20
58.8877971461
 40
10.3118940463
100
AcDbArc
 50
59.4255200915
 51
59.9996572572
  0
ARC
  5
33E
100
AcDbEntity
  8
0
100
AcDbCircle
 62
7
  6
CONTINUOUS
 10
33.9168362872
 20
59.4048516992
 40
10.0699427752
100
AcDbArc
 50
59.9901073146
 51
62.9892539391
  0
ARC
  5
33F
100
AcDbEntity
  8
0
100
AcDbCircle
 62
7
  6
CONTINUOUS
 10
47.6705572128
 20
78.8614926583
 40
4.2265479796
100
AcDbArc
 50
346.1373901527
 51
352.9284704855
  0
ARC
  5
340
100
AcDbEntity
  8
0
100
AcDbCircle
 62
7
  6
CONTINUOUS
 10
37.1408164473
 20
66.9641213004
 40
3.949961231
100
AcDbArc
 50
110.1952932445
 51
119.961888296
  0
ARC
  5
341
100
AcDbEntity
  8
0
100
AcDbCircle
 62
7
  6
CONTINUOUS
 10
47.9750502387
 20
78.7918854308
 40
3.9142500891
100
AcDbArc
 50
343.2030841442
 51
346.0587111039
  0
ARC
  5
342
100
AcDbEntity
  8
0
100
AcDbCircle
 62
7
  6
CONTINUOUS
 10
47.2732595453
 20
76.9263679
 40
2.9061588795
100
AcDbArc
 50
356.8654593666
 51
0.03705697
  0
ARC
  5
343
100
AcDbEntity
  8
0
100
AcDbCircle
 62
7
  6
CONTINUOUS
 10
84.0263340646
 20
63.2133467809
 40
0.9383007799
100
AcDbArc
 50
359.4932749726
 51
359.9992435869
  0
ARC
  5
344
100
AcDbEntity
  8
0
100
AcDbCircle
 62
7
  6
CONTINUOUS
 10
59.8469601824
 20
56.1956444793
 40
0.4116517016
100
AcDbArc
 50
93.2566228943
 51
96.9691525672
  0
SPLINE
  5
345
100
AcDbEntity
  8
0
100
AcDbSpline
 62
7
  6
CONTINUOUS
 70
0
 71
3
 72
25
 73
21
 74
0
 42
0.0000001
 43
0.0000001
 44
0.0000000001
 40
0.0
 40
0.0
 40
0.0
 40
0.0
 40
0.0651568281
 40
0.134735191
 40
0.2077555102
 40
0.2831508656
 40
0.359744443
 40
0.4363290456
 40
0.511691824
 40
0.584663475
 40
0.654161315
 40
0.7192367215
 40
0.7791327485
 40
0.8333588117
 40
0.8817945955
 40
0.9248326732
 40
0.9446726732
 40
0.9636345543
 40
0.9819776439
 40
1.0
 40
1.0
 40
1.0
 40
1.0
 10
53.1958249328
 20
84.816975958
 30
0.0
 10
53.3006496346
 20
84.7564567573
 30
0.0
 10
53.511030072
 20
84.6200653396
 30
0.0
 10
53.8160710097
 20
84.3830061824
 30
0.0
 10
54.1161729926
 20
84.110545378
 30
0.0
 10
54.4052842897
 20
83.8082087889
 30
0.0
 10
54.6776026412
 20
83.4820035943
 30
0.0
 10
54.9276480819
 20
83.1385038812
 30
0.0
 10
55.1503947078
 20
82.7846119358
 30
0.0
 10
55.3413828687
 20
82.4274444132
 30
0.0
 10
55.4968119243
 20
82.0741544884
 30
0.0
 10
55.6136093612
 20
81.7317580223
 30
0.0
 10
55.6894891185
 20
81.4069748896
 30
0.0
 10
55.7228924398
 20
81.1059517368
 30
0.0
 10
55.7130031421
 20
80.8343368994
 30
0.0
 10
55.6667847774
 20
80.6309721872
 30
0.0
 10
55.6066091009
 20
80.4909474757
 30
0.0
 10
55.5520703555
 20
80.3994714619
 30
0.0
 10
55.4871922338
 20
80.3193034117
 30
0.0
 10
55.4370702965
 20
80.2735497192
 30
0.0
 10
55.4106823318
 20
80.252944651
 30
0.0
  0
SPLINE
  5
346
100
AcDbEntity
  8
0
100
AcDbSpline
 62
7
  6
CONTINUOUS
 70
0
 71
3
 72
13
 73
9
 74
0
 42
0.0000001
 43
0.0000001
 44
0.0000000001
 40
0.0
 40
0.0
 40
0.0
 40
0.0
 40
0.1079519956
 40
0.2178560389
 40
0.3315241319
 40
0.4505288123
 40
0.7089186101
 40
1.0
 40
1.0
 40
1.0
 40
1.0
 10
49.9767878209
 20
83.6221996604
 30
0.0
 10
49.9501843976
 20
83.6014262336
 30
0.0
 10
49.8996717444
 20
83.5552566284
 30
0.0
 10
49.8343844881
 20
83.4742810483
 30
0.0
 10
49.7796152996
 20
83.3818218967
 30
0.0
 10
49.719353359
 20
83.240181765
 30
0.0
 10
49.673551982
 20
83.0344467706
 30
0.0
 10
49.6681195417
 20
82.8618953391
 30
0.0
 10
49.671546224
 20
82.7709479031
 30
0.0
  0
SPLINE
  5
347
100
AcDbEntity
  8
0
100
AcDbSpline
 62
7
  6
CONTINUOUS
 70
0
 71
3
 72
15
 73
11
 74
0
 42
0.0000001
 43
0.0000001
 44
0.0000000001
 40
0.0
 40
0.0
 40
0.0
 40
0.0
 40
0.0964308848
 40
0.1966606143
 40
0.3039304154
 40
0.4206175696
 40
0.5481669225
 40
0.6872849551
 40
0.8380970119
 40
1.0
 40
1.0
 40
1.0
 40
1.0
 10
51.7176912903
 20
84.9817649207
 30
0.0
 10
51.7574945699
 20
85.0128453505
 30
0.0
 10
51.8463879849
 20
85.0669261163
 30
0.0
 10
51.9983925245
 20
85.1178165069
 30
0.0
 10
52.1678028476
 20
85.1390907023
 30
0.0
 10
52.3524276163
 20
85.1309788101
 30
0.0
 10
52.5503214528
 20
85.0940491414
 30
0.0
 10
52.7594465426
 20
85.0288305627
 30
0.0
 10
52.9775079303
 20
84.936139096
 30
0.0
 10
53.1223960466
 20
84.8593691861
 30
0.0
 10
53.1958249328
 20
84.816975958
 30
0.0
  0
SPLINE
  5
348
100
AcDbEntity
  8
0
100
AcDbSpline
 62
7
  6
CONTINUOUS
 70
0
 71
3
 72
13
 73
9
 74
0
 42
0.0000001
 43
0.0000001
 44
0.0000000001
 40
0.0
 40
0.0
 40
0.0
 40
0.0
 40
0.1022020625
 40
0.2072146398
 40
0.3175394139
 40
0.4351755298
 40
0.6973611841
 40
1.0
 40
1.0
 40
1.0
 40
1.0
 10
35.9687017306
 20
71.4137089271
 30
0.0
 10
35.9467292578
 20
71.396547465
 30
0.0
 10
35.905421516
 20
71.357373403
 30
0.0
 10
35.8545062937
 20
71.2867434562
 30
0.0
 10
35.814575371
 20
71.2047057438
 30
0.0
 10
35.7748904963
 20
71.0765631116
 30
0.0
 10
35.7568061693
 20
70.889429771
 30
0.0
 10
35.7718400166
 20
70.7353458615
 30
0.0
 10
35.7854758455
 20
70.6539214256
 30
0.0
  0
SPLINE
  5
349
100
AcDbEntity
  8
0
100
AcDbSpline
 62
7
  6
CONTINUOUS
 70
0
 71
3
 72
13
 73
9
 74
0
 42
0.0000001
 43
0.0000001
 44
0.0000000001
 40
0.0
 40
0.0
 40
0.0
 40
0.0
 40
0.1049131596
 40
0.2182485445
 40
0.338850931
 40
0.4654708096
 40
0.7304549621
 40
1.0
 40
1.0
 40
1.0
 40
1.0
 10
35.7854758455
 20
70.6539214256
 30
0.0
 10
35.7964976284
 20
70.5881063989
 30
0.0
 10
35.8271952085
 20
70.4524365157
 30
0.0
 10
35.8938115247
 20
70.2472117339
 30
0.0
 10
35.9818839388
 20
70.0352120093
 30
0.0
 10
36.1281817498
 20
69.743855889
 30
0.0
 10
36.3537995719
 20
69.3876068109
 30
0.0
 10
36.569065285
 20
69.1232402141
 30
0.0
 10
36.6853059378
 20
68.9972142875
 30
0.0
  0
SPLINE
  5
34A
100
AcDbEntity
  8
0
100
AcDbSpline
 62
7
  6
CONTINUOUS
 70
0
 71
3
 72
21
 73
17
 74
0
 42
0.0000001
 43
0.0000001
 44
0.0000000001
 40
0.0
 40
0.0
 40
0.0
 40
0.0
 40
0.0405795807
 40
0.0855639045
 40
0.1352992963
 40
0.1897857365
 40
0.2487658744
 40
0.3117897259
 40
0.3782593983
 40
0.4474671988
 40
0.590838209
 40
0.7351797462
 40
0.8055789846
 40
0.8736640144
 40
0.9387073505
 40
1.0
 40
1.0
 40
1.0
 40
1.0
 10
53.9100408569
 20
79.2414547643
 30
0.0
 10
53.933131226
 20
79.3070984928
 30
0.0
 10
53.9669592029
 20
79.4509232504
 30
0.0
 10
53.9818404749
 20
79.6832406053
 30
0.0
 10
53.963589725
 20
79.9391106096
 30
0.0
 10
53.9126220347
 20
80.2147759136
 30
0.0
 10
53.8297718716
 20
80.506263659
 30
0.0
 10
53.7162747627
 20
80.8092109998
 30
0.0
 10
53.5738469822
 20
81.119055888
 30
0.0
 10
53.34557562
 20
81.5399400165
 30
0.0
 10
53.0042683816
 20
82.0498297335
 30
0.0
 10
52.6058023372
 20
82.5190324322
 30
0.0
 10
52.2596523474
 20
82.8591148591
 30
0.0
 10
51.995482954
 20
83.0876080943
 30
0.0
 10
51.7287528618
 20
83.2880654963
 30
0.0
 10
51.5459460524
 20
83.4048587317
 30
0.0
 10
51.4549215801
 20
83.4574105464
 30
0.0
  0
SPLINE
  5
34B
100
AcDbEntity
  8
0
100
AcDbSpline
 62
7
  6
CONTINUOUS
 70
0
 71
3
 72
24
 73
20
 74
0
 42
0.0000001
 43
0.0000001
 44
0.0000000001
 40
0.0
 40
0.0
 40
0.0
 40
0.0
 40
0.0180742493
 40
0.0365128194
 40
0.0756770761
 40
0.119640209
 40
0.1694908943
 40
0.2255274599
 40
0.2874785449
 40
0.354671546
 40
0.4261490277
 40
0.5007528256
 40
0.5771946881
 40
0.6541129237
 40
0.7301277562
 40
0.8038975687
 40
0.8741583057
 40
0.9398337966
 40
1.0
 40
1.0
 40
1.0
 40
1.0
 10
50.5922895707
 20
82.8340587965
 30
0.0
 10
50.611013447
 20
82.8486831725
 30
0.0
 10
50.6513335353
 20
82.8751800175
 30
0.0
 10
50.742446625
 20
82.9159978915
 30
0.0
 10
50.8754191433
 20
82.9415734063
 30
0.0
 10
51.0512056477
 20
82.9315742841
 30
0.0
 10
51.2431662066
 20
82.8835026567
 30
0.0
 10
51.4475438106
 20
82.798763232
 30
0.0
 10
51.6601899592
 20
82.679335826
 30
0.0
 10
51.8764957174
 20
82.5278344247
 30
0.0
 10
52.0916474761
 20
82.3476193895
 30
0.0
 10
52.3007929113
 20
82.1427376639
 30
0.0
 10
52.4991846591
 20
81.9178225965
 30
0.0
 10
52.6823111989
 20
81.6779815656
 30
0.0
 10
52.8460091649
 20
81.4286608353
 30
0.0
 10
52.9865507341
 20
81.1755342914
 30
0.0
 10
53.1008236479
 20
80.92430962
 30
0.0
 10
53.1861934848
 20
80.6807038768
 30
0.0
 10
53.2244403545
 20
80.5193090713
 30
0.0
 10
53.2375029087
 20
80.4413078652
 30
0.0
  0
SPLINE
  5
34C
100
AcDbEntity
  8
0
100
AcDbSpline
 62
7
  6
CONTINUOUS
 70
0
 71
3
 72
11
 73
7
 74
0
 42
0.0000001
 43
0.0000001
 44
0.0000000001
 40
0.0
 40
0.0
 40
0.0
 40
0.0
 40
0.2894569869
 40
0.5514798451
 40
0.7870117298
 40
1.0
 40
1.0
 40
1.0
 40
1.0
 10
53.2375029087
 20
80.4413078652
 30
0.0
 10
53.2474901486
 20
80.3816704657
 30
0.0
 10
53.2607119775
 20
80.266922585
 30
0.0
 10
53.2582993258
 20
80.1019713804
 30
0.0
 10
53.2324377274
 20
79.9550774291
 30
0.0
 10
53.1979014009
 20
79.867003914
 30
0.0
 10
53.1766377993
 20
79.8279202972
 30
0.0
  0
SPLINE
  5
34D
100
AcDbEntity
  8
0
100
AcDbSpline
 62
7
  6
CONTINUOUS
 70
0
 71
3
 72
13
 73
9
 74
0
 42
0.0000001
 43
0.0000001
 44
0.0000000001
 40
0.0
 40
0.0
 40
0.0
 40
0.0
 40
0.1022020625
 40
0.2072146398
 40
0.3175394139
 40
0.4351755298
 40
0.6973611841
 40
1.0
 40
1.0
 40
1.0
 40
1.0
 10
38.430688861
 20
68.2611709061
 30
0.0
 10
38.4526613339
 20
68.2783323682
 30
0.0
 10
38.4939690757
 20
68.3175064302
 30
0.0
 10
38.544884298
 20
68.388136377
 30
0.0
 10
38.5848152206
 20
68.4701740894
 30
0.0
 10
38.6245000954
 20
68.5983167216
 30
0.0
 10
38.6425844224
 20
68.7854500622
 30
0.0
 10
38.6275505751
 20
68.9395339717
 30
0.0
 10
38.6139147461
 20
69.0209584076
 30
0.0
  0
SPLINE
  5
34E
100
AcDbEntity
  8
0
100
AcDbSpline
 62
7
  6
CONTINUOUS
 70
0
 71
3
 72
24
 73
20
 74
0
 42
0.0000001
 43
0.0000001
 44
0.0000000001
 40
0.0
 40
0.0
 40
0.0
 40
0.0
 40
0.0601656776
 40
0.1258398104
 40
0.1960998568
 40
0.2698691229
 40
0.3458839175
 40
0.4228029307
 40
0.4992460217
 40
0.5738511676
 40
0.6453297064
 40
0.7125232115
 40
0.7744743093
 40
0.8305104927
 40
0.880360573
 40
0.9243232114
 40
0.9634871863
 40
0.9819257003
 40
1.0
 40
1.0
 40
1.0
 40
1.0
 10
38.6139147461
 20
69.0209584076
 30
0.0
 10
38.6008523061
 20
69.0989589321
 30
0.0
 10
38.5626065522
 20
69.2603514479
 30
0.0
 10
38.4772378361
 20
69.5039540004
 30
0.0
 10
38.3629671149
 20
69.7551758969
 30
0.0
 10
38.2224270721
 20
70.0083013688
 30
0.0
 10
38.0587299872
 20
70.2576229801
 30
0.0
 10
37.8756023735
 20
70.4974664723
 30
0.0
 10
37.6772078398
 20
70.7223849708
 30
0.0
 10
37.4680591178
 20
70.9272701752
 30
0.0
 10
37.2529043615
 20
71.107487613
 30
0.0
 10
37.0365965686
 20
71.2589897451
 30
0.0
 10
36.823949909
 20
71.3784165974
 30
0.0
 10
36.6195731596
 20
71.4631548109
 30
0.0
 10
36.42761429
 20
71.5112249427
 30
0.0
 10
36.2518296105
 20
71.5212239554
 30
0.0
 10
36.118858273
 20
71.4956483043
 30
0.0
 10
36.0277455014
 20
71.4548305254
 30
0.0
 10
35.987425761
 20
71.4283332135
 30
0.0
 10
35.9687017306
 20
71.4137089271
 30
0.0
  0
SPLINE
  5
34F
100
AcDbEntity
  8
0
100
AcDbSpline
 62
7
  6
CONTINUOUS
 70
0
 71
3
 72
15
 73
11
 74
0
 42
0.0000001
 43
0.0000001
 44
0.0000000001
 40
0.0
 40
0.0
 40
0.0
 40
0.0
 40
0.1619022592
 40
0.3127117397
 40
0.4518290014
 40
0.5793787714
 40
0.6960663307
 40
0.8033369678
 40
0.9035677524
 40
1.0
 40
1.0
 40
1.0
 40
1.0
 10
51.4549215801
 20
83.4574105464
 30
0.0
 10
51.3814930179
 20
83.4998035875
 30
0.0
 10
51.2366066929
 20
83.5765732376
 30
0.0
 10
51.0185470574
 20
83.6692634089
 30
0.0
 10
50.8094237433
 20
83.7344824288
 30
0.0
 10
50.6115299879
 20
83.7714129965
 30
0.0
 10
50.4269044203
 20
83.7795254746
 30
0.0
 10
50.2574926242
 20
83.7582525665
 30
0.0
 10
50.1054865981
 20
83.7073612832
 30
0.0
 10
50.0165915811
 20
83.6532806417
 30
0.0
 10
49.9767878209
 20
83.6221996604
 30
0.0
  0
SPLINE
  5
350
100
AcDbEntity
  8
0
100
AcDbSpline
 62
7
  6
CONTINUOUS
 70
0
 71
3
 72
9
 73
5
 74
0
 42
0.0000001
 43
0.0000001
 44
0.0000000001
 40
0.0
 40
0.0
 40
0.0
 40
0.0
 40
0.5035277159
 40
1.0
 40
1.0
 40
1.0
 40
1.0
 10
18.4286429314
 20
44.8605586562
 30
0.0
 10
16.9393840339
 20
46.9877744532
 30
0.0
 10
14.2475545721
 20
51.4052160351
 30
0.0
 10
12.1521718909
 20
56.1361775911
 30
0.0
 10
11.2771058581
 20
58.5423276839
 30
0.0
  0
SPLINE
  5
351
100
AcDbEntity
  8
0
100
AcDbSpline
 62
7
  6
CONTINUOUS
 70
0
 71
3
 72
9
 73
5
 74
0
 42
0.0000001
 43
0.0000001
 44
0.0000000001
 40
0.0
 40
0.0
 40
0.0
 40
0.0
 40
0.4964722841
 40
1.0
 40
1.0
 40
1.0
 40
1.0
 10
14.8370944081
 20
61.5633462816
 30
0.0
 10
15.7121604408
 20
59.1571961888
 30
0.0
 10
17.807543122
 20
54.4262346328
 30
0.0
 10
20.4993725838
 20
50.008793051
 30
0.0
 10
21.9886314813
 20
47.881577254
 30
0.0
  0
SPLINE
  5
352
100
AcDbEntity
  8
0
100
AcDbSpline
 62
7
  6
CONTINUOUS
 70
0
 71
3
 72
11
 73
7
 74
0
 42
0.0000001
 43
0.0000001
 44
0.0000000001
 40
0.0
 40
0.0
 40
0.0
 40
0.0
 40
0.2177843137
 40
0.4509117637
 40
0.7102976701
 40
1.0
 40
1.0
 40
1.0
 40
1.0
 10
32.7646022987
 20
73.5151575126
 30
0.0
 10
32.7975881626
 20
73.5342017817
 30
0.0
 10
32.8733783131
 20
73.5617066481
 30
0.0
 10
32.9992644617
 20
73.5648940611
 30
0.0
 10
33.1334295932
 20
73.5324955736
 30
0.0
 10
33.2207187412
 20
73.4909704327
 30
0.0
 10
33.2645975653
 20
73.4656375549
 30
0.0
  0
SPLINE
  5
353
100
AcDbEntity
  8
0
100
AcDbSpline
 62
7
  6
CONTINUOUS
 70
0
 71
3
 72
15
 73
11
 74
0
 42
0.0000001
 43
0.0000001
 44
0.0000000001
 40
0.0
 40
0.0
 40
0.0
 40
0.0
 40
0.0918743595
 40
0.1896446483
 40
0.2975555395
 40
0.4175953586
 40
0.5497939509
 40
0.6926583951
 40
0.8438517505
 40
1.0
 40
1.0
 40
1.0
 40
1.0
 10
47.1987198395
 20
70.8065993681
 30
0.0
 10
47.1456143433
 20
70.837249083
 30
0.0
 10
47.0459767927
 20
70.9193993223
 30
0.0
 10
46.9370246482
 20
71.088419539
 30
0.0
 10
46.8683656669
 20
71.2966749017
 30
0.0
 10
46.8408686533
 20
71.5367941734
 30
0.0
 10
46.8545200026
 20
71.8011249377
 30
0.0
 10
46.9085995538
 20
72.0812303204
 30
0.0
 10
47.0011757315
 20
72.3677456225
 30
0.0
 10
47.0856820736
 20
72.5551723599
 30
0.0
 10
47.1335678435
 20
72.6477298263
 30
0.0
  0
SPLINE
  5
354
100
AcDbEntity
  8
0
100
AcDbSpline
 62
7
  6
CONTINUOUS
 70
0
 71
3
 72
11
 73
7
 74
0
 42
0.0000001
 43
0.0000001
 44
0.0000000001
 40
0.0
 40
0.0
 40
0.0
 40
0.0
 40
0.2177512726
 40
0.4508864534
 40
0.7104462763
 40
1.0
 40
1.0
 40
1.0
 40
1.0
 10
38.2563163569
 20
78.8717049915
 30
0.0
 10
38.2731405822
 20
78.881416118
 30
0.0
 10
38.3117806396
 20
78.8954889836
 30
0.0
 10
38.3760171109
 20
78.8971011753
 30
0.0
 10
38.4444445745
 20
78.8805427985
 30
0.0
 10
38.4889810153
 20
78.8593814965
 30
0.0
 10
38.5113517259
 20
78.8464660528
 30
0.0
  0
SPLINE
  5
355
100
AcDbEntity
  8
0
100
AcDbSpline
 62
7
  6
CONTINUOUS
 70
0
 71
3
 72
15
 73
11
 74
0
 42
0.0000001
 43
0.0000001
 44
0.0000000001
 40
0.0
 40
0.0
 40
0.0
 40
0.0
 40
0.0918743595
 40
0.1896446483
 40
0.2975555395
 40
0.4175953586
 40
0.5497939509
 40
0.6926583951
 40
0.8438517505
 40
1.0
 40
1.0
 40
1.0
 40
1.0
 10
39.4205128629
 20
75.2972476678
 30
0.0
 10
39.3674073667
 20
75.3278973827
 30
0.0
 10
39.2677698161
 20
75.410047622
 30
0.0
 10
39.1588176716
 20
75.5790678388
 30
0.0
 10
39.0901586903
 20
75.7873232014
 30
0.0
 10
39.0626616766
 20
76.0274424731
 30
0.0
 10
39.076313026
 20
76.2917732374
 30
0.0
 10
39.1303925772
 20
76.5718786202
 30
0.0
 10
39.2229687549
 20
76.8583939222
 30
0.0
 10
39.3074750969
 20
77.0458206596
 30
0.0
 10
39.3553608669
 20
77.138378126
 30
0.0
  0
SPLINE
  5
356
100
AcDbEntity
  8
0
100
AcDbSpline
 62
7
  6
CONTINUOUS
 70
0
 71
3
 72
9
 73
5
 74
0
 42
0.0000001
 43
0.0000001
 44
0.0000000001
 40
0.0
 40
0.0
 40
0.0
 40
0.0
 40
0.4921208943
 40
1.0
 40
1.0
 40
1.0
 40
1.0
 10
35.8193652559
 20
78.0220729366
 30
0.0
 10
35.9012894412
 20
78.0693716048
 30
0.0
 10
36.0792061035
 20
78.1468135526
 30
0.0
 10
36.2694371487
 20
78.1837206561
 30
0.0
 10
36.3666231707
 20
78.192988023
 30
0.0
  0
SPLINE
  5
357
100
AcDbEntity
  8
0
100
AcDbSpline
 62
7
  6
CONTINUOUS
 70
0
 71
3
 72
15
 73
11
 74
0
 42
0.0000001
 43
0.0000001
 44
0.0000000001
 40
0.0
 40
0.0
 40
0.0
 40
0.0
 40
0.1141546703
 40
0.2373261017
 40
0.3669753162
 40
0.4999989361
 40
0.6330227034
 40
0.7626723508
 40
0.8858444607
 40
1.0
 40
1.0
 40
1.0
 40
1.0
 10
53.0848478336
 20
68.9628146989
 30
0.0
 10
53.2687956529
 20
68.8566147785
 30
0.0
 10
53.6321256225
 20
68.6019269668
 30
0.0
 10
54.1320481743
 20
68.1342152192
 30
0.0
 10
54.5927538159
 20
67.5813443917
 30
0.0
 10
54.996889828
 20
66.9640544411
 30
0.0
 10
55.3294140685
 20
66.3054182657
 30
0.0
 10
55.5778657572
 20
65.6299991788
 30
0.0
 10
55.7329597887
 20
64.9631950948
 30
0.0
 10
55.7718647891
 20
64.5211957084
 30
0.0
 10
55.7718647891
 20
64.3087906466
 30
0.0
  0
SPLINE
  5
358
100
AcDbEntity
  8
0
100
AcDbSpline
 62
7
  6
CONTINUOUS
 70
0
 71
3
 72
11
 73
7
 74
0
 42
0.0000001
 43
0.0000001
 44
0.0000000001
 40
0.0
 40
0.0
 40
0.0
 40
0.0
 40
0.2372539654
 40
0.5000012591
 40
0.7627478695
 40
1.0
 40
1.0
 40
1.0
 40
1.0
 10
50.171555766
 20
71.0530178161
 30
0.0
 10
50.171555766
 20
70.9950548745
 30
0.0
 10
50.1932878988
 20
70.8728183623
 30
0.0
 10
50.2690907764
 20
70.701080213
 30
0.0
 10
50.3799193955
 20
70.5495648133
 30
0.0
 10
50.474913353
 20
70.4696269852
 30
0.0
 10
50.5251106286
 20
70.4406462303
 30
0.0
  0
SPLINE
  5
359
100
AcDbEntity
  8
0
100
AcDbSpline
 62
7
  6
CONTINUOUS
 70
0
 71
3
 72
15
 73
11
 74
0
 42
0.0000001
 43
0.0000001
 44
0.0000000001
 40
0.0
 40
0.0
 40
0.0
 40
0.0
 40
0.1141546703
 40
0.2373261017
 40
0.3669753162
 40
0.4999989361
 40
0.6330227034
 40
0.7626723508
 40
0.8858444607
 40
1.0
 40
1.0
 40
1.0
 40
1.0
 10
47.4845388104
 20
80.6060563711
 30
0.0
 10
47.6684866298
 20
80.4998564507
 30
0.0
 10
48.0318165993
 20
80.245168639
 30
0.0
 10
48.5317391511
 20
79.7774568915
 30
0.0
 10
48.9924447927
 20
79.2245860639
 30
0.0
 10
49.3965808049
 20
78.6072961133
 30
0.0
 10
49.7291050453
 20
77.948659938
 30
0.0
 10
49.977556734
 20
77.273240851
 30
0.0
 10
50.1326507655
 20
76.606436767
 30
0.0
 10
50.171555766
 20
76.1644373807
 30
0.0
 10
50.171555766
 20
75.9520323189
 30
0.0
  0
SPLINE
  5
35A
100
AcDbEntity
  8
0
100
AcDbSpline
 62
7
  6
CONTINUOUS
 70
0
 71
3
 72
14
 73
10
 74
0
 42
0.0000001
 43
0.0000001
 44
0.0000000001
 40
0.0
 40
0.0
 40
0.0
 40
0.0
 40
0.1080466357
 40
0.2181307812
 40
0.3321113461
 40
0.4515001674
 40
0.5774437985
 40
0.7107269735
 40
1.0
 40
1.0
 40
1.0
 40
1.0
 10
31.5767422326
 20
75.5726080134
 30
0.0
 10
31.5144397128
 20
75.5366378591
 30
0.0
 10
31.3946703933
 20
75.4530322635
 30
0.0
 10
31.2363632239
 20
75.297292017
 30
0.0
 10
31.1002803363
 20
75.112386473
 30
0.0
 10
30.9875396167
 20
74.900520236
 30
0.0
 10
30.8991250628
 20
74.6637206868
 30
0.0
 10
30.8122003647
 20
74.3083681618
 30
0.0
 10
30.7897135273
 20
74.0256335805
 30
0.0
 10
30.7897135273
 20
73.8330270535
 30
0.0
  0
SPLINE
  5
35B
100
AcDbEntity
  8
0
100
AcDbSpline
 62
7
  6
CONTINUOUS
 70
0
 71
3
 72
14
 73
10
 74
0
 42
0.0000001
 43
0.0000001
 44
0.0000000001
 40
0.0
 40
0.0
 40
0.0
 40
0.0
 40
0.1080471695
 40
0.2181317599
 40
0.3321126402
 40
0.4515013778
 40
0.5774449063
 40
0.7107281627
 40
1.0
 40
1.0
 40
1.0
 40
1.0
 10
41.4196648149
 20
83.19878649
 30
0.0
 10
41.4819662147
 20
83.234755436
 30
0.0
 10
41.6142523258
 20
83.296674632
 30
0.0
 10
41.828276091
 20
83.355901077
 30
0.0
 10
42.056444622
 20
83.3812994784
 30
0.0
 10
42.2962902237
 20
83.3730047444
 30
0.0
 10
42.5455654534
 20
83.3311769896
 30
0.0
 10
42.8967627094
 20
83.2287854917
 30
0.0
 10
43.1528551089
 20
83.1068985456
 30
0.0
 10
43.3196530382
 20
83.0105998948
 30
0.0
  0
SPLINE
  5
35C
100
AcDbEntity
  8
0
100
AcDbSpline
 62
7
  6
CONTINUOUS
 70
0
 71
3
 72
14
 73
10
 74
0
 42
0.0000001
 43
0.0000001
 44
0.0000000001
 40
0.0
 40
0.0
 40
0.0
 40
0.0
 40
0.1079685449
 40
0.2179866223
 40
0.3319229485
 40
0.451295502
 40
0.5772525962
 40
0.7105775524
 40
1.0
 40
1.0
 40
1.0
 40
1.0
 10
37.1770417917
 20
80.7493215665
 30
0.0
 10
37.1145273607
 20
80.7132296369
 30
0.0
 10
36.9943642378
 20
80.6292955032
 30
0.0
 10
36.8356228476
 20
80.4728631675
 30
0.0
 10
36.6992704087
 20
80.2870803305
 30
0.0
 10
36.5864328204
 20
80.0741771958
 30
0.0
 10
36.4980992071
 20
79.8362052565
 30
0.0
 10
36.4115267204
 20
79.4790717345
 30
0.0
 10
36.3895777421
 20
79.1949885483
 30
0.0
 10
36.3900225505
 20
79.0014884997
 30
0.0
  0
SPLINE
  5
35D
100
AcDbEntity
  8
0
100
AcDbSpline
 62
7
  6
CONTINUOUS
 70
0
 71
3
 72
15
 73
11
 74
0
 42
0.0000001
 43
0.0000001
 44
0.0000000001
 40
0.0
 40
0.0
 40
0.0
 40
0.0
 40
0.1141555516
 40
0.2373276756
 40
0.3669773296
 40
0.5000011
 40
0.6330247168
 40
0.7626739247
 40
0.885845342
 40
1.0
 40
1.0
 40
1.0
 40
1.0
 10
44.1611584298
 20
70.2773567129
 30
0.0
 10
44.1611584298
 20
70.0649516282
 30
0.0
 10
44.200063443
 20
69.6229521932
 30
0.0
 10
44.3551574971
 20
68.9561480511
 30
0.0
 10
44.6036092237
 20
68.2807289306
 30
0.0
 10
44.9361334864
 20
67.622092753
 30
0.0
 10
45.3402695078
 20
67.0048028228
 30
0.0
 10
45.8009751393
 20
66.4519320449
 30
0.0
 10
46.300897652
 20
65.9842203459
 30
0.0
 10
46.6642275859
 20
65.7295325696
 30
0.0
 10
46.8481753854
 20
65.6233326606
 30
0.0
  0
SPLINE
  5
35E
100
AcDbEntity
  8
0
100
AcDbSpline
 62
7
  6
CONTINUOUS
 70
0
 71
3
 72
11
 73
7
 74
0
 42
0.0000001
 43
0.0000001
 44
0.0000000001
 40
0.0
 40
0.0
 40
0.0
 40
0.0
 40
0.2372523758
 40
0.4999990758
 40
0.7627462798
 40
1.0
 40
1.0
 40
1.0
 40
1.0
 10
43.8076035673
 20
75.7887428015
 30
0.0
 10
43.8578008947
 20
75.7597620166
 30
0.0
 10
43.9527949052
 20
75.6798241168
 30
0.0
 10
44.0636235219
 20
75.5283086411
 30
0.0
 10
44.1394263326
 20
75.3565705278
 30
0.0
 10
44.1611584298
 20
75.2343340973
 30
0.0
 10
44.1611584298
 20
75.1763712156
 30
0.0
  0
SPLINE
  5
35F
100
AcDbEntity
  8
0
100
AcDbSpline
 62
7
  6
CONTINUOUS
 70
0
 71
3
 72
10
 73
6
 74
0
 42
0.0000001
 43
0.0000001
 44
0.0000000001
 40
0.0
 40
0.0
 40
0.0
 40
0.0
 40
0.2716265159
 40
0.5289960456
 40
1.0
 40
1.0
 40
1.0
 40
1.0
 10
35.4637088105
 20
72.1960088084
 30
0.0
 10
35.5518942642
 20
72.1450960647
 30
0.0
 10
35.7280793067
 20
72.0531929883
 30
0.0
 10
36.0757633565
 20
71.912511599
 30
0.0
 10
36.3453472158
 20
71.8504400876
 30
0.0
 10
36.5213141439
 20
71.8358623584
 30
0.0
  0
SPLINE
  5
360
100
AcDbEntity
  8
0
100
AcDbSpline
 62
7
  6
CONTINUOUS
 70
0
 71
3
 72
11
 73
7
 74
0
 42
0.0000001
 43
0.0000001
 44
0.0000000001
 40
0.0
 40
0.0
 40
0.0
 40
0.0
 40
0.2895401978
 40
0.5491171512
 40
0.782255066
 40
1.0
 40
1.0
 40
1.0
 40
1.0
 10
36.3900225505
 20
74.1107206713
 30
0.0
 10
36.3900225505
 20
74.0854013598
 30
0.0
 10
36.3861565256
 20
74.0372231005
 30
0.0
 10
36.3666799909
 20
73.9710176794
 30
0.0
 10
36.3338267582
 20
73.9172770859
 30
0.0
 10
36.3029426473
 20
73.8913724127
 30
0.0
 10
36.2864525806
 20
73.881851929
 30
0.0
  0
SPLINE
  5
361
100
AcDbEntity
  8
0
100
AcDbSpline
 62
7
  6
CONTINUOUS
 70
0
 71
3
 72
13
 73
9
 74
0
 42
0.0000001
 43
0.0000001
 44
0.0000000001
 40
0.0
 40
0.0
 40
0.0
 40
0.0
 40
0.1142250362
 40
0.2375584228
 40
0.4999988469
 40
0.762439898
 40
0.8857740437
 40
1.0
 40
1.0
 40
1.0
 40
1.0
 10
49.0543577278
 20
64.3496215065
 30
0.0
 10
49.1027515345
 20
64.3216819613
 30
0.0
 10
49.1983722868
 20
64.254638424
 30
0.0
 10
49.3774030723
 20
64.0871082577
 30
0.0
 10
49.5664899212
 20
63.8288067937
 30
0.0
 10
49.6956436261
 20
63.5359023391
 30
0.0
 10
49.7512153788
 20
63.2970913122
 30
0.0
 10
49.761467453
 20
63.1807588236
 30
0.0
 10
49.761467453
 20
63.1248783348
 30
0.0
  0
SPLINE
  5
362
100
AcDbEntity
  8
0
100
AcDbSpline
 62
7
  6
CONTINUOUS
 70
0
 71
3
 72
11
 73
7
 74
0
 42
0.0000001
 43
0.0000001
 44
0.0000000001
 40
0.0
 40
0.0
 40
0.0
 40
0.0
 40
0.2823211154
 40
0.5393538486
 40
0.7755100621
 40
1.0
 40
1.0
 40
1.0
 40
1.0
 10
48.1668658123
 20
73.4812919905
 30
0.0
 10
48.2188312448
 20
73.5040707225
 30
0.0
 10
48.3217950957
 20
73.5399924788
 30
0.0
 10
48.477305403
 20
73.5619390162
 30
0.0
 10
48.6223915176
 20
73.5476683058
 30
0.0
 10
48.7098671161
 20
73.5130519082
 30
0.0
 10
48.7489409894
 20
73.490497408
 30
0.0
  0
SPLINE
  5
363
100
AcDbEntity
  8
0
100
AcDbSpline
 62
7
  6
CONTINUOUS
 70
0
 71
3
 72
14
 73
10
 74
0
 42
0.0000001
 43
0.0000001
 44
0.0000000001
 40
0.0
 40
0.0
 40
0.0
 40
0.0
 40
0.289271846
 40
0.4225551122
 40
0.5484986403
 40
0.6678873729
 40
0.7818682504
 40
0.8919528364
 40
1.0
 40
1.0
 40
1.0
 40
1.0
 10
39.0770300149
 20
80.5611349716
 30
0.0
 10
38.9102320808
 20
80.6574336252
 30
0.0
 10
38.6541396679
 20
80.7793205716
 30
0.0
 10
38.3029424008
 20
80.8817120728
 30
0.0
 10
38.0536671676
 20
80.9235398253
 30
0.0
 10
37.8138215711
 20
80.9318345487
 30
0.0
 10
37.5856530495
 20
80.906436146
 30
0.0
 10
37.371629291
 20
80.8472097068
 30
0.0
 10
37.2393431912
 20
80.7852905051
 30
0.0
 10
37.1770417917
 20
80.7493215665
 30
0.0
  0
SPLINE
  5
364
100
AcDbEntity
  8
0
100
AcDbSpline
 62
7
  6
CONTINUOUS
 70
0
 71
3
 72
15
 73
11
 74
0
 42
0.0000001
 43
0.0000001
 44
0.0000000001
 40
0.0
 40
0.0
 40
0.0
 40
0.0
 40
0.1141555516
 40
0.2373276756
 40
0.3669773296
 40
0.5000011
 40
0.6330247168
 40
0.7626739247
 40
0.885845342
 40
1.0
 40
1.0
 40
1.0
 40
1.0
 10
45.9289327427
 20
73.5025673956
 30
0.0
 10
45.9289327427
 20
73.7149724803
 30
0.0
 10
45.8900277295
 20
74.1569719153
 30
0.0
 10
45.7349336754
 20
74.8237760574
 30
0.0
 10
45.4864819488
 20
75.4991951779
 30
0.0
 10
45.1539576861
 20
76.1578313555
 30
0.0
 10
44.7498216648
 20
76.7751212857
 30
0.0
 10
44.2891160333
 20
77.3279920637
 30
0.0
 10
43.7891935205
 20
77.7957037626
 30
0.0
 10
43.4258635866
 20
78.0503915389
 30
0.0
 10
43.2419157871
 20
78.1565914479
 30
0.0
  0
SPLINE
  5
365
100
AcDbEntity
  8
0
100
AcDbSpline
 62
7
  6
CONTINUOUS
 70
0
 71
3
 72
11
 73
7
 74
0
 42
0.0000001
 43
0.0000001
 44
0.0000000001
 40
0.0
 40
0.0
 40
0.0
 40
0.0
 40
0.2372523758
 40
0.4999990758
 40
0.7627462798
 40
1.0
 40
1.0
 40
1.0
 40
1.0
 10
46.2824876053
 20
67.991181307
 30
0.0
 10
46.2322902778
 20
68.0201620919
 30
0.0
 10
46.1372962673
 20
68.1000999917
 30
0.0
 10
46.0264676506
 20
68.2516154674
 30
0.0
 10
45.95066484
 20
68.4233535807
 30
0.0
 10
45.9289327427
 20
68.5455900112
 30
0.0
 10
45.9289327427
 20
68.6035528929
 30
0.0
  0
SPLINE
  5
366
100
AcDbEntity
  8
0
100
AcDbSpline
 62
7
  6
CONTINUOUS
 70
0
 71
3
 72
15
 73
11
 74
0
 42
0.0000001
 43
0.0000001
 44
0.0000000001
 40
0.0
 40
0.0
 40
0.0
 40
0.0
 40
0.1141555516
 40
0.2373276756
 40
0.3669773296
 40
0.5000011
 40
0.6330247168
 40
0.7626739247
 40
0.885845342
 40
1.0
 40
1.0
 40
1.0
 40
1.0
 10
51.5292417659
 20
61.8593257234
 30
0.0
 10
51.5292417659
 20
62.0717308081
 30
0.0
 10
51.4903367527
 20
62.5137302431
 30
0.0
 10
51.3352426986
 20
63.1805343852
 30
0.0
 10
51.086790972
 20
63.8559535056
 30
0.0
 10
50.7542667092
 20
64.5145896832
 30
0.0
 10
50.3501306879
 20
65.1318796135
 30
0.0
 10
49.8894250564
 20
65.6847503914
 30
0.0
 10
49.3895025437
 20
66.1524620904
 30
0.0
 10
49.0261726098
 20
66.4071498667
 30
0.0
 10
48.8422248103
 20
66.5133497757
 30
0.0
  0
SPLINE
  5
367
100
AcDbEntity
  8
0
100
AcDbSpline
 62
7
  6
CONTINUOUS
 70
0
 71
3
 72
16
 73
12
 74
0
 42
0.0000001
 43
0.0000001
 44
0.0000000001
 40
0.0
 40
0.0
 40
0.0
 40
0.0
 40
0.0443631996
 40
0.0896881487
 40
0.186216919
 40
0.2946628138
 40
0.4166414855
 40
0.5512800699
 40
0.6959327943
 40
0.8470012789
 40
1.0
 40
1.0
 40
1.0
 40
1.0
 10
48.7489409894
 20
73.490497408
 30
0.0
 10
48.7736272788
 20
73.4762478118
 30
0.0
 10
48.8209978148
 20
73.4427659757
 30
0.0
 10
48.9050819183
 20
73.356869532
 30
0.0
 10
48.9858184027
 20
73.2145003861
 30
0.0
 10
49.0365950345
 20
73.0087120304
 30
0.0
 10
49.0440172237
 20
72.7728795348
 30
0.0
 10
49.0083335633
 20
72.516515413
 30
0.0
 10
48.9314056127
 20
72.2500473474
 30
0.0
 10
48.8164380152
 20
71.98489312
 30
0.0
 10
48.7174037198
 20
71.8158330979
 30
0.0
 10
48.6626141405
 20
71.7342145303
 30
0.0
  0
SPLINE
  5
368
100
AcDbEntity
  8
0
100
AcDbSpline
 62
7
  6
CONTINUOUS
 70
0
 71
3
 72
11
 73
7
 74
0
 42
0.0000001
 43
0.0000001
 44
0.0000000001
 40
0.0
 40
0.0
 40
0.0
 40
0.0
 40
0.2177460211
 40
0.4508843679
 40
0.7104607696
 40
1.0
 40
1.0
 40
1.0
 40
1.0
 10
36.2864525806
 20
73.881851929
 30
0.0
 10
36.2699628723
 20
73.8723316521
 30
0.0
 10
36.2320876201
 20
73.8585379288
 30
0.0
 10
36.1691219149
 20
73.8569562327
 30
0.0
 10
36.1020498265
 20
73.8731907282
 30
0.0
 10
36.0583943199
 20
73.8939307796
 30
0.0
 10
36.0364676879
 20
73.90658984
 30
0.0
  0
SPLINE
  5
369
100
AcDbEntity
  8
0
100
AcDbSpline
 62
7
  6
CONTINUOUS
 70
0
 71
3
 72
11
 73
7
 74
0
 42
0.0000001
 43
0.0000001
 44
0.0000000001
 40
0.0
 40
0.0
 40
0.0
 40
0.0
 40
0.2883918327
 40
0.547549673
 40
0.7811593074
 40
1.0
 40
1.0
 40
1.0
 40
1.0
 10
38.1507257661
 20
78.6464176291
 30
0.0
 10
38.151157787
 20
78.6713579777
 30
0.0
 10
38.1557771474
 20
78.7187999514
 30
0.0
 10
38.1760187323
 20
78.7838766526
 30
0.0
 10
38.2091837743
 20
78.8366985973
 30
0.0
 10
38.2399229347
 20
78.8622425291
 30
0.0
 10
38.2563163569
 20
78.8717049915
 30
0.0
  0
SPLINE
  5
36A
100
AcDbEntity
  8
0
100
AcDbSpline
 62
7
  6
CONTINUOUS
 70
0
 71
3
 72
9
 73
5
 74
0
 42
0.0000001
 43
0.0000001
 44
0.0000000001
 40
0.0
 40
0.0
 40
0.0
 40
0.0
 40
0.2361559972
 40
1.0
 40
1.0
 40
1.0
 40
1.0
 10
38.0513660434
 20
72.9688328079
 30
0.0
 10
38.0681503628
 20
73.0284113494
 30
0.0
 10
38.1289450376
 20
73.2835791223
 30
0.0
 10
38.1507257661
 20
73.5471959316
 30
0.0
 10
38.1507257661
 20
73.7474031263
 30
0.0
  0
SPLINE
  5
36B
100
AcDbEntity
  8
0
100
AcDbSpline
 62
7
  6
CONTINUOUS
 70
0
 71
3
 72
11
 73
7
 74
0
 42
0.0000001
 43
0.0000001
 44
0.0000000001
 40
0.0
 40
0.0
 40
0.0
 40
0.0
 40
0.2897033281
 40
0.5490895198
 40
0.7822165953
 40
1.0
 40
1.0
 40
1.0
 40
1.0
 10
32.5574878402
 20
73.0573758923
 30
0.0
 10
32.5574878402
 20
73.1080440367
 30
0.0
 10
32.5651698763
 20
73.2044041087
 30
0.0
 10
32.6041945494
 20
73.336797798
 30
0.0
 10
32.6698991383
 20
73.4442277899
 30
0.0
 10
32.7316156906
 20
73.4961128138
 30
0.0
 10
32.7646022987
 20
73.5151575126
 30
0.0
  0
SPLINE
  5
36C
100
AcDbEntity
  8
0
100
AcDbSpline
 62
7
  6
CONTINUOUS
 70
0
 71
3
 72
14
 73
10
 74
0
 42
0.0000001
 43
0.0000001
 44
0.0000000001
 40
0.0
 40
0.0
 40
0.0
 40
0.0
 40
0.2892720607
 40
0.422554976
 40
0.5484985194
 40
0.6678874407
 40
0.781868291
 40
0.8919528621
 40
1.0
 40
1.0
 40
1.0
 40
1.0
 10
33.4767304829
 20
75.3844213714
 30
0.0
 10
33.3099324196
 20
75.4807200995
 30
0.0
 10
33.0538401353
 20
75.6026071426
 30
0.0
 10
32.7026428743
 20
75.7049984728
 30
0.0
 10
32.4533677216
 20
75.7468260297
 30
0.0
 10
32.2135220185
 20
75.7551212305
 30
0.0
 10
31.9853533687
 20
75.7297226177
 30
0.0
 10
31.7713297801
 20
75.6704960218
 30
0.0
 10
31.6390433729
 20
75.6085773713
 30
0.0
 10
31.5767422326
 20
75.5726080134
 30
0.0
  0
SPLINE
  5
36D
100
AcDbEntity
  8
0
100
AcDbSpline
 62
7
  6
CONTINUOUS
 70
0
 71
3
 72
15
 73
11
 74
0
 42
0.0000001
 43
0.0000001
 44
0.0000000001
 40
0.0
 40
0.0
 40
0.0
 40
0.0
 40
0.1080130012
 40
0.2180624455
 40
0.3319999
 40
0.451359082
 40
0.5772783802
 40
0.7104931692
 40
0.8514157845
 40
1.0
 40
1.0
 40
1.0
 40
1.0
 10
28.8585100915
 20
69.6879257767
 30
0.0
 10
29.0921413185
 20
69.8228127784
 30
0.0
 10
29.5881783608
 20
70.0551103604
 30
0.0
 10
30.390797303
 20
70.2770587948
 30
0.0
 10
31.246410889
 20
70.3724819679
 30
0.0
 10
32.1459055563
 20
70.3411968166
 30
0.0
 10
33.0806033568
 20
70.1844068395
 30
0.0
 10
34.041837677
 20
69.9041947098
 30
0.0
 10
35.0204900057
 20
69.5036328874
 30
0.0
 10
35.6620890052
 20
69.1677704553
 30
0.0
 10
35.9834772207
 20
68.9822210802
 30
0.0
  0
SPLINE
  5
36E
100
AcDbEntity
  8
0
100
AcDbSpline
 62
7
  6
CONTINUOUS
 70
0
 71
3
 72
9
 73
5
 74
0
 42
0.0000001
 43
0.0000001
 44
0.0000000001
 40
0.0
 40
0.0
 40
0.0
 40
0.0
 40
0.2365974026
 40
1.0
 40
1.0
 40
1.0
 40
1.0
 10
33.2309727915
 20
70.2146623316
 30
0.0
 10
33.4259736613
 20
70.1942436064
 30
0.0
 10
34.2463424544
 20
70.071795046
 30
0.0
 10
35.0433269922
 20
69.8136131912
 30
0.0
 10
35.6251961049
 20
69.5653270287
 30
0.0
  0
SPLINE
  5
36F
100
AcDbEntity
  8
0
100
AcDbSpline
 62
7
  6
CONTINUOUS
 70
0
 71
3
 72
9
 73
5
 74
0
 42
0.0000001
 43
0.0000001
 44
0.0000000001
 40
0.0
 40
0.0
 40
0.0
 40
0.0
 40
0.2436820761
 40
1.0
 40
1.0
 40
1.0
 40
1.0
 10
35.6251961049
 20
69.5653270287
 30
0.0
 10
35.7290834239
 20
69.5209978432
 30
0.0
 10
36.1524307278
 20
69.3321493769
 30
0.0
 10
36.5637587658
 20
69.1166628362
 30
0.0
 10
36.8673570172
 20
68.9413842693
 30
0.0
  0
SPLINE
  5
370
100
AcDbEntity
  8
0
100
AcDbSpline
 62
7
  6
CONTINUOUS
 70
0
 71
3
 72
9
 73
5
 74
0
 42
0.0000001
 43
0.0000001
 44
0.0000000001
 40
0.0
 40
0.0
 40
0.0
 40
0.0
 40
0.2449371118
 40
1.0
 40
1.0
 40
1.0
 40
1.0
 10
38.0066572101
 20
68.2854444013
 30
0.0
 10
38.0807883
 20
68.2525086307
 30
0.0
 10
38.3815375644
 20
68.1137793356
 30
0.0
 10
38.6746184546
 20
67.9585641504
 30
0.0
 10
38.8911796408
 20
67.8335353198
 30
0.0
  0
SPLINE
  5
371
100
AcDbEntity
  8
0
100
AcDbSpline
 62
7
  6
CONTINUOUS
 70
0
 71
3
 72
9
 73
5
 74
0
 42
0.0000001
 43
0.0000001
 44
0.0000000001
 40
0.0
 40
0.0
 40
0.0
 40
0.0
 40
0.4865614536
 40
1.0
 40
1.0
 40
1.0
 40
1.0
 10
38.9978929092
 20
67.7710690981
 30
0.0
 10
39.3590359773
 20
67.5567702173
 30
0.0
 10
40.0753277834
 20
67.071725328
 30
0.0
 10
40.7377985148
 20
66.5162347908
 30
0.0
 10
41.0641246101
 20
66.2164344271
 30
0.0
  0
SPLINE
  5
372
100
AcDbEntity
  8
0
100
AcDbSpline
 62
7
  6
CONTINUOUS
 70
0
 71
3
 72
9
 73
5
 74
0
 42
0.0000001
 43
0.0000001
 44
0.0000000001
 40
0.0
 40
0.0
 40
0.0
 40
0.0
 40
0.2446218952
 40
1.0
 40
1.0
 40
1.0
 40
1.0
 10
41.3310834509
 20
65.9649891815
 30
0.0
 10
41.4888772219
 20
65.8126637936
 30
0.0
 10
42.1203233084
 20
65.175964418
 30
0.0
 10
42.6980600802
 20
64.486488769
 30
0.0
 10
43.1031022438
 20
63.9437080994
 30
0.0
  0
SPLINE
  5
373
100
AcDbEntity
  8
0
100
AcDbSpline
 62
7
  6
CONTINUOUS
 70
0
 71
3
 72
12
 73
8
 74
0
 42
0.0000001
 43
0.0000001
 44
0.0000000001
 40
0.0
 40
0.0
 40
0.0
 40
0.0
 40
0.2711490472
 40
0.5314113239
 40
0.6558274103
 40
0.7756636283
 40
1.0
 40
1.0
 40
1.0
 40
1.0
 10
44.9573362024
 20
60.8727199452
 30
0.0
 10
45.2528617426
 20
60.254755293
 30
0.0
 10
45.7648564968
 20
59.0100693548
 30
0.0
 10
46.2093727568
 20
57.4091971291
 30
0.0
 10
46.4241762216
 20
56.1517657444
 30
0.0
 10
46.5387861057
 20
54.9730722731
 30
0.0
 10
46.5234147307
 20
54.0980507701
 30
0.0
 10
46.4574259809
 20
53.535173498
 30
0.0
  0
SPLINE
  5
374
100
AcDbEntity
  8
0
100
AcDbSpline
 62
7
  6
CONTINUOUS
 70
0
 71
3
 72
9
 73
5
 74
0
 42
0.0000001
 43
0.0000001
 44
0.0000000001
 40
0.0
 40
0.0
 40
0.0
 40
0.0
 40
0.2443138205
 40
1.0
 40
1.0
 40
1.0
 40
1.0
 10
41.306343243
 20
65.8990605736
 30
0.0
 10
41.4628466953
 20
65.7487822038
 30
0.0
 10
42.0898412446
 20
65.1196178717
 30
0.0
 10
42.6630996978
 20
64.4374151307
 30
0.0
 10
43.0649715999
 20
63.8999252373
 30
0.0
  0
SPLINE
  5
375
100
AcDbEntity
  8
0
100
AcDbSpline
 62
7
  6
CONTINUOUS
 70
0
 71
3
 72
11
 73
7
 74
0
 42
0.0000001
 43
0.0000001
 44
0.0000000001
 40
0.0
 40
0.0
 40
0.0
 40
0.0
 40
0.2709479388
 40
0.5312105071
 40
0.7755249169
 40
1.0
 40
1.0
 40
1.0
 40
1.0
 10
44.9035098634
 20
60.8559534974
 30
0.0
 10
45.1829611742
 20
60.2706433404
 30
0.0
 10
45.6696067145
 20
59.0925110743
 30
0.0
 10
46.1783005487
 20
57.3025023723
 30
0.0
 10
46.4397611294
 20
55.5720254968
 30
0.0
 10
46.4427422141
 20
54.4438408275
 30
0.0
 10
46.3940667451
 20
53.9086981304
 30
0.0
  0
SPLINE
  5
376
100
AcDbEntity
  8
0
100
AcDbSpline
 62
7
  6
CONTINUOUS
 70
0
 71
3
 72
20
 73
16
 74
0
 42
0.0000001
 43
0.0000001
 44
0.0000000001
 40
0.0
 40
0.0
 40
0.0
 40
0.0
 40
0.0565968837
 40
0.1159228708
 40
0.1776614366
 40
0.2414670396
 40
0.3734955027
 40
0.5083397875
 40
0.6419927633
 40
0.707175536
 40
0.7706310251
 40
0.8319523371
 40
0.8907902609
 40
0.9468682807
 40
1.0
 40
1.0
 40
1.0
 40
1.0
 10
36.8673570172
 20
68.9413842693
 30
0.0
 10
37.2152510019
 20
68.7405321275
 30
0.0
 10
37.9087787568
 20
68.2954903543
 30
0.0
 10
38.9111743356
 20
67.5284317127
 30
0.0
 10
39.8907251232
 20
66.6535157851
 30
0.0
 10
41.1658633153
 20
65.3417352228
 30
0.0
 10
42.6293028482
 20
63.4976999328
 30
0.0
 10
44.1142842159
 20
61.0659623758
 30
0.0
 10
45.0979958842
 20
58.9040779447
 30
0.0
 10
45.7025342494
 20
57.1420909838
 30
0.0
 10
46.0537379433
 20
55.8391925815
 30
0.0
 10
46.3025440463
 20
54.5587180141
 30
0.0
 10
46.4461716752
 20
53.3147147274
 30
0.0
 10
46.4829869682
 20
52.1210792913
 30
0.0
 10
46.4345293512
 20
51.3459331493
 30
0.0
 10
46.3908434277
 20
50.9713558354
 30
0.0
  0
SPLINE
  5
377
100
AcDbEntity
  8
0
100
AcDbSpline
 62
7
  6
CONTINUOUS
 70
0
 71
3
 72
10
 73
6
 74
0
 42
0.0000001
 43
0.0000001
 44
0.0000000001
 40
0.0
 40
0.0
 40
0.0
 40
0.0
 40
0.2691543644
 40
0.5251744134
 40
1.0
 40
1.0
 40
1.0
 40
1.0
 10
46.3908434277
 20
50.9713558354
 30
0.0
 10
46.3567214365
 20
50.6787827871
 30
0.0
 10
46.2659683179
 20
50.1101310507
 30
0.0
 10
45.9918982455
 20
49.0499491701
 30
0.0
 10
45.67151472
 20
48.3068088454
 30
0.0
 10
45.4044138589
 20
47.8610728831
 30
0.0
  0
SPLINE
  5
378
100
AcDbEntity
  8
0
100
AcDbSpline
 62
7
  6
CONTINUOUS
 70
0
 71
3
 72
25
 73
21
 74
0
 42
0.0000001
 43
0.0000001
 44
0.0000000001
 40
0.0
 40
0.0
 40
0.0
 40
0.0
 40
0.0623836938
 40
0.1287214518
 40
0.1983140815
 40
0.27029007
 40
0.3436672109
 40
0.4173987652
 40
0.4904230364
 40
0.5617094929
 40
0.6303068738
 40
0.6953947458
 40
0.7563427047
 40
0.8127804403
 40
0.8646814842
 40
0.9124567718
 40
0.9351017715
 40
0.9571071563
 40
0.9786678326
 40
1.0
 40
1.0
 40
1.0
 40
1.0
 10
35.9834772207
 20
68.9822210802
 30
0.0
 10
36.4954633779
 20
68.6866324217
 30
0.0
 10
37.5125493239
 20
68.0069534988
 30
0.0
 10
38.9528666776
 20
66.7948365805
 30
0.0
 10
40.329679865
 20
65.3812567093
 30
0.0
 10
41.613532523
 20
63.7964075595
 30
0.0
 10
42.777254254
 20
62.0739644395
 30
0.0
 10
43.7960030895
 20
60.2506617038
 30
0.0
 10
44.648055324
 20
58.3653973455
 30
0.0
 10
45.3152441145
 20
56.4583369296
 30
0.0
 10
45.7833615706
 20
54.5699761211
 30
0.0
 10
46.0423674606
 20
52.7401477771
 30
0.0
 10
46.0864965162
 20
51.007128143
 30
0.0
 10
45.9137795663
 20
49.4065497374
 30
0.0
 10
45.5262275179
 20
47.9717266297
 30
0.0
 10
45.0177796456
 20
46.9200800623
 30
0.0
 10
44.5099258277
 20
46.2043680612
 30
0.0
 10
44.0886805191
 20
45.7372446008
 30
0.0
 10
43.6229174429
 20
45.3332925952
 30
0.0
 10
43.2835175622
 20
45.1072468284
 30
0.0
 10
43.10844435
 20
45.0061682997
 30
0.0
  0
SPLINE
  5
379
100
AcDbEntity
  8
0
100
AcDbSpline
 62
7
  6
CONTINUOUS
 70
0
 71
3
 72
9
 73
5
 74
0
 42
0.0000001
 43
0.0000001
 44
0.0000000001
 40
0.0
 40
0.0
 40
0.0
 40
0.0
 40
0.4971115974
 40
1.0
 40
1.0
 40
1.0
 40
1.0
 10
38.4814963
 20
42.340263405
 30
0.0
 10
38.6325009951
 20
42.4366781092
 30
0.0
 10
38.9255074429
 20
42.6479953724
 30
0.0
 10
39.1931716473
 20
42.8905388807
 30
0.0
 10
39.3207895276
 20
43.0192332256
 30
0.0
  0
SPLINE
  5
37A
100
AcDbEntity
  8
0
100
AcDbSpline
 62
7
  6
CONTINUOUS
 70
0
 71
3
 72
23
 73
19
 74
0
 42
0.0000001
 43
0.0000001
 44
0.0000000001
 40
0.0
 40
0.0
 40
0.0
 40
0.0
 40
0.0458296624
 40
0.0950760046
 40
0.1480706584
 40
0.2048595777
 40
0.2652572582
 40
0.328894036
 40
0.3952541028
 40
0.4637188213
 40
0.5335910982
 40
0.604125928
 40
0.6745563146
 40
0.744118526
 40
0.8120775896
 40
0.877754542
 40
0.9405553175
 40
1.0
 40
1.0
 40
1.0
 40
1.0
 10
40.1262134833
 20
44.060147068
 30
0.0
 10
40.3300925713
 20
44.3978446741
 30
0.0
 10
40.6856940205
 20
45.1404816848
 30
0.0
 10
41.0432632328
 20
46.3684493203
 30
0.0
 10
41.2392119822
 20
47.7271695717
 30
0.0
 10
41.2712663375
 20
49.1947225994
 30
0.0
 10
41.1396434901
 20
50.7481677217
 30
0.0
 10
40.846701359
 20
52.3628182932
 30
0.0
 10
40.3972680319
 20
54.0128937658
 30
0.0
 10
39.7986234158
 20
55.6718708477
 30
0.0
 10
39.0604371482
 20
57.3130067208
 30
0.0
 10
38.1946442614
 20
58.9097720948
 30
0.0
 10
37.2152526843
 20
60.4363313114
 30
0.0
 10
36.1381002613
 20
61.8679877117
 30
0.0
 10
34.9806073993
 20
63.181587633
 30
0.0
 10
33.761343646
 20
64.3559802757
 30
0.0
 10
32.5000895133
 20
65.3721061125
 30
0.0
 10
31.6182825272
 20
65.9503366361
 30
0.0
 10
31.175170318
 20
66.2061603665
 30
0.0
  0
SPLINE
  5
37B
100
AcDbEntity
  8
0
100
AcDbSpline
 62
7
  6
CONTINUOUS
 70
0
 71
3
 72
18
 73
14
 74
0
 42
0.0000001
 43
0.0000001
 44
0.0000000001
 40
0.0
 40
0.0
 40
0.0
 40
0.0
 40
0.0536243042
 40
0.1100582034
 40
0.1691089693
 40
0.230504538
 40
0.3588687248
 40
0.4920141143
 40
0.6262906535
 40
0.7579513047
 40
0.8217178619
 40
0.8835454381
 40
1.0
 40
1.0
 40
1.0
 40
1.0
 10
46.3930749894
 20
53.6505335443
 30
0.0
 10
46.419579341
 20
53.9460616149
 30
0.0
 10
46.4433343203
 20
54.5556328394
 30
0.0
 10
46.3972823699
 20
55.4912255782
 30
0.0
 10
46.271037147
 20
56.4627769971
 30
0.0
 10
45.9934211637
 20
57.8122505635
 30
0.0
 10
45.4524490553
 20
59.5209164503
 30
0.0
 10
44.5386014735
 20
61.516631429
 30
0.0
 10
43.3876170701
 20
63.4069882139
 30
0.0
 10
42.2578264
 20
64.8457348544
 30
0.0
 10
41.2739942713
 20
65.8759115982
 30
0.0
 10
40.2851913023
 20
66.7800021086
 30
0.0
 10
39.4865567482
 20
67.3681683231
 30
0.0
 10
38.935665334
 20
67.7024246096
 30
0.0
  0
SPLINE
  5
37C
100
AcDbEntity
  8
0
100
AcDbSpline
 62
7
  6
CONTINUOUS
 70
0
 71
3
 72
9
 73
5
 74
0
 42
0.0000001
 43
0.0000001
 44
0.0000000001
 40
0.0
 40
0.0
 40
0.0
 40
0.0
 40
0.2550034117
 40
1.0
 40
1.0
 40
1.0
 40
1.0
 10
38.74023646
 20
67.8181285083
 30
0.0
 10
38.673974781
 20
67.8563838411
 30
0.0
 10
38.4124553772
 20
68.0034752648
 30
0.0
 10
38.1441868859
 20
68.1386509455
 30
0.0
 10
37.9408570066
 20
68.2315112743
 30
0.0
  0
SPLINE
  5
37D
100
AcDbEntity
  8
0
100
AcDbSpline
 62
7
  6
CONTINUOUS
 70
0
 71
3
 72
12
 73
8
 74
0
 42
0.0000001
 43
0.0000001
 44
0.0000000001
 40
0.0
 40
0.0
 40
0.0
 40
0.0
 40
0.1086492465
 40
0.22093005
 40
0.4588977402
 40
0.7181364716
 40
1.0
 40
1.0
 40
1.0
 40
1.0
 10
25.8376465063
 20
65.673301832
 30
0.0
 10
26.0223349769
 20
65.7122885167
 30
0.0
 10
26.4031320511
 20
65.7684137664
 30
0.0
 10
27.2013843313
 20
65.7937866049
 30
0.0
 10
28.2588732236
 20
65.6543622976
 30
0.0
 10
29.5527079714
 20
65.2384396265
 30
0.0
 10
30.3975341613
 20
64.8179977424
 30
0.0
 10
30.8216181751
 20
64.5731582619
 30
0.0
  0
SPLINE
  5
37E
100
AcDbEntity
  8
0
100
AcDbSpline
 62
7
  6
CONTINUOUS
 70
0
 71
3
 72
22
 73
18
 74
0
 42
0.0000001
 43
0.0000001
 44
0.0000000001
 40
0.0
 40
0.0
 40
0.0
 40
0.0
 40
0.0996821844
 40
0.1548787585
 40
0.2134622764
 40
0.2751435564
 40
0.33950849
 40
0.406047081
 40
0.4741783292
 40
0.543272181
 40
0.6126697967
 40
0.6817041885
 40
0.7497198335
 40
0.8160918783
 40
0.8802469219
 40
0.9416839069
 40
1.0
 40
1.0
 40
1.0
 40
1.0
 10
38.903609188
 20
45.9282220434
 30
0.0
 10
39.1654383368
 20
46.5979203749
 30
0.0
 10
39.4029871579
 20
47.7075814917
 30
0.0
 10
39.4689476987
 20
49.2467518937
 30
0.0
 10
39.3933262853
 20
50.5126857205
 30
0.0
 10
39.1918580531
 20
51.8307647637
 30
0.0
 10
38.867642341
 20
53.1832007492
 30
0.0
 10
38.4253271517
 20
54.5505283577
 30
0.0
 10
37.8712754416
 20
55.9133315044
 30
0.0
 10
37.2134310561
 20
57.2521316051
 30
0.0
 10
36.4612292214
 20
58.5478055117
 30
0.0
 10
35.6254465878
 20
59.7818443608
 30
0.0
 10
34.7180311878
 20
60.9366466289
 30
0.0
 10
33.7519414834
 20
61.9957642418
 30
0.0
 10
32.7408557887
 20
62.9441723543
 30
0.0
 10
31.6992428034
 20
63.7683099629
 30
0.0
 10
30.9737964295
 20
64.2403556407
 30
0.0
 10
30.6094870239
 20
64.4506850158
 30
0.0
  0
SPLINE
  5
37F
100
AcDbEntity
  8
0
100
AcDbSpline
 62
7
  6
CONTINUOUS
 70
0
 71
3
 72
13
 73
9
 74
0
 42
0.0000001
 43
0.0000001
 44
0.0000000001
 40
0.0
 40
0.0
 40
0.0
 40
0.0
 40
0.2857646891
 40
0.5451810972
 40
0.6658376481
 40
0.7811846853
 40
0.8921720604
 40
1.0
 40
1.0
 40
1.0
 40
1.0
 10
31.175170318
 20
66.2061603665
 30
0.0
 10
30.6243321624
 20
66.5241815137
 30
0.0
 10
29.5284810437
 20
67.0583585123
 30
0.0
 10
28.0924940986
 20
67.4655952813
 30
0.0
 10
26.9942248199
 20
67.5868892559
 30
0.0
 10
26.2198636854
 20
67.5793583454
 30
0.0
 10
25.4812552998
 20
67.4752195367
 30
0.0
 10
25.0112869314
 20
67.3400550628
 30
0.0
 10
24.7861597015
 20
67.2568773242
 30
0.0
  0
SPLINE
  5
380
100
AcDbEntity
  8
0
100
AcDbSpline
 62
7
  6
CONTINUOUS
 70
0
 71
3
 72
22
 73
18
 74
0
 42
0.0000001
 43
0.0000001
 44
0.0000000001
 40
0.0
 40
0.0
 40
0.0
 40
0.0
 40
0.0977785433
 40
0.1521528162
 40
0.2100766256
 40
0.2712944087
 40
0.3354048251
 40
0.4018945157
 40
0.4701666029
 40
0.5395659148
 40
0.6094020307
 40
0.6789711527
 40
0.7475775343
 40
0.8145553843
 40
0.8792915192
 40
0.9412499366
 40
1.0
 40
1.0
 40
1.0
 40
1.0
 10
39.2263304381
 20
45.4211443417
 30
0.0
 10
39.5374933717
 20
46.0933451263
 30
0.0
 10
39.8377806014
 20
47.2278958853
 30
0.0
 10
39.9631309741
 20
48.8152436653
 30
0.0
 10
39.9235521827
 20
50.1320487357
 30
0.0
 10
39.7472532269
 20
51.5108394822
 30
0.0
 10
39.4372134607
 20
52.9323000105
 30
0.0
 10
38.9980479163
 20
54.3750235049
 30
0.0
 10
38.4363555804
 20
55.8175790028
 30
0.0
 10
37.7605406782
 20
57.2383698694
 30
0.0
 10
36.9807271262
 20
58.6161232228
 30
0.0
 10
36.108601951
 20
59.9301899536
 30
0.0
 10
35.1572251713
 20
61.1608855938
 30
0.0
 10
34.1408428344
 20
62.2897800992
 30
0.0
 10
33.0745589394
 20
63.3000364865
 30
0.0
 10
31.9743932328
 20
64.1764766021
 30
0.0
 10
31.2070560431
 20
64.6772283856
 30
0.0
 10
30.8216181751
 20
64.8997592287
 30
0.0
  0
SPLINE
  5
381
100
AcDbEntity
  8
0
100
AcDbSpline
 62
7
  6
CONTINUOUS
 70
0
 71
3
 72
12
 73
8
 74
0
 42
0.0000001
 43
0.0000001
 44
0.0000000001
 40
0.0
 40
0.0
 40
0.0
 40
0.0
 40
0.2823194632
 40
0.5416195059
 40
0.7793460012
 40
0.8914744229
 40
1.0
 40
1.0
 40
1.0
 40
1.0
 10
30.8216181751
 20
64.8997592287
 30
0.0
 10
30.3773707775
 20
65.156236069
 30
0.0
 10
29.492449465
 20
65.5956202351
 30
0.0
 10
28.1370171262
 20
66.0259149002
 30
0.0
 10
27.0302181733
 20
66.1633929633
 30
0.0
 10
26.1965857356
 20
66.1274788018
 30
0.0
 10
25.799637246
 20
66.0632739251
 30
0.0
 10
25.6073456647
 20
66.0196019601
 30
0.0
  0
SPLINE
  5
382
100
AcDbEntity
  8
0
100
AcDbSpline
 62
7
  6
CONTINUOUS
 70
0
 71
3
 72
15
 73
11
 74
0
 42
0.0000001
 43
0.0000001
 44
0.0000000001
 40
0.0
 40
0.0
 40
0.0
 40
0.0
 40
0.1013441254
 40
0.2106552472
 40
0.3278408724
 40
0.4523175588
 40
0.5831209396
 40
0.7189989163
 40
0.8584913554
 40
1.0
 40
1.0
 40
1.0
 40
1.0
 10
46.4238855071
 20
51.9688691443
 30
0.0
 10
46.535328585
 20
52.3038823346
 30
0.0
 10
46.7081935385
 20
53.0205810229
 30
0.0
 10
46.8192799374
 20
54.1602232257
 30
0.0
 10
46.7910809489
 20
55.3852614965
 30
0.0
 10
46.6243638479
 20
56.6742474055
 30
0.0
 10
46.3222751747
 20
58.0049595582
 30
0.0
 10
45.8901517025
 20
59.3541484211
 30
0.0
 10
45.3356741295
 20
60.6980405752
 30
0.0
 10
44.8922441802
 20
61.5721023599
 30
0.0
 10
44.652502145
 20
62.0028703265
 30
0.0
  0
SPLINE
  5
383
100
AcDbEntity
  8
0
100
AcDbSpline
 62
7
  6
CONTINUOUS
 70
0
 71
3
 72
12
 73
8
 74
0
 42
0.0000001
 43
0.0000001
 44
0.0000000001
 40
0.0
 40
0.0
 40
0.0
 40
0.0
 40
0.265735646
 40
0.5252163207
 40
0.7717359628
 40
0.888464285
 40
1.0
 40
1.0
 40
1.0
 40
1.0
 10
44.652502145
 20
62.0028703265
 30
0.0
 10
44.2882470481
 20
62.6573630911
 30
0.0
 10
43.4922295238
 20
63.9103896337
 30
0.0
 10
42.1140322871
 20
65.5996530692
 30
0.0
 10
40.8363200562
 20
66.8121931875
 30
0.0
 10
39.7685493314
 20
67.6207179191
 30
0.0
 10
39.2255804148
 20
67.9676185749
 30
0.0
 10
38.953313337
 20
68.1248084894
 30
0.0
  0
SPLINE
  5
384
100
AcDbEntity
  8
0
100
AcDbSpline
 62
7
  6
CONTINUOUS
 70
0
 71
3
 72
22
 73
18
 74
0
 42
0.0000001
 43
0.0000001
 44
0.0000000001
 40
0.0
 40
0.0
 40
0.0
 40
0.0
 40
0.0586566725
 40
0.1205094835
 40
0.1851206673
 40
0.2519701141
 40
0.3204496654
 40
0.3899039412
 40
0.4596452638
 40
0.5289778063
 40
0.5972181683
 40
0.6637169273
 40
0.7278810105
 40
0.7891980612
 40
0.8472640331
 40
0.9018151943
 40
1.0
 40
1.0
 40
1.0
 40
1.0
 10
30.8216181751
 20
64.5731582619
 30
0.0
 10
31.1931001722
 20
64.3586878828
 30
0.0
 10
31.9327216551
 20
63.8763052179
 30
0.0
 10
32.9934966174
 20
63.0325303563
 30
0.0
 10
34.0219191063
 20
62.0602125257
 30
0.0
 10
35.0027268588
 20
60.9739311054
 30
0.0
 10
35.9214803078
 20
59.7896365886
 30
0.0
 10
36.7645776575
 20
58.5249178184
 30
0.0
 10
37.5195112658
 20
57.1985085478
 30
0.0
 10
38.1750801467
 20
55.8300932924
 30
0.0
 10
38.7215646382
 20
54.4399548733
 30
0.0
 10
39.1508743359
 20
53.0486944902
 30
0.0
 10
39.456631049
 20
51.6767708012
 30
0.0
 10
39.6343305982
 20
50.3446311726
 30
0.0
 10
39.681035973
 20
49.0707802629
 30
0.0
 10
39.5720025891
 20
47.5322685034
 30
0.0
 10
39.2930017851
 20
46.4304293182
 30
0.0
 10
39.0003615846
 20
45.7747597562
 30
0.0
  0
SPLINE
  5
385
100
AcDbEntity
  8
0
100
AcDbSpline
 62
7
  6
CONTINUOUS
 70
0
 71
3
 72
32
 73
28
 74
0
 42
0.0000001
 43
0.0000001
 44
0.0000000001
 40
0.0
 40
0.0
 40
0.0
 40
0.0
 40
0.0665251784
 40
0.1383009867
 40
0.2138543882
 40
0.2913743396
 40
0.3688943922
 40
0.4444482078
 40
0.5162269624
 40
0.5502436544
 40
0.5828009091
 40
0.6138000353
 40
0.6431904408
 40
0.6709804546
 40
0.6972474384
 40
0.7221455674
 40
0.7459129739
 40
0.7688693604
 40
0.7914009037
 40
0.813932426
 40
0.8368885196
 40
0.8606557697
 40
0.8855542304
 40
0.9118203619
 40
0.9396089196
 40
0.9690065832
 40
1.0
 40
1.0
 40
1.0
 40
1.0
 10
30.4204992559
 20
63.3984006127
 30
0.0
 10
30.9696864311
 20
63.0813344223
 30
0.0
 10
32.0544034001
 20
62.3209757537
 30
0.0
 10
33.5468948807
 20
60.9246132953
 30
0.0
 10
34.9223439197
 20
59.2740484882
 30
0.0
 10
36.1288801715
 20
57.4311479823
 30
0.0
 10
37.1216522617
 20
55.4646736857
 30
0.0
 10
37.8633287805
 20
53.4485992467
 30
0.0
 10
38.2562232902
 20
51.7593178585
 30
0.0
 10
38.4150274644
 20
50.4489957402
 30
0.0
 10
38.4553842746
 20
49.5187352123
 30
0.0
 10
38.4187779965
 20
48.6323247467
 30
0.0
 10
38.3053455137
 20
47.7980650833
 30
0.0
 10
38.1159241993
 20
47.0238216149
 30
0.0
 10
37.8519871395
 20
46.3169236652
 30
0.0
 10
37.5154879293
 20
45.6842749129
 30
0.0
 10
37.1091256543
 20
45.1323633577
 30
0.0
 10
36.6364936763
 20
44.6672204824
 30
0.0
 10
36.1022075991
 20
44.2943449274
 30
0.0
 10
35.512148391
 20
44.0180865922
 30
0.0
 10
34.8730303154
 20
43.8412783832
 30
0.0
 10
34.1918758877
 20
43.7653242284
 30
0.0
 10
33.4757457333
 20
43.7902409901
 30
0.0
 10
32.731596938
 20
43.9150452815
 30
0.0
 10
31.9663104009
 20
44.1381388088
 30
0.0
 10
31.1871686233
 20
44.4570536208
 30
0.0
 10
30.6763600804
 20
44.7244401818
 30
0.0
 10
30.4204992559
 20
44.8721581559
 30
0.0
  0
SPLINE
  5
386
100
AcDbEntity
  8
0
100
AcDbSpline
 62
7
  6
CONTINUOUS
 70
0
 71
3
 72
11
 73
7
 74
0
 42
0.0000001
 43
0.0000001
 44
0.0000000001
 40
0.0
 40
0.0
 40
0.0
 40
0.0
 40
0.2801922623
 40
0.5392479707
 40
0.7781611042
 40
1.0
 40
1.0
 40
1.0
 40
1.0
 10
30.6094870239
 20
64.4506850158
 30
0.0
 10
30.2092184267
 20
64.6817749702
 30
0.0
 10
29.4116593529
 20
65.0821592373
 30
0.0
 10
28.1903128431
 20
65.4928084786
 30
0.0
 10
27.0119951441
 20
65.6815246811
 30
0.0
 10
26.2458080941
 20
65.6532238969
 30
0.0
 10
25.8840924845
 20
65.5978361804
 30
0.0
  0
SPLINE
  5
387
100
AcDbEntity
  8
0
100
AcDbSpline
 62
7
  6
CONTINUOUS
 70
0
 71
3
 72
11
 73
7
 74
0
 42
0.0000001
 43
0.0000001
 44
0.0000000001
 40
0.0
 40
0.0
 40
0.0
 40
0.0
 40
0.2642640356
 40
0.5246068865
 40
0.7722810426
 40
1.0
 40
1.0
 40
1.0
 40
1.0
 10
62.6261291075
 20
66.156283094
 30
0.0
 10
62.6691466335
 20
66.2192016997
 30
0.0
 10
62.7463055372
 20
66.3499516798
 30
0.0
 10
62.8336725279
 20
66.555558624
 30
0.0
 10
62.8888618541
 20
66.7611859193
 30
0.0
 10
62.9030086655
 20
66.8984419042
 30
0.0
 10
62.9030086655
 20
66.9641201394
 30
0.0
  0
SPLINE
  5
388
100
AcDbEntity
  8
0
100
AcDbSpline
 62
7
  6
CONTINUOUS
 70
0
 71
3
 72
10
 73
6
 74
0
 42
0.0000001
 43
0.0000001
 44
0.0000000001
 40
0.0
 40
0.0
 40
0.0
 40
0.0
 40
0.2279110288
 40
0.4759426991
 40
1.0
 40
1.0
 40
1.0
 40
1.0
 10
59.721041398
 20
61.7057899193
 30
0.0
 10
59.721041398
 20
61.7386182045
 30
0.0
 10
59.728142805
 20
61.8072624564
 30
0.0
 10
59.7655305911
 20
61.9467131694
 30
0.0
 10
59.8168775366
 20
62.0473951965
 30
0.0
 10
59.859481177
 20
62.109708442
 30
0.0
  0
SPLINE
  5
389
100
AcDbEntity
  8
0
100
AcDbSpline
 62
7
  6
CONTINUOUS
 70
0
 71
3
 72
11
 73
7
 74
0
 42
0.0000001
 43
0.0000001
 44
0.0000000001
 40
0.0
 40
0.0
 40
0.0
 40
0.0
 40
0.2892962821
 40
0.5487084707
 40
0.781970853
 40
1.0
 40
1.0
 40
1.0
 40
1.0
 10
60.7816971539
 20
55.8317072084
 30
0.0
 10
60.7814876175
 20
55.8746940723
 30
0.0
 10
60.7745513729
 20
55.9564686432
 30
0.0
 10
60.7409421852
 20
56.0687682639
 30
0.0
 10
60.6847931397
 20
56.1599044132
 30
0.0
 10
60.6322520203
 20
56.2039126078
 30
0.0
 10
60.6041987477
 20
56.2201180807
 30
0.0
  0
SPLINE
  5
38A
100
AcDbEntity
  8
0
100
AcDbSpline
 62
7
  6
CONTINUOUS
 70
0
 71
3
 72
11
 73
7
 74
0
 42
0.0000001
 43
0.0000001
 44
0.0000000001
 40
0.0
 40
0.0
 40
0.0
 40
0.0
 40
0.2180762682
 40
0.4513578893
 40
0.7105664092
 40
1.0
 40
1.0
 40
1.0
 40
1.0
 10
60.0342667535
 20
56.3227650508
 30
0.0
 10
59.9847421937
 20
56.3513561881
 30
0.0
 10
59.8920544628
 20
56.4290925577
 30
0.0
 10
59.7929614278
 20
56.589856875
 30
0.0
 10
59.7335936151
 20
56.7880135864
 30
0.0
 10
59.7214113471
 20
56.9323122631
 30
0.0
 10
59.721041398
 20
57.008208146
 30
0.0
  0
SPLINE
  5
38B
100
AcDbEntity
  8
0
100
AcDbSpline
 62
7
  6
CONTINUOUS
 70
0
 71
3
 72
11
 73
7
 74
0
 42
0.0000001
 43
0.0000001
 44
0.0000000001
 40
0.0
 40
0.0
 40
0.0
 40
0.0
 40
0.2372523758
 40
0.4999990758
 40
0.7627462798
 40
1.0
 40
1.0
 40
1.0
 40
1.0
 10
55.5844695249
 20
41.0659968251
 30
0.0
 10
55.6346668523
 20
41.0370160402
 30
0.0
 10
55.7296608629
 20
40.9570781404
 30
0.0
 10
55.8404894796
 20
40.8055626648
 30
0.0
 10
55.9162922902
 20
40.6338245515
 30
0.0
 10
55.9380243875
 20
40.5115881209
 30
0.0
 10
55.9380243875
 20
40.4536252393
 30
0.0
  0
SPLINE
  5
38C
100
AcDbEntity
  8
0
100
AcDbSpline
 62
7
  6
CONTINUOUS
 70
0
 71
3
 72
11
 73
7
 74
0
 42
0.0000001
 43
0.0000001
 44
0.0000000001
 40
0.0
 40
0.0
 40
0.0
 40
0.0
 40
0.2895401978
 40
0.5491171512
 40
0.782255066
 40
1.0
 40
1.0
 40
1.0
 40
1.0
 10
55.9380243875
 20
39.8820735473
 30
0.0
 10
55.9380243875
 20
39.8567542357
 30
0.0
 10
55.9341583626
 20
39.8085759765
 30
0.0
 10
55.914681828
 20
39.7423705554
 30
0.0
 10
55.8818285952
 20
39.6886299618
 30
0.0
 10
55.8509444843
 20
39.6627252887
 30
0.0
 10
55.8344544177
 20
39.653204805
 30
0.0
  0
SPLINE
  5
38D
100
AcDbEntity
  8
0
100
AcDbSpline
 62
7
  6
CONTINUOUS
 70
0
 71
3
 72
11
 73
7
 74
0
 42
0.0000001
 43
0.0000001
 44
0.0000000001
 40
0.0
 40
0.0
 40
0.0
 40
0.0
 40
0.2895391946
 40
0.5491157945
 40
0.7822541179
 40
1.0
 40
1.0
 40
1.0
 40
1.0
 10
54.5238137691
 20
39.0655764852
 30
0.0
 10
54.545740398
 20
39.0529174265
 30
0.0
 10
54.5893959271
 20
39.032177397
 30
0.0
 10
54.6564680198
 20
39.0159428634
 30
0.0
 10
54.7194337255
 20
39.0175245908
 30
0.0
 10
54.757308969
 20
39.0313182945
 30
0.0
 10
54.7737986615
 20
39.040838574
 30
0.0
  0
SPLINE
  5
38E
100
AcDbEntity
  8
0
100
AcDbSpline
 62
7
  6
CONTINUOUS
 70
0
 71
3
 72
9
 73
5
 74
0
 42
0.0000001
 43
0.0000001
 44
0.0000000001
 40
0.0
 40
0.0
 40
0.0
 40
0.0
 40
0.5146504488
 40
1.0
 40
1.0
 40
1.0
 40
1.0
 10
59.8235749932
 20
56.6066314089
 30
0.0
 10
59.8554094011
 20
56.6084309603
 30
0.0
 10
59.9181047089
 20
56.6045326983
 30
0.0
 10
59.977117774
 20
56.5821638677
 30
0.0
 10
60.0031554813
 20
56.567122722
 30
0.0
  0
SPLINE
  5
38F
100
AcDbEntity
  8
0
100
AcDbSpline
 62
7
  6
CONTINUOUS
 70
0
 71
3
 72
13
 73
9
 74
0
 42
0.0000001
 43
0.0000001
 44
0.0000000001
 40
0.0
 40
0.0
 40
0.0
 40
0.0
 40
0.204933573
 40
0.3190994883
 40
0.4413434113
 40
0.5713780962
 40
0.7085483997
 40
1.0
 40
1.0
 40
1.0
 40
1.0
 10
48.4951330991
 20
82.2173886932
 30
0.0
 10
48.6730759479
 20
82.2256974955
 30
0.0
 10
48.9536701952
 20
82.1838822916
 30
0.0
 10
49.3141811448
 20
82.0518960779
 30
0.0
 10
49.5986610694
 20
81.9067164229
 30
0.0
 10
49.882558402
 20
81.7213279344
 30
0.0
 10
50.2625316992
 20
81.418084129
 30
0.0
 10
50.5224065209
 20
81.1481089764
 30
0.0
 10
50.6844828961
 20
80.9533955939
 30
0.0
  0
SPLINE
  5
390
100
AcDbEntity
  8
0
100
AcDbSpline
 62
7
  6
CONTINUOUS
 70
0
 71
3
 72
10
 73
6
 74
0
 42
0.0000001
 43
0.0000001
 44
0.0000000001
 40
0.0
 40
0.0
 40
0.0
 40
0.0
 40
0.2275479107
 40
0.5961401861
 40
1.0
 40
1.0
 40
1.0
 40
1.0
 10
49.5975936367
 20
82.7744009546
 30
0.0
 10
49.6751960052
 20
82.7711289836
 30
0.0
 10
49.8780077742
 20
82.7466084519
 30
0.0
 10
50.2069234575
 20
82.648250361
 30
0.0
 10
50.4445722632
 20
82.5314257509
 30
0.0
 10
50.563957752
 20
82.4625000661
 30
0.0
  0
SPLINE
  5
391
100
AcDbEntity
  8
0
100
AcDbSpline
 62
7
  6
CONTINUOUS
 70
0
 71
3
 72
9
 73
5
 74
0
 42
0.0000001
 43
0.0000001
 44
0.0000000001
 40
0.0
 40
0.0
 40
0.0
 40
0.0
 40
0.4797077787
 40
1.0
 40
1.0
 40
1.0
 40
1.0
 10
50.563957752
 20
82.4625000661
 30
0.0
 10
50.7385633919
 20
82.3616937334
 30
0.0
 10
51.0823719906
 20
82.1158788584
 30
0.0
 10
51.384138937
 20
81.8211951707
 30
0.0
 10
51.5303218674
 20
81.6585650338
 30
0.0
  0
SPLINE
  5
392
100
AcDbEntity
  8
0
100
AcDbSpline
 62
7
  6
CONTINUOUS
 70
0
 71
3
 72
11
 73
7
 74
0
 42
0.0000001
 43
0.0000001
 44
0.0000000001
 40
0.0
 40
0.0
 40
0.0
 40
0.0
 40
0.289702329
 40
0.5490881649
 40
0.7822156415
 40
1.0
 40
1.0
 40
1.0
 40
1.0
 10
46.3213788882
 20
43.6788088961
 30
0.0
 10
46.3652577123
 20
43.6534760183
 30
0.0
 10
46.4525468424
 20
43.6119508679
 30
0.0
 10
46.5867119721
 20
43.5795523928
 30
0.0
 10
46.712598114
 20
43.5827398071
 30
0.0
 10
46.7883882929
 20
43.6102446499
 30
0.0
 10
46.8213741549
 20
43.6292889384
 30
0.0
  0
SPLINE
  5
393
100
AcDbEntity
  8
0
100
AcDbSpline
 62
7
  6
CONTINUOUS
 70
0
 71
3
 72
11
 73
7
 74
0
 42
0.0000001
 43
0.0000001
 44
0.0000000001
 40
0.0
 40
0.0
 40
0.0
 40
0.0
 40
0.2177565409
 40
0.4519535784
 40
0.7115540706
 40
1.0
 40
1.0
 40
1.0
 40
1.0
 10
46.8928645043
 20
49.5674671244
 30
0.0
 10
46.9092465409
 20
49.5756008082
 30
0.0
 10
46.9463035055
 20
49.586794107
 30
0.0
 10
47.0067724163
 20
49.5864042424
 30
0.0
 10
47.0709039847
 20
49.5698984099
 30
0.0
 10
47.1126535611
 20
49.5498703238
 30
0.0
 10
47.1336353488
 20
49.537756757
 30
0.0
  0
SPLINE
  5
394
100
AcDbEntity
  8
0
100
AcDbSpline
 62
7
  6
CONTINUOUS
 70
0
 71
3
 72
9
 73
5
 74
0
 42
0.0000001
 43
0.0000001
 44
0.0000000001
 40
0.0
 40
0.0
 40
0.0
 40
0.0
 40
0.5035237591
 40
1.0
 40
1.0
 40
1.0
 40
1.0
 10
45.9887758224
 20
49.2423294624
 30
0.0
 10
46.1459411958
 20
49.2795867023
 30
0.0
 10
46.4542779892
 20
49.3707759659
 30
0.0
 10
46.750218574
 20
49.4966433969
 30
0.0
 10
46.8928645043
 20
49.5674671244
 30
0.0
  0
SPLINE
  5
395
100
AcDbEntity
  8
0
100
AcDbSpline
 62
7
  6
CONTINUOUS
 70
0
 71
3
 72
11
 73
7
 74
0
 42
0.0000001
 43
0.0000001
 44
0.0000000001
 40
0.0
 40
0.0
 40
0.0
 40
0.0
 40
0.289540198
 40
0.5491171511
 40
0.7822550659
 40
1.0
 40
1.0
 40
1.0
 40
1.0
 10
46.3213787829
 20
45.1893376976
 30
0.0
 10
46.3213787829
 20
45.1640184347
 30
0.0
 10
46.3175127655
 20
45.115840268
 30
0.0
 10
46.2980362682
 20
45.0496349741
 30
0.0
 10
46.2651830986
 20
44.9958944837
 30
0.0
 10
46.234299047
 20
44.9699898604
 30
0.0
 10
46.2178090121
 20
44.9604693949
 30
0.0
  0
SPLINE
  5
396
100
AcDbEntity
  8
0
100
AcDbSpline
 62
7
  6
CONTINUOUS
 70
0
 71
3
 72
11
 73
7
 74
0
 42
0.0000001
 43
0.0000001
 44
0.0000000001
 40
0.0
 40
0.0
 40
0.0
 40
0.0
 40
0.2177176035
 40
0.4509429755
 40
0.7102958835
 40
1.0
 40
1.0
 40
1.0
 40
1.0
 10
46.4249320858
 20
46.6984182733
 30
0.0
 10
46.4084441671
 20
46.688898702
 30
0.0
 10
46.3775940766
 20
46.6629458851
 30
0.0
 10
46.3447209713
 20
46.6092449123
 30
0.0
 10
46.3252263355
 20
46.5430359315
 30
0.0
 10
46.3213787875
 20
46.4948615804
 30
0.0
 10
46.3213787829
 20
46.4695278368
 30
0.0
  0
SPLINE
  5
397
100
AcDbEntity
  8
0
100
AcDbSpline
 62
7
  6
CONTINUOUS
 70
0
 71
3
 72
11
 73
7
 74
0
 42
0.0000001
 43
0.0000001
 44
0.0000000001
 40
0.0
 40
0.0
 40
0.0
 40
0.0
 40
0.2897041237
 40
0.5490570375
 40
0.7822824085
 40
1.0
 40
1.0
 40
1.0
 40
1.0
 10
48.5310967847
 20
48.0835510235
 30
0.0
 10
48.5310967847
 20
48.0582171395
 30
0.0
 10
48.5272492245
 20
48.0100425209
 30
0.0
 10
48.5077544955
 20
47.9438331699
 30
0.0
 10
48.474881223
 20
47.8901318932
 30
0.0
 10
48.4440309701
 20
47.8641789256
 30
0.0
 10
48.4275429638
 20
47.8546592983
 30
0.0
  0
SPLINE
  5
398
100
AcDbEntity
  8
0
100
AcDbSpline
 62
7
  6
CONTINUOUS
 70
0
 71
3
 72
11
 73
7
 74
0
 42
0.0000001
 43
0.0000001
 44
0.0000000001
 40
0.0
 40
0.0
 40
0.0
 40
0.0
 40
0.2372523758
 40
0.4999990758
 40
0.7627462798
 40
1.0
 40
1.0
 40
1.0
 40
1.0
 10
48.1775419177
 20
48.935070653
 30
0.0
 10
48.2277392457
 20
48.9060898678
 30
0.0
 10
48.3227332574
 20
48.8261519671
 30
0.0
 10
48.4335618754
 20
48.6746364896
 30
0.0
 10
48.5093646869
 20
48.5028983742
 30
0.0
 10
48.5310967844
 20
48.3806619423
 30
0.0
 10
48.5310967844
 20
48.3226990599
 30
0.0
  0
SPLINE
  5
399
100
AcDbEntity
  8
0
100
AcDbSpline
 62
7
  6
CONTINUOUS
 70
0
 71
3
 72
11
 73
7
 74
0
 42
0.0000001
 43
0.0000001
 44
0.0000000001
 40
0.0
 40
0.0
 40
0.0
 40
0.0
 40
0.2553139917
 40
0.5129537788
 40
0.7639350768
 40
1.0
 40
1.0
 40
1.0
 40
1.0
 10
50.6844828961
 20
80.9533955939
 30
0.0
 10
50.8424295069
 20
80.7636435785
 30
0.0
 10
51.1330753962
 20
80.3594903484
 30
0.0
 10
51.483008375
 20
79.7065758444
 30
0.0
 10
51.7365479324
 20
79.0303043226
 30
0.0
 10
51.8366686639
 20
78.5676827709
 30
0.0
 10
51.8649548284
 20
78.3411692339
 30
0.0
  0
SPLINE
  5
39A
100
AcDbEntity
  8
0
100
AcDbSpline
 62
7
  6
CONTINUOUS
 70
0
 71
3
 72
11
 73
7
 74
0
 42
0.0000001
 43
0.0000001
 44
0.0000000001
 40
0.0
 40
0.0
 40
0.0
 40
0.0
 40
0.2177460349
 40
0.4508843876
 40
0.710460784
 40
1.0
 40
1.0
 40
1.0
 40
1.0
 10
46.2178090121
 20
44.9604693949
 30
0.0
 10
46.2013193407
 20
44.9509491394
 30
0.0
 10
46.1634441756
 20
44.9371554453
 30
0.0
 10
46.1004786152
 20
44.9355737433
 30
0.0
 10
46.0334066798
 20
44.951808188
 30
0.0
 10
45.9897512711
 20
44.9725481814
 30
0.0
 10
45.9678246881
 20
44.9852072073
 30
0.0
  0
SPLINE
  5
39B
100
AcDbEntity
  8
0
100
AcDbSpline
 62
7
  6
CONTINUOUS
 70
0
 71
3
 72
20
 73
16
 74
0
 42
0.0000001
 43
0.0000001
 44
0.0000000001
 40
0.0
 40
0.0
 40
0.0
 40
0.0
 40
0.060918732
 40
0.1255317729
 40
0.2630627361
 40
0.4066537868
 40
0.5491904194
 40
0.6179210031
 40
0.6838646969
 40
0.7463753249
 40
0.8049774062
 40
0.8594162581
 40
0.9097312646
 40
0.9563221143
 40
1.0
 40
1.0
 40
1.0
 40
1.0
 10
50.179417817
 20
76.928247505
 30
0.0
 10
50.179417817
 20
77.0541757717
 30
0.0
 10
50.1634954995
 20
77.3138379723
 30
0.0
 10
50.0738939001
 20
77.8509354279
 30
0.0
 10
49.8562135295
 20
78.5359498243
 30
0.0
 10
49.4591996082
 20
79.3202033008
 30
0.0
 10
49.0282942315
 20
79.9182501308
 30
0.0
 10
48.6367175093
 20
80.3374807607
 30
0.0
 10
48.3321954356
 20
80.6093725093
 30
0.0
 10
48.0190590806
 20
80.837424956
 30
0.0
 10
47.702958926
 20
81.0174262146
 30
0.0
 10
47.3895210152
 20
81.1459183669
 30
0.0
 10
47.0841879558
 20
81.220265719
 30
0.0
 10
46.7925042584
 20
81.2385934393
 30
0.0
 10
46.6060739469
 20
81.2117052246
 30
0.0
 10
46.5188201259
 20
81.188492259
 30
0.0
  0
SPLINE
  5
39C
100
AcDbEntity
  8
0
100
AcDbSpline
 62
7
  6
CONTINUOUS
 70
0
 71
3
 72
9
 73
5
 74
0
 42
0.0000001
 43
0.0000001
 44
0.0000000001
 40
0.0
 40
0.0
 40
0.0
 40
0.0
 40
0.4774298778
 40
1.0
 40
1.0
 40
1.0
 40
1.0
 10
54.8773686317
 20
39.8412590085
 30
0.0
 10
54.8773686317
 20
39.8783614277
 30
0.0
 10
54.8683264055
 20
39.9561438249
 30
0.0
 10
54.8459782639
 20
40.0309447855
 30
0.0
 10
54.831482708
 20
40.0688800331
 30
0.0
  0
SPLINE
  5
39D
100
AcDbEntity
  8
0
100
AcDbSpline
 62
7
  6
CONTINUOUS
 70
0
 71
3
 72
14
 73
10
 74
0
 42
0.0000001
 43
0.0000001
 44
0.0000000001
 40
0.0
 40
0.0
 40
0.0
 40
0.0
 40
0.2674384601
 40
0.3991030293
 40
0.5280541274
 40
0.6533693014
 40
0.7742320443
 40
0.8899535591
 40
1.0
 40
1.0
 40
1.0
 40
1.0
 10
47.0550229309
 20
63.3003832333
 30
0.0
 10
46.649789052
 20
64.0337053627
 30
0.0
 10
45.9765274864
 20
65.0924256921
 30
0.0
 10
44.9596019419
 20
66.3982610508
 30
0.0
 10
44.1551206462
 20
67.3021396229
 30
0.0
 10
43.3144676929
 20
68.1247611521
 30
0.0
 10
42.44719411
 20
68.8567685307
 30
0.0
 10
41.5633413211
 20
69.4896940734
 30
0.0
 10
40.9534609812
 20
69.8502754507
 30
0.0
 10
40.6483026759
 20
70.0106994765
 30
0.0
  0
SPLINE
  5
39E
100
AcDbEntity
  8
0
100
AcDbSpline
 62
7
  6
CONTINUOUS
 70
0
 71
3
 72
11
 73
7
 74
0
 42
0.0000001
 43
0.0000001
 44
0.0000000001
 40
0.0
 40
0.0
 40
0.0
 40
0.0
 40
0.22989169
 40
0.4687565591
 40
0.7238738646
 40
1.0
 40
1.0
 40
1.0
 40
1.0
 10
49.2382065045
 20
47.1680007244
 30
0.0
 10
49.2823954643
 20
47.1935139617
 30
0.0
 10
49.3662628932
 20
47.2571580754
 30
0.0
 10
49.4683035694
 20
47.382985235
 30
0.0
 10
49.5457610043
 20
47.5365972645
 30
0.0
 10
49.5789978847
 20
47.6503955727
 30
0.0
 10
49.591761367
 20
47.7103391023
 30
0.0
  0
SPLINE
  5
39F
100
AcDbEntity
  8
0
100
AcDbSpline
 62
7
  6
CONTINUOUS
 70
0
 71
3
 72
11
 73
7
 74
0
 42
0.0000001
 43
0.0000001
 44
0.0000000001
 40
0.0
 40
0.0
 40
0.0
 40
0.0
 40
0.2177833598
 40
0.4509104088
 40
0.7102966711
 40
1.0
 40
1.0
 40
1.0
 40
1.0
 10
46.8213741549
 20
43.6292889384
 30
0.0
 10
46.8543607472
 20
43.6483336486
 30
0.0
 10
46.9160773057
 20
43.7002186362
 30
0.0
 10
46.9817818968
 20
43.8076486344
 30
0.0
 10
47.02080656
 20
43.9400423315
 30
0.0
 10
47.0284886134
 20
44.0364024143
 30
0.0
 10
47.0284886134
 20
44.0870705587
 30
0.0
  0
SPLINE
  5
3A0
100
AcDbEntity
  8
0
100
AcDbSpline
 62
7
  6
CONTINUOUS
 70
0
 71
3
 72
11
 73
7
 74
0
 42
0.0000001
 43
0.0000001
 44
0.0000000001
 40
0.0
 40
0.0
 40
0.0
 40
0.0
 40
0.217745073
 40
0.4508830113
 40
0.7104597664
 40
1.0
 40
1.0
 40
1.0
 40
1.0
 10
54.7737986615
 20
39.040838574
 30
0.0
 10
54.7902887338
 20
39.0503590727
 30
0.0
 10
54.8211728661
 20
39.0762637436
 30
0.0
 10
54.8540260714
 20
39.1300043524
 30
0.0
 10
54.8735026369
 20
39.1962097506
 30
0.0
 10
54.8773686317
 20
39.2443880014
 30
0.0
 10
54.8773686317
 20
39.2697073165
 30
0.0
  0
SPLINE
  5
3A1
100
AcDbEntity
  8
0
100
AcDbSpline
 62
7
  6
CONTINUOUS
 70
0
 71
3
 72
10
 73
6
 74
0
 42
0.0000001
 43
0.0000001
 44
0.0000000001
 40
0.0
 40
0.0
 40
0.0
 40
0.0
 40
0.5248058242
 40
0.7713377791
 40
1.0
 40
1.0
 40
1.0
 40
1.0
 10
46.1406978427
 20
49.3920188045
 30
0.0
 10
46.1921623312
 20
49.3066478534
 30
0.0
 10
46.2813494694
 20
49.1882872285
 30
0.0
 10
46.4214424179
 20
49.0595034473
 30
0.0
 10
46.4958663887
 20
49.0077010842
 30
0.0
 10
46.5334806015
 20
48.9859849996
 30
0.0
  0
SPLINE
  5
3A2
100
AcDbEntity
  8
0
100
AcDbSpline
 62
7
  6
CONTINUOUS
 70
0
 71
3
 72
11
 73
7
 74
0
 42
0.0000001
 43
0.0000001
 44
0.0000000001
 40
0.0
 40
0.0
 40
0.0
 40
0.0
 40
0.2896301972
 40
0.5489894821
 40
0.7821462052
 40
1.0
 40
1.0
 40
1.0
 40
1.0
 10
73.7005456813
 20
97.8360080586
 30
0.0
 10
73.7004873527
 20
97.8882096232
 30
0.0
 10
73.6924635033
 20
97.9874837818
 30
0.0
 10
73.6521153951
 20
98.1238647163
 30
0.0
 10
73.5843147131
 20
98.234529653
 30
0.0
 10
73.5206876686
 20
98.2879864273
 30
0.0
 10
73.4866831654
 20
98.3076188058
 30
0.0
  0
SPLINE
  5
3A3
100
AcDbEntity
  8
0
100
AcDbSpline
 62
7
  6
CONTINUOUS
 70
0
 71
3
 72
17
 73
13
 74
0
 42
0.0000001
 43
0.0000001
 44
0.0000000001
 40
0.0
 40
0.0
 40
0.0
 40
0.0
 40
0.1286891333
 40
0.2702803493
 40
0.4174326844
 40
0.5617743804
 40
0.6954465661
 40
0.8127104963
 40
0.8646756522
 40
0.91250911
 40
0.9571392634
 40
1.0
 40
1.0
 40
1.0
 40
1.0
 10
62.0543680686
 20
90.3211385623
 30
0.0
 10
62.0543680686
 20
90.4066133518
 30
0.0
 10
62.0782807911
 20
90.5863370847
 30
0.0
 10
62.1675266697
 20
90.8502217946
 30
0.0
 10
62.3050544955
 20
91.1044245955
 30
0.0
 10
62.4798028117
 20
91.3281038067
 30
0.0
 10
62.6774953602
 20
91.5031923648
 30
0.0
 10
62.8564347716
 20
91.6010388298
 30
0.0
 10
62.9964101826
 20
91.638272777
 30
0.0
 10
63.0927477948
 20
91.6453675488
 30
0.0
 10
63.1824541389
 20
91.6322212193
 30
0.0
 10
63.2368044567
 20
91.6096384146
 30
0.0
 10
63.261452885
 20
91.5953949014
 30
0.0
  0
SPLINE
  5
3A4
100
AcDbEntity
  8
0
100
AcDbSpline
 62
7
  6
CONTINUOUS
 70
0
 71
3
 72
17
 73
13
 74
0
 42
0.0000001
 43
0.0000001
 44
0.0000000001
 40
0.0
 40
0.0
 40
0.0
 40
0.0
 40
0.1286891333
 40
0.2702803493
 40
0.4174326844
 40
0.5617743804
 40
0.6954465661
 40
0.8127104963
 40
0.8646756522
 40
0.91250911
 40
0.9571392634
 40
1.0
 40
1.0
 40
1.0
 40
1.0
 10
71.2467179523
 20
93.9953077284
 30
0.0
 10
71.2467179523
 20
94.0807825178
 30
0.0
 10
71.2706306749
 20
94.2605062508
 30
0.0
 10
71.3598765535
 20
94.5243909606
 30
0.0
 10
71.4974043793
 20
94.7785937615
 30
0.0
 10
71.6721526955
 20
95.0022729728
 30
0.0
 10
71.869845244
 20
95.1773615309
 30
0.0
 10
72.0487846554
 20
95.2752079959
 30
0.0
 10
72.1887600664
 20
95.3124419431
 30
0.0
 10
72.2850976786
 20
95.3195367149
 30
0.0
 10
72.3748040227
 20
95.3063903854
 30
0.0
 10
72.4291543405
 20
95.2838075807
 30
0.0
 10
72.4538027688
 20
95.2695640675
 30
0.0
  0
SPLINE
  5
3A5
100
AcDbEntity
  8
0
100
AcDbSpline
 62
7
  6
CONTINUOUS
 70
0
 71
3
 72
11
 73
7
 74
0
 42
0.0000001
 43
0.0000001
 44
0.0000000001
 40
0.0
 40
0.0
 40
0.0
 40
0.0
 40
0.2177651606
 40
0.4508956102
 40
0.7103690052
 40
1.0
 40
1.0
 40
1.0
 40
1.0
 10
71.4538408103
 20
93.537539697
 30
0.0
 10
71.4208644726
 20
93.5565956343
 30
0.0
 10
71.3591144573
 20
93.6084294123
 30
0.0
 10
71.2934186245
 20
93.7158935698
 30
0.0
 10
71.2544178723
 20
93.8482913975
 30
0.0
 10
71.2467179523
 20
93.9446523433
 30
0.0
 10
71.2467179523
 20
93.9953077284
 30
0.0
  0
SPLINE
  5
3A6
100
AcDbEntity
  8
0
100
AcDbSpline
 62
7
  6
CONTINUOUS
 70
0
 71
3
 72
11
 73
7
 74
0
 42
0.0000001
 43
0.0000001
 44
0.0000000001
 40
0.0
 40
0.0
 40
0.0
 40
0.0
 40
0.2177651606
 40
0.4508956102
 40
0.7103690052
 40
1.0
 40
1.0
 40
1.0
 40
1.0
 10
62.2614909265
 20
89.8633705309
 30
0.0
 10
62.2285145888
 20
89.8824264682
 30
0.0
 10
62.1667645735
 20
89.9342602463
 30
0.0
 10
62.1010687407
 20
90.0417244037
 30
0.0
 10
62.0620679885
 20
90.1741222315
 30
0.0
 10
62.0543680686
 20
90.2704831772
 30
0.0
 10
62.0543680686
 20
90.3211385623
 30
0.0
  0
SPLINE
  5
3A7
100
AcDbEntity
  8
0
100
AcDbSpline
 62
7
  6
CONTINUOUS
 70
0
 71
3
 72
11
 73
7
 74
0
 42
0.0000001
 43
0.0000001
 44
0.0000000001
 40
0.0
 40
0.0
 40
0.0
 40
0.0
 40
0.2897033215
 40
0.5490886161
 40
0.7822159834
 40
1.0
 40
1.0
 40
1.0
 40
1.0
 10
65.9700169733
 20
102.2980650982
 30
0.0
 10
66.0153249165
 20
102.3242234952
 30
0.0
 10
66.1054567691
 20
102.3671019892
 30
0.0
 10
66.2439915781
 20
102.4005567237
 30
0.0
 10
66.3739776195
 20
102.3972664224
 30
0.0
 10
66.4522367145
 20
102.3688668149
 30
0.0
 10
66.4862968864
 20
102.3492022755
 30
0.0
  0
SPLINE
  5
3A8
100
AcDbEntity
  8
0
100
AcDbSpline
 62
7
  6
CONTINUOUS
 70
0
 71
3
 72
11
 73
7
 74
0
 42
0.0000001
 43
0.0000001
 44
0.0000000001
 40
0.0
 40
0.0
 40
0.0
 40
0.0
 40
0.2897033215
 40
0.5490886161
 40
0.7822159834
 40
1.0
 40
1.0
 40
1.0
 40
1.0
 10
71.7329612332
 20
98.9709029488
 30
0.0
 10
71.7782691764
 20
98.9970613459
 30
0.0
 10
71.868401029
 20
99.0399398399
 30
0.0
 10
72.0069358381
 20
99.0733945744
 30
0.0
 10
72.1369218794
 20
99.0701042731
 30
0.0
 10
72.2151809744
 20
99.0417046655
 30
0.0
 10
72.2492411463
 20
99.0220401261
 30
0.0
  0
SPLINE
  5
3A9
100
AcDbEntity
  8
0
100
AcDbSpline
 62
7
  6
CONTINUOUS
 70
0
 71
3
 72
11
 73
7
 74
0
 42
0.0000001
 43
0.0000001
 44
0.0000000001
 40
0.0
 40
0.0
 40
0.0
 40
0.0
 40
0.2896301972
 40
0.5489894821
 40
0.7821462052
 40
1.0
 40
1.0
 40
1.0
 40
1.0
 10
67.4779801
 20
101.4285266984
 30
0.0
 10
67.4779217714
 20
101.480728263
 30
0.0
 10
67.469897922
 20
101.5800024216
 30
0.0
 10
67.4295498138
 20
101.7163833561
 30
0.0
 10
67.3617491318
 20
101.8270482927
 30
0.0
 10
67.2981220873
 20
101.8805050671
 30
0.0
 10
67.2641175841
 20
101.9001374456
 30
0.0
  0
SPLINE
  5
3AA
100
AcDbEntity
  8
0
100
AcDbSpline
 62
7
  6
CONTINUOUS
 70
0
 71
3
 72
11
 73
7
 74
0
 42
0.0000001
 43
0.0000001
 44
0.0000000001
 40
0.0
 40
0.0
 40
0.0
 40
0.0
 40
0.2177839719
 40
0.4509113127
 40
0.7102966775
 40
1.0
 40
1.0
 40
1.0
 40
1.0
 10
73.4866831654
 20
98.3076188058
 30
0.0
 10
73.4526229916
 20
98.3272833256
 30
0.0
 10
73.3743639256
 20
98.3556829569
 30
0.0
 10
73.2443778775
 20
98.358973257
 30
0.0
 10
73.1058430665
 20
98.3255185097
 30
0.0
 10
73.0157111954
 20
98.2826400255
 30
0.0
 10
72.9704032522
 20
98.2564816284
 30
0.0
  0
SPLINE
  5
3AB
100
AcDbEntity
  8
0
100
AcDbSpline
 62
7
  6
CONTINUOUS
 70
0
 71
3
 72
17
 73
13
 74
0
 42
0.0000001
 43
0.0000001
 44
0.0000000001
 40
0.0
 40
0.0
 40
0.0
 40
0.0
 40
0.1286891333
 40
0.2702803493
 40
0.4174326844
 40
0.5617743804
 40
0.6954465661
 40
0.8127104963
 40
0.8646756522
 40
0.91250911
 40
0.9571392634
 40
1.0
 40
1.0
 40
1.0
 40
1.0
 10
63.468575743
 20
91.13762687
 30
0.0
 10
63.468575743
 20
91.0521520806
 30
0.0
 10
63.4446630205
 20
90.8724283476
 30
0.0
 10
63.3554171419
 20
90.6085436378
 30
0.0
 10
63.2178893161
 20
90.3543408369
 30
0.0
 10
63.0431409999
 20
90.1306616256
 30
0.0
 10
62.8454484514
 20
89.9555730675
 30
0.0
 10
62.6665090399
 20
89.8577266025
 30
0.0
 10
62.5265336289
 20
89.8204926553
 30
0.0
 10
62.4301960167
 20
89.8133978835
 30
0.0
 10
62.3404896727
 20
89.826544213
 30
0.0
 10
62.2861393548
 20
89.8491270177
 30
0.0
 10
62.2614909265
 20
89.8633705309
 30
0.0
  0
SPLINE
  5
3AC
100
AcDbEntity
  8
0
100
AcDbSpline
 62
7
  6
CONTINUOUS
 70
0
 71
3
 72
14
 73
10
 74
0
 42
0.0000001
 43
0.0000001
 44
0.0000000001
 40
0.0
 40
0.0
 40
0.0
 40
0.0
 40
0.3073528024
 40
0.4495330822
 40
0.5809502866
 40
0.7005080951
 40
0.8084971703
 40
0.9069810094
 40
1.0
 40
1.0
 40
1.0
 40
1.0
 10
65.2456977135
 20
98.8502294474
 30
0.0
 10
65.376053864
 20
99.0364204708
 30
0.0
 10
65.5947526753
 20
99.2916357927
 30
0.0
 10
65.9295953633
 20
99.5622940764
 30
0.0
 10
66.1796376292
 20
99.7128351067
 30
0.0
 10
66.4276802661
 20
99.8113109214
 30
0.0
 10
66.6670117586
 20
99.854105089
 30
0.0
 10
66.8905381653
 20
99.8382951237
 30
0.0
 10
67.0252074249
 20
99.7866667501
 30
0.0
 10
67.0847827166
 20
99.7522787468
 30
0.0
  0
SPLINE
  5
3AD
100
AcDbEntity
  8
0
100
AcDbSpline
 62
7
  6
CONTINUOUS
 70
0
 71
3
 72
13
 73
9
 74
0
 42
0.0000001
 43
0.0000001
 44
0.0000000001
 40
0.0
 40
0.0
 40
0.0
 40
0.0
 40
0.1971755255
 40
0.3136944316
 40
0.4408643973
 40
0.5763832163
 40
0.7171479806
 40
1.0
 40
1.0
 40
1.0
 40
1.0
 10
59.876154413
 20
96.0674501909
 30
0.0
 10
59.9664623214
 20
96.0641426377
 30
0.0
 10
60.1115675887
 20
96.1048495852
 30
0.0
 10
60.2852381851
 20
96.2078187817
 30
0.0
 10
60.4204294165
 20
96.3183198362
 30
0.0
 10
60.5472430302
 20
96.4535029825
 30
0.0
 10
60.699525965
 20
96.6600756175
 30
0.0
 10
60.7881396761
 20
96.835346148
 30
0.0
 10
60.8324551875
 20
96.9571715828
 30
0.0
  0
SPLINE
  5
3AE
100
AcDbEntity
  8
0
100
AcDbSpline
 62
7
  6
CONTINUOUS
 70
0
 71
3
 72
11
 73
7
 74
0
 42
0.0000001
 43
0.0000001
 44
0.0000000001
 40
0.0
 40
0.0
 40
0.0
 40
0.0
 40
0.2602126425
 40
0.5216447479
 40
0.7718142276
 40
1.0
 40
1.0
 40
1.0
 40
1.0
 10
61.312919085
 20
98.2779895386
 30
0.0
 10
61.343386199
 20
98.3617450747
 30
0.0
 10
61.418570052
 20
98.5247915732
 30
0.0
 10
61.5651871247
 20
98.7459921373
 30
0.0
 10
61.7375308139
 20
98.9331975548
 30
0.0
 10
61.8695700716
 20
99.0325479685
 30
0.0
 10
61.9372547159
 20
99.0716254829
 30
0.0
  0
SPLINE
  5
3AF
100
AcDbEntity
  8
0
100
AcDbSpline
 62
7
  6
CONTINUOUS
 70
0
 71
3
 72
17
 73
13
 74
0
 42
0.0000001
 43
0.0000001
 44
0.0000000001
 40
0.0
 40
0.0
 40
0.0
 40
0.0
 40
0.1286891333
 40
0.2702803493
 40
0.4174326844
 40
0.5617743804
 40
0.6954465661
 40
0.8127104963
 40
0.8646756522
 40
0.91250911
 40
0.9571392634
 40
1.0
 40
1.0
 40
1.0
 40
1.0
 10
72.6609256268
 20
94.8117960361
 30
0.0
 10
72.6609256268
 20
94.7263212466
 30
0.0
 10
72.6370129042
 20
94.5465975137
 30
0.0
 10
72.5477670256
 20
94.2827128038
 30
0.0
 10
72.4102391998
 20
94.0285100029
 30
0.0
 10
72.2354908836
 20
93.8048307917
 30
0.0
 10
72.0377983351
 20
93.6297422336
 30
0.0
 10
71.8588589237
 20
93.5318957686
 30
0.0
 10
71.7188835127
 20
93.4946618214
 30
0.0
 10
71.6225459005
 20
93.4875670496
 30
0.0
 10
71.5328395564
 20
93.5007133791
 30
0.0
 10
71.4784892386
 20
93.5232961838
 30
0.0
 10
71.4538408103
 20
93.537539697
 30
0.0
  0
SPLINE
  5
3B0
100
AcDbEntity
  8
0
100
AcDbSpline
 62
7
  6
CONTINUOUS
 70
0
 71
3
 72
11
 73
7
 74
0
 42
0.0000001
 43
0.0000001
 44
0.0000000001
 40
0.0
 40
0.0
 40
0.0
 40
0.0
 40
0.2177651606
 40
0.4508956102
 40
0.7103690052
 40
1.0
 40
1.0
 40
1.0
 40
1.0
 10
72.4538027688
 20
95.2695640675
 30
0.0
 10
72.4867791065
 20
95.2505081302
 30
0.0
 10
72.5485291218
 20
95.1986743521
 30
0.0
 10
72.6142249547
 20
95.0912101947
 30
0.0
 10
72.6532257068
 20
94.9588123669
 30
0.0
 10
72.6609256268
 20
94.8624514212
 30
0.0
 10
72.6609256268
 20
94.8117960361
 30
0.0
  0
SPLINE
  5
3B1
100
AcDbEntity
  8
0
100
AcDbSpline
 62
7
  6
CONTINUOUS
 70
0
 71
3
 72
11
 73
7
 74
0
 42
0.0000001
 43
0.0000001
 44
0.0000000001
 40
0.0
 40
0.0
 40
0.0
 40
0.0
 40
0.2177651606
 40
0.4508956102
 40
0.7103690052
 40
1.0
 40
1.0
 40
1.0
 40
1.0
 10
63.261452885
 20
91.5953949014
 30
0.0
 10
63.2944292227
 20
91.5763389641
 30
0.0
 10
63.3561792381
 20
91.5245051861
 30
0.0
 10
63.4218750709
 20
91.4170410286
 30
0.0
 10
63.4608758231
 20
91.2846432009
 30
0.0
 10
63.468575743
 20
91.1882822551
 30
0.0
 10
63.468575743
 20
91.13762687
 30
0.0
  0
SPLINE
  5
3B2
100
AcDbEntity
  8
0
100
AcDbSpline
 62
7
  6
CONTINUOUS
 70
0
 71
3
 72
11
 73
7
 74
0
 42
0.0000001
 43
0.0000001
 44
0.0000000001
 40
0.0
 40
0.0
 40
0.0
 40
0.0
 40
0.2177839719
 40
0.4509113127
 40
0.7102966775
 40
1.0
 40
1.0
 40
1.0
 40
1.0
 10
67.2641175841
 20
101.9001374456
 30
0.0
 10
67.2300574103
 20
101.9198019653
 30
0.0
 10
67.1517983443
 20
101.9482015967
 30
0.0
 10
67.0218122962
 20
101.9514918967
 30
0.0
 10
66.8832774852
 20
101.9180371494
 30
0.0
 10
66.7931456141
 20
101.8751586653
 30
0.0
 10
66.7478376709
 20
101.8490002682
 30
0.0
  0
SPLINE
  5
3B3
100
AcDbEntity
  8
0
100
AcDbSpline
 62
7
  6
CONTINUOUS
 70
0
 71
3
 72
13
 73
9
 74
0
 42
0.0000001
 43
0.0000001
 44
0.0000000001
 40
0.0
 40
0.0
 40
0.0
 40
0.0
 40
0.1138909752
 40
0.2367486952
 40
0.4983039115
 40
0.7607841315
 40
0.8847255485
 40
1.0
 40
1.0
 40
1.0
 40
1.0
 10
86.6883319201
 20
59.3095191398
 30
0.0
 10
86.7388275681
 20
59.3386726418
 30
0.0
 10
86.8386467228
 20
59.4084282743
 30
0.0
 10
87.0259787866
 20
59.5824736224
 30
0.0
 10
87.2250199503
 20
59.8509821477
 30
0.0
 10
87.362946087
 20
60.1559769246
 30
0.0
 10
87.4249438656
 20
60.4058237769
 30
0.0
 10
87.4381272184
 20
60.5281346286
 30
0.0
 10
87.4395100504
 20
60.5871339706
 30
0.0
  0
SPLINE
  5
3B4
100
AcDbEntity
  8
0
100
AcDbSpline
 62
7
  6
CONTINUOUS
 70
0
 71
3
 72
11
 73
7
 74
0
 42
0.0000001
 43
0.0000001
 44
0.0000000001
 40
0.0
 40
0.0
 40
0.0
 40
0.0
 40
0.2896301972
 40
0.5489894821
 40
0.7821462052
 40
1.0
 40
1.0
 40
1.0
 40
1.0
 10
87.4184743492
 20
89.9161374209
 30
0.0
 10
87.4184160206
 20
89.9683389855
 30
0.0
 10
87.4103921711
 20
90.0676131441
 30
0.0
 10
87.370044063
 20
90.2039940786
 30
0.0
 10
87.302243381
 20
90.3146590153
 30
0.0
 10
87.2386163365
 20
90.3681157896
 30
0.0
 10
87.2046118333
 20
90.3877481681
 30
0.0
  0
SPLINE
  5
3B5
100
AcDbEntity
  8
0
100
AcDbSpline
 62
7
  6
CONTINUOUS
 70
0
 71
3
 72
17
 73
13
 74
0
 42
0.0000001
 43
0.0000001
 44
0.0000000001
 40
0.0
 40
0.0
 40
0.0
 40
0.0
 40
0.1286891333
 40
0.2702803493
 40
0.4174326844
 40
0.5617743804
 40
0.6954465661
 40
0.8127104963
 40
0.8646756522
 40
0.91250911
 40
0.9571392634
 40
1.0
 40
1.0
 40
1.0
 40
1.0
 10
64.458635341
 20
66.8878348742
 30
0.0
 10
64.458635341
 20
66.9733096637
 30
0.0
 10
64.4825480635
 20
67.1530333967
 30
0.0
 10
64.5717939421
 20
67.4169181065
 30
0.0
 10
64.7093217679
 20
67.6711209074
 30
0.0
 10
64.8840700841
 20
67.8948001187
 30
0.0
 10
65.0817626326
 20
68.0698886768
 30
0.0
 10
65.2607020441
 20
68.1677351417
 30
0.0
 10
65.4006774551
 20
68.204969089
 30
0.0
 10
65.4970150672
 20
68.2120638608
 30
0.0
 10
65.5867214113
 20
68.1989175313
 30
0.0
 10
65.6410717292
 20
68.1763347266
 30
0.0
 10
65.6657201575
 20
68.1620912133
 30
0.0
  0
SPLINE
  5
3B6
100
AcDbEntity
  8
0
100
AcDbSpline
 62
7
  6
CONTINUOUS
 70
0
 71
3
 72
17
 73
13
 74
0
 42
0.0000001
 43
0.0000001
 44
0.0000000001
 40
0.0
 40
0.0
 40
0.0
 40
0.0
 40
0.1286891333
 40
0.2702803493
 40
0.4174326844
 40
0.5617743804
 40
0.6954465661
 40
0.8127104963
 40
0.8646756522
 40
0.91250911
 40
0.9571392634
 40
1.0
 40
1.0
 40
1.0
 40
1.0
 10
64.458635341
 20
57.0898058687
 30
0.0
 10
64.458635341
 20
57.1752806581
 30
0.0
 10
64.4825480635
 20
57.3550043911
 30
0.0
 10
64.5717939421
 20
57.618889101
 30
0.0
 10
64.7093217679
 20
57.8730919018
 30
0.0
 10
64.8840700841
 20
58.0967711131
 30
0.0
 10
65.0817626326
 20
58.2718596712
 30
0.0
 10
65.2607020441
 20
58.3697061362
 30
0.0
 10
65.4006774551
 20
58.4069400834
 30
0.0
 10
65.4970150672
 20
58.4140348552
 30
0.0
 10
65.5867214113
 20
58.4008885257
 30
0.0
 10
65.6410717292
 20
58.378305721
 30
0.0
 10
65.6657201575
 20
58.3640622078
 30
0.0
  0
SPLINE
  5
3B7
100
AcDbEntity
  8
0
100
AcDbSpline
 62
7
  6
CONTINUOUS
 70
0
 71
3
 72
17
 73
13
 74
0
 42
0.0000001
 43
0.0000001
 44
0.0000000001
 40
0.0
 40
0.0
 40
0.0
 40
0.0
 40
0.1286891333
 40
0.2702803493
 40
0.4174326844
 40
0.5617743804
 40
0.6954465661
 40
0.8127104963
 40
0.8646756522
 40
0.91250911
 40
0.9571392634
 40
1.0
 40
1.0
 40
1.0
 40
1.0
 10
75.7722967364
 20
54.6401857422
 30
0.0
 10
75.7722967364
 20
54.7256605317
 30
0.0
 10
75.796209459
 20
54.9053842646
 30
0.0
 10
75.8854553376
 20
55.1692689745
 30
0.0
 10
76.0229831634
 20
55.4234717754
 30
0.0
 10
76.1977314796
 20
55.6471509866
 30
0.0
 10
76.395424028
 20
55.8222395447
 30
0.0
 10
76.5743634395
 20
55.9200860097
 30
0.0
 10
76.7143388505
 20
55.9573199569
 30
0.0
 10
76.8106764627
 20
55.9644147287
 30
0.0
 10
76.9003828067
 20
55.9512683992
 30
0.0
 10
76.9547331246
 20
55.9286855945
 30
0.0
 10
76.9793815529
 20
55.9144420813
 30
0.0
  0
SPLINE
  5
3B8
100
AcDbEntity
  8
0
100
AcDbSpline
 62
7
  6
CONTINUOUS
 70
0
 71
3
 72
17
 73
13
 74
0
 42
0.0000001
 43
0.0000001
 44
0.0000000001
 40
0.0
 40
0.0
 40
0.0
 40
0.0
 40
0.1286891333
 40
0.2702803493
 40
0.4174326844
 40
0.5617743804
 40
0.6954465661
 40
0.8127104963
 40
0.8646756522
 40
0.91250911
 40
0.9571392634
 40
1.0
 40
1.0
 40
1.0
 40
1.0
 10
75.7722967364
 20
82.4012679246
 30
0.0
 10
75.7722967364
 20
82.4867427141
 30
0.0
 10
75.796209459
 20
82.666466447
 30
0.0
 10
75.8854553376
 20
82.9303511569
 30
0.0
 10
76.0229831634
 20
83.1845539578
 30
0.0
 10
76.1977314796
 20
83.408233169
 30
0.0
 10
76.395424028
 20
83.5833217271
 30
0.0
 10
76.5743634395
 20
83.6811681921
 30
0.0
 10
76.7143388505
 20
83.7184021394
 30
0.0
 10
76.8106764627
 20
83.7254969111
 30
0.0
 10
76.9003828067
 20
83.7123505816
 30
0.0
 10
76.9547331246
 20
83.6897677769
 30
0.0
 10
76.9793815529
 20
83.6755242637
 30
0.0
  0
SPLINE
  5
3B9
100
AcDbEntity
  8
0
100
AcDbSpline
 62
7
  6
CONTINUOUS
 70
0
 71
3
 72
17
 73
13
 74
0
 42
0.0000001
 43
0.0000001
 44
0.0000000001
 40
0.0
 40
0.0
 40
0.0
 40
0.0
 40
0.1286891333
 40
0.2702803493
 40
0.4174326844
 40
0.5617743804
 40
0.6954465661
 40
0.8127104963
 40
0.8646756522
 40
0.91250911
 40
0.9571392634
 40
1.0
 40
1.0
 40
1.0
 40
1.0
 10
84.9646466202
 20
86.0754370907
 30
0.0
 10
84.9646466202
 20
86.1609118801
 30
0.0
 10
84.9885593427
 20
86.3406356131
 30
0.0
 10
85.0778052213
 20
86.6045203229
 30
0.0
 10
85.2153330471
 20
86.8587231238
 30
0.0
 10
85.3900813633
 20
87.0824023351
 30
0.0
 10
85.5877739118
 20
87.2574908932
 30
0.0
 10
85.7667133233
 20
87.3553373582
 30
0.0
 10
85.9066887343
 20
87.3925713054
 30
0.0
 10
86.0030263464
 20
87.3996660772
 30
0.0
 10
86.0927326905
 20
87.3865197477
 30
0.0
 10
86.1470830084
 20
87.363936943
 30
0.0
 10
86.1717314367
 20
87.3496934298
 30
0.0
  0
SPLINE
  5
3BA
100
AcDbEntity
  8
0
100
AcDbSpline
 62
7
  6
CONTINUOUS
 70
0
 71
3
 72
17
 73
13
 74
0
 42
0.0000001
 43
0.0000001
 44
0.0000000001
 40
0.0
 40
0.0
 40
0.0
 40
0.0
 40
0.1286891333
 40
0.2702803493
 40
0.4174326844
 40
0.5617743804
 40
0.6954465661
 40
0.8127104963
 40
0.8646756522
 40
0.91250911
 40
0.9571392634
 40
1.0
 40
1.0
 40
1.0
 40
1.0
 10
84.257542783
 20
77.0939175569
 30
0.0
 10
84.257542783
 20
77.1793923464
 30
0.0
 10
84.2814555055
 20
77.3591160794
 30
0.0
 10
84.3707013841
 20
77.6230007892
 30
0.0
 10
84.5082292099
 20
77.8772035901
 30
0.0
 10
84.6829775261
 20
78.1008828014
 30
0.0
 10
84.8806700746
 20
78.2759713595
 30
0.0
 10
85.0596094861
 20
78.3738178244
 30
0.0
 10
85.1995848971
 20
78.4110517717
 30
0.0
 10
85.2959225092
 20
78.4181465435
 30
0.0
 10
85.3856288533
 20
78.405000214
 30
0.0
 10
85.4399791712
 20
78.3824174093
 30
0.0
 10
85.4646275994
 20
78.368173896
 30
0.0
  0
SPLINE
  5
3BB
100
AcDbEntity
  8
0
100
AcDbSpline
 62
7
  6
CONTINUOUS
 70
0
 71
3
 72
17
 73
13
 74
0
 42
0.0000001
 43
0.0000001
 44
0.0000000001
 40
0.0
 40
0.0
 40
0.0
 40
0.0
 40
0.1286891333
 40
0.2702803493
 40
0.4174326844
 40
0.5617743804
 40
0.6954465661
 40
0.8127104963
 40
0.8646756522
 40
0.91250911
 40
0.9571392634
 40
1.0
 40
1.0
 40
1.0
 40
1.0
 10
84.257542783
 20
69.7453958028
 30
0.0
 10
84.257542783
 20
69.8308705922
 30
0.0
 10
84.2814555055
 20
70.0105943252
 30
0.0
 10
84.3707013841
 20
70.274479035
 30
0.0
 10
84.5082292099
 20
70.5286818359
 30
0.0
 10
84.6829775261
 20
70.7523610472
 30
0.0
 10
84.8806700746
 20
70.9274496053
 30
0.0
 10
85.0596094861
 20
71.0252960703
 30
0.0
 10
85.1995848971
 20
71.0625300175
 30
0.0
 10
85.2959225092
 20
71.0696247893
 30
0.0
 10
85.3856288533
 20
71.0564784598
 30
0.0
 10
85.4399791712
 20
71.0338956551
 30
0.0
 10
85.4646275994
 20
71.0196521419
 30
0.0
  0
SPLINE
  5
3BC
100
AcDbEntity
  8
0
100
AcDbSpline
 62
7
  6
CONTINUOUS
 70
0
 71
3
 72
11
 73
7
 74
0
 42
0.0000001
 43
0.0000001
 44
0.0000000001
 40
0.0
 40
0.0
 40
0.0
 40
0.0
 40
0.2177651606
 40
0.4508956102
 40
0.7103690052
 40
1.0
 40
1.0
 40
1.0
 40
1.0
 10
84.464665641
 20
76.6361495256
 30
0.0
 10
84.4316893033
 20
76.6552054628
 30
0.0
 10
84.3699392879
 20
76.7070392409
 30
0.0
 10
84.3042434551
 20
76.8145033983
 30
0.0
 10
84.2652427029
 20
76.9469012261
 30
0.0
 10
84.257542783
 20
77.0432621718
 30
0.0
 10
84.257542783
 20
77.0939175569
 30
0.0
  0
SPLINE
  5
3BD
100
AcDbEntity
  8
0
100
AcDbSpline
 62
7
  6
CONTINUOUS
 70
0
 71
3
 72
11
 73
7
 74
0
 42
0.0000001
 43
0.0000001
 44
0.0000000001
 40
0.0
 40
0.0
 40
0.0
 40
0.0
 40
0.2177651606
 40
0.4508956102
 40
0.7103690052
 40
1.0
 40
1.0
 40
1.0
 40
1.0
 10
85.1717694782
 20
85.6176690593
 30
0.0
 10
85.1387931405
 20
85.6367249966
 30
0.0
 10
85.0770431251
 20
85.6885587746
 30
0.0
 10
85.0113472923
 20
85.7960229321
 30
0.0
 10
84.9723465401
 20
85.9284207598
 30
0.0
 10
84.9646466202
 20
86.0247817056
 30
0.0
 10
84.9646466202
 20
86.0754370907
 30
0.0
  0
SPLINE
  5
3BE
100
AcDbEntity
  8
0
100
AcDbSpline
 62
7
  6
CONTINUOUS
 70
0
 71
3
 72
11
 73
7
 74
0
 42
0.0000001
 43
0.0000001
 44
0.0000000001
 40
0.0
 40
0.0
 40
0.0
 40
0.0
 40
0.2177651606
 40
0.4508956102
 40
0.7103690052
 40
1.0
 40
1.0
 40
1.0
 40
1.0
 10
75.9794195944
 20
81.9434998932
 30
0.0
 10
75.9464432567
 20
81.9625558305
 30
0.0
 10
75.8846932413
 20
82.0143896086
 30
0.0
 10
75.8189974085
 20
82.121853766
 30
0.0
 10
75.7799966564
 20
82.2542515938
 30
0.0
 10
75.7722967364
 20
82.3506125395
 30
0.0
 10
75.7722967364
 20
82.4012679246
 30
0.0
  0
SPLINE
  5
3BF
100
AcDbEntity
  8
0
100
AcDbSpline
 62
7
  6
CONTINUOUS
 70
0
 71
3
 72
11
 73
7
 74
0
 42
0.0000001
 43
0.0000001
 44
0.0000000001
 40
0.0
 40
0.0
 40
0.0
 40
0.0
 40
0.2177651606
 40
0.4508956102
 40
0.7103690052
 40
1.0
 40
1.0
 40
1.0
 40
1.0
 10
75.9794195944
 20
54.1824177108
 30
0.0
 10
75.9464432567
 20
54.2014736481
 30
0.0
 10
75.8846932413
 20
54.2533074262
 30
0.0
 10
75.8189974085
 20
54.3607715836
 30
0.0
 10
75.7799966564
 20
54.4931694114
 30
0.0
 10
75.7722967364
 20
54.5895303571
 30
0.0
 10
75.7722967364
 20
54.6401857422
 30
0.0
  0
SPLINE
  5
3C0
100
AcDbEntity
  8
0
100
AcDbSpline
 62
7
  6
CONTINUOUS
 70
0
 71
3
 72
11
 73
7
 74
0
 42
0.0000001
 43
0.0000001
 44
0.0000000001
 40
0.0
 40
0.0
 40
0.0
 40
0.0
 40
0.2177651606
 40
0.4508956102
 40
0.7103690052
 40
1.0
 40
1.0
 40
1.0
 40
1.0
 10
64.665758199
 20
56.6320378373
 30
0.0
 10
64.6327818613
 20
56.6510937746
 30
0.0
 10
64.5710318459
 20
56.7029275527
 30
0.0
 10
64.5053360131
 20
56.8103917101
 30
0.0
 10
64.4663352609
 20
56.9427895378
 30
0.0
 10
64.458635341
 20
57.0391504836
 30
0.0
 10
64.458635341
 20
57.0898058687
 30
0.0
  0
SPLINE
  5
3C1
100
AcDbEntity
  8
0
100
AcDbSpline
 62
7
  6
CONTINUOUS
 70
0
 71
3
 72
11
 73
7
 74
0
 42
0.0000001
 43
0.0000001
 44
0.0000000001
 40
0.0
 40
0.0
 40
0.0
 40
0.0
 40
0.2177651606
 40
0.4508956102
 40
0.7103690052
 40
1.0
 40
1.0
 40
1.0
 40
1.0
 10
64.665758199
 20
66.4300668429
 30
0.0
 10
64.6327818613
 20
66.4491227801
 30
0.0
 10
64.5710318459
 20
66.5009565582
 30
0.0
 10
64.5053360131
 20
66.6084207156
 30
0.0
 10
64.4663352609
 20
66.7408185434
 30
0.0
 10
64.458635341
 20
66.8371794891
 30
0.0
 10
64.458635341
 20
66.8878348742
 30
0.0
  0
SPLINE
  5
3C2
100
AcDbEntity
  8
0
100
AcDbSpline
 62
7
  6
CONTINUOUS
 70
0
 71
3
 72
11
 73
7
 74
0
 42
0.0000001
 43
0.0000001
 44
0.0000000001
 40
0.0
 40
0.0
 40
0.0
 40
0.0
 40
0.2177821605
 40
0.4509085882
 40
0.7102951949
 40
1.0
 40
1.0
 40
1.0
 40
1.0
 10
61.7049071682
 20
48.2103603954
 30
0.0
 10
61.7049071565
 20
48.1684635916
 30
0.0
 10
61.6894244094
 20
48.0811374567
 30
0.0
 10
61.6232228151
 20
47.9594639856
 30
0.0
 10
61.5185673794
 20
47.8494759099
 30
0.0
 10
61.4309998284
 20
47.7891620607
 30
0.0
 10
61.3827333547
 20
47.7612955654
 30
0.0
  0
SPLINE
  5
3C3
100
AcDbEntity
  8
0
100
AcDbSpline
 62
7
  6
CONTINUOUS
 70
0
 71
3
 72
11
 73
7
 74
0
 42
0.0000001
 43
0.0000001
 44
0.0000000001
 40
0.0
 40
0.0
 40
0.0
 40
0.0
 40
0.2177839237
 40
0.4509111717
 40
0.7102971901
 40
1.0
 40
1.0
 40
1.0
 40
1.0
 10
61.7666182417
 20
48.3037099276
 30
0.0
 10
61.7996037993
 20
48.2846661545
 30
0.0
 10
61.8753931875
 20
48.2571622321
 30
0.0
 10
62.0012778105
 20
48.2539759336
 30
0.0
 10
62.1354411646
 20
48.2863751811
 30
0.0
 10
62.222729062
 20
48.3279005506
 30
0.0
 10
62.2666072633
 20
48.3532334908
 30
0.0
  0
SPLINE
  5
3C4
100
AcDbEntity
  8
0
100
AcDbSpline
 62
7
  6
CONTINUOUS
 70
0
 71
3
 72
11
 73
7
 74
0
 42
0.0000001
 43
0.0000001
 44
0.0000000001
 40
0.0
 40
0.0
 40
0.0
 40
0.0
 40
0.2177651606
 40
0.4508956102
 40
0.7103690052
 40
1.0
 40
1.0
 40
1.0
 40
1.0
 10
84.464665641
 20
69.2876277714
 30
0.0
 10
84.4316893033
 20
69.3066837087
 30
0.0
 10
84.3699392879
 20
69.3585174868
 30
0.0
 10
84.3042434551
 20
69.4659816442
 30
0.0
 10
84.2652427029
 20
69.5983794719
 30
0.0
 10
84.257542783
 20
69.6947404177
 30
0.0
 10
84.257542783
 20
69.7453958028
 30
0.0
  0
SPLINE
  5
3C5
100
AcDbEntity
  8
0
100
AcDbSpline
 62
7
  6
CONTINUOUS
 70
0
 71
3
 72
11
 73
7
 74
0
 42
0.0000001
 43
0.0000001
 44
0.0000000001
 40
0.0
 40
0.0
 40
0.0
 40
0.0
 40
0.2897033215
 40
0.5490886161
 40
0.7822159834
 40
1.0
 40
1.0
 40
1.0
 40
1.0
 10
79.6879456411
 20
94.3781944605
 30
0.0
 10
79.7332535843
 20
94.4043528575
 30
0.0
 10
79.8233854369
 20
94.4472313515
 30
0.0
 10
79.961920246
 20
94.480686086
 30
0.0
 10
80.0919062873
 20
94.4773957847
 30
0.0
 10
80.1701653823
 20
94.4489961772
 30
0.0
 10
80.2042255542
 20
94.4293316378
 30
0.0
  0
SPLINE
  5
3C6
100
AcDbEntity
  8
0
100
AcDbSpline
 62
7
  6
CONTINUOUS
 70
0
 71
3
 72
14
 73
10
 74
0
 42
0.0000001
 43
0.0000001
 44
0.0000000001
 40
0.0
 40
0.0
 40
0.0
 40
0.0
 40
0.3070181082
 40
0.4481412922
 40
0.5785547088
 40
0.697577136
 40
0.8058101006
 40
0.9053589453
 40
1.0
 40
1.0
 40
1.0
 40
1.0
 10
84.5986466554
 20
62.8841457075
 30
0.0
 10
84.6630078146
 20
62.9662712247
 30
0.0
 10
84.7688026668
 20
63.078042056
 30
0.0
 10
84.9276745862
 20
63.1946025902
 30
0.0
 10
85.044787563
 20
63.2581298612
 30
0.0
 10
85.1601780096
 20
63.2982918959
 30
0.0
 10
85.2710358817
 20
63.3138430574
 30
0.0
 10
85.3743995931
 20
63.3035999104
 30
0.0
 10
85.4367731788
 20
63.2789544184
 30
0.0
 10
85.4646217115
 20
63.2628616704
 30
0.0
  0
SPLINE
  5
3C7
100
AcDbEntity
  8
0
100
AcDbSpline
 62
7
  6
CONTINUOUS
 70
0
 71
3
 72
11
 73
7
 74
0
 42
0.0000001
 43
0.0000001
 44
0.0000000001
 40
0.0
 40
0.0
 40
0.0
 40
0.0
 40
0.2897033215
 40
0.5490886161
 40
0.7822159834
 40
1.0
 40
1.0
 40
1.0
 40
1.0
 10
85.4508899011
 20
91.0510323111
 30
0.0
 10
85.4961978443
 20
91.0771907082
 30
0.0
 10
85.5863296969
 20
91.1200692022
 30
0.0
 10
85.7248645059
 20
91.1535239367
 30
0.0
 10
85.8548505473
 20
91.1502336354
 30
0.0
 10
85.9331096423
 20
91.1218340278
 30
0.0
 10
85.9671698142
 20
91.1021694884
 30
0.0
  0
SPLINE
  5
3C8
100
AcDbEntity
  8
0
100
AcDbSpline
 62
7
  6
CONTINUOUS
 70
0
 71
3
 72
11
 73
7
 74
0
 42
0.0000001
 43
0.0000001
 44
0.0000000001
 40
0.0
 40
0.0
 40
0.0
 40
0.0
 40
0.2896301972
 40
0.5489894821
 40
0.7821462052
 40
1.0
 40
1.0
 40
1.0
 40
1.0
 10
81.1959087679
 20
93.5086560607
 30
0.0
 10
81.1958504393
 20
93.5608576253
 30
0.0
 10
81.1878265898
 20
93.6601317839
 30
0.0
 10
81.1474784817
 20
93.7965127184
 30
0.0
 10
81.0796777997
 20
93.9071776551
 30
0.0
 10
81.0160507552
 20
93.9606344294
 30
0.0
 10
80.982046252
 20
93.9802668079
 30
0.0
  0
SPLINE
  5
3C9
100
AcDbEntity
  8
0
100
AcDbSpline
 62
7
  6
CONTINUOUS
 70
0
 71
3
 72
11
 73
7
 74
0
 42
0.0000001
 43
0.0000001
 44
0.0000000001
 40
0.0
 40
0.0
 40
0.0
 40
0.0
 40
0.2177839719
 40
0.4509113127
 40
0.7102966775
 40
1.0
 40
1.0
 40
1.0
 40
1.0
 10
87.2046118333
 20
90.3877481681
 30
0.0
 10
87.1705516595
 20
90.4074126879
 30
0.0
 10
87.0922925934
 20
90.4358123192
 30
0.0
 10
86.9623065453
 20
90.4391026193
 30
0.0
 10
86.8237717344
 20
90.405647872
 30
0.0
 10
86.7336398633
 20
90.3627693878
 30
0.0
 10
86.6883319201
 20
90.3366109907
 30
0.0
  0
SPLINE
  5
3CA
100
AcDbEntity
  8
0
100
AcDbSpline
 62
7
  6
CONTINUOUS
 70
0
 71
3
 72
11
 73
7
 74
0
 42
0.0000001
 43
0.0000001
 44
0.0000000001
 40
0.0
 40
0.0
 40
0.0
 40
0.0
 40
0.2177651606
 40
0.4508956102
 40
0.7103690052
 40
1.0
 40
1.0
 40
1.0
 40
1.0
 10
65.6657201575
 20
58.3640622078
 30
0.0
 10
65.6986964952
 20
58.3450062705
 30
0.0
 10
65.7604465105
 20
58.2931724924
 30
0.0
 10
65.8261423433
 20
58.185708335
 30
0.0
 10
65.8651430955
 20
58.0533105072
 30
0.0
 10
65.8728430154
 20
57.9569495615
 30
0.0
 10
65.8728430154
 20
57.9062941764
 30
0.0
  0
SPLINE
  5
3CB
100
AcDbEntity
  8
0
100
AcDbSpline
 62
7
  6
CONTINUOUS
 70
0
 71
3
 72
17
 73
13
 74
0
 42
0.0000001
 43
0.0000001
 44
0.0000000001
 40
0.0
 40
0.0
 40
0.0
 40
0.0
 40
0.1286891333
 40
0.2702803493
 40
0.4174326844
 40
0.5617743804
 40
0.6954465661
 40
0.8127104963
 40
0.8646756522
 40
0.91250911
 40
0.9571392634
 40
1.0
 40
1.0
 40
1.0
 40
1.0
 10
77.1865044108
 20
83.2177562323
 30
0.0
 10
77.1865044108
 20
83.1322814429
 30
0.0
 10
77.1625916883
 20
82.9525577099
 30
0.0
 10
77.0733458097
 20
82.6886730001
 30
0.0
 10
76.9358179839
 20
82.4344701992
 30
0.0
 10
76.7610696677
 20
82.2107909879
 30
0.0
 10
76.5633771192
 20
82.0357024298
 30
0.0
 10
76.3844377078
 20
81.9378559649
 30
0.0
 10
76.2444622968
 20
81.9006220176
 30
0.0
 10
76.1481246846
 20
81.8935272458
 30
0.0
 10
76.0584183405
 20
81.9066735753
 30
0.0
 10
76.0040680227
 20
81.92925638
 30
0.0
 10
75.9794195944
 20
81.9434998932
 30
0.0
  0
SPLINE
  5
3CC
100
AcDbEntity
  8
0
100
AcDbSpline
 62
7
  6
CONTINUOUS
 70
0
 71
3
 72
11
 73
7
 74
0
 42
0.0000001
 43
0.0000001
 44
0.0000000001
 40
0.0
 40
0.0
 40
0.0
 40
0.0
 40
0.2177651606
 40
0.4508956102
 40
0.7103690052
 40
1.0
 40
1.0
 40
1.0
 40
1.0
 10
65.6657201575
 20
68.1620912133
 30
0.0
 10
65.6986964952
 20
68.1430352761
 30
0.0
 10
65.7604465105
 20
68.091201498
 30
0.0
 10
65.8261423433
 20
67.9837373406
 30
0.0
 10
65.8651430955
 20
67.8513395128
 30
0.0
 10
65.8728430154
 20
67.7549785671
 30
0.0
 10
65.8728430154
 20
67.704323182
 30
0.0
  0
SPLINE
  5
3CD
100
AcDbEntity
  8
0
100
AcDbSpline
 62
7
  6
CONTINUOUS
 70
0
 71
3
 72
11
 73
7
 74
0
 42
0.0000001
 43
0.0000001
 44
0.0000000001
 40
0.0
 40
0.0
 40
0.0
 40
0.0
 40
0.2613813841
 40
0.5221962538
 40
0.7715565655
 40
1.0
 40
1.0
 40
1.0
 40
1.0
 10
84.6232992622
 20
62.3175078777
 30
0.0
 10
84.6752192737
 20
62.3837262564
 30
0.0
 10
84.7689475866
 20
62.5241432123
 30
0.0
 10
84.8760967045
 20
62.7491894843
 30
0.0
 10
84.9451530342
 20
62.9776790518
 30
0.0
 10
84.9639487149
 20
63.1315089935
 30
0.0
 10
84.9645981493
 20
63.2050485381
 30
0.0
  0
SPLINE
  5
3CE
100
AcDbEntity
  8
0
100
AcDbSpline
 62
7
  6
CONTINUOUS
 70
0
 71
3
 72
14
 73
10
 74
0
 42
0.0000001
 43
0.0000001
 44
0.0000000001
 40
0.0
 40
0.0
 40
0.0
 40
0.0
 40
0.3073528024
 40
0.4495330822
 40
0.5809502866
 40
0.7005080951
 40
0.8084971703
 40
0.9069810094
 40
1.0
 40
1.0
 40
1.0
 40
1.0
 10
78.9636263814
 20
90.9303588097
 30
0.0
 10
79.0939825318
 20
91.1165498331
 30
0.0
 10
79.3126813432
 20
91.371765155
 30
0.0
 10
79.6475240312
 20
91.6424234387
 30
0.0
 10
79.8975662971
 20
91.792964469
 30
0.0
 10
80.145608934
 20
91.8914402837
 30
0.0
 10
80.3849404265
 20
91.9342344513
 30
0.0
 10
80.6084668331
 20
91.918424486
 30
0.0
 10
80.7431360927
 20
91.8667961124
 30
0.0
 10
80.8027113845
 20
91.8324081091
 30
0.0
  0
SPLINE
  5
3CF
100
AcDbEntity
  8
0
100
AcDbSpline
 62
7
  6
CONTINUOUS
 70
0
 71
3
 72
13
 73
9
 74
0
 42
0.0000001
 43
0.0000001
 44
0.0000000001
 40
0.0
 40
0.0
 40
0.0
 40
0.0
 40
0.1971755255
 40
0.3136944316
 40
0.4408643973
 40
0.5763832163
 40
0.7171479806
 40
1.0
 40
1.0
 40
1.0
 40
1.0
 10
73.5940830809
 20
88.1475795532
 30
0.0
 10
73.6843909892
 20
88.144272
 30
0.0
 10
73.8294962565
 20
88.1849789475
 30
0.0
 10
74.0031668529
 20
88.287948144
 30
0.0
 10
74.1383580843
 20
88.3984491985
 30
0.0
 10
74.2651716981
 20
88.5336323448
 30
0.0
 10
74.4174546328
 20
88.7402049798
 30
0.0
 10
74.5060683439
 20
88.9154755103
 30
0.0
 10
74.5503838553
 20
89.0373009451
 30
0.0
  0
SPLINE
  5
3D0
100
AcDbEntity
  8
0
100
AcDbSpline
 62
7
  6
CONTINUOUS
 70
0
 71
3
 72
11
 73
7
 74
0
 42
0.0000001
 43
0.0000001
 44
0.0000000001
 40
0.0
 40
0.0
 40
0.0
 40
0.0
 40
0.2602126425
 40
0.5216447479
 40
0.7718142276
 40
1.0
 40
1.0
 40
1.0
 40
1.0
 10
75.0308477528
 20
90.3581189009
 30
0.0
 10
75.0613148669
 20
90.441874437
 30
0.0
 10
75.1364987198
 20
90.6049209355
 30
0.0
 10
75.2831157926
 20
90.8261214996
 30
0.0
 10
75.4554594818
 20
91.0133269171
 30
0.0
 10
75.5874987395
 20
91.1126773308
 30
0.0
 10
75.6551833838
 20
91.1517548452
 30
0.0
  0
SPLINE
  5
3D1
100
AcDbEntity
  8
0
100
AcDbSpline
 62
7
  6
CONTINUOUS
 70
0
 71
3
 72
11
 73
7
 74
0
 42
0.0000001
 43
0.0000001
 44
0.0000000001
 40
0.0
 40
0.0
 40
0.0
 40
0.0
 40
0.2177651606
 40
0.4508956102
 40
0.7103690052
 40
1.0
 40
1.0
 40
1.0
 40
1.0
 10
85.4646275994
 20
71.0196521419
 30
0.0
 10
85.4976039371
 20
71.0005962046
 30
0.0
 10
85.5593539525
 20
70.9487624265
 30
0.0
 10
85.6250497853
 20
70.8412982691
 30
0.0
 10
85.6640505375
 20
70.7089004413
 30
0.0
 10
85.6717504574
 20
70.6125394956
 30
0.0
 10
85.6717504574
 20
70.5618841105
 30
0.0
  0
SPLINE
  5
3D2
100
AcDbEntity
  8
0
100
AcDbSpline
 62
7
  6
CONTINUOUS
 70
0
 71
3
 72
11
 73
7
 74
0
 42
0.0000001
 43
0.0000001
 44
0.0000000001
 40
0.0
 40
0.0
 40
0.0
 40
0.0
 40
0.2177651606
 40
0.4508956102
 40
0.7103690052
 40
1.0
 40
1.0
 40
1.0
 40
1.0
 10
85.4646217115
 20
63.2628616704
 30
0.0
 10
85.4975980492
 20
63.2438057331
 30
0.0
 10
85.5593480645
 20
63.1919719551
 30
0.0
 10
85.6250438974
 20
63.0845077976
 30
0.0
 10
85.6640446495
 20
62.9521099699
 30
0.0
 10
85.6717445695
 20
62.8557490241
 30
0.0
 10
85.6717445695
 20
62.805093639
 30
0.0
  0
SPLINE
  5
3D3
100
AcDbEntity
  8
0
100
AcDbSpline
 62
7
  6
CONTINUOUS
 70
0
 71
3
 72
11
 73
7
 74
0
 42
0.0000001
 43
0.0000001
 44
0.0000000001
 40
0.0
 40
0.0
 40
0.0
 40
0.0
 40
0.2177651606
 40
0.4508956102
 40
0.7103690052
 40
1.0
 40
1.0
 40
1.0
 40
1.0
 10
85.4646275994
 20
78.368173896
 30
0.0
 10
85.4976039371
 20
78.3491179588
 30
0.0
 10
85.5593539525
 20
78.2972841807
 30
0.0
 10
85.6250497853
 20
78.1898200233
 30
0.0
 10
85.6640505375
 20
78.0574221955
 30
0.0
 10
85.6717504574
 20
77.9610612498
 30
0.0
 10
85.6717504574
 20
77.9104058647
 30
0.0
  0
SPLINE
  5
3D4
100
AcDbEntity
  8
0
100
AcDbSpline
 62
7
  6
CONTINUOUS
 70
0
 71
3
 72
17
 73
13
 74
0
 42
0.0000001
 43
0.0000001
 44
0.0000000001
 40
0.0
 40
0.0
 40
0.0
 40
0.0
 40
0.1286891333
 40
0.2702803493
 40
0.4174326844
 40
0.5617743804
 40
0.6954465661
 40
0.8127104963
 40
0.8646756522
 40
0.91250911
 40
0.9571392634
 40
1.0
 40
1.0
 40
1.0
 40
1.0
 10
86.3788542946
 20
86.8919253984
 30
0.0
 10
86.3788542946
 20
86.806450609
 30
0.0
 10
86.3549415721
 20
86.626726876
 30
0.0
 10
86.2656956935
 20
86.3628421661
 30
0.0
 10
86.1281678677
 20
86.1086393652
 30
0.0
 10
85.9534195515
 20
85.884960154
 30
0.0
 10
85.755727003
 20
85.7098715959
 30
0.0
 10
85.5767875915
 20
85.6120251309
 30
0.0
 10
85.4368121805
 20
85.5747911837
 30
0.0
 10
85.3404745684
 20
85.5676964119
 30
0.0
 10
85.2507682243
 20
85.5808427414
 30
0.0
 10
85.1964179064
 20
85.6034255461
 30
0.0
 10
85.1717694782
 20
85.6176690593
 30
0.0
  0
SPLINE
  5
3D5
100
AcDbEntity
  8
0
100
AcDbSpline
 62
7
  6
CONTINUOUS
 70
0
 71
3
 72
17
 73
13
 74
0
 42
0.0000001
 43
0.0000001
 44
0.0000000001
 40
0.0
 40
0.0
 40
0.0
 40
0.0
 40
0.1286891333
 40
0.2702803493
 40
0.4174326844
 40
0.5617743804
 40
0.6954465661
 40
0.8127104963
 40
0.8646756522
 40
0.91250911
 40
0.9571392634
 40
1.0
 40
1.0
 40
1.0
 40
1.0
 10
85.6717504574
 20
77.9104058647
 30
0.0
 10
85.6717504574
 20
77.8249310752
 30
0.0
 10
85.6478377349
 20
77.6452073423
 30
0.0
 10
85.5585918563
 20
77.3813226324
 30
0.0
 10
85.4210640305
 20
77.1271198315
 30
0.0
 10
85.2463157143
 20
76.9034406202
 30
0.0
 10
85.0486231658
 20
76.7283520621
 30
0.0
 10
84.8696837543
 20
76.6305055972
 30
0.0
 10
84.7297083433
 20
76.5932716499
 30
0.0
 10
84.6333707312
 20
76.5861768781
 30
0.0
 10
84.5436643871
 20
76.5993232077
 30
0.0
 10
84.4893140692
 20
76.6219060123
 30
0.0
 10
84.464665641
 20
76.6361495256
 30
0.0
  0
SPLINE
  5
3D6
100
AcDbEntity
  8
0
100
AcDbSpline
 62
7
  6
CONTINUOUS
 70
0
 71
3
 72
17
 73
13
 74
0
 42
0.0000001
 43
0.0000001
 44
0.0000000001
 40
0.0
 40
0.0
 40
0.0
 40
0.0
 40
0.1286891333
 40
0.2702803493
 40
0.4174326844
 40
0.5617743804
 40
0.6954465661
 40
0.8127104963
 40
0.8646756522
 40
0.91250911
 40
0.9571392634
 40
1.0
 40
1.0
 40
1.0
 40
1.0
 10
65.8728430154
 20
67.704323182
 30
0.0
 10
65.8728430154
 20
67.6188483925
 30
0.0
 10
65.8489302929
 20
67.4391246595
 30
0.0
 10
65.7596844143
 20
67.1752399497
 30
0.0
 10
65.6221565885
 20
66.9210371488
 30
0.0
 10
65.4474082723
 20
66.6973579375
 30
0.0
 10
65.2497157238
 20
66.5222693794
 30
0.0
 10
65.0707763123
 20
66.4244229145
 30
0.0
 10
64.9308009013
 20
66.3871889672
 30
0.0
 10
64.8344632892
 20
66.3800941954
 30
0.0
 10
64.7447569451
 20
66.3932405249
 30
0.0
 10
64.6904066272
 20
66.4158233296
 30
0.0
 10
64.665758199
 20
66.4300668429
 30
0.0
  0
SPLINE
  5
3D7
100
AcDbEntity
  8
0
100
AcDbSpline
 62
7
  6
CONTINUOUS
 70
0
 71
3
 72
17
 73
13
 74
0
 42
0.0000001
 43
0.0000001
 44
0.0000000001
 40
0.0
 40
0.0
 40
0.0
 40
0.0
 40
0.1286891333
 40
0.2702803493
 40
0.4174326844
 40
0.5617743804
 40
0.6954465661
 40
0.8127104963
 40
0.8646756522
 40
0.91250911
 40
0.9571392634
 40
1.0
 40
1.0
 40
1.0
 40
1.0
 10
85.6717504574
 20
70.5618841105
 30
0.0
 10
85.6717504574
 20
70.4764093211
 30
0.0
 10
85.6478377349
 20
70.2966855881
 30
0.0
 10
85.5585918563
 20
70.0328008782
 30
0.0
 10
85.4210640305
 20
69.7785980773
 30
0.0
 10
85.2463157143
 20
69.5549188661
 30
0.0
 10
85.0486231658
 20
69.379830308
 30
0.0
 10
84.8696837543
 20
69.281983843
 30
0.0
 10
84.7297083433
 20
69.2447498958
 30
0.0
 10
84.6333707312
 20
69.237655124
 30
0.0
 10
84.5436643871
 20
69.2508014535
 30
0.0
 10
84.4893140692
 20
69.2733842582
 30
0.0
 10
84.464665641
 20
69.2876277714
 30
0.0
  0
SPLINE
  5
3D8
100
AcDbEntity
  8
0
100
AcDbSpline
 62
7
  6
CONTINUOUS
 70
0
 71
3
 72
9
 73
5
 74
0
 42
0.0000001
 43
0.0000001
 44
0.0000000001
 40
0.0
 40
0.0
 40
0.0
 40
0.0
 40
0.25244779
 40
1.0
 40
1.0
 40
1.0
 40
1.0
 10
61.7001448864
 20
48.3540191008
 30
0.0
 10
61.7051919432
 20
48.3491325945
 30
0.0
 10
61.7257507587
 20
48.3303711517
 30
0.0
 10
61.7486025927
 20
48.314111023
 30
0.0
 10
61.7666182417
 20
48.3037099276
 30
0.0
  0
SPLINE
  5
3D9
100
AcDbEntity
  8
0
100
AcDbSpline
 62
7
  6
CONTINUOUS
 70
0
 71
3
 72
11
 73
7
 74
0
 42
0.0000001
 43
0.0000001
 44
0.0000000001
 40
0.0
 40
0.0
 40
0.0
 40
0.0
 40
0.2854928616
 40
0.5453824726
 40
0.7813770615
 40
1.0
 40
1.0
 40
1.0
 40
1.0
 10
61.3827333547
 20
50.0475023334
 30
0.0
 10
61.4247273004
 20
50.0717474045
 30
0.0
 10
61.5018941107
 20
50.1237921119
 30
0.0
 10
61.5980346737
 20
50.2164452423
 30
0.0
 10
61.6662383722
 20
50.3181030688
 30
0.0
 10
61.6917830363
 20
50.3921979411
 30
0.0
 10
61.6985810831
 20
50.4287030069
 30
0.0
  0
SPLINE
  5
3DA
100
AcDbEntity
  8
0
100
AcDbSpline
 62
7
  6
CONTINUOUS
 70
0
 71
3
 72
11
 73
7
 74
0
 42
0.0000001
 43
0.0000001
 44
0.0000000001
 40
0.0
 40
0.0
 40
0.0
 40
0.0
 40
0.2177651606
 40
0.4508956102
 40
0.7103690052
 40
1.0
 40
1.0
 40
1.0
 40
1.0
 10
86.1717314367
 20
87.3496934298
 30
0.0
 10
86.2047077744
 20
87.3306374925
 30
0.0
 10
86.2664577897
 20
87.2788037144
 30
0.0
 10
86.3321536225
 20
87.171339557
 30
0.0
 10
86.3711543747
 20
87.0389417292
 30
0.0
 10
86.3788542946
 20
86.9425807835
 30
0.0
 10
86.3788542946
 20
86.8919253984
 30
0.0
  0
SPLINE
  5
3DB
100
AcDbEntity
  8
0
100
AcDbSpline
 62
7
  6
CONTINUOUS
 70
0
 71
3
 72
15
 73
11
 74
0
 42
0.0000001
 43
0.0000001
 44
0.0000000001
 40
0.0
 40
0.0
 40
0.0
 40
0.0
 40
0.1236390539
 40
0.259073699
 40
0.400741061
 40
0.5422275643
 40
0.6771041459
 40
0.7999444888
 40
0.9074570807
 40
1.0
 40
1.0
 40
1.0
 40
1.0
 10
85.6717445695
 20
62.805093639
 30
0.0
 10
85.6717445695
 20
62.728829438
 30
0.0
 10
85.6526660971
 20
62.5688452974
 30
0.0
 10
85.5800374988
 20
62.3315218436
 30
0.0
 10
85.4665712067
 20
62.0984543124
 30
0.0
 10
85.3198326623
 20
61.8852286425
 30
0.0
 10
85.1494950428
 20
61.7058545664
 30
0.0
 10
84.966318795
 20
61.5720914597
 30
0.0
 10
84.7815842836
 20
61.4924895292
 30
0.0
 10
84.6555616849
 20
61.4800770441
 30
0.0
 10
84.5988895046
 20
61.4869147885
 30
0.0
  0
SPLINE
  5
3DC
100
AcDbEntity
  8
0
100
AcDbSpline
 62
7
  6
CONTINUOUS
 70
0
 71
3
 72
11
 73
7
 74
0
 42
0.0000001
 43
0.0000001
 44
0.0000000001
 40
0.0
 40
0.0
 40
0.0
 40
0.0
 40
0.2177651606
 40
0.4508956102
 40
0.7103690052
 40
1.0
 40
1.0
 40
1.0
 40
1.0
 10
76.9793815529
 20
83.6755242637
 30
0.0
 10
77.0123578906
 20
83.6564683264
 30
0.0
 10
77.0741079059
 20
83.6046345484
 30
0.0
 10
77.1398037387
 20
83.4971703909
 30
0.0
 10
77.1788044909
 20
83.3647725632
 30
0.0
 10
77.1865044108
 20
83.2684116174
 30
0.0
 10
77.1865044108
 20
83.2177562323
 30
0.0
  0
SPLINE
  5
3DD
100
AcDbEntity
  8
0
100
AcDbSpline
 62
7
  6
CONTINUOUS
 70
0
 71
3
 72
11
 73
7
 74
0
 42
0.0000001
 43
0.0000001
 44
0.0000000001
 40
0.0
 40
0.0
 40
0.0
 40
0.0
 40
0.2177839719
 40
0.4509113127
 40
0.7102966775
 40
1.0
 40
1.0
 40
1.0
 40
1.0
 10
80.982046252
 20
93.9802668079
 30
0.0
 10
80.9479860782
 20
93.9999313277
 30
0.0
 10
80.8697270121
 20
94.028330959
 30
0.0
 10
80.739740964
 20
94.031621259
 30
0.0
 10
80.6012061531
 20
93.9981665117
 30
0.0
 10
80.511074282
 20
93.9552880276
 30
0.0
 10
80.4657663388
 20
93.9291296305
 30
0.0
  0
SPLINE
  5
3DE
100
AcDbEntity
  8
0
100
AcDbSpline
 62
7
  6
CONTINUOUS
 70
0
 71
3
 72
17
 73
13
 74
0
 42
0.0000001
 43
0.0000001
 44
0.0000000001
 40
0.0
 40
0.0
 40
0.0
 40
0.0
 40
0.1286891333
 40
0.2702803493
 40
0.4174326844
 40
0.5617743804
 40
0.6954465661
 40
0.8127104963
 40
0.8646756522
 40
0.91250911
 40
0.9571392634
 40
1.0
 40
1.0
 40
1.0
 40
1.0
 10
65.8728430154
 20
57.9062941764
 30
0.0
 10
65.8728430154
 20
57.820819387
 30
0.0
 10
65.8489302929
 20
57.641095654
 30
0.0
 10
65.7596844143
 20
57.3772109441
 30
0.0
 10
65.6221565885
 20
57.1230081432
 30
0.0
 10
65.4474082723
 20
56.899328932
 30
0.0
 10
65.2497157238
 20
56.7242403739
 30
0.0
 10
65.0707763123
 20
56.6263939089
 30
0.0
 10
64.9308009013
 20
56.5891599617
 30
0.0
 10
64.8344632892
 20
56.5820651899
 30
0.0
 10
64.7447569451
 20
56.5952115194
 30
0.0
 10
64.6904066272
 20
56.6177943241
 30
0.0
 10
64.665758199
 20
56.6320378373
 30
0.0
  0
SPLINE
  5
3DF
100
AcDbEntity
  8
0
100
AcDbSpline
 62
7
  6
CONTINUOUS
 70
0
 71
3
 72
17
 73
13
 74
0
 42
0.0000001
 43
0.0000001
 44
0.0000000001
 40
0.0
 40
0.0
 40
0.0
 40
0.0
 40
0.1286891333
 40
0.2702803493
 40
0.4174326844
 40
0.5617743804
 40
0.6954465661
 40
0.8127104963
 40
0.8646756522
 40
0.91250911
 40
0.9571392634
 40
1.0
 40
1.0
 40
1.0
 40
1.0
 10
77.1865044108
 20
55.4566740499
 30
0.0
 10
77.1865044108
 20
55.3711992605
 30
0.0
 10
77.1625916883
 20
55.1914755275
 30
0.0
 10
77.0733458097
 20
54.9275908177
 30
0.0
 10
76.9358179839
 20
54.6733880168
 30
0.0
 10
76.7610696677
 20
54.4497088055
 30
0.0
 10
76.5633771192
 20
54.2746202474
 30
0.0
 10
76.3844377078
 20
54.1767737824
 30
0.0
 10
76.2444622968
 20
54.1395398352
 30
0.0
 10
76.1481246846
 20
54.1324450634
 30
0.0
 10
76.0584183405
 20
54.1455913929
 30
0.0
 10
76.0040680227
 20
54.1681741976
 30
0.0
 10
75.9794195944
 20
54.1824177108
 30
0.0
  0
SPLINE
  5
3E0
100
AcDbEntity
  8
0
100
AcDbSpline
 62
7
  6
CONTINUOUS
 70
0
 71
3
 72
11
 73
7
 74
0
 42
0.0000001
 43
0.0000001
 44
0.0000000001
 40
0.0
 40
0.0
 40
0.0
 40
0.0
 40
0.2177651606
 40
0.4508956102
 40
0.7103690052
 40
1.0
 40
1.0
 40
1.0
 40
1.0
 10
76.9793815529
 20
55.9144420813
 30
0.0
 10
77.0123578906
 20
55.895386144
 30
0.0
 10
77.0741079059
 20
55.843552366
 30
0.0
 10
77.1398037387
 20
55.7360882085
 30
0.0
 10
77.1788044909
 20
55.6036903808
 30
0.0
 10
77.1865044108
 20
55.507329435
 30
0.0
 10
77.1865044108
 20
55.4566740499
 30
0.0
  0
ELLIPSE
  5
3E1
100
AcDbEntity
  8
0
100
AcDbEllipse
 62
7
  6
CONTINUOUS
 10
45.4021060563
 20
62.7848489416
 30
0.0
 11
-1.4498876296
 21
12.0871392975
 31
0.0
 40
0.7117190456
 41
-1.0744882353
 42
-0.7713344862
  0
ENDSEC
  0
SECTION
  2
OBJECTS
  0
DICTIONARY
  5
C
100
AcDbDictionary
280
0
281
1
  3
ACAD_GROUP
350
D
  3
ACAD_MLINESTYLE
350
17
  3
ACAD_LAYOUT
350
1A
  3
ACAD_PLOTSETTINGS
350
19
  3
ACAD_PLOTSTYLENAME
350
E
  0
DICTIONARY
  5
D
102
{ACAD_REACTORS
330
C
102
}
100
AcDbDictionary
280
0
281
1
  0
ACDBDICTIONARYWDFLT
  5
E
102
{ACAD_REACTORS
330
C
102
}
100
AcDbDictionary
281
1
  3
Normal
350
F
100
AcDbDictionaryWithDefault
340
F
  0
DICTIONARY
  5
17
102
{ACAD_REACTORS
330
C
102
}
100
AcDbDictionary
280
0
281
1
  3
Standard
350
18
  0
DICTIONARY
  5
19
102
{ACAD_REACTORS
330
C
102
}
100
AcDbDictionary
281
1
  0
DICTIONARY
  5
1A
102
{ACAD_REACTORS
330
C
102
}
100
AcDbDictionary
281
1
  3
Model
350
3E2
  3
Layout1
350
3E3
  0
ACDBPLACEHOLDER
  5
F
102
{ACAD_REACTORS
330
E
102
}
  0
MLINESTYLE
  5
18
102
{ACAD_REACTORS
330
17
102
}
100
AcDbMlineStyle
  2
STANDARD
 70
0
  3

 62
256
 51
90.0
 52
90.0
 71
2
 49
0.5
 62
256
  6
BYLAYER
 49
-0.5
 62
256
  6
BYLAYER
  0
LAYOUT
  5
3E2
102
{ACAD_REACTORS
330
1A
102
}
100
AcDbPlotSettings
  1

  2
none_device
  4

  6

 40
0.0
 41
0.0
 42
0.0
 43
0.0
 44
210.0
 45
297.0
 46
0.0
 47
0.0
 48
0.0
 49
0.0
140
0.0
141
0.0
142
1.0
143
1.0
 70
1024
 72
1
 73
0
 74
0
  7

 75
0
147
1.0
148
0.0
149
0.0
100
AcDbLayout
  1
Model
 70
0
 71
0
 10
0.0
 20
0.0
 11
210.0
 21
297.0
 12
0.0
 22
0.0
 32
0.0
 14
0.0
 24
0.0
 34
0.0
 15
0.0
 25
0.0
 35
0.0
146
0.0
 13
0.0
 23
0.0
 33
0.0
 16
1.0
 26
0.0
 36
0.0
 17
0.0
 27
1.0
 37
0.0
 76
0
330
210
345
0
346
0
  0
LAYOUT
  5
3E3
102
{ACAD_REACTORS
330
1A
102
}
100
AcDbPlotSettings
  1

  2
none_device
  4

  6

 40
0.0
 41
0.0
 42
0.0
 43
0.0
 44
210.0
 45
297.0
 46
0.0
 47
0.0
 48
0.0
 49
0.0
140
0.0
141
0.0
142
1.0
143
1.0
 70
0
 72
1
 73
0
 74
0
  7

 75
0
147
1.0
148
0.0
149
0.0
100
AcDbLayout
  1
Layout1
 70
0
 71
1
 10
0.0
 20
0.0
 11
210.0
 21
297.0
 12
0.0
 22
0.0
 32
0.0
 14
0.0
 24
0.0
 34
0.0
 15
0.0
 25
0.0
 35
0.0
146
0.0
 13
0.0
 23
0.0
 33
0.0
 16
1.0
 26
0.0
 36
0.0
 17
0.0
 27
1.0
 37
0.0
 76
0
330
211
345
0
346
0
  0
ENDSEC
  0
EOF
