999
DXF file: C:\Users\sesa63760\Dev\_Creo\CAD\MCADID0001240_3D-CAD\drw0001_7.dxf
999
Pro/ENGINEER 2019471 by Parametric Technology Corporation
  0
SECTION
  2
HEADER
  9
$ACADVER
  1
AC1024
  9
$DWGCODEPAGE
  3
ANSI_1252
  9
$EXTMAX
 10
96.7195959596
 20
136.7891428571
 30
0.0
  9
$EXTMIN
 10
0.0
 20
0.0
 30
0.0
  9
$LIMMIN
 10
0.0
 20
0.0
  9
$LIMMAX
 10
96.7195959596
 20
136.7891428571
  9
$VIEWCTR
 10
48.3597979798
 20
68.3945714286
  9
$VIEWSIZE
 40
136.7891428571
  9
$CLAYER
  8
0
  9
$LTSCALE
 40
8.9166256085
  9
$CELTYPE
  6
BYLAYER
  9
$DIMSCALE
 40
1.0
  9
$DIMASZ
 40
1.1514237614
  9
$DIMEXO
 40
1.0
  9
$DIMDLI
 40
6.1605776931
  9
$DIMEXE
 40
1.0
  9
$DIMCEN
 40
1.4590841905
  9
$DIMLFAC
 40
1.0
  9
$DIMBLK
  1
_FILLED
  9
$DIMALT
 70
0
  9
$DIMALTF
 40
0.0393700787
  9
$DIMTXT
 40
1.611993266
  9
$DIMTOL
 70
1
  9
$DIMLIM
 70
0
  9
$DIMTFAC
 40
1.0
  9
$DIMTP
 40
0.01
  9
$DIMTM
 40
0.01
  9
$DIMGAP
 40
0.625
  9
$DIMDSEP
 70
46
  9
$AUNITS
 70
0
  9
$PDMODE
 70
3
  9
$PDSIZE
 40
0.3125
  9
$HANDSEED
  5
447
  9
$TILEMODE
 70
1
  9
$MEASUREMENT
 70
1
  9
$INSUNITS
 70
4
  0
ENDSEC
  0
SECTION
  2
CLASSES
  0
CLASS
  1
ACDBDICTIONARYWDFLT
  2
AcDbDictionaryWithDefault
  3
AutoCAD 2000
 90
0
 91
1
280
0
281
0
  0
CLASS
  1
ACDBPLACEHOLDER
  2
AcDbPlaceHolder
  3
AutoCAD 2000
 90
0
 91
1
280
0
281
0
  0
CLASS
  1
LAYOUT
  2
AcDbLayout
  3
AutoCAD 2000
 90
0
 91
0
280
0
281
0
  0
ENDSEC
  0
SECTION
  2
TABLES
  0
TABLE
  2
VPORT
  5
8
100
AcDbSymbolTable
 70
2
  0
VPORT
  5
1F4
100
AcDbSymbolTableRecord
100
AcDbViewportTableRecord
  2
*ACTIVE
 70
0
 10
0.0
 20
0.0
 11
1.0
 21
1.0
 12
48.3597979798
 22
68.3945714286
 13
0.0
 23
0.0
 14
1.0
 24
1.0
 15
0.0
 25
0.0
 16
0.0
 26
0.0
 36
1.0
 17
0.0
 27
0.0
 37
0.0
 40
136.7891428571
 41
0.7070707071
 42
50.0
 43
0.0
 44
0.0
 50
0.0
 51
0.0
 71
0
 72
100
 73
1
 74
1
 75
0
 76
0
 77
0
 78
0
  0
ENDTAB
  0
TABLE
  2
LTYPE
  5
5
100
AcDbSymbolTable
 70
6
  0
LTYPE
  5
14
100
AcDbSymbolTableRecord
100
AcDbLinetypeTableRecord
  2
BYBLOCK
 70
0
  3

 72
65
 73
0
 40
0.0
  0
LTYPE
  5
15
100
AcDbSymbolTableRecord
100
AcDbLinetypeTableRecord
  2
BYLAYER
 70
0
  3

 72
65
 73
0
 40
0.0
  0
LTYPE
  5
16
100
AcDbSymbolTableRecord
100
AcDbLinetypeTableRecord
  2
CONTINUOUS
 70
64
  3
Solid line
 72
65
 73
0
 40
0.0
  0
LTYPE
  5
1F5
100
AcDbSymbolTableRecord
100
AcDbLinetypeTableRecord
  2
CENTER
 70
64
  3
____ _ ____ _ ____ _ ____ _ ____ _ ____ _ ____
 72
65
 73
4
 40
0.6
 49
0.375
 74
0
 49
-0.075
 74
0
 49
0.075
 74
0
 49
-0.075
 74
0
  0
LTYPE
  5
1F6
100
AcDbSymbolTableRecord
100
AcDbLinetypeTableRecord
  2
HIDDEN
 70
64
  3
- - - - - - - - - - - - - - - - - - - -
 72
65
 73
2
 40
0.2
 49
0.1
 74
0
 49
-0.1
 74
0
  0
LTYPE
  5
1F7
100
AcDbSymbolTableRecord
100
AcDbLinetypeTableRecord
  2
PHANTOM
 70
64
  3
_____ _ _ _____ _ _ _____ _ _ _____
 72
65
 73
6
 40
0.8
 49
0.45
 74
0
 49
-0.05
 74
0
 49
0.1
 74
0
 49
-0.05
 74
0
 49
0.1
 74
0
 49
-0.05
 74
0
  0
LTYPE
  5
1F8
100
AcDbSymbolTableRecord
100
AcDbLinetypeTableRecord
  2
DOT
 70
64
  3
. . . . . . . . . . . . . . . . . . . .
 72
65
 73
2
 40
0.2
 49
0.1
 74
0
 49
-0.1
 74
0
  0
LTYPE
  5
1F9
100
AcDbSymbolTableRecord
100
AcDbLinetypeTableRecord
  2
DASHED
 70
64
  3
- - - - - - - - - - - - - - - - - - - -
 72
65
 73
2
 40
0.2
 49
0.1
 74
0
 49
-0.1
 74
0
  0
ENDTAB
  0
TABLE
  2
LAYER
  5
2
100
AcDbSymbolTable
 70
36
  0
LAYER
  5
10
100
AcDbSymbolTableRecord
100
AcDbLayerTableRecord
  2
0
 70
0
 62
7
  6
CONTINUOUS
370
-3
390
F
  0
LAYER
  5
1FA
100
AcDbSymbolTableRecord
100
AcDbLayerTableRecord
  2
DEFAULT_1
 70
0
 62
7
  6
CENTER
370
-3
390
F
  0
LAYER
  5
1FB
100
AcDbSymbolTableRecord
100
AcDbLayerTableRecord
  2
DEFAULT_2
 70
0
 62
8
  6
HIDDEN
370
-3
390
F
  0
LAYER
  5
1FC
100
AcDbSymbolTableRecord
100
AcDbLayerTableRecord
  2
DEFAULT_3
 70
0
 62
7
  6
PHANTOM
370
-3
390
F
  0
LAYER
  5
1FD
100
AcDbSymbolTableRecord
100
AcDbLayerTableRecord
  2
00_COMPONENTS
 70
0
 62
7
  6
CONTINUOUS
370
-3
390
F
  0
LAYER
  5
1FE
100
AcDbSymbolTableRecord
100
AcDbLayerTableRecord
  2
01_1_DEFAULT_DATUMS
 70
0
 62
7
  6
CONTINUOUS
370
-3
390
F
  0
LAYER
  5
1FF
100
AcDbSymbolTableRecord
100
AcDbLayerTableRecord
  2
01_PLANES
 70
0
 62
7
  6
CONTINUOUS
370
-3
390
F
  0
LAYER
  5
200
100
AcDbSymbolTableRecord
100
AcDbLayerTableRecord
  2
02_COORD_SYS
 70
0
 62
7
  6
CONTINUOUS
370
-3
390
F
  0
LAYER
  5
201
100
AcDbSymbolTableRecord
100
AcDbLayerTableRecord
  2
03_AXES
 70
0
 62
7
  6
CONTINUOUS
370
-3
390
F
  0
LAYER
  5
202
100
AcDbSymbolTableRecord
100
AcDbLayerTableRecord
  2
04_POINTS
 70
0
 62
7
  6
CONTINUOUS
370
-3
390
F
  0
LAYER
  5
203
100
AcDbSymbolTableRecord
100
AcDbLayerTableRecord
  2
05_CURVES
 70
0
 62
7
  6
CONTINUOUS
370
-3
390
F
  0
LAYER
  5
204
100
AcDbSymbolTableRecord
100
AcDbLayerTableRecord
  2
06_SURFS
 70
0
 62
7
  6
CONTINUOUS
370
-3
390
F
  0
LAYER
  5
205
100
AcDbSymbolTableRecord
100
AcDbLayerTableRecord
  2
07_COSMETICS
 70
0
 62
7
  6
CONTINUOUS
370
-3
390
F
  0
LAYER
  5
206
100
AcDbSymbolTableRecord
100
AcDbLayerTableRecord
  2
10_NOTES
 70
0
 62
7
  6
CONTINUOUS
370
-3
390
F
  0
LAYER
  5
207
100
AcDbSymbolTableRecord
100
AcDbLayerTableRecord
  2
11_NOTES_PUB
 70
0
 62
7
  6
CONTINUOUS
370
-3
390
F
  0
LAYER
  5
208
100
AcDbSymbolTableRecord
100
AcDbLayerTableRecord
  2
13_REF_GTOL
 70
0
 62
7
  6
CONTINUOUS
370
-3
390
F
  0
LAYER
  5
209
100
AcDbSymbolTableRecord
100
AcDbLayerTableRecord
  2
16_MISC
 70
0
 62
7
  6
CONTINUOUS
370
-3
390
F
  0
LAYER
  5
20A
100
AcDbSymbolTableRecord
100
AcDbLayerTableRecord
  2
17_NO_PRINT
 70
0
 62
7
  6
CONTINUOUS
370
-3
390
F
  0
LAYER
  5
20B
100
AcDbSymbolTableRecord
100
AcDbLayerTableRecord
  2
18_DATUM_CAMS_JOINTS
 70
0
 62
7
  6
CONTINUOUS
370
-3
390
F
  0
LAYER
  5
20C
100
AcDbSymbolTableRecord
100
AcDbLayerTableRecord
  2
19_DATUM_FUNCTIONAL
 70
0
 62
7
  6
CONTINUOUS
370
-3
390
F
  0
LAYER
  5
20D
100
AcDbSymbolTableRecord
100
AcDbLayerTableRecord
  2
20_DATUM_KINEMATIC_SCHEME
 70
0
 62
7
  6
CONTINUOUS
370
-3
390
F
  0
ENDTAB
  0
TABLE
  2
STYLE
  5
3
100
AcDbSymbolTable
 70
1
  0
STYLE
  5
11
100
AcDbSymbolTableRecord
100
AcDbTextStyleTableRecord
  2
STANDARD
 70
0
 40
0.0
 41
0.8
 50
0.0
 71
0
 42
0.2
  3
txt
  4

  0
STYLE
  5
20E
100
AcDbSymbolTableRecord
100
AcDbTextStyleTableRecord
  2
TEXTSTYLE_1
 70
0
 40
0.0
 41
0.8
 50
0.0
 71
0
 42
0.2
  3
gdt
  4

  0
ENDTAB
  0
TABLE
  2
VIEW
  5
6
100
AcDbSymbolTable
 70
0
  0
ENDTAB
  0
TABLE
  2
UCS
  5
7
100
AcDbSymbolTable
 70
0
  0
ENDTAB
  0
TABLE
  2
APPID
  5
9
100
AcDbSymbolTable
 70
1
  0
APPID
  5
20F
100
AcDbSymbolTableRecord
100
AcDbRegAppTableRecord
  2
ACAD
 70
0
  0
ENDTAB
  0
TABLE
  2
BLOCK_RECORD
  5
1
100
AcDbSymbolTable
 70
0
  0
BLOCK_RECORD
  5
210
100
AcDbSymbolTableRecord
100
AcDbBlockTableRecord
  2
*Model_Space
  0
BLOCK_RECORD
  5
211
100
AcDbSymbolTableRecord
100
AcDbBlockTableRecord
  2
*Paper_Space
  0
BLOCK_RECORD
  5
212
100
AcDbSymbolTableRecord
100
AcDbBlockTableRecord
  2
_FILLED
  0
ENDTAB
  0
TABLE
  2
DIMSTYLE
  5
A
100
AcDbSymbolTable
 70
1
100
AcDbDimStyleTable
 71
0
  0
DIMSTYLE
105
213
100
AcDbSymbolTableRecord
100
AcDbDimStyleTableRecord
  2
STANDARD
 70
0
  3

  4

 40
1.0
 41
1.1514237614
 42
1.0
 43
0.38
 44
1.0
 45
0.0
 46
0.0
 47
0.01
 48
0.01
140
1.611993266
141
0.09
142
0.0
143
25.4
144
1.0
145
0.0
146
1.0
147
0.625
 71
1
 72
0
 73
0
 74
0
 75
0
 76
0
 77
1
 78
8
 79
2
170
0
171
1
172
0
173
0
174
0
175
0
176
0
177
0
178
0
270
2
179
2
271
2
272
2
273
2
274
2
275
0
280
0
281
0
282
0
283
1
284
8
285
0
286
0
287
3
288
0
340
11
278
46
341
212
342
212
343
212
344
212
  0
ENDTAB
  0
ENDSEC
  0
SECTION
  2
BLOCKS
  0
BLOCK
  5
20
100
AcDbEntity
  8
0
100
AcDbBlockBegin
  2
*Model_Space
 70
0
 10
0.0
 20
0.0
 30
0.0
  3
*Model_Space
  1

  0
ENDBLK
  5
21
100
AcDbEntity
  8
0
100
AcDbBlockEnd
  0
BLOCK
  5
1C
100
AcDbEntity
  8
0
100
AcDbBlockBegin
  2
*Paper_Space
 70
0
 10
0.0
 20
0.0
 30
0.0
  3
*Paper_Space
  1

  0
ENDBLK
  5
1D
100
AcDbEntity
  8
0
100
AcDbBlockEnd
  0
BLOCK
  5
214
100
AcDbEntity
  8
0
100
AcDbBlockBegin
  2
_FILLED
 70
64
 10
0.0
 20
0.0
  3
_FILLED
  1

  0
SOLID
  5
215
100
AcDbEntity
  8
0
  6
BYBLOCK
 62
0
100
AcDbTrace
 10
0.0
 20
0.0
 11
-1.0
 21
0.25
 12
-1.0
 22
-0.25
 13
-1.0
 23
-0.25
  0
ENDBLK
  5
216
100
AcDbEntity
  8
0
  6
BYBLOCK
 62
0
100
AcDbBlockEnd
  0
ENDSEC
  0
SECTION
  2
ENTITIES
  0
LINE
  5
217
100
AcDbEntity
  8
0
100
AcDbLine
 62
7
  6
CONTINUOUS
 10
26.3974350414
 20
10.1294285714
 11
70.657018061
 21
10.1294285714
  0
LINE
  5
218
100
AcDbEntity
  8
0
100
AcDbLine
 62
7
  6
CONTINUOUS
 10
44.7277218944
 20
10.1594285714
 11
52.3180019594
 21
10.1594285714
  0
LINE
  5
219
100
AcDbEntity
  8
0
100
AcDbLine
 62
7
  6
CONTINUOUS
 10
44.7277455419
 20
11.1594285714
 11
52.3179744831
 21
11.1594285714
  0
LINE
  5
21A
100
AcDbEntity
  8
0
100
AcDbLine
 62
7
  6
CONTINUOUS
 10
26.1145018759
 20
16.6294285714
 11
70.9399512266
 21
16.6294285714
  0
LINE
  5
21B
100
AcDbEntity
  8
0
100
AcDbLine
 62
7
  6
CONTINUOUS
 10
26.0272265512
 20
21.6294285714
 11
71.0272265512
 21
21.6294285714
  0
LINE
  5
21C
100
AcDbEntity
  8
0
100
AcDbLine
 62
7
  6
CONTINUOUS
 10
71.085875998
 20
21.7294285714
 11
71.0272265512
 21
21.7294285714
  0
LINE
  5
21D
100
AcDbEntity
  8
0
100
AcDbLine
 62
7
  6
CONTINUOUS
 10
26.0272265512
 20
21.7294285714
 11
25.9685771045
 21
21.7294285714
  0
LINE
  5
21E
100
AcDbEntity
  8
0
100
AcDbLine
 62
7
  6
CONTINUOUS
 10
25.9685771045
 20
21.7294285714
 11
26.0272265512
 21
21.6595328825
  0
LINE
  5
21F
100
AcDbEntity
  8
0
100
AcDbLine
 62
7
  6
CONTINUOUS
 10
26.8872265512
 20
25.8994285714
 11
70.1672265512
 21
25.9020504266
  0
LINE
  5
220
100
AcDbEntity
  8
0
100
AcDbLine
 62
7
  6
CONTINUOUS
 10
70.1672265512
 20
27.8881353526
 11
26.8872265512
 21
27.8855134974
  0
LINE
  5
221
100
AcDbEntity
  8
0
100
AcDbLine
 62
7
  6
CONTINUOUS
 10
26.9272265512
 20
28.8273671198
 11
46.9272265512
 21
28.8273671198
  0
LINE
  5
222
100
AcDbEntity
  8
0
100
AcDbLine
 62
7
  6
CONTINUOUS
 10
50.1272265512
 20
28.8273671198
 11
70.1272265512
 21
28.8273671198
  0
LINE
  5
223
100
AcDbEntity
  8
0
100
AcDbLine
 62
7
  6
CONTINUOUS
 10
70.1272265512
 20
37.2271020469
 11
50.1272265512
 21
37.2271020469
  0
LINE
  5
224
100
AcDbEntity
  8
0
100
AcDbLine
 62
7
  6
CONTINUOUS
 10
46.9272265512
 20
37.2271020469
 11
26.9272265512
 21
37.2271020469
  0
LINE
  5
225
100
AcDbEntity
  8
0
100
AcDbLine
 62
7
  6
CONTINUOUS
 10
31.1872265512
 20
37.6464373309
 11
32.6672265512
 21
37.6464373309
  0
LINE
  5
226
100
AcDbEntity
  8
0
100
AcDbLine
 62
7
  6
CONTINUOUS
 10
36.1872265512
 20
37.6464373309
 11
37.6672265512
 21
37.6464373309
  0
LINE
  5
227
100
AcDbEntity
  8
0
100
AcDbLine
 62
7
  6
CONTINUOUS
 10
41.1872265512
 20
37.6464373309
 11
42.6672265512
 21
37.6464373309
  0
LINE
  5
228
100
AcDbEntity
  8
0
100
AcDbLine
 62
7
  6
CONTINUOUS
 10
54.3872265512
 20
37.6464373309
 11
55.8672265512
 21
37.6464373309
  0
LINE
  5
229
100
AcDbEntity
  8
0
100
AcDbLine
 62
7
  6
CONTINUOUS
 10
59.3872265512
 20
37.6464373309
 11
60.8672265512
 21
37.6464373309
  0
LINE
  5
22A
100
AcDbEntity
  8
0
100
AcDbLine
 62
7
  6
CONTINUOUS
 10
64.3872265512
 20
37.6464373309
 11
65.8672265512
 21
37.6464373309
  0
LINE
  5
22B
100
AcDbEntity
  8
0
100
AcDbLine
 62
7
  6
CONTINUOUS
 10
65.8672265512
 20
38.6691123617
 11
64.3872265512
 21
38.6691123617
  0
LINE
  5
22C
100
AcDbEntity
  8
0
100
AcDbLine
 62
7
  6
CONTINUOUS
 10
60.8672265512
 20
38.6691123617
 11
59.3872265512
 21
38.6691123617
  0
LINE
  5
22D
100
AcDbEntity
  8
0
100
AcDbLine
 62
7
  6
CONTINUOUS
 10
55.8672265512
 20
38.6691123617
 11
54.3872265512
 21
38.6691123617
  0
LINE
  5
22E
100
AcDbEntity
  8
0
100
AcDbLine
 62
7
  6
CONTINUOUS
 10
42.6672265512
 20
38.6691123617
 11
41.1872265512
 21
38.6691123617
  0
LINE
  5
22F
100
AcDbEntity
  8
0
100
AcDbLine
 62
7
  6
CONTINUOUS
 10
37.6672265512
 20
38.6691123617
 11
36.1872265512
 21
38.6691123617
  0
LINE
  5
230
100
AcDbEntity
  8
0
100
AcDbLine
 62
7
  6
CONTINUOUS
 10
32.6672265512
 20
38.6691123617
 11
31.1872265512
 21
38.6691123617
  0
LINE
  5
231
100
AcDbEntity
  8
0
100
AcDbLine
 62
7
  6
CONTINUOUS
 10
65.8672265512
 20
38.8876697714
 11
64.3872265512
 21
38.8876697714
  0
LINE
  5
232
100
AcDbEntity
  8
0
100
AcDbLine
 62
7
  6
CONTINUOUS
 10
60.8672265512
 20
38.8876697714
 11
59.3872265512
 21
38.8876697714
  0
LINE
  5
233
100
AcDbEntity
  8
0
100
AcDbLine
 62
7
  6
CONTINUOUS
 10
55.8672265512
 20
38.8876697714
 11
54.3872265512
 21
38.8876697714
  0
LINE
  5
234
100
AcDbEntity
  8
0
100
AcDbLine
 62
7
  6
CONTINUOUS
 10
42.6672265512
 20
38.8876697714
 11
41.1872265512
 21
38.8876697714
  0
LINE
  5
235
100
AcDbEntity
  8
0
100
AcDbLine
 62
7
  6
CONTINUOUS
 10
37.6672265512
 20
38.8876697714
 11
36.1872265512
 21
38.8876697714
  0
LINE
  5
236
100
AcDbEntity
  8
0
100
AcDbLine
 62
7
  6
CONTINUOUS
 10
32.6672265512
 20
38.8876697714
 11
31.1872265512
 21
38.8876697714
  0
LINE
  5
237
100
AcDbEntity
  8
0
100
AcDbLine
 62
7
  6
CONTINUOUS
 10
28.2772265512
 20
39.2729551706
 11
30.5772265512
 21
39.2729551706
  0
LINE
  5
238
100
AcDbEntity
  8
0
100
AcDbLine
 62
7
  6
CONTINUOUS
 10
33.2772265512
 20
39.2729551706
 11
35.5772265512
 21
39.2729551706
  0
LINE
  5
239
100
AcDbEntity
  8
0
100
AcDbLine
 62
7
  6
CONTINUOUS
 10
38.2772265512
 20
39.2729551706
 11
40.5772265512
 21
39.2729551706
  0
LINE
  5
23A
100
AcDbEntity
  8
0
100
AcDbLine
 62
7
  6
CONTINUOUS
 10
43.2772265512
 20
39.2729551706
 11
45.5772265512
 21
39.2729551706
  0
LINE
  5
23B
100
AcDbEntity
  8
0
100
AcDbLine
 62
7
  6
CONTINUOUS
 10
51.4772265512
 20
39.2729551706
 11
53.7772265512
 21
39.2729551706
  0
LINE
  5
23C
100
AcDbEntity
  8
0
100
AcDbLine
 62
7
  6
CONTINUOUS
 10
56.4772265512
 20
39.2729551706
 11
58.7772265512
 21
39.2729551706
  0
LINE
  5
23D
100
AcDbEntity
  8
0
100
AcDbLine
 62
7
  6
CONTINUOUS
 10
61.4772265512
 20
39.2729551706
 11
63.7772265512
 21
39.2729551706
  0
LINE
  5
23E
100
AcDbEntity
  8
0
100
AcDbLine
 62
7
  6
CONTINUOUS
 10
66.4772265512
 20
39.2729551706
 11
68.7772265512
 21
39.2729551706
  0
LINE
  5
23F
100
AcDbEntity
  8
0
100
AcDbLine
 62
7
  6
CONTINUOUS
 10
68.7772265512
 20
39.4915125803
 11
66.4772265512
 21
39.4915125803
  0
LINE
  5
240
100
AcDbEntity
  8
0
100
AcDbLine
 62
7
  6
CONTINUOUS
 10
63.7772265512
 20
39.4915125803
 11
61.4772265512
 21
39.4915125803
  0
LINE
  5
241
100
AcDbEntity
  8
0
100
AcDbLine
 62
7
  6
CONTINUOUS
 10
58.7772265512
 20
39.4915125803
 11
56.4772265512
 21
39.4915125803
  0
LINE
  5
242
100
AcDbEntity
  8
0
100
AcDbLine
 62
7
  6
CONTINUOUS
 10
53.7772265512
 20
39.4915125803
 11
51.4772265512
 21
39.4915125803
  0
LINE
  5
243
100
AcDbEntity
  8
0
100
AcDbLine
 62
7
  6
CONTINUOUS
 10
45.5772265512
 20
39.4915125803
 11
43.2772265512
 21
39.4915125803
  0
LINE
  5
244
100
AcDbEntity
  8
0
100
AcDbLine
 62
7
  6
CONTINUOUS
 10
40.5772265512
 20
39.4915125803
 11
38.2772265512
 21
39.4915125803
  0
LINE
  5
245
100
AcDbEntity
  8
0
100
AcDbLine
 62
7
  6
CONTINUOUS
 10
35.5772265512
 20
39.4915125803
 11
33.2772265512
 21
39.4915125803
  0
LINE
  5
246
100
AcDbEntity
  8
0
100
AcDbLine
 62
7
  6
CONTINUOUS
 10
30.5772265512
 20
39.4915125803
 11
28.2772265512
 21
39.4915125803
  0
LINE
  5
247
100
AcDbEntity
  8
0
100
AcDbLine
 62
7
  6
CONTINUOUS
 10
50.5772265512
 20
43.5171313065
 11
50.1272265512
 21
43.5171313065
  0
LINE
  5
248
100
AcDbEntity
  8
0
100
AcDbLine
 62
7
  6
CONTINUOUS
 10
27.3772265512
 20
43.5171313065
 11
26.9272265512
 21
43.5171313065
  0
LINE
  5
249
100
AcDbEntity
  8
0
100
AcDbLine
 62
7
  6
CONTINUOUS
 10
31.4772265512
 20
43.5171313065
 11
32.3772265512
 21
43.5171313065
  0
LINE
  5
24A
100
AcDbEntity
  8
0
100
AcDbLine
 62
7
  6
CONTINUOUS
 10
36.4772265512
 20
43.5171313065
 11
37.3772265512
 21
43.5171313065
  0
LINE
  5
24B
100
AcDbEntity
  8
0
100
AcDbLine
 62
7
  6
CONTINUOUS
 10
41.4772265512
 20
43.5171313065
 11
42.3772265512
 21
43.5171313065
  0
LINE
  5
24C
100
AcDbEntity
  8
0
100
AcDbLine
 62
7
  6
CONTINUOUS
 10
46.4772265512
 20
43.5171313065
 11
46.9272265512
 21
43.5171313065
  0
LINE
  5
24D
100
AcDbEntity
  8
0
100
AcDbLine
 62
7
  6
CONTINUOUS
 10
54.6772265512
 20
43.5171313065
 11
55.5772265512
 21
43.5171313065
  0
LINE
  5
24E
100
AcDbEntity
  8
0
100
AcDbLine
 62
7
  6
CONTINUOUS
 10
59.6772265512
 20
43.5171313065
 11
60.5772265512
 21
43.5171313065
  0
LINE
  5
24F
100
AcDbEntity
  8
0
100
AcDbLine
 62
7
  6
CONTINUOUS
 10
64.6772265512
 20
43.5171313065
 11
65.5772265512
 21
43.5171313065
  0
LINE
  5
250
100
AcDbEntity
  8
0
100
AcDbLine
 62
7
  6
CONTINUOUS
 10
69.6772265512
 20
43.5171313065
 11
70.1272265512
 21
43.5171313065
  0
LINE
  5
251
100
AcDbEntity
  8
0
100
AcDbLine
 62
7
  6
CONTINUOUS
 10
27.5272265512
 20
43.5380980707
 11
31.3272265512
 21
43.5380980707
  0
LINE
  5
252
100
AcDbEntity
  8
0
100
AcDbLine
 62
7
  6
CONTINUOUS
 10
32.5272265512
 20
43.5380980707
 11
36.3272265512
 21
43.5380980707
  0
LINE
  5
253
100
AcDbEntity
  8
0
100
AcDbLine
 62
7
  6
CONTINUOUS
 10
37.5272265512
 20
43.5380980707
 11
41.3272265512
 21
43.5380980707
  0
LINE
  5
254
100
AcDbEntity
  8
0
100
AcDbLine
 62
7
  6
CONTINUOUS
 10
42.5272265512
 20
43.5380980707
 11
46.3272265512
 21
43.5380980707
  0
LINE
  5
255
100
AcDbEntity
  8
0
100
AcDbLine
 62
7
  6
CONTINUOUS
 10
50.7272265512
 20
43.5380980707
 11
54.5272265512
 21
43.5380980707
  0
LINE
  5
256
100
AcDbEntity
  8
0
100
AcDbLine
 62
7
  6
CONTINUOUS
 10
55.7272265512
 20
43.5380980707
 11
59.5272265512
 21
43.5380980707
  0
LINE
  5
257
100
AcDbEntity
  8
0
100
AcDbLine
 62
7
  6
CONTINUOUS
 10
60.7272265512
 20
43.5380980707
 11
64.5272265512
 21
43.5380980707
  0
LINE
  5
258
100
AcDbEntity
  8
0
100
AcDbLine
 62
7
  6
CONTINUOUS
 10
65.7272265512
 20
43.5380980707
 11
69.5272265512
 21
43.5380980707
  0
LINE
  5
259
100
AcDbEntity
  8
0
100
AcDbLine
 62
7
  6
CONTINUOUS
 10
26.2272265512
 20
16.6294285714
 11
26.3974350414
 21
10.1294285714
  0
LINE
  5
25A
100
AcDbEntity
  8
0
100
AcDbLine
 62
7
  6
CONTINUOUS
 10
26.1145018759
 20
16.6294285714
 11
26.0272265512
 21
21.6294285714
  0
LINE
  5
25B
100
AcDbEntity
  8
0
100
AcDbLine
 62
7
  6
CONTINUOUS
 10
26.0272265512
 20
21.6294285714
 11
26.0272265512
 21
127.3294285714
  0
LINE
  5
25C
100
AcDbEntity
  8
0
100
AcDbLine
 62
7
  6
CONTINUOUS
 10
26.8872265512
 20
25.8994285714
 11
26.8872265512
 21
70.8994285714
  0
LINE
  5
25D
100
AcDbEntity
  8
0
100
AcDbLine
 62
7
  6
CONTINUOUS
 10
26.9272265512
 20
28.8273671198
 11
26.9272265512
 21
49.8071605661
  0
LINE
  5
25E
100
AcDbEntity
  8
0
100
AcDbLine
 62
7
  6
CONTINUOUS
 10
26.9272265512
 20
50.4273671198
 11
26.9272265512
 21
71.4071605661
  0
LINE
  5
25F
100
AcDbEntity
  8
0
100
AcDbLine
 62
7
  6
CONTINUOUS
 10
27.3772265512
 20
67.7879463077
 11
27.3772265512
 21
65.1171313065
  0
LINE
  5
260
100
AcDbEntity
  8
0
100
AcDbLine
 62
7
  6
CONTINUOUS
 10
27.3772265512
 20
46.1879463077
 11
27.3772265512
 21
43.5171313065
  0
LINE
  5
261
100
AcDbEntity
  8
0
100
AcDbLine
 62
7
  6
CONTINUOUS
 10
27.5272265512
 20
43.5380980707
 11
27.5272265512
 21
46.4404608749
  0
LINE
  5
262
100
AcDbEntity
  8
0
100
AcDbLine
 62
7
  6
CONTINUOUS
 10
27.5272265512
 20
65.1380980707
 11
27.5272265512
 21
68.0404608749
  0
LINE
  5
263
100
AcDbEntity
  8
0
100
AcDbLine
 62
7
  6
CONTINUOUS
 10
28.0272265512
 20
121.8294285714
 11
28.0272265512
 21
125.3294285714
  0
LINE
  5
264
100
AcDbEntity
  8
0
100
AcDbLine
 62
7
  6
CONTINUOUS
 10
70.1272265512
 20
44.3613218108
 11
69.6772265512
 21
44.3613218108
  0
LINE
  5
265
100
AcDbEntity
  8
0
100
AcDbLine
 62
7
  6
CONTINUOUS
 10
50.5772265512
 20
44.3613218108
 11
50.1272265512
 21
44.3613218108
  0
LINE
  5
266
100
AcDbEntity
  8
0
100
AcDbLine
 62
7
  6
CONTINUOUS
 10
46.9272265512
 20
44.3613218108
 11
46.4772265512
 21
44.3613218108
  0
LINE
  5
267
100
AcDbEntity
  8
0
100
AcDbLine
 62
7
  6
CONTINUOUS
 10
27.3772265512
 20
44.3613218108
 11
26.9272265512
 21
44.3613218108
  0
LINE
  5
268
100
AcDbEntity
  8
0
100
AcDbLine
 62
7
  6
CONTINUOUS
 10
31.4772265512
 20
44.3613218108
 11
32.3772265512
 21
44.3613218108
  0
LINE
  5
269
100
AcDbEntity
  8
0
100
AcDbLine
 62
7
  6
CONTINUOUS
 10
36.4772265512
 20
44.3613218108
 11
37.3772265512
 21
44.3613218108
  0
LINE
  5
26A
100
AcDbEntity
  8
0
100
AcDbLine
 62
7
  6
CONTINUOUS
 10
41.4772265512
 20
44.3613218108
 11
42.3772265512
 21
44.3613218108
  0
LINE
  5
26B
100
AcDbEntity
  8
0
100
AcDbLine
 62
7
  6
CONTINUOUS
 10
54.6772265512
 20
44.3613218108
 11
55.5772265512
 21
44.3613218108
  0
LINE
  5
26C
100
AcDbEntity
  8
0
100
AcDbLine
 62
7
  6
CONTINUOUS
 10
59.6772265512
 20
44.3613218108
 11
60.5772265512
 21
44.3613218108
  0
LINE
  5
26D
100
AcDbEntity
  8
0
100
AcDbLine
 62
7
  6
CONTINUOUS
 10
64.6772265512
 20
44.3613218108
 11
65.5772265512
 21
44.3613218108
  0
LINE
  5
26E
100
AcDbEntity
  8
0
100
AcDbLine
 62
7
  6
CONTINUOUS
 10
27.5272265512
 20
44.600144189
 11
31.3272265512
 21
44.600144189
  0
LINE
  5
26F
100
AcDbEntity
  8
0
100
AcDbLine
 62
7
  6
CONTINUOUS
 10
32.5272265512
 20
44.600144189
 11
36.3272265512
 21
44.600144189
  0
LINE
  5
270
100
AcDbEntity
  8
0
100
AcDbLine
 62
7
  6
CONTINUOUS
 10
37.5272265512
 20
44.600144189
 11
41.3272265512
 21
44.600144189
  0
LINE
  5
271
100
AcDbEntity
  8
0
100
AcDbLine
 62
7
  6
CONTINUOUS
 10
42.5272265512
 20
44.600144189
 11
46.3272265512
 21
44.600144189
  0
LINE
  5
272
100
AcDbEntity
  8
0
100
AcDbLine
 62
7
  6
CONTINUOUS
 10
50.7272265512
 20
44.600144189
 11
54.5272265512
 21
44.600144189
  0
LINE
  5
273
100
AcDbEntity
  8
0
100
AcDbLine
 62
7
  6
CONTINUOUS
 10
55.7272265512
 20
44.600144189
 11
59.5272265512
 21
44.600144189
  0
LINE
  5
274
100
AcDbEntity
  8
0
100
AcDbLine
 62
7
  6
CONTINUOUS
 10
60.7272265512
 20
44.600144189
 11
64.5272265512
 21
44.600144189
  0
LINE
  5
275
100
AcDbEntity
  8
0
100
AcDbLine
 62
7
  6
CONTINUOUS
 10
65.7272265512
 20
44.600144189
 11
69.5272265512
 21
44.600144189
  0
LINE
  5
276
100
AcDbEntity
  8
0
100
AcDbLine
 62
7
  6
CONTINUOUS
 10
69.5272265512
 20
45.2415210286
 11
65.7272265512
 21
45.2415210286
  0
LINE
  5
277
100
AcDbEntity
  8
0
100
AcDbLine
 62
7
  6
CONTINUOUS
 10
64.5272265512
 20
45.2415210286
 11
60.7272265512
 21
45.2415210286
  0
LINE
  5
278
100
AcDbEntity
  8
0
100
AcDbLine
 62
7
  6
CONTINUOUS
 10
59.5272265512
 20
45.2415210286
 11
55.7272265512
 21
45.2415210286
  0
LINE
  5
279
100
AcDbEntity
  8
0
100
AcDbLine
 62
7
  6
CONTINUOUS
 10
54.5272265512
 20
45.2415210286
 11
50.7272265512
 21
45.2415210286
  0
LINE
  5
27A
100
AcDbEntity
  8
0
100
AcDbLine
 62
7
  6
CONTINUOUS
 10
46.3272265512
 20
45.2415210286
 11
42.5272265512
 21
45.2415210286
  0
LINE
  5
27B
100
AcDbEntity
  8
0
100
AcDbLine
 62
7
  6
CONTINUOUS
 10
41.3272265512
 20
45.2415210286
 11
37.5272265512
 21
45.2415210286
  0
LINE
  5
27C
100
AcDbEntity
  8
0
100
AcDbLine
 62
7
  6
CONTINUOUS
 10
36.3272265512
 20
45.2415210286
 11
32.5272265512
 21
45.2415210286
  0
LINE
  5
27D
100
AcDbEntity
  8
0
100
AcDbLine
 62
7
  6
CONTINUOUS
 10
31.3272265512
 20
45.2415210286
 11
27.5272265512
 21
45.2415210286
  0
LINE
  5
27E
100
AcDbEntity
  8
0
100
AcDbLine
 62
7
  6
CONTINUOUS
 10
69.5272265512
 20
45.493216573
 11
65.7272265512
 21
45.493216573
  0
LINE
  5
27F
100
AcDbEntity
  8
0
100
AcDbLine
 62
7
  6
CONTINUOUS
 10
64.5272265512
 20
45.493216573
 11
60.7272265512
 21
45.493216573
  0
LINE
  5
280
100
AcDbEntity
  8
0
100
AcDbLine
 62
7
  6
CONTINUOUS
 10
59.5272265512
 20
45.493216573
 11
55.7272265512
 21
45.493216573
  0
LINE
  5
281
100
AcDbEntity
  8
0
100
AcDbLine
 62
7
  6
CONTINUOUS
 10
54.5272265512
 20
45.493216573
 11
50.7272265512
 21
45.493216573
  0
LINE
  5
282
100
AcDbEntity
  8
0
100
AcDbLine
 62
7
  6
CONTINUOUS
 10
46.3272265512
 20
45.493216573
 11
42.5272265512
 21
45.493216573
  0
LINE
  5
283
100
AcDbEntity
  8
0
100
AcDbLine
 62
7
  6
CONTINUOUS
 10
41.3272265512
 20
45.493216573
 11
37.5272265512
 21
45.493216573
  0
LINE
  5
284
100
AcDbEntity
  8
0
100
AcDbLine
 62
7
  6
CONTINUOUS
 10
36.3272265512
 20
45.493216573
 11
32.5272265512
 21
45.493216573
  0
LINE
  5
285
100
AcDbEntity
  8
0
100
AcDbLine
 62
7
  6
CONTINUOUS
 10
31.3272265512
 20
45.493216573
 11
27.5272265512
 21
45.493216573
  0
LINE
  5
286
100
AcDbEntity
  8
0
100
AcDbLine
 62
7
  6
CONTINUOUS
 10
27.5272265512
 20
45.9817960796
 11
31.3272265512
 21
45.9817960796
  0
LINE
  5
287
100
AcDbEntity
  8
0
100
AcDbLine
 62
7
  6
CONTINUOUS
 10
32.5272265512
 20
45.9817960796
 11
36.3272265512
 21
45.9817960796
  0
LINE
  5
288
100
AcDbEntity
  8
0
100
AcDbLine
 62
7
  6
CONTINUOUS
 10
37.5272265512
 20
45.9817960796
 11
41.3272265512
 21
45.9817960796
  0
LINE
  5
289
100
AcDbEntity
  8
0
100
AcDbLine
 62
7
  6
CONTINUOUS
 10
42.5272265512
 20
45.9817960796
 11
46.3272265512
 21
45.9817960796
  0
LINE
  5
28A
100
AcDbEntity
  8
0
100
AcDbLine
 62
7
  6
CONTINUOUS
 10
50.7272265512
 20
45.9817960796
 11
54.5272265512
 21
45.9817960796
  0
LINE
  5
28B
100
AcDbEntity
  8
0
100
AcDbLine
 62
7
  6
CONTINUOUS
 10
55.7272265512
 20
45.9817960796
 11
59.5272265512
 21
45.9817960796
  0
LINE
  5
28C
100
AcDbEntity
  8
0
100
AcDbLine
 62
7
  6
CONTINUOUS
 10
60.7272265512
 20
45.9817960796
 11
64.5272265512
 21
45.9817960796
  0
LINE
  5
28D
100
AcDbEntity
  8
0
100
AcDbLine
 62
7
  6
CONTINUOUS
 10
65.7272265512
 20
45.9817960796
 11
69.5272265512
 21
45.9817960796
  0
LINE
  5
28E
100
AcDbEntity
  8
0
100
AcDbLine
 62
7
  6
CONTINUOUS
 10
50.5772265512
 20
46.1879463077
 11
50.1272265512
 21
46.1879463077
  0
LINE
  5
28F
100
AcDbEntity
  8
0
100
AcDbLine
 62
7
  6
CONTINUOUS
 10
27.3772265512
 20
46.1879463077
 11
26.9272265512
 21
46.1879463077
  0
LINE
  5
290
100
AcDbEntity
  8
0
100
AcDbLine
 62
7
  6
CONTINUOUS
 10
31.4772265512
 20
46.1879463077
 11
32.3772265512
 21
46.1879463077
  0
LINE
  5
291
100
AcDbEntity
  8
0
100
AcDbLine
 62
7
  6
CONTINUOUS
 10
36.4772265512
 20
46.1879463077
 11
37.3772265512
 21
46.1879463077
  0
LINE
  5
292
100
AcDbEntity
  8
0
100
AcDbLine
 62
7
  6
CONTINUOUS
 10
41.4772265512
 20
46.1879463077
 11
42.3772265512
 21
46.1879463077
  0
LINE
  5
293
100
AcDbEntity
  8
0
100
AcDbLine
 62
7
  6
CONTINUOUS
 10
46.4772265512
 20
46.1879463077
 11
46.9272265512
 21
46.1879463077
  0
LINE
  5
294
100
AcDbEntity
  8
0
100
AcDbLine
 62
7
  6
CONTINUOUS
 10
54.6772265512
 20
46.1879463077
 11
55.5772265512
 21
46.1879463077
  0
LINE
  5
295
100
AcDbEntity
  8
0
100
AcDbLine
 62
7
  6
CONTINUOUS
 10
59.6772265512
 20
46.1879463077
 11
60.5772265512
 21
46.1879463077
  0
LINE
  5
296
100
AcDbEntity
  8
0
100
AcDbLine
 62
7
  6
CONTINUOUS
 10
64.6772265512
 20
46.1879463077
 11
65.5772265512
 21
46.1879463077
  0
LINE
  5
297
100
AcDbEntity
  8
0
100
AcDbLine
 62
7
  6
CONTINUOUS
 10
69.6772265512
 20
46.1879463077
 11
70.1272265512
 21
46.1879463077
  0
LINE
  5
298
100
AcDbEntity
  8
0
100
AcDbLine
 62
7
  6
CONTINUOUS
 10
69.5272265512
 20
46.4405857311
 11
65.7272265512
 21
46.4405857311
  0
LINE
  5
299
100
AcDbEntity
  8
0
100
AcDbLine
 62
7
  6
CONTINUOUS
 10
64.5272265512
 20
46.4405857311
 11
60.7272265512
 21
46.4405857311
  0
LINE
  5
29A
100
AcDbEntity
  8
0
100
AcDbLine
 62
7
  6
CONTINUOUS
 10
59.5272265512
 20
46.4405857311
 11
55.7272265512
 21
46.4405857311
  0
LINE
  5
29B
100
AcDbEntity
  8
0
100
AcDbLine
 62
7
  6
CONTINUOUS
 10
54.5272265512
 20
46.4405857311
 11
50.7272265512
 21
46.4405857311
  0
LINE
  5
29C
100
AcDbEntity
  8
0
100
AcDbLine
 62
7
  6
CONTINUOUS
 10
46.3272265512
 20
46.4405857311
 11
42.5272265512
 21
46.4405857311
  0
LINE
  5
29D
100
AcDbEntity
  8
0
100
AcDbLine
 62
7
  6
CONTINUOUS
 10
41.3272265512
 20
46.4405857311
 11
37.5272265512
 21
46.4405857311
  0
LINE
  5
29E
100
AcDbEntity
  8
0
100
AcDbLine
 62
7
  6
CONTINUOUS
 10
36.3272265512
 20
46.4405857311
 11
32.5272265512
 21
46.4405857311
  0
LINE
  5
29F
100
AcDbEntity
  8
0
100
AcDbLine
 62
7
  6
CONTINUOUS
 10
31.3272265512
 20
46.4405857311
 11
27.5272265512
 21
46.4405857311
  0
LINE
  5
2A0
100
AcDbEntity
  8
0
100
AcDbLine
 62
7
  6
CONTINUOUS
 10
28.2772265512
 20
61.0915125803
 11
28.2772265512
 21
60.210908484
  0
LINE
  5
2A1
100
AcDbEntity
  8
0
100
AcDbLine
 62
7
  6
CONTINUOUS
 10
28.2772265512
 20
39.4915125803
 11
28.2772265512
 21
38.610908484
  0
LINE
  5
2A2
100
AcDbEntity
  8
0
100
AcDbLine
 62
7
  6
CONTINUOUS
 10
30.2272265513
 20
10.1294285714
 11
30.2272265512
 21
16.6294285714
  0
LINE
  5
2A3
100
AcDbEntity
  8
0
100
AcDbLine
 62
7
  6
CONTINUOUS
 10
30.5772265512
 20
38.610908484
 11
30.5772265512
 21
39.4915125803
  0
LINE
  5
2A4
100
AcDbEntity
  8
0
100
AcDbLine
 62
7
  6
CONTINUOUS
 10
30.5772265512
 20
60.210908484
 11
30.5772265512
 21
61.0915125803
  0
LINE
  5
2A5
100
AcDbEntity
  8
0
100
AcDbLine
 62
7
  6
CONTINUOUS
 10
31.1872265512
 20
60.4876697714
 11
31.1872265512
 21
59.2464373309
  0
LINE
  5
2A6
100
AcDbEntity
  8
0
100
AcDbLine
 62
7
  6
CONTINUOUS
 10
31.1872265512
 20
38.8876697714
 11
31.1872265512
 21
37.6464373309
  0
LINE
  5
2A7
100
AcDbEntity
  8
0
100
AcDbLine
 62
7
  6
CONTINUOUS
 10
31.3272265512
 20
68.0404608749
 11
31.3272265512
 21
65.1380980707
  0
LINE
  5
2A8
100
AcDbEntity
  8
0
100
AcDbLine
 62
7
  6
CONTINUOUS
 10
31.3272265512
 20
46.4404608749
 11
31.3272265512
 21
43.5380980707
  0
LINE
  5
2A9
100
AcDbEntity
  8
0
100
AcDbLine
 62
7
  6
CONTINUOUS
 10
31.4772265512
 20
43.5171313065
 11
31.4772265512
 21
46.1879463077
  0
LINE
  5
2AA
100
AcDbEntity
  8
0
100
AcDbLine
 62
7
  6
CONTINUOUS
 10
31.4772265512
 20
65.1171313065
 11
31.4772265512
 21
67.7879463077
  0
LINE
  5
2AB
100
AcDbEntity
  8
0
100
AcDbLine
 62
7
  6
CONTINUOUS
 10
31.5272265512
 20
127.3294285714
 11
31.5272265512
 21
125.3294285714
  0
LINE
  5
2AC
100
AcDbEntity
  8
0
100
AcDbLine
 62
7
  6
CONTINUOUS
 10
26.9272265512
 20
49.8071605661
 11
46.9272265512
 21
49.8071605661
  0
LINE
  5
2AD
100
AcDbEntity
  8
0
100
AcDbLine
 62
7
  6
CONTINUOUS
 10
50.1272265512
 20
49.8071605661
 11
70.1272265512
 21
49.8071605661
  0
LINE
  5
2AE
100
AcDbEntity
  8
0
100
AcDbLine
 62
7
  6
CONTINUOUS
 10
26.9272265512
 20
50.4273671198
 11
46.9272265512
 21
50.4273671198
  0
LINE
  5
2AF
100
AcDbEntity
  8
0
100
AcDbLine
 62
7
  6
CONTINUOUS
 10
50.1272265512
 20
50.4273671198
 11
70.1272265512
 21
50.4273671198
  0
LINE
  5
2B0
100
AcDbEntity
  8
0
100
AcDbLine
 62
7
  6
CONTINUOUS
 10
32.3772265512
 20
67.7879463077
 11
32.3772265512
 21
65.1171313065
  0
LINE
  5
2B1
100
AcDbEntity
  8
0
100
AcDbLine
 62
7
  6
CONTINUOUS
 10
32.3772265512
 20
46.1879463077
 11
32.3772265512
 21
43.5171313065
  0
LINE
  5
2B2
100
AcDbEntity
  8
0
100
AcDbLine
 62
7
  6
CONTINUOUS
 10
32.5272265512
 20
43.5380980707
 11
32.5272265512
 21
46.4404608749
  0
LINE
  5
2B3
100
AcDbEntity
  8
0
100
AcDbLine
 62
7
  6
CONTINUOUS
 10
32.5272265512
 20
65.1380980707
 11
32.5272265512
 21
68.0404608749
  0
LINE
  5
2B4
100
AcDbEntity
  8
0
100
AcDbLine
 62
7
  6
CONTINUOUS
 10
32.6672265512
 20
37.6464373309
 11
32.6672265512
 21
38.8876697714
  0
LINE
  5
2B5
100
AcDbEntity
  8
0
100
AcDbLine
 62
7
  6
CONTINUOUS
 10
32.6672265512
 20
59.2464373309
 11
32.6672265512
 21
60.4876697714
  0
LINE
  5
2B6
100
AcDbEntity
  8
0
100
AcDbLine
 62
7
  6
CONTINUOUS
 10
33.2772265512
 20
61.0915125803
 11
33.2772265512
 21
60.210908484
  0
LINE
  5
2B7
100
AcDbEntity
  8
0
100
AcDbLine
 62
7
  6
CONTINUOUS
 10
33.2772265512
 20
39.4915125803
 11
33.2772265512
 21
38.610908484
  0
LINE
  5
2B8
100
AcDbEntity
  8
0
100
AcDbLine
 62
7
  6
CONTINUOUS
 10
35.5772265512
 20
38.610908484
 11
35.5772265512
 21
39.4915125803
  0
LINE
  5
2B9
100
AcDbEntity
  8
0
100
AcDbLine
 62
7
  6
CONTINUOUS
 10
35.5772265512
 20
60.210908484
 11
35.5772265512
 21
61.0915125803
  0
LINE
  5
2BA
100
AcDbEntity
  8
0
100
AcDbLine
 62
7
  6
CONTINUOUS
 10
36.1872265512
 20
60.4876697714
 11
36.1872265512
 21
59.2464373309
  0
LINE
  5
2BB
100
AcDbEntity
  8
0
100
AcDbLine
 62
7
  6
CONTINUOUS
 10
36.1872265512
 20
38.8876697714
 11
36.1872265512
 21
37.6464373309
  0
LINE
  5
2BC
100
AcDbEntity
  8
0
100
AcDbLine
 62
7
  6
CONTINUOUS
 10
36.3272265512
 20
68.0404608749
 11
36.3272265512
 21
65.1380980707
  0
LINE
  5
2BD
100
AcDbEntity
  8
0
100
AcDbLine
 62
7
  6
CONTINUOUS
 10
36.3272265512
 20
46.4404608749
 11
36.3272265512
 21
43.5380980707
  0
LINE
  5
2BE
100
AcDbEntity
  8
0
100
AcDbLine
 62
7
  6
CONTINUOUS
 10
36.4772265512
 20
43.5171313065
 11
36.4772265512
 21
46.1879463077
  0
LINE
  5
2BF
100
AcDbEntity
  8
0
100
AcDbLine
 62
7
  6
CONTINUOUS
 10
36.4772265512
 20
65.1171313065
 11
36.4772265512
 21
67.7879463077
  0
LINE
  5
2C0
100
AcDbEntity
  8
0
100
AcDbLine
 62
7
  6
CONTINUOUS
 10
37.2772265512
 20
127.3294285714
 11
37.2772265512
 21
120.7294285714
  0
LINE
  5
2C1
100
AcDbEntity
  8
0
100
AcDbLine
 62
7
  6
CONTINUOUS
 10
37.3772265512
 20
67.7879463077
 11
37.3772265512
 21
65.1171313065
  0
LINE
  5
2C2
100
AcDbEntity
  8
0
100
AcDbLine
 62
7
  6
CONTINUOUS
 10
37.3772265512
 20
46.1879463077
 11
37.3772265512
 21
43.5171313065
  0
LINE
  5
2C3
100
AcDbEntity
  8
0
100
AcDbLine
 62
7
  6
CONTINUOUS
 10
37.5272265512
 20
43.5380980707
 11
37.5272265512
 21
46.4404608749
  0
LINE
  5
2C4
100
AcDbEntity
  8
0
100
AcDbLine
 62
7
  6
CONTINUOUS
 10
37.5272265512
 20
65.1380980707
 11
37.5272265512
 21
68.0404608749
  0
LINE
  5
2C5
100
AcDbEntity
  8
0
100
AcDbLine
 62
7
  6
CONTINUOUS
 10
37.6672265512
 20
37.6464373309
 11
37.6672265512
 21
38.8876697714
  0
LINE
  5
2C6
100
AcDbEntity
  8
0
100
AcDbLine
 62
7
  6
CONTINUOUS
 10
37.6672265512
 20
59.2464373309
 11
37.6672265512
 21
60.4876697714
  0
LINE
  5
2C7
100
AcDbEntity
  8
0
100
AcDbLine
 62
7
  6
CONTINUOUS
 10
38.2772265512
 20
61.0915125803
 11
38.2772265512
 21
60.210908484
  0
LINE
  5
2C8
100
AcDbEntity
  8
0
100
AcDbLine
 62
7
  6
CONTINUOUS
 10
38.2772265512
 20
39.4915125803
 11
38.2772265512
 21
38.610908484
  0
LINE
  5
2C9
100
AcDbEntity
  8
0
100
AcDbLine
 62
7
  6
CONTINUOUS
 10
38.7772265512
 20
120.7294285714
 11
38.7772265512
 21
125.3294285714
  0
LINE
  5
2CA
100
AcDbEntity
  8
0
100
AcDbLine
 62
7
  6
CONTINUOUS
 10
40.5772265512
 20
38.610908484
 11
40.5772265512
 21
39.4915125803
  0
LINE
  5
2CB
100
AcDbEntity
  8
0
100
AcDbLine
 62
7
  6
CONTINUOUS
 10
40.5772265512
 20
60.210908484
 11
40.5772265512
 21
61.0915125803
  0
LINE
  5
2CC
100
AcDbEntity
  8
0
100
AcDbLine
 62
7
  6
CONTINUOUS
 10
41.3040288369
 20
126.3294285714
 11
41.2254810447
 21
121.8294285714
  0
LINE
  5
2CD
100
AcDbEntity
  8
0
100
AcDbLine
 62
7
  6
CONTINUOUS
 10
70.1272265512
 20
58.8271020469
 11
50.1272265512
 21
58.8271020469
  0
LINE
  5
2CE
100
AcDbEntity
  8
0
100
AcDbLine
 62
7
  6
CONTINUOUS
 10
46.9272265512
 20
58.8271020469
 11
26.9272265512
 21
58.8271020469
  0
LINE
  5
2CF
100
AcDbEntity
  8
0
100
AcDbLine
 62
7
  6
CONTINUOUS
 10
31.1872265512
 20
59.2464373309
 11
32.6672265512
 21
59.2464373309
  0
LINE
  5
2D0
100
AcDbEntity
  8
0
100
AcDbLine
 62
7
  6
CONTINUOUS
 10
36.1872265512
 20
59.2464373309
 11
37.6672265512
 21
59.2464373309
  0
LINE
  5
2D1
100
AcDbEntity
  8
0
100
AcDbLine
 62
7
  6
CONTINUOUS
 10
41.1872265512
 20
59.2464373309
 11
42.6672265512
 21
59.2464373309
  0
LINE
  5
2D2
100
AcDbEntity
  8
0
100
AcDbLine
 62
7
  6
CONTINUOUS
 10
54.3872265512
 20
59.2464373309
 11
55.8672265512
 21
59.2464373309
  0
LINE
  5
2D3
100
AcDbEntity
  8
0
100
AcDbLine
 62
7
  6
CONTINUOUS
 10
59.3872265512
 20
59.2464373309
 11
60.8672265512
 21
59.2464373309
  0
LINE
  5
2D4
100
AcDbEntity
  8
0
100
AcDbLine
 62
7
  6
CONTINUOUS
 10
64.3872265512
 20
59.2464373309
 11
65.8672265512
 21
59.2464373309
  0
LINE
  5
2D5
100
AcDbEntity
  8
0
100
AcDbLine
 62
7
  6
CONTINUOUS
 10
65.8672265512
 20
60.2691123617
 11
64.3872265512
 21
60.2691123617
  0
LINE
  5
2D6
100
AcDbEntity
  8
0
100
AcDbLine
 62
7
  6
CONTINUOUS
 10
60.8672265512
 20
60.2691123617
 11
59.3872265512
 21
60.2691123617
  0
LINE
  5
2D7
100
AcDbEntity
  8
0
100
AcDbLine
 62
7
  6
CONTINUOUS
 10
55.8672265512
 20
60.2691123617
 11
54.3872265512
 21
60.2691123617
  0
LINE
  5
2D8
100
AcDbEntity
  8
0
100
AcDbLine
 62
7
  6
CONTINUOUS
 10
42.6672265512
 20
60.2691123617
 11
41.1872265512
 21
60.2691123617
  0
LINE
  5
2D9
100
AcDbEntity
  8
0
100
AcDbLine
 62
7
  6
CONTINUOUS
 10
37.6672265512
 20
60.2691123617
 11
36.1872265512
 21
60.2691123617
  0
LINE
  5
2DA
100
AcDbEntity
  8
0
100
AcDbLine
 62
7
  6
CONTINUOUS
 10
32.6672265512
 20
60.2691123617
 11
31.1872265512
 21
60.2691123617
  0
LINE
  5
2DB
100
AcDbEntity
  8
0
100
AcDbLine
 62
7
  6
CONTINUOUS
 10
65.8672265512
 20
60.4876697714
 11
64.3872265512
 21
60.4876697714
  0
LINE
  5
2DC
100
AcDbEntity
  8
0
100
AcDbLine
 62
7
  6
CONTINUOUS
 10
60.8672265512
 20
60.4876697714
 11
59.3872265512
 21
60.4876697714
  0
LINE
  5
2DD
100
AcDbEntity
  8
0
100
AcDbLine
 62
7
  6
CONTINUOUS
 10
55.8672265512
 20
60.4876697714
 11
54.3872265512
 21
60.4876697714
  0
LINE
  5
2DE
100
AcDbEntity
  8
0
100
AcDbLine
 62
7
  6
CONTINUOUS
 10
42.6672265512
 20
60.4876697714
 11
41.1872265512
 21
60.4876697714
  0
LINE
  5
2DF
100
AcDbEntity
  8
0
100
AcDbLine
 62
7
  6
CONTINUOUS
 10
37.6672265512
 20
60.4876697714
 11
36.1872265512
 21
60.4876697714
  0
LINE
  5
2E0
100
AcDbEntity
  8
0
100
AcDbLine
 62
7
  6
CONTINUOUS
 10
32.6672265512
 20
60.4876697714
 11
31.1872265512
 21
60.4876697714
  0
LINE
  5
2E1
100
AcDbEntity
  8
0
100
AcDbLine
 62
7
  6
CONTINUOUS
 10
28.2772265512
 20
60.8729551706
 11
30.5772265512
 21
60.8729551706
  0
LINE
  5
2E2
100
AcDbEntity
  8
0
100
AcDbLine
 62
7
  6
CONTINUOUS
 10
33.2772265512
 20
60.8729551706
 11
35.5772265512
 21
60.8729551706
  0
LINE
  5
2E3
100
AcDbEntity
  8
0
100
AcDbLine
 62
7
  6
CONTINUOUS
 10
38.2772265512
 20
60.8729551706
 11
40.5772265512
 21
60.8729551706
  0
LINE
  5
2E4
100
AcDbEntity
  8
0
100
AcDbLine
 62
7
  6
CONTINUOUS
 10
43.2772265512
 20
60.8729551706
 11
45.5772265512
 21
60.8729551706
  0
LINE
  5
2E5
100
AcDbEntity
  8
0
100
AcDbLine
 62
7
  6
CONTINUOUS
 10
51.4772265512
 20
60.8729551706
 11
53.7772265512
 21
60.8729551706
  0
LINE
  5
2E6
100
AcDbEntity
  8
0
100
AcDbLine
 62
7
  6
CONTINUOUS
 10
56.4772265512
 20
60.8729551706
 11
58.7772265512
 21
60.8729551706
  0
LINE
  5
2E7
100
AcDbEntity
  8
0
100
AcDbLine
 62
7
  6
CONTINUOUS
 10
61.4772265512
 20
60.8729551706
 11
63.7772265512
 21
60.8729551706
  0
LINE
  5
2E8
100
AcDbEntity
  8
0
100
AcDbLine
 62
7
  6
CONTINUOUS
 10
66.4772265512
 20
60.8729551706
 11
68.7772265512
 21
60.8729551706
  0
LINE
  5
2E9
100
AcDbEntity
  8
0
100
AcDbLine
 62
7
  6
CONTINUOUS
 10
40.7772265512
 20
124.2294285714
 11
40.7772265512
 21
120.7294285714
  0
LINE
  5
2EA
100
AcDbEntity
  8
0
100
AcDbLine
 62
7
  6
CONTINUOUS
 10
41.1872265512
 20
60.4876697714
 11
41.1872265512
 21
59.2464373309
  0
LINE
  5
2EB
100
AcDbEntity
  8
0
100
AcDbLine
 62
7
  6
CONTINUOUS
 10
41.1872265512
 20
38.8876697714
 11
41.1872265512
 21
37.6464373309
  0
LINE
  5
2EC
100
AcDbEntity
  8
0
100
AcDbLine
 62
7
  6
CONTINUOUS
 10
41.3272265512
 20
68.0404608749
 11
41.3272265512
 21
65.1380980707
  0
LINE
  5
2ED
100
AcDbEntity
  8
0
100
AcDbLine
 62
7
  6
CONTINUOUS
 10
41.3272265512
 20
46.4404608749
 11
41.3272265512
 21
43.5380980707
  0
LINE
  5
2EE
100
AcDbEntity
  8
0
100
AcDbLine
 62
7
  6
CONTINUOUS
 10
41.4772265512
 20
43.5171313065
 11
41.4772265512
 21
46.1879463077
  0
LINE
  5
2EF
100
AcDbEntity
  8
0
100
AcDbLine
 62
7
  6
CONTINUOUS
 10
41.4772265512
 20
65.1171313065
 11
41.4772265512
 21
67.7879463077
  0
LINE
  5
2F0
100
AcDbEntity
  8
0
100
AcDbLine
 62
7
  6
CONTINUOUS
 10
42.3772265512
 20
67.7879463077
 11
42.3772265512
 21
65.1171313065
  0
LINE
  5
2F1
100
AcDbEntity
  8
0
100
AcDbLine
 62
7
  6
CONTINUOUS
 10
42.3772265512
 20
46.1879463077
 11
42.3772265512
 21
43.5171313065
  0
LINE
  5
2F2
100
AcDbEntity
  8
0
100
AcDbLine
 62
7
  6
CONTINUOUS
 10
42.5272265512
 20
43.5380980707
 11
42.5272265512
 21
46.4404608749
  0
LINE
  5
2F3
100
AcDbEntity
  8
0
100
AcDbLine
 62
7
  6
CONTINUOUS
 10
42.5272265512
 20
65.1380980707
 11
42.5272265512
 21
68.0404608749
  0
LINE
  5
2F4
100
AcDbEntity
  8
0
100
AcDbLine
 62
7
  6
CONTINUOUS
 10
42.6672265512
 20
37.6464373309
 11
42.6672265512
 21
38.8876697714
  0
LINE
  5
2F5
100
AcDbEntity
  8
0
100
AcDbLine
 62
7
  6
CONTINUOUS
 10
42.6672265512
 20
59.2464373309
 11
42.6672265512
 21
60.4876697714
  0
LINE
  5
2F6
100
AcDbEntity
  8
0
100
AcDbLine
 62
7
  6
CONTINUOUS
 10
42.7772265512
 20
127.3294285714
 11
42.7772265512
 21
126.3294285714
  0
LINE
  5
2F7
100
AcDbEntity
  8
0
100
AcDbLine
 62
7
  6
CONTINUOUS
 10
43.2772265512
 20
61.0915125803
 11
43.2772265512
 21
60.210908484
  0
LINE
  5
2F8
100
AcDbEntity
  8
0
100
AcDbLine
 62
7
  6
CONTINUOUS
 10
43.2772265512
 20
39.4915125803
 11
43.2772265512
 21
38.610908484
  0
LINE
  5
2F9
100
AcDbEntity
  8
0
100
AcDbLine
 62
7
  6
CONTINUOUS
 10
44.7272265512
 20
11.1594285714
 11
44.7272265512
 21
10.1594285714
  0
LINE
  5
2FA
100
AcDbEntity
  8
0
100
AcDbLine
 62
7
  6
CONTINUOUS
 10
68.7772265512
 20
61.0915125803
 11
66.4772265512
 21
61.0915125803
  0
LINE
  5
2FB
100
AcDbEntity
  8
0
100
AcDbLine
 62
7
  6
CONTINUOUS
 10
63.7772265512
 20
61.0915125803
 11
61.4772265512
 21
61.0915125803
  0
LINE
  5
2FC
100
AcDbEntity
  8
0
100
AcDbLine
 62
7
  6
CONTINUOUS
 10
58.7772265512
 20
61.0915125803
 11
56.4772265512
 21
61.0915125803
  0
LINE
  5
2FD
100
AcDbEntity
  8
0
100
AcDbLine
 62
7
  6
CONTINUOUS
 10
53.7772265512
 20
61.0915125803
 11
51.4772265512
 21
61.0915125803
  0
LINE
  5
2FE
100
AcDbEntity
  8
0
100
AcDbLine
 62
7
  6
CONTINUOUS
 10
45.5772265512
 20
61.0915125803
 11
43.2772265512
 21
61.0915125803
  0
LINE
  5
2FF
100
AcDbEntity
  8
0
100
AcDbLine
 62
7
  6
CONTINUOUS
 10
40.5772265512
 20
61.0915125803
 11
38.2772265512
 21
61.0915125803
  0
LINE
  5
300
100
AcDbEntity
  8
0
100
AcDbLine
 62
7
  6
CONTINUOUS
 10
35.5772265512
 20
61.0915125803
 11
33.2772265512
 21
61.0915125803
  0
LINE
  5
301
100
AcDbEntity
  8
0
100
AcDbLine
 62
7
  6
CONTINUOUS
 10
30.5772265512
 20
61.0915125803
 11
28.2772265512
 21
61.0915125803
  0
LINE
  5
302
100
AcDbEntity
  8
0
100
AcDbLine
 62
7
  6
CONTINUOUS
 10
45.5772265512
 20
38.610908484
 11
45.5772265512
 21
39.4915125803
  0
LINE
  5
303
100
AcDbEntity
  8
0
100
AcDbLine
 62
7
  6
CONTINUOUS
 10
45.5772265512
 20
60.210908484
 11
45.5772265512
 21
61.0915125803
  0
LINE
  5
304
100
AcDbEntity
  8
0
100
AcDbLine
 62
7
  6
CONTINUOUS
 10
45.7272265512
 20
10.1594285714
 11
45.7272265512
 21
11.1594285714
  0
LINE
  5
305
100
AcDbEntity
  8
0
100
AcDbLine
 62
7
  6
CONTINUOUS
 10
46.3272265512
 20
68.0404608749
 11
46.3272265512
 21
65.1380980707
  0
LINE
  5
306
100
AcDbEntity
  8
0
100
AcDbLine
 62
7
  6
CONTINUOUS
 10
46.3272265512
 20
46.4404608749
 11
46.3272265512
 21
43.5380980707
  0
LINE
  5
307
100
AcDbEntity
  8
0
100
AcDbLine
 62
7
  6
CONTINUOUS
 10
46.4772265512
 20
43.5171313065
 11
46.4772265512
 21
46.1879463077
  0
LINE
  5
308
100
AcDbEntity
  8
0
100
AcDbLine
 62
7
  6
CONTINUOUS
 10
46.4772265512
 20
65.1171313065
 11
46.4772265512
 21
67.7879463077
  0
LINE
  5
309
100
AcDbEntity
  8
0
100
AcDbLine
 62
7
  6
CONTINUOUS
 10
46.9272265512
 20
71.4071605661
 11
46.9272265512
 21
50.4273671198
  0
LINE
  5
30A
100
AcDbEntity
  8
0
100
AcDbLine
 62
7
  6
CONTINUOUS
 10
46.9272265512
 20
49.8071605661
 11
46.9272265512
 21
28.8273671198
  0
LINE
  5
30B
100
AcDbEntity
  8
0
100
AcDbLine
 62
7
  6
CONTINUOUS
 10
50.5772265512
 20
65.1171313065
 11
50.1272265512
 21
65.1171313065
  0
LINE
  5
30C
100
AcDbEntity
  8
0
100
AcDbLine
 62
7
  6
CONTINUOUS
 10
27.3772265512
 20
65.1171313065
 11
26.9272265512
 21
65.1171313065
  0
LINE
  5
30D
100
AcDbEntity
  8
0
100
AcDbLine
 62
7
  6
CONTINUOUS
 10
31.4772265512
 20
65.1171313065
 11
32.3772265512
 21
65.1171313065
  0
LINE
  5
30E
100
AcDbEntity
  8
0
100
AcDbLine
 62
7
  6
CONTINUOUS
 10
36.4772265512
 20
65.1171313065
 11
37.3772265512
 21
65.1171313065
  0
LINE
  5
30F
100
AcDbEntity
  8
0
100
AcDbLine
 62
7
  6
CONTINUOUS
 10
41.4772265512
 20
65.1171313065
 11
42.3772265512
 21
65.1171313065
  0
LINE
  5
310
100
AcDbEntity
  8
0
100
AcDbLine
 62
7
  6
CONTINUOUS
 10
46.4772265512
 20
65.1171313065
 11
46.9272265512
 21
65.1171313065
  0
LINE
  5
311
100
AcDbEntity
  8
0
100
AcDbLine
 62
7
  6
CONTINUOUS
 10
54.6772265512
 20
65.1171313065
 11
55.5772265512
 21
65.1171313065
  0
LINE
  5
312
100
AcDbEntity
  8
0
100
AcDbLine
 62
7
  6
CONTINUOUS
 10
59.6772265512
 20
65.1171313065
 11
60.5772265512
 21
65.1171313065
  0
LINE
  5
313
100
AcDbEntity
  8
0
100
AcDbLine
 62
7
  6
CONTINUOUS
 10
64.6772265512
 20
65.1171313065
 11
65.5772265512
 21
65.1171313065
  0
LINE
  5
314
100
AcDbEntity
  8
0
100
AcDbLine
 62
7
  6
CONTINUOUS
 10
69.6772265512
 20
65.1171313065
 11
70.1272265512
 21
65.1171313065
  0
LINE
  5
315
100
AcDbEntity
  8
0
100
AcDbLine
 62
7
  6
CONTINUOUS
 10
27.5272265512
 20
65.1380980707
 11
31.3272265512
 21
65.1380980707
  0
LINE
  5
316
100
AcDbEntity
  8
0
100
AcDbLine
 62
7
  6
CONTINUOUS
 10
32.5272265512
 20
65.1380980707
 11
36.3272265512
 21
65.1380980707
  0
LINE
  5
317
100
AcDbEntity
  8
0
100
AcDbLine
 62
7
  6
CONTINUOUS
 10
37.5272265512
 20
65.1380980707
 11
41.3272265512
 21
65.1380980707
  0
LINE
  5
318
100
AcDbEntity
  8
0
100
AcDbLine
 62
7
  6
CONTINUOUS
 10
42.5272265512
 20
65.1380980707
 11
46.3272265512
 21
65.1380980707
  0
LINE
  5
319
100
AcDbEntity
  8
0
100
AcDbLine
 62
7
  6
CONTINUOUS
 10
50.7272265512
 20
65.1380980707
 11
54.5272265512
 21
65.1380980707
  0
LINE
  5
31A
100
AcDbEntity
  8
0
100
AcDbLine
 62
7
  6
CONTINUOUS
 10
55.7272265512
 20
65.1380980707
 11
59.5272265512
 21
65.1380980707
  0
LINE
  5
31B
100
AcDbEntity
  8
0
100
AcDbLine
 62
7
  6
CONTINUOUS
 10
60.7272265512
 20
65.1380980707
 11
64.5272265512
 21
65.1380980707
  0
LINE
  5
31C
100
AcDbEntity
  8
0
100
AcDbLine
 62
7
  6
CONTINUOUS
 10
65.7272265512
 20
65.1380980707
 11
69.5272265512
 21
65.1380980707
  0
LINE
  5
31D
100
AcDbEntity
  8
0
100
AcDbLine
 62
7
  6
CONTINUOUS
 10
70.1272265512
 20
65.9613218108
 11
69.6772265512
 21
65.9613218108
  0
LINE
  5
31E
100
AcDbEntity
  8
0
100
AcDbLine
 62
7
  6
CONTINUOUS
 10
50.5772265512
 20
65.9613218108
 11
50.1272265512
 21
65.9613218108
  0
LINE
  5
31F
100
AcDbEntity
  8
0
100
AcDbLine
 62
7
  6
CONTINUOUS
 10
46.9272265512
 20
65.9613218108
 11
46.4772265512
 21
65.9613218108
  0
LINE
  5
320
100
AcDbEntity
  8
0
100
AcDbLine
 62
7
  6
CONTINUOUS
 10
27.3772265512
 20
65.9613218108
 11
26.9272265512
 21
65.9613218108
  0
LINE
  5
321
100
AcDbEntity
  8
0
100
AcDbLine
 62
7
  6
CONTINUOUS
 10
31.4772265512
 20
65.9613218108
 11
32.3772265512
 21
65.9613218108
  0
LINE
  5
322
100
AcDbEntity
  8
0
100
AcDbLine
 62
7
  6
CONTINUOUS
 10
36.4772265512
 20
65.9613218108
 11
37.3772265512
 21
65.9613218108
  0
LINE
  5
323
100
AcDbEntity
  8
0
100
AcDbLine
 62
7
  6
CONTINUOUS
 10
41.4772265512
 20
65.9613218108
 11
42.3772265512
 21
65.9613218108
  0
LINE
  5
324
100
AcDbEntity
  8
0
100
AcDbLine
 62
7
  6
CONTINUOUS
 10
54.6772265512
 20
65.9613218108
 11
55.5772265512
 21
65.9613218108
  0
LINE
  5
325
100
AcDbEntity
  8
0
100
AcDbLine
 62
7
  6
CONTINUOUS
 10
59.6772265512
 20
65.9613218108
 11
60.5772265512
 21
65.9613218108
  0
LINE
  5
326
100
AcDbEntity
  8
0
100
AcDbLine
 62
7
  6
CONTINUOUS
 10
64.6772265512
 20
65.9613218108
 11
65.5772265512
 21
65.9613218108
  0
LINE
  5
327
100
AcDbEntity
  8
0
100
AcDbLine
 62
7
  6
CONTINUOUS
 10
27.5272265512
 20
66.200144189
 11
31.3272265512
 21
66.200144189
  0
LINE
  5
328
100
AcDbEntity
  8
0
100
AcDbLine
 62
7
  6
CONTINUOUS
 10
32.5272265512
 20
66.200144189
 11
36.3272265512
 21
66.200144189
  0
LINE
  5
329
100
AcDbEntity
  8
0
100
AcDbLine
 62
7
  6
CONTINUOUS
 10
37.5272265512
 20
66.200144189
 11
41.3272265512
 21
66.200144189
  0
LINE
  5
32A
100
AcDbEntity
  8
0
100
AcDbLine
 62
7
  6
CONTINUOUS
 10
42.5272265512
 20
66.200144189
 11
46.3272265512
 21
66.200144189
  0
LINE
  5
32B
100
AcDbEntity
  8
0
100
AcDbLine
 62
7
  6
CONTINUOUS
 10
50.7272265512
 20
66.200144189
 11
54.5272265512
 21
66.200144189
  0
LINE
  5
32C
100
AcDbEntity
  8
0
100
AcDbLine
 62
7
  6
CONTINUOUS
 10
55.7272265512
 20
66.200144189
 11
59.5272265512
 21
66.200144189
  0
LINE
  5
32D
100
AcDbEntity
  8
0
100
AcDbLine
 62
7
  6
CONTINUOUS
 10
60.7272265512
 20
66.200144189
 11
64.5272265512
 21
66.200144189
  0
LINE
  5
32E
100
AcDbEntity
  8
0
100
AcDbLine
 62
7
  6
CONTINUOUS
 10
65.7272265512
 20
66.200144189
 11
69.5272265512
 21
66.200144189
  0
LINE
  5
32F
100
AcDbEntity
  8
0
100
AcDbLine
 62
7
  6
CONTINUOUS
 10
69.5272265512
 20
66.8415210286
 11
65.7272265512
 21
66.8415210286
  0
LINE
  5
330
100
AcDbEntity
  8
0
100
AcDbLine
 62
7
  6
CONTINUOUS
 10
64.5272265512
 20
66.8415210286
 11
60.7272265512
 21
66.8415210286
  0
LINE
  5
331
100
AcDbEntity
  8
0
100
AcDbLine
 62
7
  6
CONTINUOUS
 10
59.5272265512
 20
66.8415210286
 11
55.7272265512
 21
66.8415210286
  0
LINE
  5
332
100
AcDbEntity
  8
0
100
AcDbLine
 62
7
  6
CONTINUOUS
 10
54.5272265512
 20
66.8415210286
 11
50.7272265512
 21
66.8415210286
  0
LINE
  5
333
100
AcDbEntity
  8
0
100
AcDbLine
 62
7
  6
CONTINUOUS
 10
46.3272265512
 20
66.8415210286
 11
42.5272265512
 21
66.8415210286
  0
LINE
  5
334
100
AcDbEntity
  8
0
100
AcDbLine
 62
7
  6
CONTINUOUS
 10
41.3272265512
 20
66.8415210286
 11
37.5272265512
 21
66.8415210286
  0
LINE
  5
335
100
AcDbEntity
  8
0
100
AcDbLine
 62
7
  6
CONTINUOUS
 10
36.3272265512
 20
66.8415210286
 11
32.5272265512
 21
66.8415210286
  0
LINE
  5
336
100
AcDbEntity
  8
0
100
AcDbLine
 62
7
  6
CONTINUOUS
 10
31.3272265512
 20
66.8415210286
 11
27.5272265512
 21
66.8415210286
  0
LINE
  5
337
100
AcDbEntity
  8
0
100
AcDbLine
 62
7
  6
CONTINUOUS
 10
69.5272265512
 20
67.093216573
 11
65.7272265512
 21
67.093216573
  0
LINE
  5
338
100
AcDbEntity
  8
0
100
AcDbLine
 62
7
  6
CONTINUOUS
 10
64.5272265512
 20
67.093216573
 11
60.7272265512
 21
67.093216573
  0
LINE
  5
339
100
AcDbEntity
  8
0
100
AcDbLine
 62
7
  6
CONTINUOUS
 10
59.5272265512
 20
67.093216573
 11
55.7272265512
 21
67.093216573
  0
LINE
  5
33A
100
AcDbEntity
  8
0
100
AcDbLine
 62
7
  6
CONTINUOUS
 10
54.5272265512
 20
67.093216573
 11
50.7272265512
 21
67.093216573
  0
LINE
  5
33B
100
AcDbEntity
  8
0
100
AcDbLine
 62
7
  6
CONTINUOUS
 10
46.3272265512
 20
67.093216573
 11
42.5272265512
 21
67.093216573
  0
LINE
  5
33C
100
AcDbEntity
  8
0
100
AcDbLine
 62
7
  6
CONTINUOUS
 10
41.3272265512
 20
67.093216573
 11
37.5272265512
 21
67.093216573
  0
LINE
  5
33D
100
AcDbEntity
  8
0
100
AcDbLine
 62
7
  6
CONTINUOUS
 10
36.3272265512
 20
67.093216573
 11
32.5272265512
 21
67.093216573
  0
LINE
  5
33E
100
AcDbEntity
  8
0
100
AcDbLine
 62
7
  6
CONTINUOUS
 10
31.3272265512
 20
67.093216573
 11
27.5272265512
 21
67.093216573
  0
LINE
  5
33F
100
AcDbEntity
  8
0
100
AcDbLine
 62
7
  6
CONTINUOUS
 10
27.5272265512
 20
67.5817960796
 11
31.3272265512
 21
67.5817960796
  0
LINE
  5
340
100
AcDbEntity
  8
0
100
AcDbLine
 62
7
  6
CONTINUOUS
 10
32.5272265512
 20
67.5817960796
 11
36.3272265512
 21
67.5817960796
  0
LINE
  5
341
100
AcDbEntity
  8
0
100
AcDbLine
 62
7
  6
CONTINUOUS
 10
37.5272265512
 20
67.5817960796
 11
41.3272265512
 21
67.5817960796
  0
LINE
  5
342
100
AcDbEntity
  8
0
100
AcDbLine
 62
7
  6
CONTINUOUS
 10
42.5272265512
 20
67.5817960796
 11
46.3272265512
 21
67.5817960796
  0
LINE
  5
343
100
AcDbEntity
  8
0
100
AcDbLine
 62
7
  6
CONTINUOUS
 10
50.7272265512
 20
67.5817960796
 11
54.5272265512
 21
67.5817960796
  0
LINE
  5
344
100
AcDbEntity
  8
0
100
AcDbLine
 62
7
  6
CONTINUOUS
 10
55.7272265512
 20
67.5817960796
 11
59.5272265512
 21
67.5817960796
  0
LINE
  5
345
100
AcDbEntity
  8
0
100
AcDbLine
 62
7
  6
CONTINUOUS
 10
60.7272265512
 20
67.5817960796
 11
64.5272265512
 21
67.5817960796
  0
LINE
  5
346
100
AcDbEntity
  8
0
100
AcDbLine
 62
7
  6
CONTINUOUS
 10
65.7272265512
 20
67.5817960796
 11
69.5272265512
 21
67.5817960796
  0
LINE
  5
347
100
AcDbEntity
  8
0
100
AcDbLine
 62
7
  6
CONTINUOUS
 10
50.5772265512
 20
67.7879463077
 11
50.1272265512
 21
67.7879463077
  0
LINE
  5
348
100
AcDbEntity
  8
0
100
AcDbLine
 62
7
  6
CONTINUOUS
 10
27.3772265512
 20
67.7879463077
 11
26.9272265512
 21
67.7879463077
  0
LINE
  5
349
100
AcDbEntity
  8
0
100
AcDbLine
 62
7
  6
CONTINUOUS
 10
31.4772265512
 20
67.7879463077
 11
32.3772265512
 21
67.7879463077
  0
LINE
  5
34A
100
AcDbEntity
  8
0
100
AcDbLine
 62
7
  6
CONTINUOUS
 10
36.4772265512
 20
67.7879463077
 11
37.3772265512
 21
67.7879463077
  0
LINE
  5
34B
100
AcDbEntity
  8
0
100
AcDbLine
 62
7
  6
CONTINUOUS
 10
41.4772265512
 20
67.7879463077
 11
42.3772265512
 21
67.7879463077
  0
LINE
  5
34C
100
AcDbEntity
  8
0
100
AcDbLine
 62
7
  6
CONTINUOUS
 10
46.4772265512
 20
67.7879463077
 11
46.9272265512
 21
67.7879463077
  0
LINE
  5
34D
100
AcDbEntity
  8
0
100
AcDbLine
 62
7
  6
CONTINUOUS
 10
54.6772265512
 20
67.7879463077
 11
55.5772265512
 21
67.7879463077
  0
LINE
  5
34E
100
AcDbEntity
  8
0
100
AcDbLine
 62
7
  6
CONTINUOUS
 10
59.6772265512
 20
67.7879463077
 11
60.5772265512
 21
67.7879463077
  0
LINE
  5
34F
100
AcDbEntity
  8
0
100
AcDbLine
 62
7
  6
CONTINUOUS
 10
64.6772265512
 20
67.7879463077
 11
65.5772265512
 21
67.7879463077
  0
LINE
  5
350
100
AcDbEntity
  8
0
100
AcDbLine
 62
7
  6
CONTINUOUS
 10
69.6772265512
 20
67.7879463077
 11
70.1272265512
 21
67.7879463077
  0
LINE
  5
351
100
AcDbEntity
  8
0
100
AcDbLine
 62
7
  6
CONTINUOUS
 10
69.5272265512
 20
68.0405857311
 11
65.7272265512
 21
68.0405857311
  0
LINE
  5
352
100
AcDbEntity
  8
0
100
AcDbLine
 62
7
  6
CONTINUOUS
 10
64.5272265512
 20
68.0405857311
 11
60.7272265512
 21
68.0405857311
  0
LINE
  5
353
100
AcDbEntity
  8
0
100
AcDbLine
 62
7
  6
CONTINUOUS
 10
59.5272265512
 20
68.0405857311
 11
55.7272265512
 21
68.0405857311
  0
LINE
  5
354
100
AcDbEntity
  8
0
100
AcDbLine
 62
7
  6
CONTINUOUS
 10
54.5272265512
 20
68.0405857311
 11
50.7272265512
 21
68.0405857311
  0
LINE
  5
355
100
AcDbEntity
  8
0
100
AcDbLine
 62
7
  6
CONTINUOUS
 10
46.3272265512
 20
68.0405857311
 11
42.5272265512
 21
68.0405857311
  0
LINE
  5
356
100
AcDbEntity
  8
0
100
AcDbLine
 62
7
  6
CONTINUOUS
 10
41.3272265512
 20
68.0405857311
 11
37.5272265512
 21
68.0405857311
  0
LINE
  5
357
100
AcDbEntity
  8
0
100
AcDbLine
 62
7
  6
CONTINUOUS
 10
36.3272265512
 20
68.0405857311
 11
32.5272265512
 21
68.0405857311
  0
LINE
  5
358
100
AcDbEntity
  8
0
100
AcDbLine
 62
7
  6
CONTINUOUS
 10
31.3272265512
 20
68.0405857311
 11
27.5272265512
 21
68.0405857311
  0
LINE
  5
359
100
AcDbEntity
  8
0
100
AcDbLine
 62
7
  6
CONTINUOUS
 10
50.1272265512
 20
68.9142699439
 11
46.9272265512
 21
68.9141423985
  0
LINE
  5
35A
100
AcDbEntity
  8
0
100
AcDbLine
 62
7
  6
CONTINUOUS
 10
50.1272265512
 20
28.8273671198
 11
50.1272265512
 21
49.8071605661
  0
LINE
  5
35B
100
AcDbEntity
  8
0
100
AcDbLine
 62
7
  6
CONTINUOUS
 10
50.1272265512
 20
50.4273671198
 11
50.1272265512
 21
71.4071605661
  0
LINE
  5
35C
100
AcDbEntity
  8
0
100
AcDbLine
 62
7
  6
CONTINUOUS
 10
50.5772265512
 20
67.7879463077
 11
50.5772265512
 21
65.1171313065
  0
LINE
  5
35D
100
AcDbEntity
  8
0
100
AcDbLine
 62
7
  6
CONTINUOUS
 10
50.5772265512
 20
46.1879463077
 11
50.5772265512
 21
43.5171313065
  0
LINE
  5
35E
100
AcDbEntity
  8
0
100
AcDbLine
 62
7
  6
CONTINUOUS
 10
50.7272265512
 20
43.5380980707
 11
50.7272265512
 21
46.4404608749
  0
LINE
  5
35F
100
AcDbEntity
  8
0
100
AcDbLine
 62
7
  6
CONTINUOUS
 10
50.7272265512
 20
65.1380980707
 11
50.7272265512
 21
68.0404608749
  0
LINE
  5
360
100
AcDbEntity
  8
0
100
AcDbLine
 62
7
  6
CONTINUOUS
 10
51.3272265512
 20
11.1594285714
 11
51.3272265512
 21
10.1594285714
  0
LINE
  5
361
100
AcDbEntity
  8
0
100
AcDbLine
 62
7
  6
CONTINUOUS
 10
51.4772265512
 20
61.0915125803
 11
51.4772265512
 21
60.210908484
  0
LINE
  5
362
100
AcDbEntity
  8
0
100
AcDbLine
 62
7
  6
CONTINUOUS
 10
51.4772265512
 20
39.4915125803
 11
51.4772265512
 21
38.610908484
  0
LINE
  5
363
100
AcDbEntity
  8
0
100
AcDbLine
 62
7
  6
CONTINUOUS
 10
52.3184830811
 20
11.1594285714
 11
52.3184830811
 21
10.1594285714
  0
LINE
  5
364
100
AcDbEntity
  8
0
100
AcDbLine
 62
7
  6
CONTINUOUS
 10
70.1272265512
 20
70.9020453797
 11
70.1672265512
 21
70.9020504266
  0
LINE
  5
365
100
AcDbEntity
  8
0
100
AcDbLine
 62
7
  6
CONTINUOUS
 10
50.1272265512
 20
70.8994285714
 11
46.9272265512
 21
70.8994285714
  0
LINE
  5
366
100
AcDbEntity
  8
0
100
AcDbLine
 62
7
  6
CONTINUOUS
 10
26.9272265512
 20
70.8994285714
 11
26.8872265512
 21
70.8994285714
  0
LINE
  5
367
100
AcDbEntity
  8
0
100
AcDbLine
 62
7
  6
CONTINUOUS
 10
26.9272265512
 20
71.4071605661
 11
46.9272265512
 21
71.4071605661
  0
LINE
  5
368
100
AcDbEntity
  8
0
100
AcDbLine
 62
7
  6
CONTINUOUS
 10
50.1272265512
 20
71.4071605661
 11
70.1272265512
 21
71.4071605661
  0
LINE
  5
369
100
AcDbEntity
  8
0
100
AcDbLine
 62
7
  6
CONTINUOUS
 10
55.8289720577
 20
121.8294285714
 11
55.7504242655
 21
126.3294285714
  0
LINE
  5
36A
100
AcDbEntity
  8
0
100
AcDbLine
 62
7
  6
CONTINUOUS
 10
53.7772265512
 20
38.610908484
 11
53.7772265512
 21
39.4915125803
  0
LINE
  5
36B
100
AcDbEntity
  8
0
100
AcDbLine
 62
7
  6
CONTINUOUS
 10
53.7772265512
 20
60.210908484
 11
53.7772265512
 21
61.0915125803
  0
LINE
  5
36C
100
AcDbEntity
  8
0
100
AcDbLine
 62
7
  6
CONTINUOUS
 10
54.2772265512
 20
126.3294285714
 11
54.2772265512
 21
127.3294285714
  0
LINE
  5
36D
100
AcDbEntity
  8
0
100
AcDbLine
 62
7
  6
CONTINUOUS
 10
54.3872265512
 20
60.4876697714
 11
54.3872265512
 21
59.2464373309
  0
LINE
  5
36E
100
AcDbEntity
  8
0
100
AcDbLine
 62
7
  6
CONTINUOUS
 10
54.3872265512
 20
38.8876697714
 11
54.3872265512
 21
37.6464373309
  0
LINE
  5
36F
100
AcDbEntity
  8
0
100
AcDbLine
 62
7
  6
CONTINUOUS
 10
54.5272265512
 20
68.0404608749
 11
54.5272265512
 21
65.1380980707
  0
LINE
  5
370
100
AcDbEntity
  8
0
100
AcDbLine
 62
7
  6
CONTINUOUS
 10
54.5272265512
 20
46.4404608749
 11
54.5272265512
 21
43.5380980707
  0
LINE
  5
371
100
AcDbEntity
  8
0
100
AcDbLine
 62
7
  6
CONTINUOUS
 10
54.6772265512
 20
43.5171313065
 11
54.6772265512
 21
46.1879463077
  0
LINE
  5
372
100
AcDbEntity
  8
0
100
AcDbLine
 62
7
  6
CONTINUOUS
 10
54.6772265512
 20
65.1171313065
 11
54.6772265512
 21
67.7879463077
  0
LINE
  5
373
100
AcDbEntity
  8
0
100
AcDbLine
 62
7
  6
CONTINUOUS
 10
55.5772265512
 20
67.7879463077
 11
55.5772265512
 21
65.1171313065
  0
LINE
  5
374
100
AcDbEntity
  8
0
100
AcDbLine
 62
7
  6
CONTINUOUS
 10
55.5772265512
 20
46.1879463077
 11
55.5772265512
 21
43.5171313065
  0
LINE
  5
375
100
AcDbEntity
  8
0
100
AcDbLine
 62
7
  6
CONTINUOUS
 10
55.7272265512
 20
43.5380980707
 11
55.7272265512
 21
46.4404608749
  0
LINE
  5
376
100
AcDbEntity
  8
0
100
AcDbLine
 62
7
  6
CONTINUOUS
 10
55.7272265512
 20
65.1380980707
 11
55.7272265512
 21
68.0404608749
  0
LINE
  5
377
100
AcDbEntity
  8
0
100
AcDbLine
 62
7
  6
CONTINUOUS
 10
55.8672265512
 20
37.6464373309
 11
55.8672265512
 21
38.8876697714
  0
LINE
  5
378
100
AcDbEntity
  8
0
100
AcDbLine
 62
7
  6
CONTINUOUS
 10
55.8672265512
 20
59.2464373309
 11
55.8672265512
 21
60.4876697714
  0
LINE
  5
379
100
AcDbEntity
  8
0
100
AcDbLine
 62
7
  6
CONTINUOUS
 10
56.2772265512
 20
120.7294285714
 11
56.2772265512
 21
124.2294285714
  0
LINE
  5
37A
100
AcDbEntity
  8
0
100
AcDbLine
 62
7
  6
CONTINUOUS
 10
56.4772265512
 20
61.0915125803
 11
56.4772265512
 21
60.210908484
  0
LINE
  5
37B
100
AcDbEntity
  8
0
100
AcDbLine
 62
7
  6
CONTINUOUS
 10
56.4772265512
 20
39.4915125803
 11
56.4772265512
 21
38.610908484
  0
LINE
  5
37C
100
AcDbEntity
  8
0
100
AcDbLine
 62
7
  6
CONTINUOUS
 10
58.2772265512
 20
125.3294285714
 11
58.2772265512
 21
120.7294285714
  0
LINE
  5
37D
100
AcDbEntity
  8
0
100
AcDbLine
 62
7
  6
CONTINUOUS
 10
58.7772265512
 20
38.610908484
 11
58.7772265512
 21
39.4915125803
  0
LINE
  5
37E
100
AcDbEntity
  8
0
100
AcDbLine
 62
7
  6
CONTINUOUS
 10
58.7772265512
 20
60.210908484
 11
58.7772265512
 21
61.0915125803
  0
LINE
  5
37F
100
AcDbEntity
  8
0
100
AcDbLine
 62
7
  6
CONTINUOUS
 10
59.3872265512
 20
60.4876697714
 11
59.3872265512
 21
59.2464373309
  0
LINE
  5
380
100
AcDbEntity
  8
0
100
AcDbLine
 62
7
  6
CONTINUOUS
 10
59.3872265512
 20
38.8876697714
 11
59.3872265512
 21
37.6464373309
  0
LINE
  5
381
100
AcDbEntity
  8
0
100
AcDbLine
 62
7
  6
CONTINUOUS
 10
59.5272265512
 20
68.0404608749
 11
59.5272265512
 21
65.1380980707
  0
LINE
  5
382
100
AcDbEntity
  8
0
100
AcDbLine
 62
7
  6
CONTINUOUS
 10
59.5272265512
 20
46.4404608749
 11
59.5272265512
 21
43.5380980707
  0
LINE
  5
383
100
AcDbEntity
  8
0
100
AcDbLine
 62
7
  6
CONTINUOUS
 10
59.6772265512
 20
43.5171313065
 11
59.6772265512
 21
46.1879463077
  0
LINE
  5
384
100
AcDbEntity
  8
0
100
AcDbLine
 62
7
  6
CONTINUOUS
 10
59.6772265512
 20
65.1171313065
 11
59.6772265512
 21
67.7879463077
  0
LINE
  5
385
100
AcDbEntity
  8
0
100
AcDbLine
 62
7
  6
CONTINUOUS
 10
59.7772265512
 20
120.7294285714
 11
59.7772265512
 21
127.3294285714
  0
LINE
  5
386
100
AcDbEntity
  8
0
100
AcDbLine
 62
7
  6
CONTINUOUS
 10
60.5772265512
 20
67.7879463077
 11
60.5772265512
 21
65.1171313065
  0
LINE
  5
387
100
AcDbEntity
  8
0
100
AcDbLine
 62
7
  6
CONTINUOUS
 10
60.5772265512
 20
46.1879463077
 11
60.5772265512
 21
43.5171313065
  0
LINE
  5
388
100
AcDbEntity
  8
0
100
AcDbLine
 62
7
  6
CONTINUOUS
 10
60.7272265512
 20
43.5380980707
 11
60.7272265512
 21
46.4404608749
  0
LINE
  5
389
100
AcDbEntity
  8
0
100
AcDbLine
 62
7
  6
CONTINUOUS
 10
60.7272265512
 20
65.1380980707
 11
60.7272265512
 21
68.0404608749
  0
LINE
  5
38A
100
AcDbEntity
  8
0
100
AcDbLine
 62
7
  6
CONTINUOUS
 10
60.8672265512
 20
37.6464373309
 11
60.8672265512
 21
38.8876697714
  0
LINE
  5
38B
100
AcDbEntity
  8
0
100
AcDbLine
 62
7
  6
CONTINUOUS
 10
60.8672265512
 20
59.2464373309
 11
60.8672265512
 21
60.4876697714
  0
LINE
  5
38C
100
AcDbEntity
  8
0
100
AcDbLine
 62
7
  6
CONTINUOUS
 10
61.4772265512
 20
61.0915125803
 11
61.4772265512
 21
60.210908484
  0
LINE
  5
38D
100
AcDbEntity
  8
0
100
AcDbLine
 62
7
  6
CONTINUOUS
 10
61.4772265512
 20
39.4915125803
 11
61.4772265512
 21
38.610908484
  0
LINE
  5
38E
100
AcDbEntity
  8
0
100
AcDbLine
 62
7
  6
CONTINUOUS
 10
63.7772265512
 20
38.610908484
 11
63.7772265512
 21
39.4915125803
  0
LINE
  5
38F
100
AcDbEntity
  8
0
100
AcDbLine
 62
7
  6
CONTINUOUS
 10
63.7772265512
 20
60.210908484
 11
63.7772265512
 21
61.0915125803
  0
LINE
  5
390
100
AcDbEntity
  8
0
100
AcDbLine
 62
7
  6
CONTINUOUS
 10
64.3872265512
 20
60.4876697714
 11
64.3872265512
 21
59.2464373309
  0
LINE
  5
391
100
AcDbEntity
  8
0
100
AcDbLine
 62
7
  6
CONTINUOUS
 10
64.3872265512
 20
38.8876697714
 11
64.3872265512
 21
37.6464373309
  0
LINE
  5
392
100
AcDbEntity
  8
0
100
AcDbLine
 62
7
  6
CONTINUOUS
 10
64.5272265512
 20
68.0404608749
 11
64.5272265512
 21
65.1380980707
  0
LINE
  5
393
100
AcDbEntity
  8
0
100
AcDbLine
 62
7
  6
CONTINUOUS
 10
64.5272265512
 20
46.4404608749
 11
64.5272265512
 21
43.5380980707
  0
LINE
  5
394
100
AcDbEntity
  8
0
100
AcDbLine
 62
7
  6
CONTINUOUS
 10
64.6772265512
 20
43.5171313065
 11
64.6772265512
 21
46.1879463077
  0
LINE
  5
395
100
AcDbEntity
  8
0
100
AcDbLine
 62
7
  6
CONTINUOUS
 10
64.6772265512
 20
65.1171313065
 11
64.6772265512
 21
67.7879463077
  0
LINE
  5
396
100
AcDbEntity
  8
0
100
AcDbLine
 62
7
  6
CONTINUOUS
 10
65.5772265512
 20
67.7879463077
 11
65.5772265512
 21
65.1171313065
  0
LINE
  5
397
100
AcDbEntity
  8
0
100
AcDbLine
 62
7
  6
CONTINUOUS
 10
65.5772265512
 20
46.1879463077
 11
65.5772265512
 21
43.5171313065
  0
LINE
  5
398
100
AcDbEntity
  8
0
100
AcDbLine
 62
7
  6
CONTINUOUS
 10
65.5772265512
 20
125.3294285714
 11
65.5772265512
 21
127.3294285714
  0
LINE
  5
399
100
AcDbEntity
  8
0
100
AcDbLine
 62
7
  6
CONTINUOUS
 10
65.7272265512
 20
43.5380980707
 11
65.7272265512
 21
46.4404608749
  0
LINE
  5
39A
100
AcDbEntity
  8
0
100
AcDbLine
 62
7
  6
CONTINUOUS
 10
65.7272265512
 20
65.1380980707
 11
65.7272265512
 21
68.0404608749
  0
LINE
  5
39B
100
AcDbEntity
  8
0
100
AcDbLine
 62
7
  6
CONTINUOUS
 10
65.8672265512
 20
37.6464373309
 11
65.8672265512
 21
38.8876697714
  0
LINE
  5
39C
100
AcDbEntity
  8
0
100
AcDbLine
 62
7
  6
CONTINUOUS
 10
65.8672265512
 20
59.2464373309
 11
65.8672265512
 21
60.4876697714
  0
LINE
  5
39D
100
AcDbEntity
  8
0
100
AcDbLine
 62
7
  6
CONTINUOUS
 10
66.4772265512
 20
61.0915125803
 11
66.4772265512
 21
60.210908484
  0
LINE
  5
39E
100
AcDbEntity
  8
0
100
AcDbLine
 62
7
  6
CONTINUOUS
 10
66.4772265512
 20
39.4915125803
 11
66.4772265512
 21
38.610908484
  0
LINE
  5
39F
100
AcDbEntity
  8
0
100
AcDbLine
 62
7
  6
CONTINUOUS
 10
66.8272265512
 20
16.6294285714
 11
66.8272265512
 21
10.1294285714
  0
LINE
  5
3A0
100
AcDbEntity
  8
0
100
AcDbLine
 62
7
  6
CONTINUOUS
 10
68.7772265512
 20
38.610908484
 11
68.7772265512
 21
39.4915125803
  0
LINE
  5
3A1
100
AcDbEntity
  8
0
100
AcDbLine
 62
7
  6
CONTINUOUS
 10
68.7772265512
 20
60.210908484
 11
68.7772265512
 21
61.0915125803
  0
LINE
  5
3A2
100
AcDbEntity
  8
0
100
AcDbLine
 62
7
  6
CONTINUOUS
 10
69.0272265512
 20
125.3294285714
 11
69.0272265512
 21
121.8294285714
  0
LINE
  5
3A3
100
AcDbEntity
  8
0
100
AcDbLine
 62
7
  6
CONTINUOUS
 10
69.5272265512
 20
68.0404608749
 11
69.5272265512
 21
65.1380980707
  0
LINE
  5
3A4
100
AcDbEntity
  8
0
100
AcDbLine
 62
7
  6
CONTINUOUS
 10
69.5272265512
 20
46.4404608749
 11
69.5272265512
 21
43.5380980707
  0
LINE
  5
3A5
100
AcDbEntity
  8
0
100
AcDbLine
 62
7
  6
CONTINUOUS
 10
69.6772265512
 20
43.5171313065
 11
69.6772265512
 21
46.1879463077
  0
LINE
  5
3A6
100
AcDbEntity
  8
0
100
AcDbLine
 62
7
  6
CONTINUOUS
 10
69.6772265512
 20
65.1171313065
 11
69.6772265512
 21
67.7879463077
  0
LINE
  5
3A7
100
AcDbEntity
  8
0
100
AcDbLine
 62
7
  6
CONTINUOUS
 10
70.1272265512
 20
71.4071605661
 11
70.1272265512
 21
50.4273671198
  0
LINE
  5
3A8
100
AcDbEntity
  8
0
100
AcDbLine
 62
7
  6
CONTINUOUS
 10
70.1272265512
 20
49.8071605661
 11
70.1272265512
 21
28.8273671198
  0
LINE
  5
3A9
100
AcDbEntity
  8
0
100
AcDbLine
 62
7
  6
CONTINUOUS
 10
70.1672265512
 20
25.9020504266
 11
70.1672265512
 21
70.9020504266
  0
LINE
  5
3AA
100
AcDbEntity
  8
0
100
AcDbLine
 62
7
  6
CONTINUOUS
 10
71.0272265512
 20
21.6294285714
 11
71.0272265512
 21
127.3294285714
  0
LINE
  5
3AB
100
AcDbEntity
  8
0
100
AcDbLine
 62
7
  6
CONTINUOUS
 10
70.9399512266
 20
16.6294285714
 11
71.0272265512
 21
21.6294285714
  0
LINE
  5
3AC
100
AcDbEntity
  8
0
100
AcDbLine
 62
7
  6
CONTINUOUS
 10
70.657018061
 20
10.1294285714
 11
70.8272265512
 21
16.6294285714
  0
LINE
  5
3AD
100
AcDbEntity
  8
0
100
AcDbLine
 62
7
  6
CONTINUOUS
 10
71.0272265512
 20
21.6595328825
 11
71.085875998
 21
21.7294285714
  0
LINE
  5
3AE
100
AcDbEntity
  8
0
100
AcDbLine
 62
7
  6
CONTINUOUS
 10
26.0272265512
 20
121.7945184416
 11
28.0272265512
 21
121.8294285714
  0
LINE
  5
3AF
100
AcDbEntity
  8
0
100
AcDbLine
 62
7
  6
CONTINUOUS
 10
59.7772265512
 20
120.7294285714
 11
58.2772265512
 21
120.7294285714
  0
LINE
  5
3B0
100
AcDbEntity
  8
0
100
AcDbLine
 62
7
  6
CONTINUOUS
 10
56.2772265512
 20
120.7294285714
 11
40.7772265512
 21
120.7294285714
  0
LINE
  5
3B1
100
AcDbEntity
  8
0
100
AcDbLine
 62
7
  6
CONTINUOUS
 10
37.2772265512
 20
120.7294285714
 11
38.7772265512
 21
120.7294285714
  0
LINE
  5
3B2
100
AcDbEntity
  8
0
100
AcDbLine
 62
7
  6
CONTINUOUS
 10
37.2772265512
 20
121.8294285714
 11
38.7772265512
 21
121.8294285714
  0
LINE
  5
3B3
100
AcDbEntity
  8
0
100
AcDbLine
 62
7
  6
CONTINUOUS
 10
40.7772265512
 20
121.8294285714
 11
56.2772265512
 21
121.8294285714
  0
LINE
  5
3B4
100
AcDbEntity
  8
0
100
AcDbLine
 62
7
  6
CONTINUOUS
 10
58.2772265512
 20
121.8294285714
 11
59.7772265512
 21
121.8294285714
  0
LINE
  5
3B5
100
AcDbEntity
  8
0
100
AcDbLine
 62
7
  6
CONTINUOUS
 10
56.2772265512
 20
123.0294285714
 11
55.8080259798
 21
123.0294285714
  0
LINE
  5
3B6
100
AcDbEntity
  8
0
100
AcDbLine
 62
7
  6
CONTINUOUS
 10
41.2464271226
 20
123.0294285714
 11
40.7772265512
 21
123.0294285714
  0
LINE
  5
3B7
100
AcDbEntity
  8
0
100
AcDbLine
 62
7
  6
CONTINUOUS
 10
56.2772265512
 20
123.5294285714
 11
55.7992984473
 21
123.5294285714
  0
LINE
  5
3B8
100
AcDbEntity
  8
0
100
AcDbLine
 62
7
  6
CONTINUOUS
 10
41.2551546551
 20
123.5294285714
 11
40.7772265512
 21
123.5294285714
  0
LINE
  5
3B9
100
AcDbEntity
  8
0
100
AcDbLine
 62
7
  6
CONTINUOUS
 10
69.0272265512
 20
121.8294285714
 11
71.0272265512
 21
121.7945184416
  0
LINE
  5
3BA
100
AcDbEntity
  8
0
100
AcDbLine
 62
7
  6
CONTINUOUS
 10
56.2772265512
 20
124.2294285714
 11
55.7870799019
 21
124.2294285714
  0
LINE
  5
3BB
100
AcDbEntity
  8
0
100
AcDbLine
 62
7
  6
CONTINUOUS
 10
41.2673732006
 20
124.2294285714
 11
40.7772265512
 21
124.2294285714
  0
LINE
  5
3BC
100
AcDbEntity
  8
0
100
AcDbLine
 62
7
  6
CONTINUOUS
 10
28.0272265512
 20
125.3294285714
 11
37.2772265512
 21
125.3294285714
  0
LINE
  5
3BD
100
AcDbEntity
  8
0
100
AcDbLine
 62
7
  6
CONTINUOUS
 10
38.7772265512
 20
125.3294285714
 11
41.286573772
 21
125.3294285714
  0
LINE
  5
3BE
100
AcDbEntity
  8
0
100
AcDbLine
 62
7
  6
CONTINUOUS
 10
55.7678793305
 20
125.3294285714
 11
58.2772265512
 21
125.3294285714
  0
LINE
  5
3BF
100
AcDbEntity
  8
0
100
AcDbLine
 62
7
  6
CONTINUOUS
 10
59.7772265512
 20
125.3294285714
 11
69.0272265512
 21
125.3294285714
  0
LINE
  5
3C0
100
AcDbEntity
  8
0
100
AcDbLine
 62
7
  6
CONTINUOUS
 10
55.7504242655
 20
126.3294285714
 11
41.3040288369
 21
126.3294285714
  0
LINE
  5
3C1
100
AcDbEntity
  8
0
100
AcDbLine
 62
7
  6
CONTINUOUS
 10
26.0272265512
 20
127.3294285714
 11
31.5272265512
 21
127.3294285714
  0
LINE
  5
3C2
100
AcDbEntity
  8
0
100
AcDbLine
 62
7
  6
CONTINUOUS
 10
37.2772265512
 20
127.3294285714
 11
42.7772265512
 21
127.3294285714
  0
LINE
  5
3C3
100
AcDbEntity
  8
0
100
AcDbLine
 62
7
  6
CONTINUOUS
 10
54.2772265512
 20
127.3294285714
 11
59.7772265512
 21
127.3294285714
  0
LINE
  5
3C4
100
AcDbEntity
  8
0
100
AcDbLine
 62
7
  6
CONTINUOUS
 10
65.5772265512
 20
127.3294285714
 11
71.0272265512
 21
127.3294285714
  0
ARC
  5
3C5
100
AcDbEntity
  8
0
100
AcDbCircle
 62
7
  6
CONTINUOUS
 10
39.6428566468
 20
45.0373640151
 40
1.865057202
100
AcDbArc
 50
46.8775275691
 51
51.0171490091
  0
ARC
  5
3C6
100
AcDbEntity
  8
0
100
AcDbCircle
 62
7
  6
CONTINUOUS
 10
44.6428566468
 20
45.0373640151
 40
1.865057202
100
AcDbArc
 50
46.8775275692
 51
51.0171490091
  0
ARC
  5
3C7
100
AcDbEntity
  8
0
100
AcDbCircle
 62
7
  6
CONTINUOUS
 10
34.6428566468
 20
45.0373640151
 40
1.865057202
100
AcDbArc
 50
46.8775275692
 51
51.0171490091
  0
ARC
  5
3C8
100
AcDbEntity
  8
0
100
AcDbCircle
 62
7
  6
CONTINUOUS
 10
29.6428566468
 20
45.0373640151
 40
1.865057202
100
AcDbArc
 50
46.8775275692
 51
51.0171490091
  0
ARC
  5
3C9
100
AcDbEntity
  8
0
100
AcDbCircle
 62
7
  6
CONTINUOUS
 10
39.0964820814
 20
47.5884629755
 40
1.7033535911
100
AcDbArc
 50
218.4610292143
 51
221.385140375
  0
ARC
  5
3CA
100
AcDbEntity
  8
0
100
AcDbCircle
 62
7
  6
CONTINUOUS
 10
44.0964820814
 20
47.5884629755
 40
1.7033535911
100
AcDbArc
 50
218.4610292143
 51
221.385140375
  0
ARC
  5
3CB
100
AcDbEntity
  8
0
100
AcDbCircle
 62
7
  6
CONTINUOUS
 10
34.0964820814
 20
47.5884629755
 40
1.7033535911
100
AcDbArc
 50
218.4610292143
 51
221.385140375
  0
ARC
  5
3CC
100
AcDbEntity
  8
0
100
AcDbCircle
 62
7
  6
CONTINUOUS
 10
29.0964820814
 20
47.5884629755
 40
1.703353591
100
AcDbArc
 50
218.4610292143
 51
221.385140375
  0
ARC
  5
3CD
100
AcDbEntity
  8
0
100
AcDbCircle
 62
7
  6
CONTINUOUS
 10
39.7596491886
 20
47.587129605
 40
1.7012126729
100
AcDbArc
 50
318.8897064081
 51
321.5261176158
  0
ARC
  5
3CE
100
AcDbEntity
  8
0
100
AcDbCircle
 62
7
  6
CONTINUOUS
 10
44.7596491885
 20
47.587129605
 40
1.7012126729
100
AcDbArc
 50
318.8897064081
 51
321.5261176158
  0
ARC
  5
3CF
100
AcDbEntity
  8
0
100
AcDbCircle
 62
7
  6
CONTINUOUS
 10
34.7596491886
 20
47.587129605
 40
1.7012126728
100
AcDbArc
 50
318.8897064081
 51
321.5261176158
  0
ARC
  5
3D0
100
AcDbEntity
  8
0
100
AcDbCircle
 62
7
  6
CONTINUOUS
 10
29.7596491886
 20
47.587129605
 40
1.7012126728
100
AcDbArc
 50
318.8897064081
 51
321.5261176158
  0
ARC
  5
3D1
100
AcDbEntity
  8
0
100
AcDbCircle
 62
7
  6
CONTINUOUS
 10
29.6428566468
 20
66.6373640151
 40
1.865057202
100
AcDbArc
 50
46.8775275692
 51
51.0171490091
  0
ARC
  5
3D2
100
AcDbEntity
  8
0
100
AcDbCircle
 62
7
  6
CONTINUOUS
 10
34.6428566468
 20
66.6373640151
 40
1.865057202
100
AcDbArc
 50
46.8775275692
 51
51.0171490091
  0
ARC
  5
3D3
100
AcDbEntity
  8
0
100
AcDbCircle
 62
7
  6
CONTINUOUS
 10
39.6428566468
 20
66.6373640151
 40
1.865057202
100
AcDbArc
 50
46.8775275692
 51
51.0171490091
  0
ARC
  5
3D4
100
AcDbEntity
  8
0
100
AcDbCircle
 62
7
  6
CONTINUOUS
 10
44.6428566468
 20
66.6373640151
 40
1.865057202
100
AcDbArc
 50
46.8775275692
 51
51.0171490091
  0
ARC
  5
3D5
100
AcDbEntity
  8
0
100
AcDbCircle
 62
7
  6
CONTINUOUS
 10
39.0964820814
 20
69.1884629755
 40
1.7033535911
100
AcDbArc
 50
218.4610292143
 51
221.385140375
  0
ARC
  5
3D6
100
AcDbEntity
  8
0
100
AcDbCircle
 62
7
  6
CONTINUOUS
 10
44.0964820814
 20
69.1884629755
 40
1.7033535911
100
AcDbArc
 50
218.4610292143
 51
221.385140375
  0
ARC
  5
3D7
100
AcDbEntity
  8
0
100
AcDbCircle
 62
7
  6
CONTINUOUS
 10
34.0964820814
 20
69.1884629754
 40
1.703353591
100
AcDbArc
 50
218.4610292143
 51
221.385140375
  0
ARC
  5
3D8
100
AcDbEntity
  8
0
100
AcDbCircle
 62
7
  6
CONTINUOUS
 10
29.0964820814
 20
69.1884629755
 40
1.703353591
100
AcDbArc
 50
218.4610292143
 51
221.385140375
  0
ARC
  5
3D9
100
AcDbEntity
  8
0
100
AcDbCircle
 62
7
  6
CONTINUOUS
 10
39.7596491885
 20
69.187129605
 40
1.7012126729
100
AcDbArc
 50
318.8897064081
 51
321.5261176158
  0
ARC
  5
3DA
100
AcDbEntity
  8
0
100
AcDbCircle
 62
7
  6
CONTINUOUS
 10
44.7596491885
 20
69.187129605
 40
1.7012126729
100
AcDbArc
 50
318.8897064081
 51
321.5261176158
  0
ARC
  5
3DB
100
AcDbEntity
  8
0
100
AcDbCircle
 62
7
  6
CONTINUOUS
 10
34.7596491885
 20
69.187129605
 40
1.7012126729
100
AcDbArc
 50
318.8897064081
 51
321.5261176158
  0
ARC
  5
3DC
100
AcDbEntity
  8
0
100
AcDbCircle
 62
7
  6
CONTINUOUS
 10
29.7596491885
 20
69.1871296051
 40
1.7012126729
100
AcDbArc
 50
318.8897064081
 51
321.5261176157
  0
ARC
  5
3DD
100
AcDbEntity
  8
0
100
AcDbCircle
 62
7
  6
CONTINUOUS
 10
67.842832789
 20
45.0373359124
 40
1.8650940559
100
AcDbArc
 50
46.8817215406
 51
51.0171223924
  0
ARC
  5
3DE
100
AcDbEntity
  8
0
100
AcDbCircle
 62
7
  6
CONTINUOUS
 10
52.8428566468
 20
45.0373640151
 40
1.865057202
100
AcDbArc
 50
46.8775275692
 51
51.0171490091
  0
ARC
  5
3DF
100
AcDbEntity
  8
0
100
AcDbCircle
 62
7
  6
CONTINUOUS
 10
57.8428566468
 20
45.0373640151
 40
1.865057202
100
AcDbArc
 50
46.8775275692
 51
51.0171490091
  0
ARC
  5
3E0
100
AcDbEntity
  8
0
100
AcDbCircle
 62
7
  6
CONTINUOUS
 10
62.8428566468
 20
45.0373640152
 40
1.865057202
100
AcDbArc
 50
46.8775275691
 51
51.0171490091
  0
ARC
  5
3E1
100
AcDbEntity
  8
0
100
AcDbCircle
 62
7
  6
CONTINUOUS
 10
67.2974885136
 20
47.5892672516
 40
1.7046404688
100
AcDbArc
 50
218.4534158052
 51
221.5456019481
  0
ARC
  5
3E2
100
AcDbEntity
  8
0
100
AcDbCircle
 62
7
  6
CONTINUOUS
 10
52.2964820814
 20
47.5884629755
 40
1.703353591
100
AcDbArc
 50
218.4610292143
 51
221.385140375
  0
ARC
  5
3E3
100
AcDbEntity
  8
0
100
AcDbCircle
 62
7
  6
CONTINUOUS
 10
57.2964820814
 20
47.5884629755
 40
1.703353591
100
AcDbArc
 50
218.4610292143
 51
221.385140375
  0
ARC
  5
3E4
100
AcDbEntity
  8
0
100
AcDbCircle
 62
7
  6
CONTINUOUS
 10
62.2964820814
 20
47.5884629755
 40
1.7033535911
100
AcDbArc
 50
218.4610292143
 51
221.385140375
  0
ARC
  5
3E5
100
AcDbEntity
  8
0
100
AcDbCircle
 62
7
  6
CONTINUOUS
 10
52.9596491885
 20
47.587129605
 40
1.7012126729
100
AcDbArc
 50
318.8897064081
 51
321.5261176158
  0
ARC
  5
3E6
100
AcDbEntity
  8
0
100
AcDbCircle
 62
7
  6
CONTINUOUS
 10
57.9596491885
 20
47.5871296051
 40
1.7012126729
100
AcDbArc
 50
318.8897064081
 51
321.5261176158
  0
ARC
  5
3E7
100
AcDbEntity
  8
0
100
AcDbCircle
 62
7
  6
CONTINUOUS
 10
62.9596491885
 20
47.587129605
 40
1.7012126729
100
AcDbArc
 50
318.8897064081
 51
321.5261176158
  0
ARC
  5
3E8
100
AcDbEntity
  8
0
100
AcDbCircle
 62
7
  6
CONTINUOUS
 10
67.9598984113
 20
47.5869734629
 40
1.7009222361
100
AcDbArc
 50
318.8829901582
 51
321.5252417338
  0
ARC
  5
3E9
100
AcDbEntity
  8
0
100
AcDbCircle
 62
7
  6
CONTINUOUS
 10
67.8428566468
 20
66.6373640151
 40
1.865057202
100
AcDbArc
 50
46.8775275692
 51
51.0171490091
  0
ARC
  5
3EA
100
AcDbEntity
  8
0
100
AcDbCircle
 62
7
  6
CONTINUOUS
 10
62.8428566469
 20
66.6373640152
 40
1.8650572019
100
AcDbArc
 50
46.8775275691
 51
51.0171490091
  0
ARC
  5
3EB
100
AcDbEntity
  8
0
100
AcDbCircle
 62
7
  6
CONTINUOUS
 10
52.8428566468
 20
66.6373640151
 40
1.865057202
100
AcDbArc
 50
46.8775275692
 51
51.0171490091
  0
ARC
  5
3EC
100
AcDbEntity
  8
0
100
AcDbCircle
 62
7
  6
CONTINUOUS
 10
57.8428566468
 20
66.6373640151
 40
1.865057202
100
AcDbArc
 50
46.8775275692
 51
51.0171490091
  0
ARC
  5
3ED
100
AcDbEntity
  8
0
100
AcDbCircle
 62
7
  6
CONTINUOUS
 10
52.2964820814
 20
69.1884629755
 40
1.7033535911
100
AcDbArc
 50
218.4610292143
 51
221.385140375
  0
ARC
  5
3EE
100
AcDbEntity
  8
0
100
AcDbCircle
 62
7
  6
CONTINUOUS
 10
57.2964820814
 20
69.1884629755
 40
1.703353591
100
AcDbArc
 50
218.4610292143
 51
221.385140375
  0
ARC
  5
3EF
100
AcDbEntity
  8
0
100
AcDbCircle
 62
7
  6
CONTINUOUS
 10
67.2964820814
 20
69.1884629755
 40
1.7033535911
100
AcDbArc
 50
218.4610292143
 51
221.385140375
  0
ARC
  5
3F0
100
AcDbEntity
  8
0
100
AcDbCircle
 62
7
  6
CONTINUOUS
 10
62.2964820814
 20
69.1884629755
 40
1.7033535911
100
AcDbArc
 50
218.4610292143
 51
221.385140375
  0
ARC
  5
3F1
100
AcDbEntity
  8
0
100
AcDbCircle
 62
7
  6
CONTINUOUS
 10
52.9596491885
 20
69.187129605
 40
1.7012126729
100
AcDbArc
 50
318.8897064081
 51
321.5261176158
  0
ARC
  5
3F2
100
AcDbEntity
  8
0
100
AcDbCircle
 62
7
  6
CONTINUOUS
 10
57.9596491886
 20
69.187129605
 40
1.7012126729
100
AcDbArc
 50
318.889706408
 51
321.5261176158
  0
ARC
  5
3F3
100
AcDbEntity
  8
0
100
AcDbCircle
 62
7
  6
CONTINUOUS
 10
67.9596491885
 20
69.187129605
 40
1.7012126729
100
AcDbArc
 50
318.8897064081
 51
321.5261176158
  0
ARC
  5
3F4
100
AcDbEntity
  8
0
100
AcDbCircle
 62
7
  6
CONTINUOUS
 10
62.9596491885
 20
69.1871296051
 40
1.7012126729
100
AcDbArc
 50
318.8897064081
 51
321.5261176158
  0
SPLINE
  5
3F5
100
AcDbEntity
  8
0
100
AcDbSpline
 62
7
  6
CONTINUOUS
 70
0
 71
3
 72
9
 73
5
 74
0
 42
0.0000001
 43
0.0000001
 44
0.0000000001
 40
0.0
 40
0.0
 40
0.0
 40
0.0
 40
0.4918363705
 40
1.0
 40
1.0
 40
1.0
 40
1.0
 10
54.6272265514
 20
69.0588829758
 30
0.0
 10
54.6272265514
 20
68.894418547
 30
0.0
 10
54.5669393259
 20
68.5575871524
 30
0.0
 10
54.397224483
 20
68.2617468002
 30
0.0
 10
54.291514711
 20
68.1287068216
 30
0.0
  0
SPLINE
  5
3F6
100
AcDbEntity
  8
0
100
AcDbSpline
 62
7
  6
CONTINUOUS
 70
0
 71
3
 72
9
 73
5
 74
0
 42
0.0000001
 43
0.0000001
 44
0.0000000001
 40
0.0
 40
0.0
 40
0.0
 40
0.0
 40
0.5081745927
 40
1.0
 40
1.0
 40
1.0
 40
1.0
 10
50.9627027502
 20
68.1290073833
 30
0.0
 10
50.8570626873
 20
68.2620256494
 30
0.0
 10
50.6874674404
 20
68.5577811707
 30
0.0
 10
50.627226551
 20
68.8944841796
 30
0.0
 10
50.627226551
 20
69.0588829758
 30
0.0
  0
SPLINE
  5
3F7
100
AcDbEntity
  8
0
100
AcDbSpline
 62
7
  6
CONTINUOUS
 70
0
 71
3
 72
9
 73
5
 74
0
 42
0.0000001
 43
0.0000001
 44
0.0000000001
 40
0.0
 40
0.0
 40
0.0
 40
0.0
 40
0.4918363705
 40
1.0
 40
1.0
 40
1.0
 40
1.0
 10
59.6272265514
 20
69.0588829758
 30
0.0
 10
59.6272265514
 20
68.894418547
 30
0.0
 10
59.5669393259
 20
68.5575871524
 30
0.0
 10
59.397224483
 20
68.2617468002
 30
0.0
 10
59.291514711
 20
68.1287068216
 30
0.0
  0
SPLINE
  5
3F8
100
AcDbEntity
  8
0
100
AcDbSpline
 62
7
  6
CONTINUOUS
 70
0
 71
3
 72
9
 73
5
 74
0
 42
0.0000001
 43
0.0000001
 44
0.0000000001
 40
0.0
 40
0.0
 40
0.0
 40
0.0
 40
0.5081745927
 40
1.0
 40
1.0
 40
1.0
 40
1.0
 10
55.9627027502
 20
68.1290073833
 30
0.0
 10
55.8570626873
 20
68.2620256494
 30
0.0
 10
55.6874674404
 20
68.5577811707
 30
0.0
 10
55.627226551
 20
68.8944841796
 30
0.0
 10
55.627226551
 20
69.0588829758
 30
0.0
  0
SPLINE
  5
3F9
100
AcDbEntity
  8
0
100
AcDbSpline
 62
7
  6
CONTINUOUS
 70
0
 71
3
 72
15
 73
11
 74
0
 42
0.0000001
 43
0.0000001
 44
0.0000000001
 40
0.0
 40
0.0
 40
0.0
 40
0.0
 40
0.114741345
 40
0.2357168388
 40
0.36505153
 40
0.4999857803
 40
0.6349199993
 40
0.7642628771
 40
0.8852526753
 40
1.0
 40
1.0
 40
1.0
 40
1.0
 10
68.7772265512
 20
60.210908484
 30
0.0
 10
68.7772265512
 20
60.0844490467
 30
0.0
 10
68.7129856586
 20
59.8212945861
 30
0.0
 10
68.4500115682
 20
59.5020983683
 30
0.0
 10
68.0693558676
 20
59.2941224271
 30
0.0
 10
67.6272754445
 20
59.222183759
 30
0.0
 10
67.1851806941
 20
59.2940913733
 30
0.0
 10
66.8044887243
 20
59.502055009
 30
0.0
 10
66.5414782276
 20
59.8212655301
 30
0.0
 10
66.4772265512
 20
60.0844424564
 30
0.0
 10
66.4772265512
 20
60.210908484
 30
0.0
  0
SPLINE
  5
3FA
100
AcDbEntity
  8
0
100
AcDbSpline
 62
7
  6
CONTINUOUS
 70
0
 71
3
 72
15
 73
11
 74
0
 42
0.0000001
 43
0.0000001
 44
0.0000000001
 40
0.0
 40
0.0
 40
0.0
 40
0.0
 40
0.114741345
 40
0.2357168388
 40
0.36505153
 40
0.4999857803
 40
0.6349199993
 40
0.7642628771
 40
0.8852526753
 40
1.0
 40
1.0
 40
1.0
 40
1.0
 10
63.7772265512
 20
60.210908484
 30
0.0
 10
63.7772265512
 20
60.0844490467
 30
0.0
 10
63.7129856586
 20
59.8212945861
 30
0.0
 10
63.4500115682
 20
59.5020983683
 30
0.0
 10
63.0693558676
 20
59.2941224271
 30
0.0
 10
62.6272754445
 20
59.222183759
 30
0.0
 10
62.1851806941
 20
59.2940913733
 30
0.0
 10
61.8044887243
 20
59.502055009
 30
0.0
 10
61.5414782276
 20
59.8212655301
 30
0.0
 10
61.4772265512
 20
60.0844424564
 30
0.0
 10
61.4772265512
 20
60.210908484
 30
0.0
  0
SPLINE
  5
3FB
100
AcDbEntity
  8
0
100
AcDbSpline
 62
7
  6
CONTINUOUS
 70
0
 71
3
 72
15
 73
11
 74
0
 42
0.0000001
 43
0.0000001
 44
0.0000000001
 40
0.0
 40
0.0
 40
0.0
 40
0.0
 40
0.114741345
 40
0.2357168388
 40
0.36505153
 40
0.4999857803
 40
0.6349199993
 40
0.7642628771
 40
0.8852526753
 40
1.0
 40
1.0
 40
1.0
 40
1.0
 10
58.7772265512
 20
60.210908484
 30
0.0
 10
58.7772265512
 20
60.0844490467
 30
0.0
 10
58.7129856586
 20
59.8212945861
 30
0.0
 10
58.4500115682
 20
59.5020983683
 30
0.0
 10
58.0693558676
 20
59.2941224271
 30
0.0
 10
57.6272754445
 20
59.222183759
 30
0.0
 10
57.1851806941
 20
59.2940913733
 30
0.0
 10
56.8044887243
 20
59.502055009
 30
0.0
 10
56.5414782276
 20
59.8212655301
 30
0.0
 10
56.4772265512
 20
60.0844424564
 30
0.0
 10
56.4772265512
 20
60.210908484
 30
0.0
  0
SPLINE
  5
3FC
100
AcDbEntity
  8
0
100
AcDbSpline
 62
7
  6
CONTINUOUS
 70
0
 71
3
 72
15
 73
11
 74
0
 42
0.0000001
 43
0.0000001
 44
0.0000000001
 40
0.0
 40
0.0
 40
0.0
 40
0.0
 40
0.114741345
 40
0.2357168388
 40
0.36505153
 40
0.4999857803
 40
0.6349199993
 40
0.7642628771
 40
0.8852526753
 40
1.0
 40
1.0
 40
1.0
 40
1.0
 10
53.7772265512
 20
60.210908484
 30
0.0
 10
53.7772265512
 20
60.0844490467
 30
0.0
 10
53.7129856586
 20
59.8212945861
 30
0.0
 10
53.4500115682
 20
59.5020983683
 30
0.0
 10
53.0693558676
 20
59.2941224271
 30
0.0
 10
52.6272754445
 20
59.222183759
 30
0.0
 10
52.1851806941
 20
59.2940913733
 30
0.0
 10
51.8044887243
 20
59.502055009
 30
0.0
 10
51.5414782276
 20
59.8212655301
 30
0.0
 10
51.4772265512
 20
60.0844424564
 30
0.0
 10
51.4772265512
 20
60.210908484
 30
0.0
  0
SPLINE
  5
3FD
100
AcDbEntity
  8
0
100
AcDbSpline
 62
7
  6
CONTINUOUS
 70
0
 71
3
 72
9
 73
5
 74
0
 42
0.0000001
 43
0.0000001
 44
0.0000000001
 40
0.0
 40
0.0
 40
0.0
 40
0.0
 40
0.4918363705
 40
1.0
 40
1.0
 40
1.0
 40
1.0
 10
69.6272265514
 20
69.0588829758
 30
0.0
 10
69.6272265514
 20
68.894418547
 30
0.0
 10
69.5669393259
 20
68.5575871524
 30
0.0
 10
69.397224483
 20
68.2617468002
 30
0.0
 10
69.291514711
 20
68.1287068216
 30
0.0
  0
SPLINE
  5
3FE
100
AcDbEntity
  8
0
100
AcDbSpline
 62
7
  6
CONTINUOUS
 70
0
 71
3
 72
9
 73
5
 74
0
 42
0.0000001
 43
0.0000001
 44
0.0000000001
 40
0.0
 40
0.0
 40
0.0
 40
0.0
 40
0.5081745927
 40
1.0
 40
1.0
 40
1.0
 40
1.0
 10
65.9627027502
 20
68.1290073832
 30
0.0
 10
65.8570626873
 20
68.2620256494
 30
0.0
 10
65.6874674404
 20
68.5577811707
 30
0.0
 10
65.627226551
 20
68.8944841796
 30
0.0
 10
65.627226551
 20
69.0588829758
 30
0.0
  0
SPLINE
  5
3FF
100
AcDbEntity
  8
0
100
AcDbSpline
 62
7
  6
CONTINUOUS
 70
0
 71
3
 72
9
 73
5
 74
0
 42
0.0000001
 43
0.0000001
 44
0.0000000001
 40
0.0
 40
0.0
 40
0.0
 40
0.0
 40
0.4918363705
 40
1.0
 40
1.0
 40
1.0
 40
1.0
 10
64.6272265514
 20
69.0588829758
 30
0.0
 10
64.6272265514
 20
68.894418547
 30
0.0
 10
64.5669393259
 20
68.5575871524
 30
0.0
 10
64.397224483
 20
68.2617468002
 30
0.0
 10
64.291514711
 20
68.1287068216
 30
0.0
  0
SPLINE
  5
400
100
AcDbEntity
  8
0
100
AcDbSpline
 62
7
  6
CONTINUOUS
 70
0
 71
3
 72
9
 73
5
 74
0
 42
0.0000001
 43
0.0000001
 44
0.0000000001
 40
0.0
 40
0.0
 40
0.0
 40
0.0
 40
0.5081745927
 40
1.0
 40
1.0
 40
1.0
 40
1.0
 10
60.9627027502
 20
68.1290073833
 30
0.0
 10
60.8570626873
 20
68.2620256494
 30
0.0
 10
60.6874674404
 20
68.5577811707
 30
0.0
 10
60.627226551
 20
68.8944841796
 30
0.0
 10
60.627226551
 20
69.0588829758
 30
0.0
  0
SPLINE
  5
401
100
AcDbEntity
  8
0
100
AcDbSpline
 62
7
  6
CONTINUOUS
 70
0
 71
3
 72
9
 73
5
 74
0
 42
0.0000001
 43
0.0000001
 44
0.0000000001
 40
0.0
 40
0.0
 40
0.0
 40
0.0
 40
0.4918363705
 40
1.0
 40
1.0
 40
1.0
 40
1.0
 10
54.6272265514
 20
47.4588829758
 30
0.0
 10
54.6272265514
 20
47.294418547
 30
0.0
 10
54.5669393259
 20
46.9575871524
 30
0.0
 10
54.397224483
 20
46.6617468002
 30
0.0
 10
54.291514711
 20
46.5287068216
 30
0.0
  0
SPLINE
  5
402
100
AcDbEntity
  8
0
100
AcDbSpline
 62
7
  6
CONTINUOUS
 70
0
 71
3
 72
9
 73
5
 74
0
 42
0.0000001
 43
0.0000001
 44
0.0000000001
 40
0.0
 40
0.0
 40
0.0
 40
0.0
 40
0.5081745927
 40
1.0
 40
1.0
 40
1.0
 40
1.0
 10
50.9627027502
 20
46.5290073833
 30
0.0
 10
50.8570626873
 20
46.6620256494
 30
0.0
 10
50.6874674404
 20
46.9577811707
 30
0.0
 10
50.627226551
 20
47.2944841796
 30
0.0
 10
50.627226551
 20
47.4588829758
 30
0.0
  0
SPLINE
  5
403
100
AcDbEntity
  8
0
100
AcDbSpline
 62
7
  6
CONTINUOUS
 70
0
 71
3
 72
9
 73
5
 74
0
 42
0.0000001
 43
0.0000001
 44
0.0000000001
 40
0.0
 40
0.0
 40
0.0
 40
0.0
 40
0.4918363705
 40
1.0
 40
1.0
 40
1.0
 40
1.0
 10
59.6272265514
 20
47.4588829758
 30
0.0
 10
59.6272265514
 20
47.294418547
 30
0.0
 10
59.5669393259
 20
46.9575871524
 30
0.0
 10
59.397224483
 20
46.6617468002
 30
0.0
 10
59.291514711
 20
46.5287068216
 30
0.0
  0
SPLINE
  5
404
100
AcDbEntity
  8
0
100
AcDbSpline
 62
7
  6
CONTINUOUS
 70
0
 71
3
 72
9
 73
5
 74
0
 42
0.0000001
 43
0.0000001
 44
0.0000000001
 40
0.0
 40
0.0
 40
0.0
 40
0.0
 40
0.5081745927
 40
1.0
 40
1.0
 40
1.0
 40
1.0
 10
55.9627027502
 20
46.5290073833
 30
0.0
 10
55.8570626873
 20
46.6620256494
 30
0.0
 10
55.6874674404
 20
46.9577811707
 30
0.0
 10
55.627226551
 20
47.2944841796
 30
0.0
 10
55.627226551
 20
47.4588829758
 30
0.0
  0
SPLINE
  5
405
100
AcDbEntity
  8
0
100
AcDbSpline
 62
7
  6
CONTINUOUS
 70
0
 71
3
 72
15
 73
11
 74
0
 42
0.0000001
 43
0.0000001
 44
0.0000000001
 40
0.0
 40
0.0
 40
0.0
 40
0.0
 40
0.114741345
 40
0.2357168388
 40
0.36505153
 40
0.4999857803
 40
0.6349199993
 40
0.7642628771
 40
0.8852526753
 40
1.0
 40
1.0
 40
1.0
 40
1.0
 10
68.7772265512
 20
38.610908484
 30
0.0
 10
68.7772265512
 20
38.4844490467
 30
0.0
 10
68.7129856586
 20
38.2212945861
 30
0.0
 10
68.4500115682
 20
37.9020983683
 30
0.0
 10
68.0693558676
 20
37.6941224271
 30
0.0
 10
67.6272754445
 20
37.622183759
 30
0.0
 10
67.1851806941
 20
37.6940913733
 30
0.0
 10
66.8044887243
 20
37.902055009
 30
0.0
 10
66.5414782276
 20
38.2212655301
 30
0.0
 10
66.4772265512
 20
38.4844424564
 30
0.0
 10
66.4772265512
 20
38.610908484
 30
0.0
  0
SPLINE
  5
406
100
AcDbEntity
  8
0
100
AcDbSpline
 62
7
  6
CONTINUOUS
 70
0
 71
3
 72
15
 73
11
 74
0
 42
0.0000001
 43
0.0000001
 44
0.0000000001
 40
0.0
 40
0.0
 40
0.0
 40
0.0
 40
0.114741345
 40
0.2357168388
 40
0.36505153
 40
0.4999857803
 40
0.6349199993
 40
0.7642628771
 40
0.8852526753
 40
1.0
 40
1.0
 40
1.0
 40
1.0
 10
63.7772265512
 20
38.610908484
 30
0.0
 10
63.7772265512
 20
38.4844490467
 30
0.0
 10
63.7129856586
 20
38.2212945861
 30
0.0
 10
63.4500115682
 20
37.9020983683
 30
0.0
 10
63.0693558676
 20
37.6941224271
 30
0.0
 10
62.6272754445
 20
37.622183759
 30
0.0
 10
62.1851806941
 20
37.6940913733
 30
0.0
 10
61.8044887243
 20
37.902055009
 30
0.0
 10
61.5414782276
 20
38.2212655301
 30
0.0
 10
61.4772265512
 20
38.4844424564
 30
0.0
 10
61.4772265512
 20
38.610908484
 30
0.0
  0
SPLINE
  5
407
100
AcDbEntity
  8
0
100
AcDbSpline
 62
7
  6
CONTINUOUS
 70
0
 71
3
 72
15
 73
11
 74
0
 42
0.0000001
 43
0.0000001
 44
0.0000000001
 40
0.0
 40
0.0
 40
0.0
 40
0.0
 40
0.114741345
 40
0.2357168388
 40
0.36505153
 40
0.4999857803
 40
0.6349199993
 40
0.7642628771
 40
0.8852526753
 40
1.0
 40
1.0
 40
1.0
 40
1.0
 10
58.7772265512
 20
38.610908484
 30
0.0
 10
58.7772265512
 20
38.4844490467
 30
0.0
 10
58.7129856586
 20
38.2212945861
 30
0.0
 10
58.4500115682
 20
37.9020983683
 30
0.0
 10
58.0693558676
 20
37.6941224271
 30
0.0
 10
57.6272754445
 20
37.622183759
 30
0.0
 10
57.1851806941
 20
37.6940913733
 30
0.0
 10
56.8044887243
 20
37.902055009
 30
0.0
 10
56.5414782276
 20
38.2212655301
 30
0.0
 10
56.4772265512
 20
38.4844424564
 30
0.0
 10
56.4772265512
 20
38.610908484
 30
0.0
  0
SPLINE
  5
408
100
AcDbEntity
  8
0
100
AcDbSpline
 62
7
  6
CONTINUOUS
 70
0
 71
3
 72
15
 73
11
 74
0
 42
0.0000001
 43
0.0000001
 44
0.0000000001
 40
0.0
 40
0.0
 40
0.0
 40
0.0
 40
0.114741345
 40
0.2357168388
 40
0.36505153
 40
0.4999857803
 40
0.6349199993
 40
0.7642628771
 40
0.8852526753
 40
1.0
 40
1.0
 40
1.0
 40
1.0
 10
53.7772265512
 20
38.610908484
 30
0.0
 10
53.7772265512
 20
38.4844490467
 30
0.0
 10
53.7129856586
 20
38.2212945861
 30
0.0
 10
53.4500115682
 20
37.9020983683
 30
0.0
 10
53.0693558676
 20
37.6941224271
 30
0.0
 10
52.6272754445
 20
37.622183759
 30
0.0
 10
52.1851806941
 20
37.6940913733
 30
0.0
 10
51.8044887243
 20
37.902055009
 30
0.0
 10
51.5414782276
 20
38.2212655301
 30
0.0
 10
51.4772265512
 20
38.4844424564
 30
0.0
 10
51.4772265512
 20
38.610908484
 30
0.0
  0
SPLINE
  5
409
100
AcDbEntity
  8
0
100
AcDbSpline
 62
7
  6
CONTINUOUS
 70
0
 71
3
 72
9
 73
5
 74
0
 42
0.0000001
 43
0.0000001
 44
0.0000000001
 40
0.0
 40
0.0
 40
0.0
 40
0.0
 40
0.4918376816
 40
1.0
 40
1.0
 40
1.0
 40
1.0
 10
69.6272265514
 20
47.4588829758
 30
0.0
 10
69.6272265514
 20
47.2944191853
 30
0.0
 10
69.5669372224
 20
46.9575915975
 30
0.0
 10
69.3972311631
 20
46.6617482112
 30
0.0
 10
69.2915203756
 20
46.5287110203
 30
0.0
  0
SPLINE
  5
40A
100
AcDbEntity
  8
0
100
AcDbSpline
 62
7
  6
CONTINUOUS
 70
0
 71
3
 72
9
 73
5
 74
0
 42
0.0000001
 43
0.0000001
 44
0.0000000001
 40
0.0
 40
0.0
 40
0.0
 40
0.0
 40
0.5081790012
 40
1.0
 40
1.0
 40
1.0
 40
1.0
 10
65.9625606427
 20
46.529188619
 30
0.0
 10
65.856962846
 20
46.6621930025
 30
0.0
 10
65.6874406064
 20
46.9578977334
 30
0.0
 10
65.627226551
 20
47.2945230387
 30
0.0
 10
65.627226551
 20
47.4588829758
 30
0.0
  0
SPLINE
  5
40B
100
AcDbEntity
  8
0
100
AcDbSpline
 62
7
  6
CONTINUOUS
 70
0
 71
3
 72
9
 73
5
 74
0
 42
0.0000001
 43
0.0000001
 44
0.0000000001
 40
0.0
 40
0.0
 40
0.0
 40
0.0
 40
0.4918363705
 40
1.0
 40
1.0
 40
1.0
 40
1.0
 10
64.6272265514
 20
47.4588829758
 30
0.0
 10
64.6272265514
 20
47.294418547
 30
0.0
 10
64.5669393259
 20
46.9575871524
 30
0.0
 10
64.397224483
 20
46.6617468002
 30
0.0
 10
64.291514711
 20
46.5287068216
 30
0.0
  0
SPLINE
  5
40C
100
AcDbEntity
  8
0
100
AcDbSpline
 62
7
  6
CONTINUOUS
 70
0
 71
3
 72
9
 73
5
 74
0
 42
0.0000001
 43
0.0000001
 44
0.0000000001
 40
0.0
 40
0.0
 40
0.0
 40
0.0
 40
0.5081745927
 40
1.0
 40
1.0
 40
1.0
 40
1.0
 10
60.9627027502
 20
46.5290073833
 30
0.0
 10
60.8570626873
 20
46.6620256494
 30
0.0
 10
60.6874674404
 20
46.9577811707
 30
0.0
 10
60.627226551
 20
47.2944841796
 30
0.0
 10
60.627226551
 20
47.4588829758
 30
0.0
  0
SPLINE
  5
40D
100
AcDbEntity
  8
0
100
AcDbSpline
 62
7
  6
CONTINUOUS
 70
0
 71
3
 72
9
 73
5
 74
0
 42
0.0000001
 43
0.0000001
 44
0.0000000001
 40
0.0
 40
0.0
 40
0.0
 40
0.0
 40
0.4918363705
 40
1.0
 40
1.0
 40
1.0
 40
1.0
 10
41.4272265514
 20
47.4588829758
 30
0.0
 10
41.4272265514
 20
47.294418547
 30
0.0
 10
41.3669393259
 20
46.9575871524
 30
0.0
 10
41.197224483
 20
46.6617468002
 30
0.0
 10
41.091514711
 20
46.5287068216
 30
0.0
  0
SPLINE
  5
40E
100
AcDbEntity
  8
0
100
AcDbSpline
 62
7
  6
CONTINUOUS
 70
0
 71
3
 72
9
 73
5
 74
0
 42
0.0000001
 43
0.0000001
 44
0.0000000001
 40
0.0
 40
0.0
 40
0.0
 40
0.0
 40
0.5081745927
 40
1.0
 40
1.0
 40
1.0
 40
1.0
 10
37.7627027502
 20
46.5290073832
 30
0.0
 10
37.6570626873
 20
46.6620256494
 30
0.0
 10
37.4874674404
 20
46.9577811707
 30
0.0
 10
37.427226551
 20
47.2944841796
 30
0.0
 10
37.427226551
 20
47.4588829758
 30
0.0
  0
SPLINE
  5
40F
100
AcDbEntity
  8
0
100
AcDbSpline
 62
7
  6
CONTINUOUS
 70
0
 71
3
 72
9
 73
5
 74
0
 42
0.0000001
 43
0.0000001
 44
0.0000000001
 40
0.0
 40
0.0
 40
0.0
 40
0.0
 40
0.4918363705
 40
1.0
 40
1.0
 40
1.0
 40
1.0
 10
46.4272265514
 20
47.4588829758
 30
0.0
 10
46.4272265514
 20
47.294418547
 30
0.0
 10
46.3669393259
 20
46.9575871524
 30
0.0
 10
46.197224483
 20
46.6617468002
 30
0.0
 10
46.091514711
 20
46.5287068216
 30
0.0
  0
SPLINE
  5
410
100
AcDbEntity
  8
0
100
AcDbSpline
 62
7
  6
CONTINUOUS
 70
0
 71
3
 72
9
 73
5
 74
0
 42
0.0000001
 43
0.0000001
 44
0.0000000001
 40
0.0
 40
0.0
 40
0.0
 40
0.0
 40
0.5081745927
 40
1.0
 40
1.0
 40
1.0
 40
1.0
 10
42.7627027502
 20
46.5290073832
 30
0.0
 10
42.6570626873
 20
46.6620256494
 30
0.0
 10
42.4874674404
 20
46.9577811707
 30
0.0
 10
42.427226551
 20
47.2944841796
 30
0.0
 10
42.427226551
 20
47.4588829758
 30
0.0
  0
SPLINE
  5
411
100
AcDbEntity
  8
0
100
AcDbSpline
 62
7
  6
CONTINUOUS
 70
0
 71
3
 72
15
 73
11
 74
0
 42
0.0000001
 43
0.0000001
 44
0.0000000001
 40
0.0
 40
0.0
 40
0.0
 40
0.0
 40
0.114741345
 40
0.2357168388
 40
0.36505153
 40
0.4999857803
 40
0.6349199993
 40
0.7642628771
 40
0.8852526753
 40
1.0
 40
1.0
 40
1.0
 40
1.0
 10
30.5772265512
 20
38.610908484
 30
0.0
 10
30.5772265512
 20
38.4844490467
 30
0.0
 10
30.5129856586
 20
38.2212945861
 30
0.0
 10
30.2500115682
 20
37.9020983683
 30
0.0
 10
29.8693558676
 20
37.6941224271
 30
0.0
 10
29.4272754445
 20
37.622183759
 30
0.0
 10
28.9851806941
 20
37.6940913733
 30
0.0
 10
28.6044887243
 20
37.902055009
 30
0.0
 10
28.3414782276
 20
38.2212655301
 30
0.0
 10
28.2772265512
 20
38.4844424564
 30
0.0
 10
28.2772265512
 20
38.610908484
 30
0.0
  0
SPLINE
  5
412
100
AcDbEntity
  8
0
100
AcDbSpline
 62
7
  6
CONTINUOUS
 70
0
 71
3
 72
15
 73
11
 74
0
 42
0.0000001
 43
0.0000001
 44
0.0000000001
 40
0.0
 40
0.0
 40
0.0
 40
0.0
 40
0.114741345
 40
0.2357168388
 40
0.36505153
 40
0.4999857803
 40
0.6349199993
 40
0.7642628771
 40
0.8852526753
 40
1.0
 40
1.0
 40
1.0
 40
1.0
 10
35.5772265512
 20
38.610908484
 30
0.0
 10
35.5772265512
 20
38.4844490467
 30
0.0
 10
35.5129856586
 20
38.2212945861
 30
0.0
 10
35.2500115682
 20
37.9020983683
 30
0.0
 10
34.8693558676
 20
37.6941224271
 30
0.0
 10
34.4272754445
 20
37.622183759
 30
0.0
 10
33.9851806941
 20
37.6940913733
 30
0.0
 10
33.6044887243
 20
37.902055009
 30
0.0
 10
33.3414782276
 20
38.2212655301
 30
0.0
 10
33.2772265512
 20
38.4844424564
 30
0.0
 10
33.2772265512
 20
38.610908484
 30
0.0
  0
SPLINE
  5
413
100
AcDbEntity
  8
0
100
AcDbSpline
 62
7
  6
CONTINUOUS
 70
0
 71
3
 72
15
 73
11
 74
0
 42
0.0000001
 43
0.0000001
 44
0.0000000001
 40
0.0
 40
0.0
 40
0.0
 40
0.0
 40
0.114741345
 40
0.2357168388
 40
0.36505153
 40
0.4999857803
 40
0.6349199993
 40
0.7642628771
 40
0.8852526753
 40
1.0
 40
1.0
 40
1.0
 40
1.0
 10
40.5772265512
 20
38.610908484
 30
0.0
 10
40.5772265512
 20
38.4844490467
 30
0.0
 10
40.5129856586
 20
38.2212945861
 30
0.0
 10
40.2500115682
 20
37.9020983683
 30
0.0
 10
39.8693558676
 20
37.6941224271
 30
0.0
 10
39.4272754445
 20
37.622183759
 30
0.0
 10
38.9851806941
 20
37.6940913733
 30
0.0
 10
38.6044887243
 20
37.902055009
 30
0.0
 10
38.3414782276
 20
38.2212655301
 30
0.0
 10
38.2772265512
 20
38.4844424564
 30
0.0
 10
38.2772265512
 20
38.610908484
 30
0.0
  0
SPLINE
  5
414
100
AcDbEntity
  8
0
100
AcDbSpline
 62
7
  6
CONTINUOUS
 70
0
 71
3
 72
15
 73
11
 74
0
 42
0.0000001
 43
0.0000001
 44
0.0000000001
 40
0.0
 40
0.0
 40
0.0
 40
0.0
 40
0.114741345
 40
0.2357168388
 40
0.36505153
 40
0.4999857803
 40
0.6349199993
 40
0.7642628771
 40
0.8852526753
 40
1.0
 40
1.0
 40
1.0
 40
1.0
 10
45.5772265512
 20
38.610908484
 30
0.0
 10
45.5772265512
 20
38.4844490467
 30
0.0
 10
45.5129856586
 20
38.2212945861
 30
0.0
 10
45.2500115682
 20
37.9020983683
 30
0.0
 10
44.8693558676
 20
37.6941224271
 30
0.0
 10
44.4272754445
 20
37.622183759
 30
0.0
 10
43.9851806941
 20
37.6940913733
 30
0.0
 10
43.6044887243
 20
37.902055009
 30
0.0
 10
43.3414782276
 20
38.2212655301
 30
0.0
 10
43.2772265512
 20
38.4844424564
 30
0.0
 10
43.2772265512
 20
38.610908484
 30
0.0
  0
SPLINE
  5
415
100
AcDbEntity
  8
0
100
AcDbSpline
 62
7
  6
CONTINUOUS
 70
0
 71
3
 72
9
 73
5
 74
0
 42
0.0000001
 43
0.0000001
 44
0.0000000001
 40
0.0
 40
0.0
 40
0.0
 40
0.0
 40
0.4918363705
 40
1.0
 40
1.0
 40
1.0
 40
1.0
 10
36.4272265514
 20
47.4588829758
 30
0.0
 10
36.4272265514
 20
47.294418547
 30
0.0
 10
36.3669393259
 20
46.9575871524
 30
0.0
 10
36.197224483
 20
46.6617468002
 30
0.0
 10
36.091514711
 20
46.5287068216
 30
0.0
  0
SPLINE
  5
416
100
AcDbEntity
  8
0
100
AcDbSpline
 62
7
  6
CONTINUOUS
 70
0
 71
3
 72
9
 73
5
 74
0
 42
0.0000001
 43
0.0000001
 44
0.0000000001
 40
0.0
 40
0.0
 40
0.0
 40
0.0
 40
0.5081745927
 40
1.0
 40
1.0
 40
1.0
 40
1.0
 10
32.7627027502
 20
46.5290073832
 30
0.0
 10
32.6570626873
 20
46.6620256494
 30
0.0
 10
32.4874674404
 20
46.9577811707
 30
0.0
 10
32.427226551
 20
47.2944841796
 30
0.0
 10
32.427226551
 20
47.4588829758
 30
0.0
  0
SPLINE
  5
417
100
AcDbEntity
  8
0
100
AcDbSpline
 62
7
  6
CONTINUOUS
 70
0
 71
3
 72
9
 73
5
 74
0
 42
0.0000001
 43
0.0000001
 44
0.0000000001
 40
0.0
 40
0.0
 40
0.0
 40
0.0
 40
0.4918363705
 40
1.0
 40
1.0
 40
1.0
 40
1.0
 10
31.4272265514
 20
47.4588829758
 30
0.0
 10
31.4272265514
 20
47.294418547
 30
0.0
 10
31.3669393259
 20
46.9575871524
 30
0.0
 10
31.197224483
 20
46.6617468002
 30
0.0
 10
31.091514711
 20
46.5287068216
 30
0.0
  0
SPLINE
  5
418
100
AcDbEntity
  8
0
100
AcDbSpline
 62
7
  6
CONTINUOUS
 70
0
 71
3
 72
9
 73
5
 74
0
 42
0.0000001
 43
0.0000001
 44
0.0000000001
 40
0.0
 40
0.0
 40
0.0
 40
0.0
 40
0.5081745927
 40
1.0
 40
1.0
 40
1.0
 40
1.0
 10
27.7627027502
 20
46.5290073832
 30
0.0
 10
27.6570626873
 20
46.6620256494
 30
0.0
 10
27.4874674404
 20
46.9577811707
 30
0.0
 10
27.427226551
 20
47.2944841796
 30
0.0
 10
27.427226551
 20
47.4588829758
 30
0.0
  0
SPLINE
  5
419
100
AcDbEntity
  8
0
100
AcDbSpline
 62
7
  6
CONTINUOUS
 70
0
 71
3
 72
9
 73
5
 74
0
 42
0.0000001
 43
0.0000001
 44
0.0000000001
 40
0.0
 40
0.0
 40
0.0
 40
0.0
 40
0.4918363705
 40
1.0
 40
1.0
 40
1.0
 40
1.0
 10
41.4272265514
 20
69.0588829758
 30
0.0
 10
41.4272265514
 20
68.894418547
 30
0.0
 10
41.3669393259
 20
68.5575871524
 30
0.0
 10
41.197224483
 20
68.2617468002
 30
0.0
 10
41.091514711
 20
68.1287068216
 30
0.0
  0
SPLINE
  5
41A
100
AcDbEntity
  8
0
100
AcDbSpline
 62
7
  6
CONTINUOUS
 70
0
 71
3
 72
9
 73
5
 74
0
 42
0.0000001
 43
0.0000001
 44
0.0000000001
 40
0.0
 40
0.0
 40
0.0
 40
0.0
 40
0.5081745927
 40
1.0
 40
1.0
 40
1.0
 40
1.0
 10
37.7627027502
 20
68.1290073832
 30
0.0
 10
37.6570626873
 20
68.2620256494
 30
0.0
 10
37.4874674404
 20
68.5577811707
 30
0.0
 10
37.427226551
 20
68.8944841796
 30
0.0
 10
37.427226551
 20
69.0588829758
 30
0.0
  0
SPLINE
  5
41B
100
AcDbEntity
  8
0
100
AcDbSpline
 62
7
  6
CONTINUOUS
 70
0
 71
3
 72
9
 73
5
 74
0
 42
0.0000001
 43
0.0000001
 44
0.0000000001
 40
0.0
 40
0.0
 40
0.0
 40
0.0
 40
0.4918363705
 40
1.0
 40
1.0
 40
1.0
 40
1.0
 10
46.4272265514
 20
69.0588829758
 30
0.0
 10
46.4272265514
 20
68.894418547
 30
0.0
 10
46.3669393259
 20
68.5575871524
 30
0.0
 10
46.197224483
 20
68.2617468002
 30
0.0
 10
46.091514711
 20
68.1287068216
 30
0.0
  0
SPLINE
  5
41C
100
AcDbEntity
  8
0
100
AcDbSpline
 62
7
  6
CONTINUOUS
 70
0
 71
3
 72
9
 73
5
 74
0
 42
0.0000001
 43
0.0000001
 44
0.0000000001
 40
0.0
 40
0.0
 40
0.0
 40
0.0
 40
0.5081745927
 40
1.0
 40
1.0
 40
1.0
 40
1.0
 10
42.7627027502
 20
68.1290073832
 30
0.0
 10
42.6570626873
 20
68.2620256494
 30
0.0
 10
42.4874674404
 20
68.5577811707
 30
0.0
 10
42.427226551
 20
68.8944841796
 30
0.0
 10
42.427226551
 20
69.0588829758
 30
0.0
  0
SPLINE
  5
41D
100
AcDbEntity
  8
0
100
AcDbSpline
 62
7
  6
CONTINUOUS
 70
0
 71
3
 72
15
 73
11
 74
0
 42
0.0000001
 43
0.0000001
 44
0.0000000001
 40
0.0
 40
0.0
 40
0.0
 40
0.0
 40
0.114741345
 40
0.2357168388
 40
0.36505153
 40
0.4999857803
 40
0.6349199993
 40
0.7642628771
 40
0.8852526753
 40
1.0
 40
1.0
 40
1.0
 40
1.0
 10
30.5772265512
 20
60.210908484
 30
0.0
 10
30.5772265512
 20
60.0844490467
 30
0.0
 10
30.5129856586
 20
59.8212945861
 30
0.0
 10
30.2500115682
 20
59.5020983683
 30
0.0
 10
29.8693558676
 20
59.2941224271
 30
0.0
 10
29.4272754445
 20
59.222183759
 30
0.0
 10
28.9851806941
 20
59.2940913733
 30
0.0
 10
28.6044887243
 20
59.502055009
 30
0.0
 10
28.3414782276
 20
59.8212655301
 30
0.0
 10
28.2772265512
 20
60.0844424564
 30
0.0
 10
28.2772265512
 20
60.210908484
 30
0.0
  0
SPLINE
  5
41E
100
AcDbEntity
  8
0
100
AcDbSpline
 62
7
  6
CONTINUOUS
 70
0
 71
3
 72
15
 73
11
 74
0
 42
0.0000001
 43
0.0000001
 44
0.0000000001
 40
0.0
 40
0.0
 40
0.0
 40
0.0
 40
0.114741345
 40
0.2357168388
 40
0.36505153
 40
0.4999857803
 40
0.6349199993
 40
0.7642628771
 40
0.8852526753
 40
1.0
 40
1.0
 40
1.0
 40
1.0
 10
35.5772265512
 20
60.210908484
 30
0.0
 10
35.5772265512
 20
60.0844490467
 30
0.0
 10
35.5129856586
 20
59.8212945861
 30
0.0
 10
35.2500115682
 20
59.5020983683
 30
0.0
 10
34.8693558676
 20
59.2941224271
 30
0.0
 10
34.4272754445
 20
59.222183759
 30
0.0
 10
33.9851806941
 20
59.2940913733
 30
0.0
 10
33.6044887243
 20
59.502055009
 30
0.0
 10
33.3414782276
 20
59.8212655301
 30
0.0
 10
33.2772265512
 20
60.0844424564
 30
0.0
 10
33.2772265512
 20
60.210908484
 30
0.0
  0
SPLINE
  5
41F
100
AcDbEntity
  8
0
100
AcDbSpline
 62
7
  6
CONTINUOUS
 70
0
 71
3
 72
15
 73
11
 74
0
 42
0.0000001
 43
0.0000001
 44
0.0000000001
 40
0.0
 40
0.0
 40
0.0
 40
0.0
 40
0.114741345
 40
0.2357168388
 40
0.36505153
 40
0.4999857803
 40
0.6349199993
 40
0.7642628771
 40
0.8852526753
 40
1.0
 40
1.0
 40
1.0
 40
1.0
 10
40.5772265512
 20
60.210908484
 30
0.0
 10
40.5772265512
 20
60.0844490467
 30
0.0
 10
40.5129856586
 20
59.8212945861
 30
0.0
 10
40.2500115682
 20
59.5020983683
 30
0.0
 10
39.8693558676
 20
59.2941224271
 30
0.0
 10
39.4272754445
 20
59.222183759
 30
0.0
 10
38.9851806941
 20
59.2940913733
 30
0.0
 10
38.6044887243
 20
59.502055009
 30
0.0
 10
38.3414782276
 20
59.8212655301
 30
0.0
 10
38.2772265512
 20
60.0844424564
 30
0.0
 10
38.2772265512
 20
60.210908484
 30
0.0
  0
SPLINE
  5
420
100
AcDbEntity
  8
0
100
AcDbSpline
 62
7
  6
CONTINUOUS
 70
0
 71
3
 72
15
 73
11
 74
0
 42
0.0000001
 43
0.0000001
 44
0.0000000001
 40
0.0
 40
0.0
 40
0.0
 40
0.0
 40
0.114741345
 40
0.2357168388
 40
0.36505153
 40
0.4999857803
 40
0.6349199993
 40
0.7642628771
 40
0.8852526753
 40
1.0
 40
1.0
 40
1.0
 40
1.0
 10
45.5772265512
 20
60.210908484
 30
0.0
 10
45.5772265512
 20
60.0844490467
 30
0.0
 10
45.5129856586
 20
59.8212945861
 30
0.0
 10
45.2500115682
 20
59.5020983683
 30
0.0
 10
44.8693558676
 20
59.2941224271
 30
0.0
 10
44.4272754445
 20
59.222183759
 30
0.0
 10
43.9851806941
 20
59.2940913733
 30
0.0
 10
43.6044887243
 20
59.502055009
 30
0.0
 10
43.3414782276
 20
59.8212655301
 30
0.0
 10
43.2772265512
 20
60.0844424564
 30
0.0
 10
43.2772265512
 20
60.210908484
 30
0.0
  0
SPLINE
  5
421
100
AcDbEntity
  8
0
100
AcDbSpline
 62
7
  6
CONTINUOUS
 70
0
 71
3
 72
9
 73
5
 74
0
 42
0.0000001
 43
0.0000001
 44
0.0000000001
 40
0.0
 40
0.0
 40
0.0
 40
0.0
 40
0.4918363705
 40
1.0
 40
1.0
 40
1.0
 40
1.0
 10
36.4272265514
 20
69.0588829758
 30
0.0
 10
36.4272265514
 20
68.894418547
 30
0.0
 10
36.3669393259
 20
68.5575871524
 30
0.0
 10
36.197224483
 20
68.2617468002
 30
0.0
 10
36.091514711
 20
68.1287068216
 30
0.0
  0
SPLINE
  5
422
100
AcDbEntity
  8
0
100
AcDbSpline
 62
7
  6
CONTINUOUS
 70
0
 71
3
 72
9
 73
5
 74
0
 42
0.0000001
 43
0.0000001
 44
0.0000000001
 40
0.0
 40
0.0
 40
0.0
 40
0.0
 40
0.5081745927
 40
1.0
 40
1.0
 40
1.0
 40
1.0
 10
32.7627027502
 20
68.1290073832
 30
0.0
 10
32.6570626873
 20
68.2620256494
 30
0.0
 10
32.4874674404
 20
68.5577811707
 30
0.0
 10
32.427226551
 20
68.8944841796
 30
0.0
 10
32.427226551
 20
69.0588829758
 30
0.0
  0
SPLINE
  5
423
100
AcDbEntity
  8
0
100
AcDbSpline
 62
7
  6
CONTINUOUS
 70
0
 71
3
 72
9
 73
5
 74
0
 42
0.0000001
 43
0.0000001
 44
0.0000000001
 40
0.0
 40
0.0
 40
0.0
 40
0.0
 40
0.4918363705
 40
1.0
 40
1.0
 40
1.0
 40
1.0
 10
31.4272265514
 20
69.0588829758
 30
0.0
 10
31.4272265514
 20
68.894418547
 30
0.0
 10
31.3669393259
 20
68.5575871524
 30
0.0
 10
31.197224483
 20
68.2617468002
 30
0.0
 10
31.091514711
 20
68.1287068216
 30
0.0
  0
SPLINE
  5
424
100
AcDbEntity
  8
0
100
AcDbSpline
 62
7
  6
CONTINUOUS
 70
0
 71
3
 72
9
 73
5
 74
0
 42
0.0000001
 43
0.0000001
 44
0.0000000001
 40
0.0
 40
0.0
 40
0.0
 40
0.0
 40
0.5081745927
 40
1.0
 40
1.0
 40
1.0
 40
1.0
 10
27.7627027502
 20
68.1290073832
 30
0.0
 10
27.6570626873
 20
68.2620256494
 30
0.0
 10
27.4874674404
 20
68.5577811707
 30
0.0
 10
27.427226551
 20
68.8944841796
 30
0.0
 10
27.427226551
 20
69.0588829758
 30
0.0
  0
SPLINE
  5
425
100
AcDbEntity
  8
0
100
AcDbSpline
 62
7
  6
CONTINUOUS
 70
0
 71
3
 72
19
 73
15
 74
0
 42
0.0000001
 43
0.0000001
 44
0.0000000001
 40
0.0
 40
0.0
 40
0.0
 40
0.0
 40
0.0570927043
 40
0.115179564
 40
0.1748049413
 40
0.236464892
 40
0.3654347916
 40
0.4999888254
 40
0.6345428046
 40
0.7635189451
 40
0.8251838491
 40
0.8848152542
 40
0.9429063975
 40
1.0
 40
1.0
 40
1.0
 40
1.0
 10
55.627226551
 20
47.4588829758
 30
0.0
 10
55.627226551
 20
47.5686248696
 30
0.0
 10
55.6536948857
 20
47.7908293656
 30
0.0
 10
55.7695003038
 20
48.109162866
 30
0.0
 10
55.9573845001
 20
48.4015422056
 30
0.0
 10
56.2970637058
 20
48.7462051363
 30
0.0
 10
56.858616867
 20
49.0537043664
 30
0.0
 10
57.6271585986
 20
49.1783190143
 30
0.0
 10
58.3957176239
 20
49.0537399597
 30
0.0
 10
58.9573068502
 20
48.7462610773
 30
0.0
 10
59.2970280916
 20
48.4015924982
 30
0.0
 10
59.4849388
 20
48.1091940485
 30
0.0
 10
59.6007538248
 20
47.7908407202
 30
0.0
 10
59.6272265514
 20
47.5686265962
 30
0.0
 10
59.6272265514
 20
47.4588829758
 30
0.0
  0
SPLINE
  5
426
100
AcDbEntity
  8
0
100
AcDbSpline
 62
7
  6
CONTINUOUS
 70
0
 71
3
 72
11
 73
7
 74
0
 42
0.0000001
 43
0.0000001
 44
0.0000000001
 40
0.0
 40
0.0
 40
0.0
 40
0.0
 40
0.2449218058
 40
0.5000065814
 40
0.755084278
 40
1.0
 40
1.0
 40
1.0
 40
1.0
 10
69.0161413004
 20
68.0871369244
 30
0.0
 10
68.8273262573
 20
68.2400132933
 30
0.0
 10
68.3787441695
 20
68.4789092528
 30
0.0
 10
67.6268176131
 20
68.5978836069
 30
0.0
 10
66.8749346834
 20
68.4786519213
 30
0.0
 10
66.4264576439
 20
68.2395839816
 30
0.0
 10
66.2377059881
 20
68.0866389427
 30
0.0
  0
SPLINE
  5
427
100
AcDbEntity
  8
0
100
AcDbSpline
 62
7
  6
CONTINUOUS
 70
0
 71
3
 72
11
 73
7
 74
0
 42
0.0000001
 43
0.0000001
 44
0.0000000001
 40
0.0
 40
0.0
 40
0.0
 40
0.0
 40
0.2449218058
 40
0.5000065814
 40
0.755084278
 40
1.0
 40
1.0
 40
1.0
 40
1.0
 10
64.0161413004
 20
68.0871369244
 30
0.0
 10
63.8273262573
 20
68.2400132933
 30
0.0
 10
63.3787441695
 20
68.4789092528
 30
0.0
 10
62.6268176131
 20
68.5978836069
 30
0.0
 10
61.8749346834
 20
68.4786519213
 30
0.0
 10
61.4264576439
 20
68.2395839816
 30
0.0
 10
61.2377059881
 20
68.0866389427
 30
0.0
  0
SPLINE
  5
428
100
AcDbEntity
  8
0
100
AcDbSpline
 62
7
  6
CONTINUOUS
 70
0
 71
3
 72
19
 73
15
 74
0
 42
0.0000001
 43
0.0000001
 44
0.0000000001
 40
0.0
 40
0.0
 40
0.0
 40
0.0
 40
0.0570927043
 40
0.115179564
 40
0.1748049413
 40
0.236464892
 40
0.3654347916
 40
0.4999888254
 40
0.6345428046
 40
0.7635189451
 40
0.8251838491
 40
0.8848152542
 40
0.9429063975
 40
1.0
 40
1.0
 40
1.0
 40
1.0
 10
65.627226551
 20
47.4588829758
 30
0.0
 10
65.627226551
 20
47.5686248696
 30
0.0
 10
65.6536948857
 20
47.7908293656
 30
0.0
 10
65.7695003038
 20
48.109162866
 30
0.0
 10
65.9573845001
 20
48.4015422056
 30
0.0
 10
66.2970637058
 20
48.7462051363
 30
0.0
 10
66.858616867
 20
49.0537043664
 30
0.0
 10
67.6271585986
 20
49.1783190143
 30
0.0
 10
68.3957176239
 20
49.0537399597
 30
0.0
 10
68.9573068502
 20
48.7462610773
 30
0.0
 10
69.2970280916
 20
48.4015924982
 30
0.0
 10
69.4849388
 20
48.1091940485
 30
0.0
 10
69.6007538248
 20
47.7908407202
 30
0.0
 10
69.6272265514
 20
47.5686265962
 30
0.0
 10
69.6272265514
 20
47.4588829758
 30
0.0
  0
SPLINE
  5
429
100
AcDbEntity
  8
0
100
AcDbSpline
 62
7
  6
CONTINUOUS
 70
0
 71
3
 72
19
 73
15
 74
0
 42
0.0000001
 43
0.0000001
 44
0.0000000001
 40
0.0
 40
0.0
 40
0.0
 40
0.0
 40
0.0570927043
 40
0.115179564
 40
0.1748049413
 40
0.236464892
 40
0.3654347916
 40
0.4999888254
 40
0.6345428046
 40
0.7635189451
 40
0.8251838491
 40
0.8848152542
 40
0.9429063975
 40
1.0
 40
1.0
 40
1.0
 40
1.0
 10
37.427226551
 20
47.4588829758
 30
0.0
 10
37.427226551
 20
47.5686248696
 30
0.0
 10
37.4536948857
 20
47.7908293656
 30
0.0
 10
37.5695003038
 20
48.109162866
 30
0.0
 10
37.7573845001
 20
48.4015422056
 30
0.0
 10
38.0970637058
 20
48.7462051363
 30
0.0
 10
38.658616867
 20
49.0537043664
 30
0.0
 10
39.4271585985
 20
49.1783190143
 30
0.0
 10
40.1957176239
 20
49.0537399597
 30
0.0
 10
40.7573068502
 20
48.7462610773
 30
0.0
 10
41.0970280916
 20
48.4015924982
 30
0.0
 10
41.2849388
 20
48.1091940485
 30
0.0
 10
41.4007538248
 20
47.7908407202
 30
0.0
 10
41.4272265514
 20
47.5686265962
 30
0.0
 10
41.4272265514
 20
47.4588829758
 30
0.0
  0
SPLINE
  5
42A
100
AcDbEntity
  8
0
100
AcDbSpline
 62
7
  6
CONTINUOUS
 70
0
 71
3
 72
19
 73
15
 74
0
 42
0.0000001
 43
0.0000001
 44
0.0000000001
 40
0.0
 40
0.0
 40
0.0
 40
0.0
 40
0.0570927043
 40
0.115179564
 40
0.1748049413
 40
0.236464892
 40
0.3654347916
 40
0.4999888254
 40
0.6345428046
 40
0.7635189451
 40
0.8251838491
 40
0.8848152542
 40
0.9429063975
 40
1.0
 40
1.0
 40
1.0
 40
1.0
 10
42.427226551
 20
47.4588829758
 30
0.0
 10
42.427226551
 20
47.5686248696
 30
0.0
 10
42.4536948857
 20
47.7908293656
 30
0.0
 10
42.5695003038
 20
48.109162866
 30
0.0
 10
42.7573845001
 20
48.4015422056
 30
0.0
 10
43.0970637058
 20
48.7462051363
 30
0.0
 10
43.658616867
 20
49.0537043664
 30
0.0
 10
44.4271585985
 20
49.1783190143
 30
0.0
 10
45.1957176239
 20
49.0537399597
 30
0.0
 10
45.7573068502
 20
48.7462610773
 30
0.0
 10
46.0970280916
 20
48.4015924982
 30
0.0
 10
46.2849388
 20
48.1091940485
 30
0.0
 10
46.4007538248
 20
47.7908407202
 30
0.0
 10
46.4272265514
 20
47.5686265962
 30
0.0
 10
46.4272265514
 20
47.4588829758
 30
0.0
  0
SPLINE
  5
42B
100
AcDbEntity
  8
0
100
AcDbSpline
 62
7
  6
CONTINUOUS
 70
0
 71
3
 72
19
 73
15
 74
0
 42
0.0000001
 43
0.0000001
 44
0.0000000001
 40
0.0
 40
0.0
 40
0.0
 40
0.0
 40
0.0570927043
 40
0.115179564
 40
0.1748049413
 40
0.236464892
 40
0.3654347916
 40
0.4999888254
 40
0.6345428046
 40
0.7635189451
 40
0.8251838491
 40
0.8848152542
 40
0.9429063975
 40
1.0
 40
1.0
 40
1.0
 40
1.0
 10
32.427226551
 20
47.4588829758
 30
0.0
 10
32.427226551
 20
47.5686248696
 30
0.0
 10
32.4536948857
 20
47.7908293656
 30
0.0
 10
32.5695003038
 20
48.109162866
 30
0.0
 10
32.7573845001
 20
48.4015422056
 30
0.0
 10
33.0970637058
 20
48.7462051363
 30
0.0
 10
33.658616867
 20
49.0537043664
 30
0.0
 10
34.4271585985
 20
49.1783190143
 30
0.0
 10
35.1957176239
 20
49.0537399597
 30
0.0
 10
35.7573068502
 20
48.7462610773
 30
0.0
 10
36.0970280916
 20
48.4015924982
 30
0.0
 10
36.2849388
 20
48.1091940485
 30
0.0
 10
36.4007538248
 20
47.7908407202
 30
0.0
 10
36.4272265514
 20
47.5686265962
 30
0.0
 10
36.4272265514
 20
47.4588829758
 30
0.0
  0
SPLINE
  5
42C
100
AcDbEntity
  8
0
100
AcDbSpline
 62
7
  6
CONTINUOUS
 70
0
 71
3
 72
19
 73
15
 74
0
 42
0.0000001
 43
0.0000001
 44
0.0000000001
 40
0.0
 40
0.0
 40
0.0
 40
0.0
 40
0.0570927043
 40
0.115179564
 40
0.1748049413
 40
0.236464892
 40
0.3654347916
 40
0.4999888254
 40
0.6345428046
 40
0.7635189451
 40
0.8251838491
 40
0.8848152542
 40
0.9429063975
 40
1.0
 40
1.0
 40
1.0
 40
1.0
 10
27.427226551
 20
47.4588829758
 30
0.0
 10
27.427226551
 20
47.5686248696
 30
0.0
 10
27.4536948857
 20
47.7908293656
 30
0.0
 10
27.5695003038
 20
48.109162866
 30
0.0
 10
27.7573845001
 20
48.4015422056
 30
0.0
 10
28.0970637058
 20
48.7462051363
 30
0.0
 10
28.658616867
 20
49.0537043664
 30
0.0
 10
29.4271585985
 20
49.1783190143
 30
0.0
 10
30.1957176239
 20
49.0537399597
 30
0.0
 10
30.7573068502
 20
48.7462610773
 30
0.0
 10
31.0970280916
 20
48.4015924982
 30
0.0
 10
31.2849388
 20
48.1091940485
 30
0.0
 10
31.4007538248
 20
47.7908407202
 30
0.0
 10
31.4272265514
 20
47.5686265962
 30
0.0
 10
31.4272265514
 20
47.4588829758
 30
0.0
  0
SPLINE
  5
42D
100
AcDbEntity
  8
0
100
AcDbSpline
 62
7
  6
CONTINUOUS
 70
0
 71
3
 72
19
 73
15
 74
0
 42
0.0000001
 43
0.0000001
 44
0.0000000001
 40
0.0
 40
0.0
 40
0.0
 40
0.0
 40
0.0570927043
 40
0.115179564
 40
0.1748049413
 40
0.236464892
 40
0.3654347916
 40
0.4999888254
 40
0.6345428046
 40
0.7635189451
 40
0.8251838491
 40
0.8848152542
 40
0.9429063975
 40
1.0
 40
1.0
 40
1.0
 40
1.0
 10
60.627226551
 20
47.4588829758
 30
0.0
 10
60.627226551
 20
47.5686248696
 30
0.0
 10
60.6536948857
 20
47.7908293656
 30
0.0
 10
60.7695003038
 20
48.109162866
 30
0.0
 10
60.9573845001
 20
48.4015422056
 30
0.0
 10
61.2970637058
 20
48.7462051363
 30
0.0
 10
61.858616867
 20
49.0537043664
 30
0.0
 10
62.6271585986
 20
49.1783190143
 30
0.0
 10
63.3957176239
 20
49.0537399597
 30
0.0
 10
63.9573068502
 20
48.7462610773
 30
0.0
 10
64.2970280916
 20
48.4015924982
 30
0.0
 10
64.4849388
 20
48.1091940485
 30
0.0
 10
64.6007538248
 20
47.7908407202
 30
0.0
 10
64.6272265514
 20
47.5686265962
 30
0.0
 10
64.6272265514
 20
47.4588829758
 30
0.0
  0
SPLINE
  5
42E
100
AcDbEntity
  8
0
100
AcDbSpline
 62
7
  6
CONTINUOUS
 70
0
 71
3
 72
19
 73
15
 74
0
 42
0.0000001
 43
0.0000001
 44
0.0000000001
 40
0.0
 40
0.0
 40
0.0
 40
0.0
 40
0.057092376
 40
0.1151776159
 40
0.1748007276
 40
0.2364588519
 40
0.3654259563
 40
0.4999794574
 40
0.6345355246
 40
0.7635244676
 40
0.8251959182
 40
0.8848246319
 40
0.9429092289
 40
1.0
 40
1.0
 40
1.0
 40
1.0
 10
50.627226551
 20
69.0588829758
 30
0.0
 10
50.627226551
 20
69.168624259
 30
0.0
 10
50.6536932893
 20
69.390825168
 30
0.0
 10
50.7694950497
 20
69.7091512969
 30
0.0
 10
50.9573694635
 20
70.0015234967
 30
0.0
 10
51.2970323102
 20
70.3461837256
 30
0.0
 10
51.8585701436
 20
70.6536909714
 30
0.0
 10
52.6271063686
 20
70.7783179851
 30
0.0
 10
53.3956998051
 20
70.6537546739
 30
0.0
 10
53.957316901
 20
70.3462405676
 30
0.0
 10
54.2970699509
 20
70.0015560533
 30
0.0
 10
54.4849570302
 20
69.709148589
 30
0.0
 10
54.6007671765
 20
69.3908189377
 30
0.0
 10
54.6272265514
 20
69.168621174
 30
0.0
 10
54.6272265514
 20
69.0588829758
 30
0.0
  0
SPLINE
  5
42F
100
AcDbEntity
  8
0
100
AcDbSpline
 62
7
  6
CONTINUOUS
 70
0
 71
3
 72
19
 73
15
 74
0
 42
0.0000001
 43
0.0000001
 44
0.0000000001
 40
0.0
 40
0.0
 40
0.0
 40
0.0
 40
0.0570927043
 40
0.115179564
 40
0.1748049413
 40
0.236464892
 40
0.3654347916
 40
0.4999888254
 40
0.6345428046
 40
0.7635189451
 40
0.8251838491
 40
0.8848152542
 40
0.9429063975
 40
1.0
 40
1.0
 40
1.0
 40
1.0
 10
55.627226551
 20
69.0588829758
 30
0.0
 10
55.627226551
 20
69.1686248696
 30
0.0
 10
55.6536948857
 20
69.3908293656
 30
0.0
 10
55.7695003038
 20
69.709162866
 30
0.0
 10
55.9573845001
 20
70.0015422056
 30
0.0
 10
56.2970637058
 20
70.3462051363
 30
0.0
 10
56.858616867
 20
70.6537043664
 30
0.0
 10
57.6271585986
 20
70.7783190143
 30
0.0
 10
58.3957176239
 20
70.6537399597
 30
0.0
 10
58.9573068502
 20
70.3462610773
 30
0.0
 10
59.2970280916
 20
70.0015924982
 30
0.0
 10
59.4849388
 20
69.7091940485
 30
0.0
 10
59.6007538248
 20
69.3908407202
 30
0.0
 10
59.6272265514
 20
69.1686265962
 30
0.0
 10
59.6272265514
 20
69.0588829758
 30
0.0
  0
SPLINE
  5
430
100
AcDbEntity
  8
0
100
AcDbSpline
 62
7
  6
CONTINUOUS
 70
0
 71
3
 72
19
 73
15
 74
0
 42
0.0000001
 43
0.0000001
 44
0.0000000001
 40
0.0
 40
0.0
 40
0.0
 40
0.0
 40
0.0570927756
 40
0.1151791467
 40
0.1748045316
 40
0.2364697531
 40
0.3654418182
 40
0.4999817283
 40
0.634530061
 40
0.7635098071
 40
0.8251772593
 40
0.8848118644
 40
0.9429056699
 40
1.0
 40
1.0
 40
1.0
 40
1.0
 10
65.627226551
 20
69.0588829758
 30
0.0
 10
65.627226551
 20
69.168624946
 30
0.0
 10
65.6536971609
 20
69.3908281323
 30
0.0
 10
65.7694973649
 20
69.709161799
 30
0.0
 10
65.9573846656
 20
70.0015513963
 30
0.0
 10
66.2970907166
 20
70.3462077471
 30
0.0
 10
66.858625277
 20
70.653707413
 30
0.0
 10
67.6271334254
 20
70.7783124406
 30
0.0
 10
68.3956608091
 20
70.653754577
 30
0.0
 10
68.9572608702
 20
70.3462931515
 30
0.0
 10
69.2970042318
 20
70.0016213961
 30
0.0
 10
69.4849307773
 20
69.709213338
 30
0.0
 10
69.6007499724
 20
69.3908480484
 30
0.0
 10
69.6272265514
 20
69.1686279339
 30
0.0
 10
69.6272265514
 20
69.0588829758
 30
0.0
  0
SPLINE
  5
431
100
AcDbEntity
  8
0
100
AcDbSpline
 62
7
  6
CONTINUOUS
 70
0
 71
3
 72
11
 73
7
 74
0
 42
0.0000001
 43
0.0000001
 44
0.0000000001
 40
0.0
 40
0.0
 40
0.0
 40
0.0
 40
0.2449218058
 40
0.5000065814
 40
0.755084278
 40
1.0
 40
1.0
 40
1.0
 40
1.0
 10
40.8161413004
 20
46.4871369244
 30
0.0
 10
40.6273262573
 20
46.6400132933
 30
0.0
 10
40.1787441695
 20
46.8789092528
 30
0.0
 10
39.4268176131
 20
46.9978836069
 30
0.0
 10
38.6749346834
 20
46.8786519213
 30
0.0
 10
38.2264576439
 20
46.6395839816
 30
0.0
 10
38.0377059881
 20
46.4866389427
 30
0.0
  0
SPLINE
  5
432
100
AcDbEntity
  8
0
100
AcDbSpline
 62
7
  6
CONTINUOUS
 70
0
 71
3
 72
11
 73
7
 74
0
 42
0.0000001
 43
0.0000001
 44
0.0000000001
 40
0.0
 40
0.0
 40
0.0
 40
0.0
 40
0.2449218058
 40
0.5000065814
 40
0.755084278
 40
1.0
 40
1.0
 40
1.0
 40
1.0
 10
45.8161413004
 20
46.4871369244
 30
0.0
 10
45.6273262573
 20
46.6400132933
 30
0.0
 10
45.1787441695
 20
46.8789092528
 30
0.0
 10
44.4268176131
 20
46.9978836069
 30
0.0
 10
43.6749346834
 20
46.8786519213
 30
0.0
 10
43.2264576439
 20
46.6395839816
 30
0.0
 10
43.0377059881
 20
46.4866389427
 30
0.0
  0
SPLINE
  5
433
100
AcDbEntity
  8
0
100
AcDbSpline
 62
7
  6
CONTINUOUS
 70
0
 71
3
 72
19
 73
15
 74
0
 42
0.0000001
 43
0.0000001
 44
0.0000000001
 40
0.0
 40
0.0
 40
0.0
 40
0.0
 40
0.057092376
 40
0.1151776159
 40
0.1748007276
 40
0.2364588519
 40
0.3654259563
 40
0.4999794574
 40
0.6345355246
 40
0.7635244676
 40
0.8251959182
 40
0.8848246319
 40
0.9429092289
 40
1.0
 40
1.0
 40
1.0
 40
1.0
 10
60.627226551
 20
69.0588829758
 30
0.0
 10
60.627226551
 20
69.168624259
 30
0.0
 10
60.6536932893
 20
69.390825168
 30
0.0
 10
60.7694950497
 20
69.7091512969
 30
0.0
 10
60.9573694635
 20
70.0015234967
 30
0.0
 10
61.2970323102
 20
70.3461837256
 30
0.0
 10
61.8585701436
 20
70.6536909714
 30
0.0
 10
62.6271063686
 20
70.7783179851
 30
0.0
 10
63.3956998051
 20
70.6537546739
 30
0.0
 10
63.957316901
 20
70.3462405676
 30
0.0
 10
64.2970699509
 20
70.0015560533
 30
0.0
 10
64.4849570302
 20
69.709148589
 30
0.0
 10
64.6007671765
 20
69.3908189377
 30
0.0
 10
64.6272265514
 20
69.168621174
 30
0.0
 10
64.6272265514
 20
69.0588829758
 30
0.0
  0
SPLINE
  5
434
100
AcDbEntity
  8
0
100
AcDbSpline
 62
7
  6
CONTINUOUS
 70
0
 71
3
 72
11
 73
7
 74
0
 42
0.0000001
 43
0.0000001
 44
0.0000000001
 40
0.0
 40
0.0
 40
0.0
 40
0.0
 40
0.2449218058
 40
0.5000065814
 40
0.755084278
 40
1.0
 40
1.0
 40
1.0
 40
1.0
 10
30.8161413004
 20
68.0871369244
 30
0.0
 10
30.6273262573
 20
68.2400132933
 30
0.0
 10
30.1787441695
 20
68.4789092528
 30
0.0
 10
29.4268176131
 20
68.5978836069
 30
0.0
 10
28.6749346834
 20
68.4786519213
 30
0.0
 10
28.2264576439
 20
68.2395839816
 30
0.0
 10
28.0377059881
 20
68.0866389427
 30
0.0
  0
SPLINE
  5
435
100
AcDbEntity
  8
0
100
AcDbSpline
 62
7
  6
CONTINUOUS
 70
0
 71
3
 72
11
 73
7
 74
0
 42
0.0000001
 43
0.0000001
 44
0.0000000001
 40
0.0
 40
0.0
 40
0.0
 40
0.0
 40
0.2449218058
 40
0.5000065814
 40
0.755084278
 40
1.0
 40
1.0
 40
1.0
 40
1.0
 10
35.8161413004
 20
68.0871369244
 30
0.0
 10
35.6273262573
 20
68.2400132933
 30
0.0
 10
35.1787441695
 20
68.4789092528
 30
0.0
 10
34.4268176131
 20
68.5978836069
 30
0.0
 10
33.6749346834
 20
68.4786519213
 30
0.0
 10
33.2264576439
 20
68.2395839816
 30
0.0
 10
33.0377059881
 20
68.0866389427
 30
0.0
  0
SPLINE
  5
436
100
AcDbEntity
  8
0
100
AcDbSpline
 62
7
  6
CONTINUOUS
 70
0
 71
3
 72
11
 73
7
 74
0
 42
0.0000001
 43
0.0000001
 44
0.0000000001
 40
0.0
 40
0.0
 40
0.0
 40
0.0
 40
0.2449218058
 40
0.5000065814
 40
0.755084278
 40
1.0
 40
1.0
 40
1.0
 40
1.0
 10
54.0161413004
 20
46.4871369244
 30
0.0
 10
53.8273262573
 20
46.6400132933
 30
0.0
 10
53.3787441695
 20
46.8789092528
 30
0.0
 10
52.6268176131
 20
46.9978836069
 30
0.0
 10
51.8749346834
 20
46.8786519213
 30
0.0
 10
51.4264576439
 20
46.6395839816
 30
0.0
 10
51.2377059881
 20
46.4866389427
 30
0.0
  0
SPLINE
  5
437
100
AcDbEntity
  8
0
100
AcDbSpline
 62
7
  6
CONTINUOUS
 70
0
 71
3
 72
11
 73
7
 74
0
 42
0.0000001
 43
0.0000001
 44
0.0000000001
 40
0.0
 40
0.0
 40
0.0
 40
0.0
 40
0.2449218058
 40
0.5000065814
 40
0.755084278
 40
1.0
 40
1.0
 40
1.0
 40
1.0
 10
59.0161413004
 20
46.4871369244
 30
0.0
 10
58.8273262573
 20
46.6400132933
 30
0.0
 10
58.3787441695
 20
46.8789092528
 30
0.0
 10
57.6268176131
 20
46.9978836069
 30
0.0
 10
56.8749346834
 20
46.8786519213
 30
0.0
 10
56.4264576439
 20
46.6395839816
 30
0.0
 10
56.2377059881
 20
46.4866389427
 30
0.0
  0
SPLINE
  5
438
100
AcDbEntity
  8
0
100
AcDbSpline
 62
7
  6
CONTINUOUS
 70
0
 71
3
 72
11
 73
7
 74
0
 42
0.0000001
 43
0.0000001
 44
0.0000000001
 40
0.0
 40
0.0
 40
0.0
 40
0.0
 40
0.2449218058
 40
0.5000065814
 40
0.755084278
 40
1.0
 40
1.0
 40
1.0
 40
1.0
 10
35.8161413004
 20
46.4871369244
 30
0.0
 10
35.6273262573
 20
46.6400132933
 30
0.0
 10
35.1787441695
 20
46.8789092528
 30
0.0
 10
34.4268176131
 20
46.9978836069
 30
0.0
 10
33.6749346834
 20
46.8786519213
 30
0.0
 10
33.2264576439
 20
46.6395839816
 30
0.0
 10
33.0377059881
 20
46.4866389427
 30
0.0
  0
SPLINE
  5
439
100
AcDbEntity
  8
0
100
AcDbSpline
 62
7
  6
CONTINUOUS
 70
0
 71
3
 72
11
 73
7
 74
0
 42
0.0000001
 43
0.0000001
 44
0.0000000001
 40
0.0
 40
0.0
 40
0.0
 40
0.0
 40
0.2449218058
 40
0.5000065814
 40
0.755084278
 40
1.0
 40
1.0
 40
1.0
 40
1.0
 10
30.8161413004
 20
46.4871369244
 30
0.0
 10
30.6273262573
 20
46.6400132933
 30
0.0
 10
30.1787441695
 20
46.8789092528
 30
0.0
 10
29.4268176131
 20
46.9978836069
 30
0.0
 10
28.6749346834
 20
46.8786519213
 30
0.0
 10
28.2264576439
 20
46.6395839816
 30
0.0
 10
28.0377059881
 20
46.4866389427
 30
0.0
  0
SPLINE
  5
43A
100
AcDbEntity
  8
0
100
AcDbSpline
 62
7
  6
CONTINUOUS
 70
0
 71
3
 72
19
 73
15
 74
0
 42
0.0000001
 43
0.0000001
 44
0.0000000001
 40
0.0
 40
0.0
 40
0.0
 40
0.0
 40
0.0570927043
 40
0.115179564
 40
0.1748049413
 40
0.236464892
 40
0.3654347916
 40
0.4999888254
 40
0.6345428046
 40
0.7635189451
 40
0.8251838491
 40
0.8848152542
 40
0.9429063975
 40
1.0
 40
1.0
 40
1.0
 40
1.0
 10
37.427226551
 20
69.0588829758
 30
0.0
 10
37.427226551
 20
69.1686248696
 30
0.0
 10
37.4536948857
 20
69.3908293656
 30
0.0
 10
37.5695003038
 20
69.709162866
 30
0.0
 10
37.7573845001
 20
70.0015422056
 30
0.0
 10
38.0970637058
 20
70.3462051363
 30
0.0
 10
38.658616867
 20
70.6537043664
 30
0.0
 10
39.4271585985
 20
70.7783190143
 30
0.0
 10
40.1957176239
 20
70.6537399597
 30
0.0
 10
40.7573068502
 20
70.3462610773
 30
0.0
 10
41.0970280916
 20
70.0015924982
 30
0.0
 10
41.2849388
 20
69.7091940485
 30
0.0
 10
41.4007538248
 20
69.3908407202
 30
0.0
 10
41.4272265514
 20
69.1686265962
 30
0.0
 10
41.4272265514
 20
69.0588829758
 30
0.0
  0
SPLINE
  5
43B
100
AcDbEntity
  8
0
100
AcDbSpline
 62
7
  6
CONTINUOUS
 70
0
 71
3
 72
19
 73
15
 74
0
 42
0.0000001
 43
0.0000001
 44
0.0000000001
 40
0.0
 40
0.0
 40
0.0
 40
0.0
 40
0.0570927043
 40
0.115179564
 40
0.1748049413
 40
0.236464892
 40
0.3654347916
 40
0.4999888254
 40
0.6345428046
 40
0.7635189451
 40
0.8251838491
 40
0.8848152542
 40
0.9429063975
 40
1.0
 40
1.0
 40
1.0
 40
1.0
 10
42.427226551
 20
69.0588829758
 30
0.0
 10
42.427226551
 20
69.1686248696
 30
0.0
 10
42.4536948857
 20
69.3908293656
 30
0.0
 10
42.5695003038
 20
69.709162866
 30
0.0
 10
42.7573845001
 20
70.0015422056
 30
0.0
 10
43.0970637058
 20
70.3462051363
 30
0.0
 10
43.658616867
 20
70.6537043664
 30
0.0
 10
44.4271585985
 20
70.7783190143
 30
0.0
 10
45.1957176239
 20
70.6537399597
 30
0.0
 10
45.7573068502
 20
70.3462610773
 30
0.0
 10
46.0970280916
 20
70.0015924982
 30
0.0
 10
46.2849388
 20
69.7091940485
 30
0.0
 10
46.4007538248
 20
69.3908407202
 30
0.0
 10
46.4272265514
 20
69.1686265962
 30
0.0
 10
46.4272265514
 20
69.0588829758
 30
0.0
  0
SPLINE
  5
43C
100
AcDbEntity
  8
0
100
AcDbSpline
 62
7
  6
CONTINUOUS
 70
0
 71
3
 72
19
 73
15
 74
0
 42
0.0000001
 43
0.0000001
 44
0.0000000001
 40
0.0
 40
0.0
 40
0.0
 40
0.0
 40
0.0570927043
 40
0.115179564
 40
0.1748049413
 40
0.236464892
 40
0.3654347916
 40
0.4999888254
 40
0.6345428046
 40
0.7635189451
 40
0.8251838491
 40
0.8848152542
 40
0.9429063975
 40
1.0
 40
1.0
 40
1.0
 40
1.0
 10
32.427226551
 20
69.0588829758
 30
0.0
 10
32.427226551
 20
69.1686248696
 30
0.0
 10
32.4536948857
 20
69.3908293656
 30
0.0
 10
32.5695003038
 20
69.709162866
 30
0.0
 10
32.7573845001
 20
70.0015422056
 30
0.0
 10
33.0970637058
 20
70.3462051363
 30
0.0
 10
33.658616867
 20
70.6537043664
 30
0.0
 10
34.4271585985
 20
70.7783190143
 30
0.0
 10
35.1957176239
 20
70.6537399597
 30
0.0
 10
35.7573068502
 20
70.3462610773
 30
0.0
 10
36.0970280916
 20
70.0015924982
 30
0.0
 10
36.2849388
 20
69.7091940485
 30
0.0
 10
36.4007538248
 20
69.3908407202
 30
0.0
 10
36.4272265514
 20
69.1686265962
 30
0.0
 10
36.4272265514
 20
69.0588829758
 30
0.0
  0
SPLINE
  5
43D
100
AcDbEntity
  8
0
100
AcDbSpline
 62
7
  6
CONTINUOUS
 70
0
 71
3
 72
19
 73
15
 74
0
 42
0.0000001
 43
0.0000001
 44
0.0000000001
 40
0.0
 40
0.0
 40
0.0
 40
0.0
 40
0.0570927043
 40
0.115179564
 40
0.1748049413
 40
0.236464892
 40
0.3654347916
 40
0.4999888254
 40
0.6345428046
 40
0.7635189451
 40
0.8251838491
 40
0.8848152542
 40
0.9429063975
 40
1.0
 40
1.0
 40
1.0
 40
1.0
 10
27.427226551
 20
69.0588829758
 30
0.0
 10
27.427226551
 20
69.1686248696
 30
0.0
 10
27.4536948857
 20
69.3908293656
 30
0.0
 10
27.5695003038
 20
69.709162866
 30
0.0
 10
27.7573845001
 20
70.0015422056
 30
0.0
 10
28.0970637058
 20
70.3462051363
 30
0.0
 10
28.658616867
 20
70.6537043664
 30
0.0
 10
29.4271585985
 20
70.7783190143
 30
0.0
 10
30.1957176239
 20
70.6537399597
 30
0.0
 10
30.7573068502
 20
70.3462610773
 30
0.0
 10
31.0970280916
 20
70.0015924982
 30
0.0
 10
31.2849388
 20
69.7091940485
 30
0.0
 10
31.4007538248
 20
69.3908407202
 30
0.0
 10
31.4272265514
 20
69.1686265962
 30
0.0
 10
31.4272265514
 20
69.0588829758
 30
0.0
  0
SPLINE
  5
43E
100
AcDbEntity
  8
0
100
AcDbSpline
 62
7
  6
CONTINUOUS
 70
0
 71
3
 72
11
 73
7
 74
0
 42
0.0000001
 43
0.0000001
 44
0.0000000001
 40
0.0
 40
0.0
 40
0.0
 40
0.0
 40
0.2449218058
 40
0.5000065814
 40
0.755084278
 40
1.0
 40
1.0
 40
1.0
 40
1.0
 10
54.0161413004
 20
68.0871369244
 30
0.0
 10
53.8273262573
 20
68.2400132933
 30
0.0
 10
53.3787441695
 20
68.4789092528
 30
0.0
 10
52.6268176131
 20
68.5978836069
 30
0.0
 10
51.8749346834
 20
68.4786519213
 30
0.0
 10
51.4264576439
 20
68.2395839816
 30
0.0
 10
51.2377059881
 20
68.0866389427
 30
0.0
  0
SPLINE
  5
43F
100
AcDbEntity
  8
0
100
AcDbSpline
 62
7
  6
CONTINUOUS
 70
0
 71
3
 72
11
 73
7
 74
0
 42
0.0000001
 43
0.0000001
 44
0.0000000001
 40
0.0
 40
0.0
 40
0.0
 40
0.0
 40
0.2449218058
 40
0.5000065814
 40
0.755084278
 40
1.0
 40
1.0
 40
1.0
 40
1.0
 10
40.8161413004
 20
68.0871369244
 30
0.0
 10
40.6273262573
 20
68.2400132933
 30
0.0
 10
40.1787441695
 20
68.4789092528
 30
0.0
 10
39.4268176131
 20
68.5978836069
 30
0.0
 10
38.6749346834
 20
68.4786519213
 30
0.0
 10
38.2264576439
 20
68.2395839816
 30
0.0
 10
38.0377059881
 20
68.0866389427
 30
0.0
  0
SPLINE
  5
440
100
AcDbEntity
  8
0
100
AcDbSpline
 62
7
  6
CONTINUOUS
 70
0
 71
3
 72
11
 73
7
 74
0
 42
0.0000001
 43
0.0000001
 44
0.0000000001
 40
0.0
 40
0.0
 40
0.0
 40
0.0
 40
0.2449218058
 40
0.5000065814
 40
0.755084278
 40
1.0
 40
1.0
 40
1.0
 40
1.0
 10
45.8161413004
 20
68.0871369244
 30
0.0
 10
45.6273262573
 20
68.2400132933
 30
0.0
 10
45.1787441695
 20
68.4789092528
 30
0.0
 10
44.4268176131
 20
68.5978836069
 30
0.0
 10
43.6749346834
 20
68.4786519213
 30
0.0
 10
43.2264576439
 20
68.2395839816
 30
0.0
 10
43.0377059881
 20
68.0866389427
 30
0.0
  0
SPLINE
  5
441
100
AcDbEntity
  8
0
100
AcDbSpline
 62
7
  6
CONTINUOUS
 70
0
 71
3
 72
11
 73
7
 74
0
 42
0.0000001
 43
0.0000001
 44
0.0000000001
 40
0.0
 40
0.0
 40
0.0
 40
0.0
 40
0.2449218058
 40
0.5000065814
 40
0.755084278
 40
1.0
 40
1.0
 40
1.0
 40
1.0
 10
69.0161413004
 20
46.4871369244
 30
0.0
 10
68.8273262573
 20
46.6400132933
 30
0.0
 10
68.3787441695
 20
46.8789092528
 30
0.0
 10
67.6268176131
 20
46.9978836069
 30
0.0
 10
66.8749346834
 20
46.8786519213
 30
0.0
 10
66.4264576439
 20
46.6395839816
 30
0.0
 10
66.2377059881
 20
46.4866389427
 30
0.0
  0
SPLINE
  5
442
100
AcDbEntity
  8
0
100
AcDbSpline
 62
7
  6
CONTINUOUS
 70
0
 71
3
 72
11
 73
7
 74
0
 42
0.0000001
 43
0.0000001
 44
0.0000000001
 40
0.0
 40
0.0
 40
0.0
 40
0.0
 40
0.2449218058
 40
0.5000065814
 40
0.755084278
 40
1.0
 40
1.0
 40
1.0
 40
1.0
 10
64.0161413004
 20
46.4871369244
 30
0.0
 10
63.8273262573
 20
46.6400132933
 30
0.0
 10
63.3787441695
 20
46.8789092528
 30
0.0
 10
62.6268176131
 20
46.9978836069
 30
0.0
 10
61.8749346834
 20
46.8786519213
 30
0.0
 10
61.4264576439
 20
46.6395839816
 30
0.0
 10
61.2377059881
 20
46.4866389427
 30
0.0
  0
SPLINE
  5
443
100
AcDbEntity
  8
0
100
AcDbSpline
 62
7
  6
CONTINUOUS
 70
0
 71
3
 72
11
 73
7
 74
0
 42
0.0000001
 43
0.0000001
 44
0.0000000001
 40
0.0
 40
0.0
 40
0.0
 40
0.0
 40
0.2449218058
 40
0.5000065814
 40
0.755084278
 40
1.0
 40
1.0
 40
1.0
 40
1.0
 10
59.0161413004
 20
68.0871369244
 30
0.0
 10
58.8273262573
 20
68.2400132933
 30
0.0
 10
58.3787441695
 20
68.4789092528
 30
0.0
 10
57.6268176131
 20
68.5978836069
 30
0.0
 10
56.8749346834
 20
68.4786519213
 30
0.0
 10
56.4264576439
 20
68.2395839816
 30
0.0
 10
56.2377059881
 20
68.0866389427
 30
0.0
  0
SPLINE
  5
444
100
AcDbEntity
  8
0
100
AcDbSpline
 62
7
  6
CONTINUOUS
 70
0
 71
3
 72
19
 73
15
 74
0
 42
0.0000001
 43
0.0000001
 44
0.0000000001
 40
0.0
 40
0.0
 40
0.0
 40
0.0
 40
0.0570927756
 40
0.1151791467
 40
0.1748045316
 40
0.2364697531
 40
0.3654418182
 40
0.4999817283
 40
0.634530061
 40
0.7635098071
 40
0.8251772593
 40
0.8848118644
 40
0.9429056699
 40
1.0
 40
1.0
 40
1.0
 40
1.0
 10
50.627226551
 20
47.4588829758
 30
0.0
 10
50.627226551
 20
47.5686249461
 30
0.0
 10
50.6536971609
 20
47.7908281323
 30
0.0
 10
50.7694973649
 20
48.109161799
 30
0.0
 10
50.9573846656
 20
48.4015513963
 30
0.0
 10
51.2970907166
 20
48.7462077471
 30
0.0
 10
51.858625277
 20
49.053707413
 30
0.0
 10
52.6271334254
 20
49.1783124406
 30
0.0
 10
53.3956608091
 20
49.053754577
 30
0.0
 10
53.9572608702
 20
48.7462931515
 30
0.0
 10
54.2970042318
 20
48.4016213961
 30
0.0
 10
54.4849307773
 20
48.109213338
 30
0.0
 10
54.6007499724
 20
47.7908480484
 30
0.0
 10
54.6272265514
 20
47.5686279339
 30
0.0
 10
54.6272265514
 20
47.4588829758
 30
0.0
  0
ENDSEC
  0
SECTION
  2
OBJECTS
  0
DICTIONARY
  5
C
100
AcDbDictionary
280
0
281
1
  3
ACAD_GROUP
350
D
  3
ACAD_MLINESTYLE
350
17
  3
ACAD_LAYOUT
350
1A
  3
ACAD_PLOTSETTINGS
350
19
  3
ACAD_PLOTSTYLENAME
350
E
  0
DICTIONARY
  5
D
102
{ACAD_REACTORS
330
C
102
}
100
AcDbDictionary
280
0
281
1
  0
ACDBDICTIONARYWDFLT
  5
E
102
{ACAD_REACTORS
330
C
102
}
100
AcDbDictionary
281
1
  3
Normal
350
F
100
AcDbDictionaryWithDefault
340
F
  0
DICTIONARY
  5
17
102
{ACAD_REACTORS
330
C
102
}
100
AcDbDictionary
280
0
281
1
  3
Standard
350
18
  0
DICTIONARY
  5
19
102
{ACAD_REACTORS
330
C
102
}
100
AcDbDictionary
281
1
  0
DICTIONARY
  5
1A
102
{ACAD_REACTORS
330
C
102
}
100
AcDbDictionary
281
1
  3
Model
350
445
  3
Layout1
350
446
  0
ACDBPLACEHOLDER
  5
F
102
{ACAD_REACTORS
330
E
102
}
  0
MLINESTYLE
  5
18
102
{ACAD_REACTORS
330
17
102
}
100
AcDbMlineStyle
  2
STANDARD
 70
0
  3

 62
256
 51
90.0
 52
90.0
 71
2
 49
0.5
 62
256
  6
BYLAYER
 49
-0.5
 62
256
  6
BYLAYER
  0
LAYOUT
  5
445
102
{ACAD_REACTORS
330
1A
102
}
100
AcDbPlotSettings
  1

  2
none_device
  4

  6

 40
0.0
 41
0.0
 42
0.0
 43
0.0
 44
210.0
 45
297.0
 46
0.0
 47
0.0
 48
0.0
 49
0.0
140
0.0
141
0.0
142
1.0
143
1.0
 70
1024
 72
1
 73
0
 74
0
  7

 75
0
147
1.0
148
0.0
149
0.0
100
AcDbLayout
  1
Model
 70
0
 71
0
 10
0.0
 20
0.0
 11
210.0
 21
297.0
 12
0.0
 22
0.0
 32
0.0
 14
0.0
 24
0.0
 34
0.0
 15
0.0
 25
0.0
 35
0.0
146
0.0
 13
0.0
 23
0.0
 33
0.0
 16
1.0
 26
0.0
 36
0.0
 17
0.0
 27
1.0
 37
0.0
 76
0
330
210
345
0
346
0
  0
LAYOUT
  5
446
102
{ACAD_REACTORS
330
1A
102
}
100
AcDbPlotSettings
  1

  2
none_device
  4

  6

 40
0.0
 41
0.0
 42
0.0
 43
0.0
 44
210.0
 45
297.0
 46
0.0
 47
0.0
 48
0.0
 49
0.0
140
0.0
141
0.0
142
1.0
143
1.0
 70
0
 72
1
 73
0
 74
0
  7

 75
0
147
1.0
148
0.0
149
0.0
100
AcDbLayout
  1
Layout1
 70
0
 71
1
 10
0.0
 20
0.0
 11
210.0
 21
297.0
 12
0.0
 22
0.0
 32
0.0
 14
0.0
 24
0.0
 34
0.0
 15
0.0
 25
0.0
 35
0.0
146
0.0
 13
0.0
 23
0.0
 33
0.0
 16
1.0
 26
0.0
 36
0.0
 17
0.0
 27
1.0
 37
0.0
 76
0
330
211
345
0
346
0
  0
ENDSEC
  0
EOF
