999
DXF file: C:\Users\sesa63760\Dev\_Creo\CAD\MCADID0001227_3D-CAD\drw0001_1.dxf
999
Pro/ENGINEER 2019471 by Parametric Technology Corporation
  0
SECTION
  2
HEADER
  9
$ACADVER
  1
AC1024
  9
$DWGCODEPAGE
  3
ANSI_1252
  9
$EXTMAX
 10
40.1078242767
 20
56.7239229056
 30
0.0
  9
$EXTMIN
 10
0.0
 20
0.0
 30
0.0
  9
$LIMMIN
 10
0.0
 20
0.0
  9
$LIMMAX
 10
40.1078242767
 20
56.7239229056
  9
$VIEWCTR
 10
20.0539121384
 20
28.3619614528
  9
$VIEWSIZE
 40
56.7239229056
  9
$CLAYER
  8
0
  9
$LTSCALE
 40
3.697559419
  9
$CELTYPE
  6
BYLAYER
  9
$DIMSCALE
 40
1.0
  9
$DIMASZ
 40
0.4774740985
  9
$DIMEXO
 40
1.0
  9
$DIMDLI
 40
2.5546774168
  9
$DIMEXE
 40
1.0
  9
$DIMCEN
 40
0.6050551777
  9
$DIMLFAC
 40
1.0
  9
$DIMBLK
  1
_FILLED
  9
$DIMALT
 70
0
  9
$DIMALTF
 40
0.0393700787
  9
$DIMTXT
 40
0.6684637379
  9
$DIMTOL
 70
1
  9
$DIMLIM
 70
0
  9
$DIMTFAC
 40
1.0
  9
$DIMTP
 40
0.01
  9
$DIMTM
 40
0.01
  9
$DIMGAP
 40
0.625
  9
$DIMDSEP
 70
46
  9
$AUNITS
 70
0
  9
$PDMODE
 70
3
  9
$PDSIZE
 40
0.3125
  9
$HANDSEED
  5
631
  9
$TILEMODE
 70
1
  9
$MEASUREMENT
 70
1
  9
$INSUNITS
 70
4
  0
ENDSEC
  0
SECTION
  2
CLASSES
  0
CLASS
  1
ACDBDICTIONARYWDFLT
  2
AcDbDictionaryWithDefault
  3
AutoCAD 2000
 90
0
 91
1
280
0
281
0
  0
CLASS
  1
ACDBPLACEHOLDER
  2
AcDbPlaceHolder
  3
AutoCAD 2000
 90
0
 91
1
280
0
281
0
  0
CLASS
  1
LAYOUT
  2
AcDbLayout
  3
AutoCAD 2000
 90
0
 91
0
280
0
281
0
  0
ENDSEC
  0
SECTION
  2
TABLES
  0
TABLE
  2
VPORT
  5
8
100
AcDbSymbolTable
 70
2
  0
VPORT
  5
1F4
100
AcDbSymbolTableRecord
100
AcDbViewportTableRecord
  2
*ACTIVE
 70
0
 10
0.0
 20
0.0
 11
1.0
 21
1.0
 12
20.0539121384
 22
28.3619614528
 13
0.0
 23
0.0
 14
1.0
 24
1.0
 15
0.0
 25
0.0
 16
0.0
 26
0.0
 36
1.0
 17
0.0
 27
0.0
 37
0.0
 40
56.7239229056
 41
0.7070707071
 42
50.0
 43
0.0
 44
0.0
 50
0.0
 51
0.0
 71
0
 72
100
 73
1
 74
1
 75
0
 76
0
 77
0
 78
0
  0
ENDTAB
  0
TABLE
  2
LTYPE
  5
5
100
AcDbSymbolTable
 70
6
  0
LTYPE
  5
14
100
AcDbSymbolTableRecord
100
AcDbLinetypeTableRecord
  2
BYBLOCK
 70
0
  3

 72
65
 73
0
 40
0.0
  0
LTYPE
  5
15
100
AcDbSymbolTableRecord
100
AcDbLinetypeTableRecord
  2
BYLAYER
 70
0
  3

 72
65
 73
0
 40
0.0
  0
LTYPE
  5
16
100
AcDbSymbolTableRecord
100
AcDbLinetypeTableRecord
  2
CONTINUOUS
 70
64
  3
Solid line
 72
65
 73
0
 40
0.0
  0
LTYPE
  5
1F5
100
AcDbSymbolTableRecord
100
AcDbLinetypeTableRecord
  2
CENTER
 70
64
  3
____ _ ____ _ ____ _ ____ _ ____ _ ____ _ ____
 72
65
 73
4
 40
0.6
 49
0.375
 74
0
 49
-0.075
 74
0
 49
0.075
 74
0
 49
-0.075
 74
0
  0
LTYPE
  5
1F6
100
AcDbSymbolTableRecord
100
AcDbLinetypeTableRecord
  2
HIDDEN
 70
64
  3
- - - - - - - - - - - - - - - - - - - -
 72
65
 73
2
 40
0.2
 49
0.1
 74
0
 49
-0.1
 74
0
  0
LTYPE
  5
1F7
100
AcDbSymbolTableRecord
100
AcDbLinetypeTableRecord
  2
PHANTOM
 70
64
  3
_____ _ _ _____ _ _ _____ _ _ _____
 72
65
 73
6
 40
0.8
 49
0.45
 74
0
 49
-0.05
 74
0
 49
0.1
 74
0
 49
-0.05
 74
0
 49
0.1
 74
0
 49
-0.05
 74
0
  0
LTYPE
  5
1F8
100
AcDbSymbolTableRecord
100
AcDbLinetypeTableRecord
  2
DOT
 70
64
  3
. . . . . . . . . . . . . . . . . . . .
 72
65
 73
2
 40
0.2
 49
0.1
 74
0
 49
-0.1
 74
0
  0
LTYPE
  5
1F9
100
AcDbSymbolTableRecord
100
AcDbLinetypeTableRecord
  2
DASHED
 70
64
  3
- - - - - - - - - - - - - - - - - - - -
 72
65
 73
2
 40
0.2
 49
0.1
 74
0
 49
-0.1
 74
0
  0
ENDTAB
  0
TABLE
  2
LAYER
  5
2
100
AcDbSymbolTable
 70
36
  0
LAYER
  5
10
100
AcDbSymbolTableRecord
100
AcDbLayerTableRecord
  2
0
 70
0
 62
7
  6
CONTINUOUS
370
-3
390
F
  0
LAYER
  5
1FA
100
AcDbSymbolTableRecord
100
AcDbLayerTableRecord
  2
DEFAULT_1
 70
0
 62
7
  6
CENTER
370
-3
390
F
  0
LAYER
  5
1FB
100
AcDbSymbolTableRecord
100
AcDbLayerTableRecord
  2
DEFAULT_2
 70
0
 62
8
  6
HIDDEN
370
-3
390
F
  0
LAYER
  5
1FC
100
AcDbSymbolTableRecord
100
AcDbLayerTableRecord
  2
DEFAULT_3
 70
0
 62
7
  6
PHANTOM
370
-3
390
F
  0
LAYER
  5
1FD
100
AcDbSymbolTableRecord
100
AcDbLayerTableRecord
  2
00_COMPONENTS
 70
0
 62
7
  6
CONTINUOUS
370
-3
390
F
  0
LAYER
  5
1FE
100
AcDbSymbolTableRecord
100
AcDbLayerTableRecord
  2
01_1_DEFAULT_DATUMS
 70
0
 62
7
  6
CONTINUOUS
370
-3
390
F
  0
LAYER
  5
1FF
100
AcDbSymbolTableRecord
100
AcDbLayerTableRecord
  2
01_PLANES
 70
0
 62
7
  6
CONTINUOUS
370
-3
390
F
  0
LAYER
  5
200
100
AcDbSymbolTableRecord
100
AcDbLayerTableRecord
  2
02_COORD_SYS
 70
0
 62
7
  6
CONTINUOUS
370
-3
390
F
  0
LAYER
  5
201
100
AcDbSymbolTableRecord
100
AcDbLayerTableRecord
  2
03_AXES
 70
0
 62
7
  6
CONTINUOUS
370
-3
390
F
  0
LAYER
  5
202
100
AcDbSymbolTableRecord
100
AcDbLayerTableRecord
  2
04_POINTS
 70
0
 62
7
  6
CONTINUOUS
370
-3
390
F
  0
LAYER
  5
203
100
AcDbSymbolTableRecord
100
AcDbLayerTableRecord
  2
05_CURVES
 70
0
 62
7
  6
CONTINUOUS
370
-3
390
F
  0
LAYER
  5
204
100
AcDbSymbolTableRecord
100
AcDbLayerTableRecord
  2
06_SURFS
 70
0
 62
7
  6
CONTINUOUS
370
-3
390
F
  0
LAYER
  5
205
100
AcDbSymbolTableRecord
100
AcDbLayerTableRecord
  2
07_COSMETICS
 70
0
 62
7
  6
CONTINUOUS
370
-3
390
F
  0
LAYER
  5
206
100
AcDbSymbolTableRecord
100
AcDbLayerTableRecord
  2
10_NOTES
 70
0
 62
7
  6
CONTINUOUS
370
-3
390
F
  0
LAYER
  5
207
100
AcDbSymbolTableRecord
100
AcDbLayerTableRecord
  2
11_NOTES_PUB
 70
0
 62
7
  6
CONTINUOUS
370
-3
390
F
  0
LAYER
  5
208
100
AcDbSymbolTableRecord
100
AcDbLayerTableRecord
  2
13_REF_GTOL
 70
0
 62
7
  6
CONTINUOUS
370
-3
390
F
  0
LAYER
  5
209
100
AcDbSymbolTableRecord
100
AcDbLayerTableRecord
  2
16_MISC
 70
0
 62
7
  6
CONTINUOUS
370
-3
390
F
  0
LAYER
  5
20A
100
AcDbSymbolTableRecord
100
AcDbLayerTableRecord
  2
17_NO_PRINT
 70
0
 62
7
  6
CONTINUOUS
370
-3
390
F
  0
LAYER
  5
20B
100
AcDbSymbolTableRecord
100
AcDbLayerTableRecord
  2
18_DATUM_CAMS_JOINTS
 70
0
 62
7
  6
CONTINUOUS
370
-3
390
F
  0
LAYER
  5
20C
100
AcDbSymbolTableRecord
100
AcDbLayerTableRecord
  2
19_DATUM_FUNCTIONAL
 70
0
 62
7
  6
CONTINUOUS
370
-3
390
F
  0
LAYER
  5
20D
100
AcDbSymbolTableRecord
100
AcDbLayerTableRecord
  2
20_DATUM_KINEMATIC_SCHEME
 70
0
 62
7
  6
CONTINUOUS
370
-3
390
F
  0
ENDTAB
  0
TABLE
  2
STYLE
  5
3
100
AcDbSymbolTable
 70
1
  0
STYLE
  5
11
100
AcDbSymbolTableRecord
100
AcDbTextStyleTableRecord
  2
STANDARD
 70
0
 40
0.0
 41
0.8
 50
0.0
 71
0
 42
0.2
  3
txt
  4

  0
STYLE
  5
20E
100
AcDbSymbolTableRecord
100
AcDbTextStyleTableRecord
  2
TEXTSTYLE_1
 70
0
 40
0.0
 41
0.8
 50
0.0
 71
0
 42
0.2
  3
gdt
  4

  0
ENDTAB
  0
TABLE
  2
VIEW
  5
6
100
AcDbSymbolTable
 70
0
  0
ENDTAB
  0
TABLE
  2
UCS
  5
7
100
AcDbSymbolTable
 70
0
  0
ENDTAB
  0
TABLE
  2
APPID
  5
9
100
AcDbSymbolTable
 70
1
  0
APPID
  5
20F
100
AcDbSymbolTableRecord
100
AcDbRegAppTableRecord
  2
ACAD
 70
0
  0
ENDTAB
  0
TABLE
  2
BLOCK_RECORD
  5
1
100
AcDbSymbolTable
 70
0
  0
BLOCK_RECORD
  5
210
100
AcDbSymbolTableRecord
100
AcDbBlockTableRecord
  2
*Model_Space
  0
BLOCK_RECORD
  5
211
100
AcDbSymbolTableRecord
100
AcDbBlockTableRecord
  2
*Paper_Space
  0
BLOCK_RECORD
  5
212
100
AcDbSymbolTableRecord
100
AcDbBlockTableRecord
  2
_FILLED
  0
ENDTAB
  0
TABLE
  2
DIMSTYLE
  5
A
100
AcDbSymbolTable
 70
1
100
AcDbDimStyleTable
 71
0
  0
DIMSTYLE
105
213
100
AcDbSymbolTableRecord
100
AcDbDimStyleTableRecord
  2
STANDARD
 70
0
  3

  4

 40
1.0
 41
0.4774740985
 42
1.0
 43
0.38
 44
1.0
 45
0.0
 46
0.0
 47
0.01
 48
0.01
140
0.6684637379
141
0.09
142
0.0
143
25.4
144
1.0
145
0.0
146
1.0
147
0.625
 71
1
 72
0
 73
0
 74
0
 75
0
 76
0
 77
1
 78
8
 79
2
170
0
171
1
172
0
173
0
174
0
175
0
176
0
177
0
178
0
270
2
179
2
271
2
272
2
273
2
274
2
275
0
280
0
281
0
282
0
283
1
284
8
285
0
286
0
287
3
288
0
340
11
278
46
341
212
342
212
343
212
344
212
  0
ENDTAB
  0
ENDSEC
  0
SECTION
  2
BLOCKS
  0
BLOCK
  5
20
100
AcDbEntity
  8
0
100
AcDbBlockBegin
  2
*Model_Space
 70
0
 10
0.0
 20
0.0
 30
0.0
  3
*Model_Space
  1

  0
ENDBLK
  5
21
100
AcDbEntity
  8
0
100
AcDbBlockEnd
  0
BLOCK
  5
1C
100
AcDbEntity
  8
0
100
AcDbBlockBegin
  2
*Paper_Space
 70
0
 10
0.0
 20
0.0
 30
0.0
  3
*Paper_Space
  1

  0
ENDBLK
  5
1D
100
AcDbEntity
  8
0
100
AcDbBlockEnd
  0
BLOCK
  5
214
100
AcDbEntity
  8
0
100
AcDbBlockBegin
  2
_FILLED
 70
64
 10
0.0
 20
0.0
  3
_FILLED
  1

  0
SOLID
  5
215
100
AcDbEntity
  8
0
  6
BYBLOCK
 62
0
100
AcDbTrace
 10
0.0
 20
0.0
 11
-1.0
 21
0.25
 12
-1.0
 22
-0.25
 13
-1.0
 23
-0.25
  0
ENDBLK
  5
216
100
AcDbEntity
  8
0
  6
BYBLOCK
 62
0
100
AcDbBlockEnd
  0
ENDSEC
  0
SECTION
  2
ENTITIES
  0
LINE
  5
217
100
AcDbEntity
  8
0
100
AcDbLine
 62
7
  6
CONTINUOUS
 10
16.270447154
 20
45.5212402603
 11
13.6541629566
 21
44.0107368911
  0
LINE
  5
218
100
AcDbEntity
  8
0
100
AcDbLine
 62
7
  6
CONTINUOUS
 10
4.6529563302
 20
31.9358075723
 11
4.6529563302
 21
31.139117025
  0
LINE
  5
219
100
AcDbEntity
  8
0
100
AcDbLine
 62
7
  6
CONTINUOUS
 10
4.6529563302
 20
28.9963988706
 11
4.6529563302
 21
28.1997083233
  0
LINE
  5
21A
100
AcDbEntity
  8
0
100
AcDbLine
 62
7
  6
CONTINUOUS
 10
4.6822459464
 20
28.148977973
 11
4.6822459464
 21
28.9654803902
  0
LINE
  5
21B
100
AcDbEntity
  8
0
100
AcDbLine
 62
7
  6
CONTINUOUS
 10
4.6822459464
 20
31.0883866747
 11
4.6822459464
 21
31.9048890918
  0
LINE
  5
21C
100
AcDbEntity
  8
0
100
AcDbLine
 62
7
  6
CONTINUOUS
 10
4.6529563302
 20
28.9964008817
 11
4.6543956993
 21
29.0017614999
  0
LINE
  5
21D
100
AcDbEntity
  8
0
100
AcDbLine
 62
7
  6
CONTINUOUS
 10
4.6544031829
 20
31.9411936963
 11
4.6529550955
 21
31.9358056555
  0
LINE
  5
21E
100
AcDbEntity
  8
0
100
AcDbLine
 62
7
  6
CONTINUOUS
 10
4.6543963681
 20
31.9411818929
 11
5.1318624733
 21
32.7681820368
  0
LINE
  5
21F
100
AcDbEntity
  8
0
100
AcDbLine
 62
7
  6
CONTINUOUS
 10
4.6822459464
 20
31.9048890918
 11
5.1772186325
 21
32.7622116915
  0
LINE
  5
220
100
AcDbEntity
  8
0
100
AcDbLine
 62
7
  6
CONTINUOUS
 10
14.2488648334
 20
43.3407986755
 11
14.2584170345
 21
43.3474123256
  0
LINE
  5
221
100
AcDbEntity
  8
0
100
AcDbLine
 62
7
  6
CONTINUOUS
 10
13.7041624822
 20
44.0057843186
 11
16.3204469302
 21
45.5162878324
  0
LINE
  5
222
100
AcDbEntity
  8
0
100
AcDbLine
 62
7
  6
CONTINUOUS
 10
13.3720799741
 20
42.8345897226
 11
14.2488648334
 21
43.3407986755
  0
LINE
  5
223
100
AcDbEntity
  8
0
100
AcDbLine
 62
7
  6
CONTINUOUS
 10
13.4220797502
 20
42.8296372947
 11
14.2988646095
 21
43.3358462476
  0
LINE
  5
224
100
AcDbEntity
  8
0
100
AcDbLine
 62
7
  6
CONTINUOUS
 10
14.5817084996
 20
43.1725499458
 11
13.7049236403
 21
42.6663409929
  0
LINE
  5
225
100
AcDbEntity
  8
0
100
AcDbLine
 62
7
  6
CONTINUOUS
 10
13.7756346128
 20
42.5438666757
 11
14.6524194721
 21
43.0500756286
  0
LINE
  5
226
100
AcDbEntity
  8
0
100
AcDbLine
 62
7
  6
CONTINUOUS
 10
18.0756124175
 20
44.6169916686
 11
18.0460070487
 21
44.6017059221
  0
LINE
  5
227
100
AcDbEntity
  8
0
100
AcDbLine
 62
7
  6
CONTINUOUS
 10
4.837063637
 20
29.3181639381
 11
4.6543963681
 21
29.0017731913
  0
LINE
  5
228
100
AcDbEntity
  8
0
100
AcDbLine
 62
7
  6
CONTINUOUS
 10
4.6822459464
 20
28.9654803902
 11
4.8736665057
 21
29.2970323649
  0
LINE
  5
229
100
AcDbEntity
  8
0
100
AcDbLine
 62
7
  6
CONTINUOUS
 10
5.1318740151
 20
32.7681896112
 11
5.1357953527
 21
32.7721157323
  0
LINE
  5
22A
100
AcDbEntity
  8
0
100
AcDbLine
 62
7
  6
CONTINUOUS
 10
18.2169568762
 20
44.4213620751
 11
15.6006726787
 21
42.9108587059
  0
LINE
  5
22B
100
AcDbEntity
  8
0
100
AcDbLine
 62
7
  6
CONTINUOUS
 10
15.6713836512
 20
42.7883843887
 11
18.2876678487
 21
44.2988877579
  0
LINE
  5
22C
100
AcDbEntity
  8
0
100
AcDbLine
 62
7
  6
CONTINUOUS
 10
11.377993372
 20
40.2134562483
 11
8.9238409657
 21
38.7965591536
  0
LINE
  5
22D
100
AcDbEntity
  8
0
100
AcDbLine
 62
7
  6
CONTINUOUS
 10
8.9738407418
 20
38.7916067257
 11
11.3779937884
 21
40.1796368489
  0
LINE
  5
22E
100
AcDbEntity
  8
0
100
AcDbLine
 62
7
  6
CONTINUOUS
 10
18.9574641096
 20
43.9699253931
 11
16.3411799121
 21
42.4594220239
  0
LINE
  5
22F
100
AcDbEntity
  8
0
100
AcDbLine
 62
7
  6
CONTINUOUS
 10
16.3911794378
 20
42.4544694514
 11
19.0074638857
 21
43.9649729652
  0
LINE
  5
230
100
AcDbEntity
  8
0
100
AcDbLine
 62
7
  6
CONTINUOUS
 10
11.0244465801
 20
39.3223268452
 11
10.2466323592
 21
38.8732582759
  0
LINE
  5
231
100
AcDbEntity
  8
0
100
AcDbLine
 62
7
  6
CONTINUOUS
 10
10.3173433317
 20
38.7507839588
 11
11.0244471689
 21
39.1590281127
  0
LINE
  5
232
100
AcDbEntity
  8
0
100
AcDbLine
 62
7
  6
CONTINUOUS
 10
16.9358817889
 20
41.7894838083
 11
16.9454339901
 21
41.7960974584
  0
LINE
  5
233
100
AcDbEntity
  8
0
100
AcDbLine
 62
7
  6
CONTINUOUS
 10
13.5756764577
 20
40.25763379
 11
10.6633271706
 21
38.576198182
  0
LINE
  5
234
100
AcDbEntity
  8
0
100
AcDbLine
 62
7
  6
CONTINUOUS
 10
10.6926167869
 20
38.5592888091
 11
13.5748737053
 21
40.2233506837
  0
LINE
  5
235
100
AcDbEntity
  8
0
100
AcDbLine
 62
7
  6
CONTINUOUS
 10
14.6524194721
 20
40.7638688606
 11
13.7756346128
 21
40.2576599078
  0
LINE
  5
236
100
AcDbEntity
  8
0
100
AcDbLine
 62
7
  6
CONTINUOUS
 10
13.7549234165
 20
40.2118813136
 11
14.6317082758
 21
40.7180902665
  0
LINE
  5
237
100
AcDbEntity
  8
0
100
AcDbLine
 62
7
  6
CONTINUOUS
 10
16.0590969296
 20
41.2832748554
 11
16.9358817889
 21
41.7894838083
  0
LINE
  5
238
100
AcDbEntity
  8
0
100
AcDbLine
 62
7
  6
CONTINUOUS
 10
16.1090967058
 20
41.2783224275
 11
16.9858815651
 21
41.7845313804
  0
LINE
  5
239
100
AcDbEntity
  8
0
100
AcDbLine
 62
7
  6
CONTINUOUS
 10
17.2687254552
 20
41.6212350786
 11
16.3919405959
 21
41.1150261257
  0
LINE
  5
23A
100
AcDbEntity
  8
0
100
AcDbLine
 62
7
  6
CONTINUOUS
 10
9.3395433958
 20
36.9953075881
 11
8.9238409657
 21
36.7553031108
  0
LINE
  5
23B
100
AcDbEntity
  8
0
100
AcDbLine
 62
7
  6
CONTINUOUS
 10
8.9738407418
 20
36.7503506829
 11
9.3688324817
 21
36.978397909
  0
LINE
  5
23C
100
AcDbEntity
  8
0
100
AcDbLine
 62
7
  6
CONTINUOUS
 10
16.4626515684
 20
40.9925518086
 11
17.3394364277
 21
41.4987607614
  0
LINE
  5
23D
100
AcDbEntity
  8
0
100
AcDbLine
 62
7
  6
CONTINUOUS
 10
12.0071129344
 20
37.8003812733
 11
13.4920309928
 21
38.6576939965
  0
LINE
  5
23E
100
AcDbEntity
  8
0
100
AcDbLine
 62
7
  6
CONTINUOUS
 10
20.9039738317
 20
42.8700472079
 11
18.2876896343
 21
41.3595438387
  0
LINE
  5
23F
100
AcDbEntity
  8
0
100
AcDbLine
 62
7
  6
CONTINUOUS
 10
20.7626293731
 20
43.0656768014
 11
20.7330240043
 21
43.0503910549
  0
LINE
  5
240
100
AcDbEntity
  8
0
100
AcDbLine
 62
7
  6
CONTINUOUS
 10
10.6926167869
 20
20.2696346654
 11
10.6633271706
 21
20.3104590808
  0
LINE
  5
241
100
AcDbEntity
  8
0
100
AcDbLine
 62
7
  6
CONTINUOUS
 10
4.6822459464
 20
28.148977973
 11
4.6529552206
 21
28.1997094447
  0
LINE
  5
242
100
AcDbEntity
  8
0
100
AcDbLine
 62
7
  6
CONTINUOUS
 10
4.6529563302
 20
31.1391155439
 11
4.6822459464
 21
31.0883866747
  0
LINE
  5
243
100
AcDbEntity
  8
0
100
AcDbLine
 62
7
  6
CONTINUOUS
 10
8.7566846319
 20
34.8626246538
 11
8.7566846319
 21
36.5054041393
  0
LINE
  5
244
100
AcDbEntity
  8
0
100
AcDbLine
 62
7
  6
CONTINUOUS
 10
8.7566846319
 20
37.4852070399
 11
8.7566846319
 21
38.5466601822
  0
LINE
  5
245
100
AcDbEntity
  8
0
100
AcDbLine
 62
7
  6
CONTINUOUS
 10
8.8955734655
 20
35.7015647891
 11
8.8955734655
 21
34.9428116806
  0
LINE
  5
246
100
AcDbEntity
  8
0
100
AcDbLine
 62
7
  6
CONTINUOUS
 10
8.9031327133
 20
35.7383436411
 11
8.9031327133
 21
36.3012820624
  0
LINE
  5
247
100
AcDbEntity
  8
0
100
AcDbLine
 62
7
  6
CONTINUOUS
 10
8.9031327133
 20
37.281084963
 11
8.9031327133
 21
38.3425381052
  0
LINE
  5
248
100
AcDbEntity
  8
0
100
AcDbLine
 62
7
  6
CONTINUOUS
 10
8.9248630818
 20
34.9597219475
 11
8.9248630818
 21
35.6607403737
  0
LINE
  5
249
100
AcDbEntity
  8
0
100
AcDbLine
 62
7
  6
CONTINUOUS
 10
11.3165877545
 20
39.1536628752
 11
11.6229943144
 21
40.0381889292
  0
LINE
  5
24A
100
AcDbEntity
  8
0
100
AcDbLine
 62
7
  6
CONTINUOUS
 10
11.3926834763
 20
38.9972897279
 11
11.7315480621
 21
39.9755147207
  0
LINE
  5
24B
100
AcDbEntity
  8
0
100
AcDbLine
 62
7
  6
CONTINUOUS
 10
13.7549234165
 20
40.2118813136
 11
13.7756346128
 21
40.2576599078
  0
LINE
  5
24C
100
AcDbEntity
  8
0
100
AcDbLine
 62
7
  6
CONTINUOUS
 10
18.2876678487
 20
44.2988877579
 11
18.3462459036
 21
44.3805359088
  0
LINE
  5
24D
100
AcDbEntity
  8
0
100
AcDbLine
 62
7
  6
CONTINUOUS
 10
4.87365216
 20
29.3547585197
 11
4.837063637
 21
29.3181639381
  0
LINE
  5
24E
100
AcDbEntity
  8
0
100
AcDbLine
 62
7
  6
CONTINUOUS
 10
12.0071129344
 20
37.0655290979
 11
13.4920309928
 21
38.529448946
  0
LINE
  5
24F
100
AcDbEntity
  8
0
100
AcDbLine
 62
7
  6
CONTINUOUS
 10
14.2988640207
 20
38.0636342183
 11
13.280658394
 21
37.0598270264
  0
LINE
  5
250
100
AcDbEntity
  8
0
100
AcDbLine
 62
7
  6
CONTINUOUS
 10
13.7049242291
 20
36.8148825736
 11
14.7231298558
 21
37.8186897656
  0
LINE
  5
251
100
AcDbEntity
  8
0
100
AcDbLine
 62
7
  6
CONTINUOUS
 10
18.3584006068
 20
41.2370695216
 11
20.9746848042
 21
42.7475728907
  0
LINE
  5
252
100
AcDbEntity
  8
0
100
AcDbLine
 62
7
  6
CONTINUOUS
 10
8.9455736894
 20
35.7881674587
 11
11.2790163522
 21
37.1353731665
  0
LINE
  5
253
100
AcDbEntity
  8
0
100
AcDbLine
 62
7
  6
CONTINUOUS
 10
8.9955734655
 20
35.7832150308
 11
11.3290161283
 21
37.1304207386
  0
LINE
  5
254
100
AcDbEntity
  8
0
100
AcDbLine
 62
7
  6
CONTINUOUS
 10
21.6444810651
 20
42.4186105259
 11
19.0281968677
 21
40.9081071568
  0
LINE
  5
255
100
AcDbEntity
  8
0
100
AcDbLine
 62
7
  6
CONTINUOUS
 10
19.0781963934
 20
40.9031545842
 11
21.6944808413
 21
42.413658098
  0
LINE
  5
256
100
AcDbEntity
  8
0
100
AcDbLine
 62
7
  6
CONTINUOUS
 10
5.1357972854
 20
32.7721168482
 11
9.6026840547
 21
35.3510597327
  0
LINE
  5
257
100
AcDbEntity
  8
0
100
AcDbLine
 62
7
  6
CONTINUOUS
 10
5.1772186325
 20
32.7622116915
 11
9.7026831907
 21
35.3749742763
  0
LINE
  5
258
100
AcDbEntity
  8
0
100
AcDbLine
 62
7
  6
CONTINUOUS
 10
17.3394364277
 20
39.2125539935
 11
16.4626515684
 21
38.7063450406
  0
LINE
  5
259
100
AcDbEntity
  8
0
100
AcDbLine
 62
7
  6
CONTINUOUS
 10
16.441940372
 20
38.6605664464
 11
17.3187252313
 21
39.1667753993
  0
LINE
  5
25A
100
AcDbEntity
  8
0
100
AcDbLine
 62
7
  6
CONTINUOUS
 10
10.713328019
 20
20.2238560506
 11
26.1283200272
 21
11.324207602
  0
LINE
  5
25B
100
AcDbEntity
  8
0
100
AcDbLine
 62
7
  6
CONTINUOUS
 10
26.1076087951
 20
11.3699862168
 11
10.6926167869
 21
20.2696346654
  0
LINE
  5
25C
100
AcDbEntity
  8
0
100
AcDbLine
 62
7
  6
CONTINUOUS
 10
4.6822459464
 20
28.9654803902
 11
4.6529563302
 21
28.9964008817
  0
LINE
  5
25D
100
AcDbEntity
  8
0
100
AcDbLine
 62
7
  6
CONTINUOUS
 10
10.713328019
 20
20.2238560506
 11
10.6926167869
 21
20.2696346654
  0
LINE
  5
25E
100
AcDbEntity
  8
0
100
AcDbLine
 62
7
  6
CONTINUOUS
 10
10.3173433317
 20
38.3763644541
 11
10.3173433317
 21
38.7507839588
  0
LINE
  5
25F
100
AcDbEntity
  8
0
100
AcDbLine
 62
7
  6
CONTINUOUS
 10
10.6633271706
 20
38.576198182
 11
10.6633271706
 21
36.7799069737
  0
LINE
  5
260
100
AcDbEntity
  8
0
100
AcDbLine
 62
7
  6
CONTINUOUS
 10
10.6633271706
 20
24.6958772378
 11
10.6633271706
 21
20.3104590808
  0
LINE
  5
261
100
AcDbEntity
  8
0
100
AcDbLine
 62
7
  6
CONTINUOUS
 10
10.6926167869
 20
20.2696346654
 11
10.6926167869
 21
24.6789672525
  0
LINE
  5
262
100
AcDbEntity
  8
0
100
AcDbLine
 62
7
  6
CONTINUOUS
 10
10.6926167869
 20
36.7968172406
 11
10.6926167869
 21
38.5592888091
  0
LINE
  5
263
100
AcDbEntity
  8
0
100
AcDbLine
 62
7
  6
CONTINUOUS
 10
11.0244471689
 20
38.7846896657
 11
11.0244471689
 21
39.1590281127
  0
LINE
  5
264
100
AcDbEntity
  8
0
100
AcDbLine
 62
7
  6
CONTINUOUS
 10
11.258304567
 20
37.1712430632
 11
11.258304567
 21
37.1234152832
  0
LINE
  5
265
100
AcDbEntity
  8
0
100
AcDbLine
 62
7
  6
CONTINUOUS
 10
14.6524194721
 20
40.7638688606
 11
14.6317087078
 21
40.7180905159
  0
LINE
  5
266
100
AcDbEntity
  8
0
100
AcDbLine
 62
7
  6
CONTINUOUS
 10
5.8935856842
 20
29.3275611221
 11
6.5879241551
 21
29.9881677382
  0
LINE
  5
267
100
AcDbEntity
  8
0
100
AcDbLine
 62
7
  6
CONTINUOUS
 10
7.8607216604
 20
29.2533343801
 11
7.8497754043
 21
29.2429199071
  0
LINE
  5
268
100
AcDbEntity
  8
0
100
AcDbLine
 62
7
  6
CONTINUOUS
 10
19.6228987445
 20
40.2381689411
 11
19.6324509457
 21
40.2447825913
  0
LINE
  5
269
100
AcDbEntity
  8
0
100
AcDbLine
 62
7
  6
CONTINUOUS
 10
18.7461138852
 20
39.7319599883
 11
19.6228987445
 21
40.2381689411
  0
LINE
  5
26A
100
AcDbEntity
  8
0
100
AcDbLine
 62
7
  6
CONTINUOUS
 10
18.7961136614
 20
39.7270075604
 11
19.6728985207
 21
40.2332165132
  0
LINE
  5
26B
100
AcDbEntity
  8
0
100
AcDbLine
 62
7
  6
CONTINUOUS
 10
19.9557424107
 20
40.0699202114
 11
19.0789575514
 21
39.5637112585
  0
LINE
  5
26C
100
AcDbEntity
  8
0
100
AcDbLine
 62
7
  6
CONTINUOUS
 10
16.2618906608
 20
37.903696265
 11
15.6713836512
 21
37.5627689191
  0
LINE
  5
26D
100
AcDbEntity
  8
0
100
AcDbLine
 62
7
  6
CONTINUOUS
 10
19.1496685239
 20
39.4412369414
 11
20.0264533832
 21
39.9474458943
  0
LINE
  5
26E
100
AcDbEntity
  8
0
100
AcDbLine
 62
7
  6
CONTINUOUS
 10
23.5909907873
 20
41.3187323407
 11
20.9747065898
 21
39.8082289715
  0
LINE
  5
26F
100
AcDbEntity
  8
0
100
AcDbLine
 62
7
  6
CONTINUOUS
 10
21.0454175624
 20
39.6857546544
 11
23.6617017598
 21
41.1962580236
  0
LINE
  5
270
100
AcDbEntity
  8
0
100
AcDbLine
 62
7
  6
CONTINUOUS
 10
23.4496463287
 20
41.5143619342
 11
23.4200409598
 21
41.4990761877
  0
LINE
  5
271
100
AcDbEntity
  8
0
100
AcDbLine
 62
7
  6
CONTINUOUS
 10
11.7315480621
 20
39.1929321198
 11
11.7315480621
 21
39.9755147207
  0
LINE
  5
272
100
AcDbEntity
  8
0
100
AcDbLine
 62
7
  6
CONTINUOUS
 10
12.0071129344
 20
37.8003812733
 11
12.0071129344
 21
37.0655290979
  0
LINE
  5
273
100
AcDbEntity
  8
0
100
AcDbLine
 62
7
  6
CONTINUOUS
 10
11.3780290159
 20
40.2134356667
 11
11.3779937884
 21
40.1796368489
  0
LINE
  5
274
100
AcDbEntity
  8
0
100
AcDbLine
 62
7
  6
CONTINUOUS
 10
16.441940372
 20
38.6605664464
 11
16.4626515684
 21
38.7063450406
  0
LINE
  5
275
100
AcDbEntity
  8
0
100
AcDbLine
 62
7
  6
CONTINUOUS
 10
20.9746848042
 20
42.7475728907
 11
21.0332628592
 21
42.8292210416
  0
LINE
  5
276
100
AcDbEntity
  8
0
100
AcDbLine
 62
7
  6
CONTINUOUS
 10
16.9858809763
 20
36.5123193511
 11
15.9676753496
 21
35.5085121592
  0
LINE
  5
277
100
AcDbEntity
  8
0
100
AcDbLine
 62
7
  6
CONTINUOUS
 10
16.3919411847
 20
35.2635677065
 11
17.4101468114
 21
36.2673748984
  0
LINE
  5
278
100
AcDbEntity
  8
0
100
AcDbLine
 62
7
  6
CONTINUOUS
 10
8.5806026398
 20
27.776246255
 11
9.2749411107
 21
28.436852871
  0
LINE
  5
279
100
AcDbEntity
  8
0
100
AcDbLine
 62
7
  6
CONTINUOUS
 10
24.3314980207
 20
40.8672956588
 11
21.7152138233
 21
39.3567922896
  0
LINE
  5
27A
100
AcDbEntity
  8
0
100
AcDbLine
 62
7
  6
CONTINUOUS
 10
21.7652133489
 20
39.351839717
 11
24.3814977968
 21
40.8623432309
  0
LINE
  5
27B
100
AcDbEntity
  8
0
100
AcDbLine
 62
7
  6
CONTINUOUS
 10
6.2793373326
 20
30.1663263928
 11
4.8736665214
 21
29.3547668159
  0
LINE
  5
27C
100
AcDbEntity
  8
0
100
AcDbLine
 62
7
  6
CONTINUOUS
 10
4.9236662975
 20
29.349814388
 11
6.3086264185
 21
30.1494167137
  0
LINE
  5
27D
100
AcDbEntity
  8
0
100
AcDbLine
 62
7
  6
CONTINUOUS
 10
6.576977899
 20
29.9777532653
 11
5.6721936737
 21
29.4553789674
  0
LINE
  5
27E
100
AcDbEntity
  8
0
100
AcDbLine
 62
7
  6
CONTINUOUS
 10
20.0264533832
 20
37.6612391263
 11
19.1496685239
 21
37.1550301734
  0
LINE
  5
27F
100
AcDbEntity
  8
0
100
AcDbLine
 62
7
  6
CONTINUOUS
 10
19.1289573276
 20
37.1092515793
 11
20.0057421869
 21
37.6154605321
  0
LINE
  5
280
100
AcDbEntity
  8
0
100
AcDbLine
 62
7
  6
CONTINUOUS
 10
21.4331308408
 20
38.1806451211
 11
22.3099157001
 21
38.686854074
  0
LINE
  5
281
100
AcDbEntity
  8
0
100
AcDbLine
 62
7
  6
CONTINUOUS
 10
21.4831306169
 20
38.1756926932
 11
22.3599154762
 21
38.6819016461
  0
LINE
  5
282
100
AcDbEntity
  8
0
100
AcDbLine
 62
7
  6
CONTINUOUS
 10
22.6427593663
 20
38.5186053442
 11
21.765974507
 21
38.0123963914
  0
LINE
  5
283
100
AcDbEntity
  8
0
100
AcDbLine
 62
7
  6
CONTINUOUS
 10
18.9489076164
 20
36.3523813978
 11
18.3584006068
 21
36.0114540519
  0
LINE
  5
284
100
AcDbEntity
  8
0
100
AcDbLine
 62
7
  6
CONTINUOUS
 10
26.1366632842
 20
39.963047067
 11
26.1070579154
 21
39.9477613205
  0
LINE
  5
285
100
AcDbEntity
  8
0
100
AcDbLine
 62
7
  6
CONTINUOUS
 10
34.3967746253
 20
23.2931460857
 11
34.4967610571
 21
23.3170951291
  0
LINE
  5
286
100
AcDbEntity
  8
0
100
AcDbLine
 62
7
  6
CONTINUOUS
 10
17.7637717401
 20
20.5965117583
 11
17.8223514667
 21
20.5965116601
  0
LINE
  5
287
100
AcDbEntity
  8
0
100
AcDbLine
 62
7
  6
CONTINUOUS
 10
4.6822459464
 20
28.148977973
 11
17.7637717401
 21
20.5965117583
  0
LINE
  5
288
100
AcDbEntity
  8
0
100
AcDbLine
 62
7
  6
CONTINUOUS
 10
17.4102204103
 20
20.91611352
 11
17.8637719125
 21
20.6542479511
  0
LINE
  5
289
100
AcDbEntity
  8
0
100
AcDbLine
 62
7
  6
CONTINUOUS
 10
4.6529550955
 20
31.9358056555
 11
4.6822459464
 21
31.9048890918
  0
LINE
  5
28A
100
AcDbEntity
  8
0
100
AcDbLine
 62
7
  6
CONTINUOUS
 10
13.3220797502
 20
40.461780285
 11
13.3220797502
 21
42.747987053
  0
LINE
  5
28B
100
AcDbEntity
  8
0
100
AcDbLine
 62
7
  6
CONTINUOUS
 10
13.3513693665
 20
40.4209558696
 11
13.3513693665
 21
42.7071626376
  0
LINE
  5
28C
100
AcDbEntity
  8
0
100
AcDbLine
 62
7
  6
CONTINUOUS
 10
13.4920309928
 20
38.529448946
 11
13.4920309928
 21
38.6576939965
  0
LINE
  5
28D
100
AcDbEntity
  8
0
100
AcDbLine
 62
7
  6
CONTINUOUS
 10
13.5748737053
 20
43.883310146
 11
13.5748737053
 21
42.951672039
  0
LINE
  5
28E
100
AcDbEntity
  8
0
100
AcDbLine
 62
7
  6
CONTINUOUS
 10
13.5748737053
 20
40.2580972489
 11
13.5748737053
 21
38.6576946764
  0
LINE
  5
28F
100
AcDbEntity
  8
0
100
AcDbLine
 62
7
  6
CONTINUOUS
 10
13.6334529378
 20
38.5760458456
 11
13.6334529378
 21
40.2242772783
  0
LINE
  5
290
100
AcDbEntity
  8
0
100
AcDbLine
 62
7
  6
CONTINUOUS
 10
13.6334529378
 20
42.9854925728
 11
13.6334529378
 21
43.8016613153
  0
LINE
  5
291
100
AcDbEntity
  8
0
100
AcDbLine
 62
7
  6
CONTINUOUS
 10
13.6342132566
 20
42.5438663358
 11
13.6342132566
 21
40.2576595678
  0
LINE
  5
292
100
AcDbEntity
  8
0
100
AcDbLine
 62
7
  6
CONTINUOUS
 10
13.7756346128
 20
40.2576599078
 11
13.7756346128
 21
42.5438666757
  0
LINE
  5
293
100
AcDbEntity
  8
0
100
AcDbLine
 62
7
  6
CONTINUOUS
 10
14.2281530482
 20
43.3766685722
 11
14.2281530482
 21
43.3288407921
  0
LINE
  5
294
100
AcDbEntity
  8
0
100
AcDbLine
 62
7
  6
CONTINUOUS
 10
14.2988640207
 20
37.4004234691
 11
14.2988640207
 21
38.0636342183
  0
LINE
  5
295
100
AcDbEntity
  8
0
100
AcDbLine
 62
7
  6
CONTINUOUS
 10
17.3394364277
 20
39.2125539935
 11
17.3187256633
 21
39.1667756487
  0
LINE
  5
296
100
AcDbEntity
  8
0
100
AcDbLine
 62
7
  6
CONTINUOUS
 10
10.547738616
 20
27.7020195129
 11
10.5367923598
 21
27.6916050399
  0
LINE
  5
297
100
AcDbEntity
  8
0
100
AcDbLine
 62
7
  6
CONTINUOUS
 10
22.3099157001
 20
38.686854074
 11
22.3194679012
 21
38.6934677241
  0
LINE
  5
298
100
AcDbEntity
  8
0
100
AcDbLine
 62
7
  6
CONTINUOUS
 10
21.8366854795
 20
37.8899220742
 11
22.7134703388
 21
38.3961310271
  0
LINE
  5
299
100
AcDbEntity
  8
0
100
AcDbLine
 62
7
  6
CONTINUOUS
 10
7.8642678139
 20
29.2512870537
 11
6.944991179
 21
28.7205456092
  0
LINE
  5
29A
100
AcDbEntity
  8
0
100
AcDbLine
 62
7
  6
CONTINUOUS
 10
26.2780077428
 20
39.7674174735
 11
23.6617235454
 21
38.2569141044
  0
LINE
  5
29B
100
AcDbEntity
  8
0
100
AcDbLine
 62
7
  6
CONTINUOUS
 10
23.7324345179
 20
38.1344397872
 11
26.3487187153
 21
39.6449431564
  0
LINE
  5
29C
100
AcDbEntity
  8
0
100
AcDbLine
 62
7
  6
CONTINUOUS
 10
27.0185149762
 20
39.3159807916
 11
24.4022307788
 21
37.8054774224
  0
LINE
  5
29D
100
AcDbEntity
  8
0
100
AcDbLine
 62
7
  6
CONTINUOUS
 10
24.4522303045
 20
37.8005248499
 11
27.0685147524
 21
39.3110283637
  0
LINE
  5
29E
100
AcDbEntity
  8
0
100
AcDbLine
 62
7
  6
CONTINUOUS
 10
35.6904742473
 20
23.6370498591
 11
34.2079067356
 21
23.4838614766
  0
LINE
  5
29F
100
AcDbEntity
  8
0
100
AcDbLine
 62
7
  6
CONTINUOUS
 10
34.0876533266
 20
23.4903182817
 11
35.7101850734
 21
23.6579686664
  0
LINE
  5
2A0
100
AcDbEntity
  8
0
100
AcDbLine
 62
7
  6
CONTINUOUS
 10
32.8751280129
 20
22.8468286257
 11
32.8251282211
 21
22.8418762068
  0
LINE
  5
2A1
100
AcDbEntity
  8
0
100
AcDbLine
 62
7
  6
CONTINUOUS
 10
17.2687990541
 20
21.6987949597
 11
4.6822459464
 21
28.9654803902
  0
LINE
  5
2A2
100
AcDbEntity
  8
0
100
AcDbLine
 62
7
  6
CONTINUOUS
 10
4.837063637
 20
29.3181639381
 11
17.5809303777
 21
21.9606546404
  0
LINE
  5
2A3
100
AcDbEntity
  8
0
100
AcDbLine
 62
7
  6
CONTINUOUS
 10
17.5102194051
 20
22.0831289575
 11
4.9236662975
 21
29.349814388
  0
LINE
  5
2A4
100
AcDbEntity
  8
0
100
AcDbLine
 62
7
  6
CONTINUOUS
 10
17.6930590012
 20
22.5152861405
 11
16.420261496
 21
23.2501194987
  0
LINE
  5
2A5
100
AcDbEntity
  8
0
100
AcDbLine
 62
7
  6
CONTINUOUS
 10
15.0060420457
 20
24.0666010077
 11
13.7332445404
 21
24.8014343658
  0
LINE
  5
2A6
100
AcDbEntity
  8
0
100
AcDbLine
 62
7
  6
CONTINUOUS
 10
12.3190250901
 20
25.6179158749
 11
11.0462275848
 21
26.352749233
  0
LINE
  5
2A7
100
AcDbEntity
  8
0
100
AcDbLine
 62
7
  6
CONTINUOUS
 10
9.6320081345
 20
27.1692307421
 11
8.3592106293
 21
27.9040641002
  0
LINE
  5
2A8
100
AcDbEntity
  8
0
100
AcDbLine
 62
7
  6
CONTINUOUS
 10
6.944991179
 20
28.7205456092
 11
5.6721936737
 21
29.4553789674
  0
LINE
  5
2A9
100
AcDbEntity
  8
0
100
AcDbLine
 62
7
  6
CONTINUOUS
 10
8.9238439453
 20
37.2353063482
 11
8.9031327133
 21
37.281084963
  0
LINE
  5
2AA
100
AcDbEntity
  8
0
100
AcDbLine
 62
7
  6
CONTINUOUS
 10
14.6524194721
 20
43.0500756286
 11
14.6524194721
 21
40.7638688606
  0
LINE
  5
2AB
100
AcDbEntity
  8
0
100
AcDbLine
 62
7
  6
CONTINUOUS
 10
14.7938408283
 20
40.7638691537
 11
14.7938408283
 21
43.0500759685
  0
LINE
  5
2AC
100
AcDbEntity
  8
0
100
AcDbLine
 62
7
  6
CONTINUOUS
 10
15.3885409388
 20
42.7883837089
 11
15.3885409388
 21
37.5627682392
  0
LINE
  5
2AD
100
AcDbEntity
  8
0
100
AcDbLine
 62
7
  6
CONTINUOUS
 10
15.6713836512
 20
37.5627689191
 11
15.6713836512
 21
42.7883843887
  0
LINE
  5
2AE
100
AcDbEntity
  8
0
100
AcDbLine
 62
7
  6
CONTINUOUS
 10
19.1289573276
 20
37.1092515793
 11
19.1496685239
 21
37.1550301734
  0
LINE
  5
2AF
100
AcDbEntity
  8
0
100
AcDbLine
 62
7
  6
CONTINUOUS
 10
23.6617017598
 20
41.1962580236
 11
23.7202798148
 21
41.2779061745
  0
LINE
  5
2B0
100
AcDbEntity
  8
0
100
AcDbLine
 62
7
  6
CONTINUOUS
 10
19.6728979319
 20
34.961004484
 11
18.6546923051
 21
33.957197292
  0
LINE
  5
2B1
100
AcDbEntity
  8
0
100
AcDbLine
 62
7
  6
CONTINUOUS
 10
19.0789581402
 20
33.7122528393
 11
20.097163767
 21
34.7160600313
  0
LINE
  5
2B2
100
AcDbEntity
  8
0
100
AcDbLine
 62
7
  6
CONTINUOUS
 10
11.2676195953
 20
26.2249313878
 11
11.9619580663
 21
26.8855380038
  0
LINE
  5
2B3
100
AcDbEntity
  8
0
100
AcDbLine
 62
7
  6
CONTINUOUS
 10
24.9969326556
 20
37.1355392068
 11
25.0064848568
 21
37.1421528569
  0
LINE
  5
2B4
100
AcDbEntity
  8
0
100
AcDbLine
 62
7
  6
CONTINUOUS
 10
9.2639948546
 20
28.4264383981
 11
8.3592106293
 21
27.9040641002
  0
LINE
  5
2B5
100
AcDbEntity
  8
0
100
AcDbLine
 62
7
  6
CONTINUOUS
 10
22.7134703388
 20
36.1099242591
 11
21.8366854795
 21
35.6037153062
  0
LINE
  5
2B6
100
AcDbEntity
  8
0
100
AcDbLine
 62
7
  6
CONTINUOUS
 10
21.8159742831
 20
35.5579367121
 11
22.6927591424
 21
36.064145665
  0
LINE
  5
2B7
100
AcDbEntity
  8
0
100
AcDbLine
 62
7
  6
CONTINUOUS
 10
24.1201477963
 20
36.6293302539
 11
24.9969326556
 21
37.1355392068
  0
LINE
  5
2B8
100
AcDbEntity
  8
0
100
AcDbLine
 62
7
  6
CONTINUOUS
 10
24.1701475725
 20
36.624377826
 11
25.0469324318
 21
37.1305867789
  0
LINE
  5
2B9
100
AcDbEntity
  8
0
100
AcDbLine
 62
7
  6
CONTINUOUS
 10
25.3297763218
 20
36.9672904771
 11
24.4529914625
 21
36.4610815242
  0
LINE
  5
2BA
100
AcDbEntity
  8
0
100
AcDbLine
 62
7
  6
CONTINUOUS
 10
21.6359245719
 20
34.8010665306
 11
21.0454175624
 21
34.4601391848
  0
LINE
  5
2BB
100
AcDbEntity
  8
0
100
AcDbLine
 62
7
  6
CONTINUOUS
 10
24.5237024351
 20
36.338607207
 11
25.4004872943
 21
36.8448161599
  0
LINE
  5
2BC
100
AcDbEntity
  8
0
100
AcDbLine
 62
7
  6
CONTINUOUS
 10
28.8236802398
 20
38.4117321998
 11
28.7940748709
 21
38.3964464534
  0
LINE
  5
2BD
100
AcDbEntity
  8
0
100
AcDbLine
 62
7
  6
CONTINUOUS
 10
32.4922545621
 20
14.9984049869
 11
31.8351444049
 21
15.3777791304
  0
LINE
  5
2BE
100
AcDbEntity
  8
0
100
AcDbLine
 62
7
  6
CONTINUOUS
 10
32.47154333
 20
15.0441836017
 11
31.8351445774
 21
15.4116002807
  0
LINE
  5
2BF
100
AcDbEntity
  8
0
100
AcDbLine
 62
7
  6
CONTINUOUS
 10
4.6822459464
 20
31.0883866747
 11
17.4602196133
 21
23.711181373
  0
LINE
  5
2C0
100
AcDbEntity
  8
0
100
AcDbLine
 62
7
  6
CONTINUOUS
 10
17.4102204103
 20
23.8555222216
 11
17.5809303777
 21
23.756959958
  0
LINE
  5
2C1
100
AcDbEntity
  8
0
100
AcDbLine
 62
7
  6
CONTINUOUS
 10
17.7974786927
 20
23.848162389
 11
18.8257551645
 21
23.2545001216
  0
LINE
  5
2C2
100
AcDbEntity
  8
0
100
AcDbLine
 62
7
  6
CONTINUOUS
 10
19.0928191133
 20
23.4464560275
 11
18.0972506227
 21
24.0212347603
  0
LINE
  5
2C3
100
AcDbEntity
  8
0
100
AcDbLine
 62
7
  6
CONTINUOUS
 10
27.6839437587
 20
18.5910495872
 11
32.9165557248
 21
15.5700680037
  0
LINE
  5
2C4
100
AcDbEntity
  8
0
100
AcDbLine
 62
7
  6
CONTINUOUS
 10
32.8958444927
 20
15.6158466185
 11
27.6632325266
 21
18.636828202
  0
LINE
  5
2C5
100
AcDbEntity
  8
0
100
AcDbLine
 62
7
  6
CONTINUOUS
 10
4.6822459464
 20
31.9048890918
 11
17.2687990541
 21
24.6382036614
  0
LINE
  5
2C6
100
AcDbEntity
  8
0
100
AcDbLine
 62
7
  6
CONTINUOUS
 10
8.8955734655
 20
35.7015647891
 11
8.9248630818
 21
35.6607403737
  0
LINE
  5
2C7
100
AcDbEntity
  8
0
100
AcDbLine
 62
7
  6
CONTINUOUS
 10
16.0090967058
 20
38.9104654179
 11
16.0090967058
 21
41.1966721858
  0
LINE
  5
2C8
100
AcDbEntity
  8
0
100
AcDbLine
 62
7
  6
CONTINUOUS
 10
16.0383863221
 20
38.8696410025
 11
16.0383863221
 21
41.1558477704
  0
LINE
  5
2C9
100
AcDbEntity
  8
0
100
AcDbLine
 62
7
  6
CONTINUOUS
 10
16.2618906608
 20
42.3319952789
 11
16.2618906608
 21
41.4003571718
  0
LINE
  5
2CA
100
AcDbEntity
  8
0
100
AcDbLine
 62
7
  6
CONTINUOUS
 10
16.2618906608
 20
38.7067823817
 11
16.2618906608
 21
37.1063798092
  0
LINE
  5
2CB
100
AcDbEntity
  8
0
100
AcDbLine
 62
7
  6
CONTINUOUS
 10
16.3204698934
 20
37.0247309785
 11
16.3204698934
 21
38.6729624111
  0
LINE
  5
2CC
100
AcDbEntity
  8
0
100
AcDbLine
 62
7
  6
CONTINUOUS
 10
16.3204698934
 20
41.4341777056
 11
16.3204698934
 21
42.2503464481
  0
LINE
  5
2CD
100
AcDbEntity
  8
0
100
AcDbLine
 62
7
  6
CONTINUOUS
 10
16.3212302121
 20
40.9925514686
 11
16.3212302121
 21
38.7063447007
  0
LINE
  5
2CE
100
AcDbEntity
  8
0
100
AcDbLine
 62
7
  6
CONTINUOUS
 10
16.4626515684
 20
38.7063450406
 11
16.4626515684
 21
40.9925518086
  0
LINE
  5
2CF
100
AcDbEntity
  8
0
100
AcDbLine
 62
7
  6
CONTINUOUS
 10
16.9151700038
 20
41.825353705
 11
16.9151700038
 21
41.777525925
  0
LINE
  5
2D0
100
AcDbEntity
  8
0
100
AcDbLine
 62
7
  6
CONTINUOUS
 10
16.9858809763
 20
35.8491086019
 11
16.9858809763
 21
36.5123193511
  0
LINE
  5
2D1
100
AcDbEntity
  8
0
100
AcDbLine
 62
7
  6
CONTINUOUS
 10
17.2687990541
 20
24.6382036614
 11
17.2687990541
 21
23.8217012442
  0
LINE
  5
2D2
100
AcDbEntity
  8
0
100
AcDbLine
 62
7
  6
CONTINUOUS
 10
17.2687990541
 20
21.6987949597
 11
17.2687990541
 21
20.8822925426
  0
LINE
  5
2D3
100
AcDbEntity
  8
0
100
AcDbLine
 62
7
  6
CONTINUOUS
 10
17.3394364277
 20
41.4987607614
 11
17.3394364277
 21
39.2125539935
  0
LINE
  5
2D4
100
AcDbEntity
  8
0
100
AcDbLine
 62
7
  6
CONTINUOUS
 10
17.4102204103
 20
20.91611352
 11
17.4102204103
 21
21.6649746622
  0
LINE
  5
2D5
100
AcDbEntity
  8
0
100
AcDbLine
 62
7
  6
CONTINUOUS
 10
17.4102204103
 20
23.8555222216
 11
17.4102204103
 21
24.6043833639
  0
LINE
  5
2D6
100
AcDbEntity
  8
0
100
AcDbLine
 62
7
  6
CONTINUOUS
 10
20.0264533832
 20
37.6612391263
 11
20.0057426189
 21
37.6154607816
  0
LINE
  5
2D7
100
AcDbEntity
  8
0
100
AcDbLine
 62
7
  6
CONTINUOUS
 10
13.2347555715
 20
26.1507046457
 11
13.2238093154
 21
26.1402901728
  0
LINE
  5
2D8
100
AcDbEntity
  8
0
100
AcDbLine
 62
7
  6
CONTINUOUS
 10
10.5512847694
 20
27.6999721866
 11
9.6320081345
 21
27.1692307421
  0
LINE
  5
2D9
100
AcDbEntity
  8
0
100
AcDbLine
 62
7
  6
CONTINUOUS
 10
28.9650246984
 20
38.2161026064
 11
26.348740501
 21
36.7055992372
  0
LINE
  5
2DA
100
AcDbEntity
  8
0
100
AcDbLine
 62
7
  6
CONTINUOUS
 10
26.4194514735
 20
36.58312492
 11
29.0357356709
 21
38.0936282892
  0
LINE
  5
2DB
100
AcDbEntity
  8
0
100
AcDbLine
 62
7
  6
CONTINUOUS
 10
27.8753683881
 20
26.189487451
 11
27.9460551507
 21
26.1965197982
  0
LINE
  5
2DC
100
AcDbEntity
  8
0
100
AcDbLine
 62
7
  6
CONTINUOUS
 10
28.6531778987
 20
25.6587391127
 11
28.7031770504
 21
25.6636919012
  0
LINE
  5
2DD
100
AcDbEntity
  8
0
100
AcDbLine
 62
7
  6
CONTINUOUS
 10
33.6736563585
 20
22.8418782465
 11
33.6236565823
 21
22.8468306744
  0
LINE
  5
2DE
100
AcDbEntity
  8
0
100
AcDbLine
 62
7
  6
CONTINUOUS
 10
31.8058861026
 20
23.4641417649
 11
31.7351741895
 21
23.4711472243
  0
LINE
  5
2DF
100
AcDbEntity
  8
0
100
AcDbLine
 62
7
  6
CONTINUOUS
 10
31.7351712456
 20
23.8793896785
 11
31.8058821813
 21
23.8723847834
  0
LINE
  5
2E0
100
AcDbEntity
  8
0
100
AcDbLine
 62
7
  6
CONTINUOUS
 10
5.1772186325
 20
32.7622116915
 11
17.7637717401
 21
25.4955262611
  0
LINE
  5
2E1
100
AcDbEntity
  8
0
100
AcDbLine
 62
7
  6
CONTINUOUS
 10
22.9463468718
 20
22.7960808001
 11
22.2892367146
 21
23.1754549436
  0
LINE
  5
2E2
100
AcDbEntity
  8
0
100
AcDbLine
 62
7
  6
CONTINUOUS
 10
22.9256356397
 20
22.8418594149
 11
22.2892368871
 21
23.2092760939
  0
LINE
  5
2E3
100
AcDbEntity
  8
0
100
AcDbLine
 62
7
  6
CONTINUOUS
 10
17.4808577839
 20
39.2125542865
 11
17.4808577839
 21
41.4987611014
  0
LINE
  5
2E4
100
AcDbEntity
  8
0
100
AcDbLine
 62
7
  6
CONTINUOUS
 10
18.0755578943
 20
41.2370688417
 11
18.0755578943
 21
36.0114533721
  0
LINE
  5
2E5
100
AcDbEntity
  8
0
100
AcDbLine
 62
7
  6
CONTINUOUS
 10
18.2876678487
 20
44.2988877579
 11
18.2876678487
 21
43.5832206499
  0
LINE
  5
2E6
100
AcDbEntity
  8
0
100
AcDbLine
 62
7
  6
CONTINUOUS
 10
18.3462459036
 20
44.3805359088
 11
18.3462459036
 21
43.6170405038
  0
LINE
  5
2E7
100
AcDbEntity
  8
0
100
AcDbLine
 62
7
  6
CONTINUOUS
 10
18.3584006068
 20
36.0114540519
 11
18.3584006068
 21
41.2370695216
  0
LINE
  5
2E8
100
AcDbEntity
  8
0
100
AcDbLine
 62
7
  6
CONTINUOUS
 10
18.6961136614
 20
37.3591505507
 11
18.6961136614
 21
39.6453573186
  0
LINE
  5
2E9
100
AcDbEntity
  8
0
100
AcDbLine
 62
7
  6
CONTINUOUS
 10
18.7254032776
 20
37.3183261353
 11
18.7254032776
 21
39.6045329033
  0
LINE
  5
2EA
100
AcDbEntity
  8
0
100
AcDbLine
 62
7
  6
CONTINUOUS
 10
18.9489076164
 20
40.7806804117
 11
18.9489076164
 21
39.8490423046
  0
LINE
  5
2EB
100
AcDbEntity
  8
0
100
AcDbLine
 62
7
  6
CONTINUOUS
 10
18.9489076164
 20
37.1554675145
 11
18.9489076164
 21
35.5550649421
  0
LINE
  5
2EC
100
AcDbEntity
  8
0
100
AcDbLine
 62
7
  6
CONTINUOUS
 10
19.0074868489
 20
35.4734161113
 11
19.0074868489
 21
37.1216475439
  0
LINE
  5
2ED
100
AcDbEntity
  8
0
100
AcDbLine
 62
7
  6
CONTINUOUS
 10
19.0074868489
 20
39.8828628385
 11
19.0074868489
 21
40.6990315809
  0
LINE
  5
2EE
100
AcDbEntity
  8
0
100
AcDbLine
 62
7
  6
CONTINUOUS
 10
19.0082471677
 20
39.4412366014
 11
19.0082471677
 21
37.1550298335
  0
LINE
  5
2EF
100
AcDbEntity
  8
0
100
AcDbLine
 62
7
  6
CONTINUOUS
 10
21.8159742831
 20
35.5579367121
 11
21.8366854795
 21
35.6037153062
  0
LINE
  5
2F0
100
AcDbEntity
  8
0
100
AcDbLine
 62
7
  6
CONTINUOUS
 10
26.3487187153
 20
39.6449431564
 11
26.4072967703
 21
39.7265913073
  0
LINE
  5
2F1
100
AcDbEntity
  8
0
100
AcDbLine
 62
7
  6
CONTINUOUS
 10
22.3599148874
 20
33.4096896168
 11
21.3417092607
 21
32.4058824248
  0
LINE
  5
2F2
100
AcDbEntity
  8
0
100
AcDbLine
 62
7
  6
CONTINUOUS
 10
21.7659750958
 20
32.160937972
 11
22.7841807225
 21
33.164745164
  0
LINE
  5
2F3
100
AcDbEntity
  8
0
100
AcDbLine
 62
7
  6
CONTINUOUS
 10
13.9546365509
 20
24.6736165206
 11
14.6489750218
 21
25.3342231367
  0
LINE
  5
2F4
100
AcDbEntity
  8
0
100
AcDbLine
 62
7
  6
CONTINUOUS
 10
11.0462275848
 20
26.352749233
 11
11.9510118102
 21
26.8751235309
  0
LINE
  5
2F5
100
AcDbEntity
  8
0
100
AcDbLine
 62
7
  6
CONTINUOUS
 10
25.4004872943
 20
34.5586093919
 11
24.5237024351
 21
34.0524004391
  0
LINE
  5
2F6
100
AcDbEntity
  8
0
100
AcDbLine
 62
7
  6
CONTINUOUS
 10
24.5029912387
 20
34.0066218449
 11
25.379776098
 21
34.5128307978
  0
LINE
  5
2F7
100
AcDbEntity
  8
0
100
AcDbLine
 62
7
  6
CONTINUOUS
 10
24.3229415275
 20
33.2497516634
 11
23.7324345179
 21
32.9088243176
  0
LINE
  5
2F8
100
AcDbEntity
  8
0
100
AcDbLine
 62
7
  6
CONTINUOUS
 10
12.3190250901
 20
25.6179158749
 11
13.238301725
 21
26.1486573194
  0
LINE
  5
2F9
100
AcDbEntity
  8
0
100
AcDbLine
 62
7
  6
CONTINUOUS
 10
35.7101706571
 20
23.6579671767
 11
35.7143655466
 21
23.6570768501
  0
LINE
  5
2FA
100
AcDbEntity
  8
0
100
AcDbLine
 62
7
  6
CONTINUOUS
 10
20.5539209968
 20
25.4395855958
 11
21.6560319096
 21
24.8032959584
  0
LINE
  5
2FB
100
AcDbEntity
  8
0
100
AcDbLine
 62
7
  6
CONTINUOUS
 10
22.2185259146
 20
24.8014547619
 11
21.9356820245
 21
24.9647510638
  0
LINE
  5
2FC
100
AcDbEntity
  8
0
100
AcDbLine
 62
7
  6
CONTINUOUS
 10
11.7315480621
 20
39.9755147207
 11
11.6997523634
 21
40.0276935468
  0
LINE
  5
2FD
100
AcDbEntity
  8
0
100
AcDbLine
 62
7
  6
CONTINUOUS
 10
26.1076087951
 20
11.3699862168
 11
26.1283200272
 21
11.324207602
  0
LINE
  5
2FE
100
AcDbEntity
  8
0
100
AcDbLine
 62
7
  6
CONTINUOUS
 10
13.3720805986
 20
40.3751772549
 11
13.3513693665
 21
40.4209558696
  0
LINE
  5
2FF
100
AcDbEntity
  8
0
100
AcDbLine
 62
7
  6
CONTINUOUS
 10
19.1496685239
 20
37.1550301734
 11
19.1496685239
 21
39.4412369414
  0
LINE
  5
300
100
AcDbEntity
  8
0
100
AcDbLine
 62
7
  6
CONTINUOUS
 10
19.6021869593
 20
40.2740388378
 11
19.6021869593
 21
40.2262110578
  0
LINE
  5
301
100
AcDbEntity
  8
0
100
AcDbLine
 62
7
  6
CONTINUOUS
 10
19.6728979319
 20
34.2977937348
 11
19.6728979319
 21
34.961004484
  0
LINE
  5
302
100
AcDbEntity
  8
0
100
AcDbLine
 62
7
  6
CONTINUOUS
 10
20.0264533832
 20
39.9474458943
 11
20.0264533832
 21
37.6612391263
  0
LINE
  5
303
100
AcDbEntity
  8
0
100
AcDbLine
 62
7
  6
CONTINUOUS
 10
20.1678747395
 20
37.6612394193
 11
20.1678747395
 21
39.9474462342
  0
LINE
  5
304
100
AcDbEntity
  8
0
100
AcDbLine
 62
7
  6
CONTINUOUS
 10
22.7134703388
 20
36.1099242591
 11
22.6927595744
 21
36.0641459144
  0
LINE
  5
305
100
AcDbEntity
  8
0
100
AcDbLine
 62
7
  6
CONTINUOUS
 10
17.5602195014
 20
23.7111815487
 11
17.5809303777
 21
23.756959958
  0
LINE
  5
306
100
AcDbEntity
  8
0
100
AcDbLine
 62
7
  6
CONTINUOUS
 10
17.7637717401
 20
25.4955262611
 11
17.2687990541
 21
24.6382036614
  0
LINE
  5
307
100
AcDbEntity
  8
0
100
AcDbLine
 62
7
  6
CONTINUOUS
 10
17.8637719125
 20
25.3899619704
 11
17.4102204103
 21
24.6043833639
  0
LINE
  5
308
100
AcDbEntity
  8
0
100
AcDbLine
 62
7
  6
CONTINUOUS
 10
15.9217725271
 20
24.5993897785
 11
15.9108262709
 21
24.5889753056
  0
LINE
  5
309
100
AcDbEntity
  8
0
100
AcDbLine
 62
7
  6
CONTINUOUS
 10
14.6380287657
 20
25.3238086637
 11
13.7332445404
 21
24.8014343658
  0
LINE
  5
30A
100
AcDbEntity
  8
0
100
AcDbLine
 62
7
  6
CONTINUOUS
 10
4.9236662975
 20
29.349814388
 11
4.8736665214
 21
29.3547668159
  0
LINE
  5
30B
100
AcDbEntity
  8
0
100
AcDbLine
 62
7
  6
CONTINUOUS
 10
35.9363933479
 20
23.4950716121
 11
36.0363794715
 21
23.4711650586
  0
LINE
  5
30C
100
AcDbEntity
  8
0
100
AcDbLine
 62
7
  6
CONTINUOUS
 10
13.6342132566
 20
40.2576595678
 11
13.6549244887
 21
40.2118809531
  0
LINE
  5
30D
100
AcDbEntity
  8
0
100
AcDbLine
 62
7
  6
CONTINUOUS
 10
22.9256356397
 20
22.8418594149
 11
22.9463468718
 21
22.7960808001
  0
LINE
  5
30E
100
AcDbEntity
  8
0
100
AcDbLine
 62
7
  6
CONTINUOUS
 10
20.7625748499
 20
39.6857539745
 11
20.7625748499
 21
34.4601385049
  0
LINE
  5
30F
100
AcDbEntity
  8
0
100
AcDbLine
 62
7
  6
CONTINUOUS
 10
20.9746848042
 20
42.7475728907
 11
20.9746848042
 21
42.0319057827
  0
LINE
  5
310
100
AcDbEntity
  8
0
100
AcDbLine
 62
7
  6
CONTINUOUS
 10
21.0332628592
 20
42.8292210416
 11
21.0332628592
 21
42.0657256366
  0
LINE
  5
311
100
AcDbEntity
  8
0
100
AcDbLine
 62
7
  6
CONTINUOUS
 10
21.0454175624
 20
34.4601391848
 11
21.0454175624
 21
39.6857546544
  0
LINE
  5
312
100
AcDbEntity
  8
0
100
AcDbLine
 62
7
  6
CONTINUOUS
 10
21.3831306169
 20
35.8078356835
 11
21.3831306169
 21
38.0940424515
  0
LINE
  5
313
100
AcDbEntity
  8
0
100
AcDbLine
 62
7
  6
CONTINUOUS
 10
21.4124202332
 20
35.7670112681
 11
21.4124202332
 21
38.0532180361
  0
LINE
  5
314
100
AcDbEntity
  8
0
100
AcDbLine
 62
7
  6
CONTINUOUS
 10
21.6359245719
 20
39.2293655445
 11
21.6359245719
 21
38.2977274375
  0
LINE
  5
315
100
AcDbEntity
  8
0
100
AcDbLine
 62
7
  6
CONTINUOUS
 10
21.6359245719
 20
35.6041526473
 11
21.6359245719
 21
34.0037500749
  0
LINE
  5
316
100
AcDbEntity
  8
0
100
AcDbLine
 62
7
  6
CONTINUOUS
 10
21.6945038045
 20
33.9221012441
 11
21.6945038045
 21
35.5703326767
  0
LINE
  5
317
100
AcDbEntity
  8
0
100
AcDbLine
 62
7
  6
CONTINUOUS
 10
21.6945038045
 20
38.3315479713
 11
21.6945038045
 21
39.1477167137
  0
LINE
  5
318
100
AcDbEntity
  8
0
100
AcDbLine
 62
7
  6
CONTINUOUS
 10
21.6952641233
 20
37.8899217343
 11
21.6952641233
 21
35.6037149663
  0
LINE
  5
319
100
AcDbEntity
  8
0
100
AcDbLine
 62
7
  6
CONTINUOUS
 10
21.8366854795
 20
35.6037153062
 11
21.8366854795
 21
37.8899220742
  0
LINE
  5
31A
100
AcDbEntity
  8
0
100
AcDbLine
 62
7
  6
CONTINUOUS
 10
21.9356820245
 20
26.2373409351
 11
21.9356820245
 21
24.9647510638
  0
LINE
  5
31B
100
AcDbEntity
  8
0
100
AcDbLine
 62
7
  6
CONTINUOUS
 10
24.5029912387
 20
34.0066218449
 11
24.5237024351
 21
34.0524004391
  0
LINE
  5
31C
100
AcDbEntity
  8
0
100
AcDbLine
 62
7
  6
CONTINUOUS
 10
17.4602196133
 20
22.0303469344
 11
17.2687990541
 21
21.6987949597
  0
LINE
  5
31D
100
AcDbEntity
  8
0
100
AcDbLine
 62
7
  6
CONTINUOUS
 10
17.5809303777
 20
21.9606546404
 11
17.4102204103
 21
21.6649746622
  0
LINE
  5
31E
100
AcDbEntity
  8
0
100
AcDbLine
 62
7
  6
CONTINUOUS
 10
29.0357356709
 20
38.0936282892
 11
29.0943137259
 21
38.1752764401
  0
LINE
  5
31F
100
AcDbEntity
  8
0
100
AcDbLine
 62
7
  6
CONTINUOUS
 10
25.046931843
 20
31.8583747495
 11
24.0287262162
 21
30.8545675576
  0
LINE
  5
320
100
AcDbEntity
  8
0
100
AcDbLine
 62
7
  6
CONTINUOUS
 10
24.4529920513
 20
30.6096231049
 11
25.4711976781
 21
31.6134302968
  0
LINE
  5
321
100
AcDbEntity
  8
0
100
AcDbLine
 62
7
  6
CONTINUOUS
 10
16.6416535064
 20
23.1223016534
 11
17.3359906778
 21
23.782907033
  0
LINE
  5
322
100
AcDbEntity
  8
0
100
AcDbLine
 62
7
  6
CONTINUOUS
 10
29.0357356709
 20
32.8680128196
 11
26.4194514735
 21
31.3575094504
  0
LINE
  5
323
100
AcDbEntity
  8
0
100
AcDbLine
 62
7
  6
CONTINUOUS
 10
24.7931126476
 20
30.4185478963
 11
26.278030706
 21
31.2758606196
  0
LINE
  5
324
100
AcDbEntity
  8
0
100
AcDbLine
 62
7
  6
CONTINUOUS
 10
31.7851395021
 20
34.4410432699
 11
29.8052486284
 21
33.2979595643
  0
LINE
  5
325
100
AcDbEntity
  8
0
100
AcDbLine
 62
7
  6
CONTINUOUS
 10
29.8552485341
 20
33.2930072112
 11
31.8351392783
 21
34.436090842
  0
LINE
  5
326
100
AcDbEntity
  8
0
100
AcDbLine
 62
7
  6
CONTINUOUS
 10
15.9253186805
 20
24.5973424522
 11
15.0060420457
 21
24.0666010077
  0
LINE
  5
327
100
AcDbEntity
  8
0
100
AcDbLine
 62
7
  6
CONTINUOUS
 10
22.2892362983
 20
28.1082888459
 11
17.7637717401
 21
25.4955262611
  0
LINE
  5
328
100
AcDbEntity
  8
0
100
AcDbLine
 62
7
  6
CONTINUOUS
 10
17.8637719125
 20
25.3899619704
 11
22.2892368871
 21
27.9449901133
  0
LINE
  5
329
100
AcDbEntity
  8
0
100
AcDbLine
 62
7
  6
CONTINUOUS
 10
5.1357953527
 20
32.7721157323
 11
5.1772186325
 21
32.7622116915
  0
LINE
  5
32A
100
AcDbEntity
  8
0
100
AcDbLine
 62
7
  6
CONTINUOUS
 10
8.9248630818
 20
35.6607403737
 11
9.5319715266
 21
35.3102340792
  0
LINE
  5
32B
100
AcDbEntity
  8
0
100
AcDbLine
 62
7
  6
CONTINUOUS
 10
22.2892368871
 20
27.9449901133
 11
22.9256356397
 21
27.5775734342
  0
LINE
  5
32C
100
AcDbEntity
  8
0
100
AcDbLine
 62
7
  6
CONTINUOUS
 10
27.6632325266
 20
25.0055470556
 11
32.8958444927
 21
21.9845654721
  0
LINE
  5
32D
100
AcDbEntity
  8
0
100
AcDbLine
 62
7
  6
CONTINUOUS
 10
22.9963460234
 20
27.7000480913
 11
22.2892362983
 21
28.1082888459
  0
LINE
  5
32E
100
AcDbEntity
  8
0
100
AcDbLine
 62
7
  6
CONTINUOUS
 10
9.7026831907
 20
35.3749742763
 11
8.9955734655
 21
35.7832150308
  0
LINE
  5
32F
100
AcDbEntity
  8
0
100
AcDbLine
 62
7
  6
CONTINUOUS
 10
32.9665548764
 20
22.1070401292
 11
27.7339429103
 21
25.1280217127
  0
LINE
  5
330
100
AcDbEntity
  8
0
100
AcDbLine
 62
7
  6
CONTINUOUS
 10
8.9031327133
 20
36.3012820624
 11
9.3687300126
 21
36.0324754175
  0
LINE
  5
331
100
AcDbEntity
  8
0
100
AcDbLine
 62
7
  6
CONTINUOUS
 10
9.5101525907
 20
36.1141252937
 11
8.9738432428
 21
36.4237566353
  0
LINE
  5
332
100
AcDbEntity
  8
0
100
AcDbLine
 62
7
  6
CONTINUOUS
 10
31.7351741895
 20
23.4711472243
 11
32.8251282211
 21
22.8418762068
  0
LINE
  5
333
100
AcDbEntity
  8
0
100
AcDbLine
 62
7
  6
CONTINUOUS
 10
32.8751273727
 20
22.8468289953
 11
31.8058838404
 21
23.464143071
  0
LINE
  5
334
100
AcDbEntity
  8
0
100
AcDbLine
 62
7
  6
CONTINUOUS
 10
28.6531778987
 20
25.6587391127
 11
31.7351712456
 21
23.8793896785
  0
LINE
  5
335
100
AcDbEntity
  8
0
100
AcDbLine
 62
7
  6
CONTINUOUS
 10
13.3513693665
 20
40.4209558696
 11
13.3220797502
 21
40.461780285
  0
LINE
  5
336
100
AcDbEntity
  8
0
100
AcDbLine
 62
7
  6
CONTINUOUS
 10
13.6334529378
 20
38.5760458456
 11
13.5748780438
 21
38.6576946764
  0
LINE
  5
337
100
AcDbEntity
  8
0
100
AcDbLine
 62
7
  6
CONTINUOUS
 10
16.3204698934
 20
37.0247309785
 11
16.2618949994
 21
37.1063798092
  0
LINE
  5
338
100
AcDbEntity
  8
0
100
AcDbLine
 62
7
  6
CONTINUOUS
 10
16.0590975542
 20
38.8238623877
 11
16.0383863221
 21
38.8696410025
  0
LINE
  5
339
100
AcDbEntity
  8
0
100
AcDbLine
 62
7
  6
CONTINUOUS
 10
16.3212302121
 20
38.7063447007
 11
16.3419414442
 21
38.6605660859
  0
LINE
  5
33A
100
AcDbEntity
  8
0
100
AcDbLine
 62
7
  6
CONTINUOUS
 10
22.2892039149
 20
38.7227239706
 11
22.2892039149
 21
38.6748961906
  0
LINE
  5
33B
100
AcDbEntity
  8
0
100
AcDbLine
 62
7
  6
CONTINUOUS
 10
22.2892368871
 20
26.4752857625
 11
22.2892368871
 21
27.9449901133
  0
LINE
  5
33C
100
AcDbEntity
  8
0
100
AcDbLine
 62
7
  6
CONTINUOUS
 10
22.3599148874
 20
32.7464788675
 11
22.3599148874
 21
33.4096896168
  0
LINE
  5
33D
100
AcDbEntity
  8
0
100
AcDbLine
 62
7
  6
CONTINUOUS
 10
22.7134703388
 20
38.3961310271
 11
22.7134703388
 21
36.1099242591
  0
LINE
  5
33E
100
AcDbEntity
  8
0
100
AcDbLine
 62
7
  6
CONTINUOUS
 10
22.854891695
 20
36.1099245522
 11
22.854891695
 21
38.396131367
  0
LINE
  5
33F
100
AcDbEntity
  8
0
100
AcDbLine
 62
7
  6
CONTINUOUS
 10
22.9256356397
 20
27.5775734342
 11
22.9256356397
 21
22.8418594149
  0
LINE
  5
340
100
AcDbEntity
  8
0
100
AcDbLine
 62
7
  6
CONTINUOUS
 10
23.0670569959
 20
22.8418597548
 11
23.0670569959
 21
27.5775737742
  0
LINE
  5
341
100
AcDbEntity
  8
0
100
AcDbLine
 62
7
  6
CONTINUOUS
 10
23.4495918054
 20
38.1344391073
 11
23.4495918054
 21
32.9088236377
  0
LINE
  5
342
100
AcDbEntity
  8
0
100
AcDbLine
 62
7
  6
CONTINUOUS
 10
23.6617017598
 20
41.1962580236
 11
23.6617017598
 21
40.4805909155
  0
LINE
  5
343
100
AcDbEntity
  8
0
100
AcDbLine
 62
7
  6
CONTINUOUS
 10
22.2892368871
 20
24.6789804448
 11
22.2892004872
 21
23.1754758624
  0
LINE
  5
344
100
AcDbEntity
  8
0
100
AcDbLine
 62
7
  6
CONTINUOUS
 10
25.4004872943
 20
34.5586093919
 11
25.37977653
 21
34.5128310472
  0
LINE
  5
345
100
AcDbEntity
  8
0
100
AcDbLine
 62
7
  6
CONTINUOUS
 10
22.2892368871
 20
26.4752857625
 11
22.2685246061
 21
26.429509047
  0
LINE
  5
346
100
AcDbEntity
  8
0
100
AcDbLine
 62
7
  6
CONTINUOUS
 10
17.8223514667
 20
20.5965116601
 11
17.8637719126
 21
20.6542479511
  0
LINE
  5
347
100
AcDbEntity
  8
0
100
AcDbLine
 62
7
  6
CONTINUOUS
 10
18.8257551645
 20
23.2545001217
 11
18.5978432265
 21
23.0376604384
  0
LINE
  5
348
100
AcDbEntity
  8
0
100
AcDbLine
 62
7
  6
CONTINUOUS
 10
33.1079367835
 20
33.7012574839
 11
26.1076087951
 21
29.6596403605
  0
LINE
  5
349
100
AcDbEntity
  8
0
100
AcDbLine
 62
7
  6
CONTINUOUS
 10
26.2490301513
 20
29.5779904588
 11
33.178647756
 21
33.5787831667
  0
LINE
  5
34A
100
AcDbEntity
  8
0
100
AcDbLine
 62
7
  6
CONTINUOUS
 10
25.3297886862
 20
29.0472537991
 11
22.9963460234
 21
27.7000480913
  0
LINE
  5
34B
100
AcDbEntity
  8
0
100
AcDbLine
 62
7
  6
CONTINUOUS
 10
23.0670569959
 20
27.5775737742
 11
25.4004996587
 21
28.9247794819
  0
LINE
  5
34C
100
AcDbEntity
  8
0
100
AcDbLine
 62
7
  6
CONTINUOUS
 10
32.6129646863
 20
32.5989859099
 11
31.410888163
 21
31.9049708483
  0
LINE
  5
34D
100
AcDbEntity
  8
0
100
AcDbLine
 62
7
  6
CONTINUOUS
 10
28.0167897444
 20
29.9453989097
 11
26.8147132211
 21
29.2513838481
  0
LINE
  5
34E
100
AcDbEntity
  8
0
100
AcDbLine
 62
7
  6
CONTINUOUS
 10
17.3250457213
 20
23.7724937966
 11
16.420261496
 21
23.2501194987
  0
LINE
  5
34F
100
AcDbEntity
  8
0
100
AcDbLine
 62
7
  6
CONTINUOUS
 10
26.8440022486
 20
29.2344727244
 11
27.9460783242
 21
29.8707528452
  0
LINE
  5
350
100
AcDbEntity
  8
0
100
AcDbLine
 62
7
  6
CONTINUOUS
 10
31.4401771905
 20
31.8880597245
 11
32.5422532661
 21
32.5243398454
  0
LINE
  5
351
100
AcDbEntity
  8
0
100
AcDbLine
 62
7
  6
CONTINUOUS
 10
22.2892368871
 20
26.4752857625
 11
17.5809303777
 21
23.756959958
  0
LINE
  5
352
100
AcDbEntity
  8
0
100
AcDbLine
 62
7
  6
CONTINUOUS
 10
22.2685256907
 20
26.4295071683
 11
17.5602191813
 21
23.7111813639
  0
LINE
  5
353
100
AcDbEntity
  8
0
100
AcDbLine
 62
7
  6
CONTINUOUS
 10
26.8440022486
 20
28.6967392612
 11
27.8046574156
 21
29.2513704698
  0
LINE
  5
354
100
AcDbEntity
  8
0
100
AcDbLine
 62
7
  6
CONTINUOUS
 10
31.4401771905
 20
31.3503262614
 11
32.4008323575
 21
31.90495747
  0
LINE
  5
355
100
AcDbEntity
  8
0
100
AcDbLine
 62
7
  6
CONTINUOUS
 10
21.9356820245
 20
25.6179276006
 11
21.0903563487
 21
25.1298815074
  0
LINE
  5
356
100
AcDbEntity
  8
0
100
AcDbLine
 62
7
  6
CONTINUOUS
 10
26.8440022486
 20
28.3701270069
 11
27.2389696355
 21
28.5981601729
  0
LINE
  5
357
100
AcDbEntity
  8
0
100
AcDbLine
 62
7
  6
CONTINUOUS
 10
31.4401771905
 20
31.0237140071
 11
31.8351445774
 21
31.2517471731
  0
LINE
  5
358
100
AcDbEntity
  8
0
100
AcDbLine
 62
7
  6
CONTINUOUS
 10
31.8058808964
 20
23.8723855252
 11
28.7031770504
 21
25.6636919012
  0
LINE
  5
359
100
AcDbEntity
  8
0
100
AcDbLine
 62
7
  6
CONTINUOUS
 10
27.8753683881
 20
26.189487451
 11
27.2389696355
 21
26.5569041301
  0
LINE
  5
35A
100
AcDbEntity
  8
0
100
AcDbLine
 62
7
  6
CONTINUOUS
 10
10.1879858655
 20
36.5054701814
 11
8.9238439453
 21
37.2353063482
  0
LINE
  5
35B
100
AcDbEntity
  8
0
100
AcDbLine
 62
7
  6
CONTINUOUS
 10
10.2172763458
 20
36.5223809471
 11
8.9031327133
 21
37.281084963
  0
LINE
  5
35C
100
AcDbEntity
  8
0
100
AcDbLine
 62
7
  6
CONTINUOUS
 10
34.0017848383
 20
23.4395649247
 11
34.326049393
 21
23.252354932
  0
LINE
  5
35D
100
AcDbEntity
  8
0
100
AcDbLine
 62
7
  6
CONTINUOUS
 10
34.4967610571
 20
23.3170951291
 11
34.2079067356
 21
23.4838614766
  0
LINE
  5
35E
100
AcDbEntity
  8
0
100
AcDbLine
 62
7
  6
CONTINUOUS
 10
8.9031327133
 20
38.3425381052
 11
10.6633271706
 21
37.3263123516
  0
LINE
  5
35F
100
AcDbEntity
  8
0
100
AcDbLine
 62
7
  6
CONTINUOUS
 10
10.6633271706
 20
37.4896107442
 11
8.9738432428
 21
38.4650126782
  0
LINE
  5
360
100
AcDbEntity
  8
0
100
AcDbLine
 62
7
  6
CONTINUOUS
 10
25.4194460179
 20
29.0771394364
 11
11.3807795641
 21
37.182183932
  0
LINE
  5
361
100
AcDbEntity
  8
0
100
AcDbLine
 62
7
  6
CONTINUOUS
 10
12.0071129344
 20
37.0655290978
 11
24.7931126476
 21
29.6836957209
  0
LINE
  5
362
100
AcDbEntity
  8
0
100
AcDbLine
 62
7
  6
CONTINUOUS
 10
16.0383863221
 20
38.8696410025
 11
16.0090967058
 21
38.9104654179
  0
LINE
  5
363
100
AcDbEntity
  8
0
100
AcDbLine
 62
7
  6
CONTINUOUS
 10
13.3220797502
 20
42.747987053
 11
13.3513693665
 21
42.7071626376
  0
LINE
  5
364
100
AcDbEntity
  8
0
100
AcDbLine
 62
7
  6
CONTINUOUS
 10
19.0074868489
 20
35.4734161113
 11
18.948911955
 21
35.5550649421
  0
LINE
  5
365
100
AcDbEntity
  8
0
100
AcDbLine
 62
7
  6
CONTINUOUS
 10
18.7461145097
 20
37.2725475205
 11
18.7254032776
 21
37.3183261353
  0
LINE
  5
366
100
AcDbEntity
  8
0
100
AcDbLine
 62
7
  6
CONTINUOUS
 10
19.0082471677
 20
37.1550298335
 11
19.0289583998
 21
37.1092512187
  0
LINE
  5
367
100
AcDbEntity
  8
0
100
AcDbLine
 62
7
  6
CONTINUOUS
 10
23.7202798148
 20
41.2779061745
 11
23.7202798148
 21
40.5144107695
  0
LINE
  5
368
100
AcDbEntity
  8
0
100
AcDbLine
 62
7
  6
CONTINUOUS
 10
23.7324345179
 20
32.9088243176
 11
23.7324345179
 21
38.1344397872
  0
LINE
  5
369
100
AcDbEntity
  8
0
100
AcDbLine
 62
7
  6
CONTINUOUS
 10
24.0701475725
 20
34.2565208163
 11
24.0701475725
 21
36.5427275843
  0
LINE
  5
36A
100
AcDbEntity
  8
0
100
AcDbLine
 62
7
  6
CONTINUOUS
 10
24.0994371888
 20
34.2156964009
 11
24.0994371888
 21
36.5019031689
  0
LINE
  5
36B
100
AcDbEntity
  8
0
100
AcDbLine
 62
7
  6
CONTINUOUS
 10
24.3229415275
 20
37.6780506773
 11
24.3229415275
 21
36.7464125703
  0
LINE
  5
36C
100
AcDbEntity
  8
0
100
AcDbLine
 62
7
  6
CONTINUOUS
 10
24.3229415275
 20
34.0528377801
 11
24.3229415275
 21
32.4524352077
  0
LINE
  5
36D
100
AcDbEntity
  8
0
100
AcDbLine
 62
7
  6
CONTINUOUS
 10
24.38152076
 20
32.3707863769
 11
24.38152076
 21
34.0190178096
  0
LINE
  5
36E
100
AcDbEntity
  8
0
100
AcDbLine
 62
7
  6
CONTINUOUS
 10
24.38152076
 20
36.7802331041
 11
24.38152076
 21
37.5964018466
  0
LINE
  5
36F
100
AcDbEntity
  8
0
100
AcDbLine
 62
7
  6
CONTINUOUS
 10
24.3822810788
 20
36.3386068671
 11
24.3822810788
 21
34.0524000991
  0
LINE
  5
370
100
AcDbEntity
  8
0
100
AcDbLine
 62
7
  6
CONTINUOUS
 10
24.5237024351
 20
34.0524004391
 11
24.5237024351
 21
36.338607207
  0
LINE
  5
371
100
AcDbEntity
  8
0
100
AcDbLine
 62
7
  6
CONTINUOUS
 10
24.7931126476
 20
30.4185478963
 11
24.7931126476
 21
29.6836957209
  0
LINE
  5
372
100
AcDbEntity
  8
0
100
AcDbLine
 62
7
  6
CONTINUOUS
 10
24.9762208705
 20
37.1714091035
 11
24.9762208705
 21
37.1235813234
  0
LINE
  5
373
100
AcDbEntity
  8
0
100
AcDbLine
 62
7
  6
CONTINUOUS
 10
25.046931843
 20
31.1951640003
 11
25.046931843
 21
31.8583747495
  0
LINE
  5
374
100
AcDbEntity
  8
0
100
AcDbLine
 62
7
  6
CONTINUOUS
 10
23.0463457996
 20
22.7960811607
 11
23.0670569959
 21
22.8418597548
  0
LINE
  5
375
100
AcDbEntity
  8
0
100
AcDbLine
 62
7
  6
CONTINUOUS
 10
29.0943093873
 20
32.9496609705
 11
29.0357356709
 21
32.8680128196
  0
LINE
  5
376
100
AcDbEntity
  8
0
100
AcDbLine
 62
7
  6
CONTINUOUS
 10
28.0167897444
 20
29.9453989097
 11
27.9460546047
 21
29.8707813351
  0
LINE
  5
377
100
AcDbEntity
  8
0
100
AcDbLine
 62
7
  6
CONTINUOUS
 10
21.9356820245
 20
24.9647510638
 11
17.6930590012
 21
22.5152861405
  0
LINE
  5
378
100
AcDbEntity
  8
0
100
AcDbLine
 62
7
  6
CONTINUOUS
 10
22.2185259146
 20
24.8014547619
 11
17.5102194051
 21
22.0831289575
  0
LINE
  5
379
100
AcDbEntity
  8
0
100
AcDbLine
 62
7
  6
CONTINUOUS
 10
17.5809303777
 20
21.9606546404
 11
22.2892368871
 21
24.6789804448
  0
LINE
  5
37A
100
AcDbEntity
  8
0
100
AcDbLine
 62
7
  6
CONTINUOUS
 10
20.6219966515
 20
24.2062989874
 11
19.0928191129
 21
23.4464560273
  0
LINE
  5
37B
100
AcDbEntity
  8
0
100
AcDbLine
 62
7
  6
CONTINUOUS
 10
18.9895156222
 20
23.2907963668
 11
19.3251900192
 21
23.4575917983
  0
LINE
  5
37C
100
AcDbEntity
  8
0
100
AcDbLine
 62
7
  6
CONTINUOUS
 10
29.6224049732
 20
33.2979593197
 11
29.5724058216
 21
33.2930065313
  0
LINE
  5
37D
100
AcDbEntity
  8
0
100
AcDbLine
 62
7
  6
CONTINUOUS
 10
33.1579359352
 20
33.7062102723
 11
33.1079367835
 21
33.7012574839
  0
LINE
  5
37E
100
AcDbEntity
  8
0
100
AcDbLine
 62
7
  6
CONTINUOUS
 10
31.8351392783
 20
34.436090842
 11
31.8851384299
 21
34.4410436305
  0
LINE
  5
37F
100
AcDbEntity
  8
0
100
AcDbLine
 62
7
  6
CONTINUOUS
 10
35.6904742473
 20
23.6370498591
 11
35.9363933479
 21
23.4950716121
  0
LINE
  5
380
100
AcDbEntity
  8
0
100
AcDbLine
 62
7
  6
CONTINUOUS
 10
36.0363920675
 20
23.4711577896
 11
35.7143639642
 21
23.6570765957
  0
LINE
  5
381
100
AcDbEntity
  8
0
100
AcDbLine
 62
7
  6
CONTINUOUS
 10
10.2466358919
 20
38.3833673309
 11
10.6633271706
 21
38.1427959514
  0
LINE
  5
382
100
AcDbEntity
  8
0
100
AcDbLine
 62
7
  6
CONTINUOUS
 10
10.6633271706
 20
38.1766151105
 11
10.2966350436
 21
38.3883201194
  0
LINE
  5
383
100
AcDbEntity
  8
0
100
AcDbLine
 62
7
  6
CONTINUOUS
 10
13.280658394
 20
37.0598270263
 11
13.7049242291
 21
36.8148825736
  0
LINE
  5
384
100
AcDbEntity
  8
0
100
AcDbLine
 62
7
  6
CONTINUOUS
 10
15.9676753496
 20
35.5085121591
 11
16.3919411847
 21
35.2635677064
  0
LINE
  5
385
100
AcDbEntity
  8
0
100
AcDbLine
 62
7
  6
CONTINUOUS
 10
18.6546923051
 20
33.9571972919
 11
19.0789581402
 21
33.7122528392
  0
LINE
  5
386
100
AcDbEntity
  8
0
100
AcDbLine
 62
7
  6
CONTINUOUS
 10
21.3417092607
 20
32.4058824248
 11
21.7659750958
 21
32.1609379721
  0
LINE
  5
387
100
AcDbEntity
  8
0
100
AcDbLine
 62
7
  6
CONTINUOUS
 10
24.0287262162
 20
30.8545675576
 11
24.4529920513
 21
30.6096231049
  0
LINE
  5
388
100
AcDbEntity
  8
0
100
AcDbLine
 62
7
  6
CONTINUOUS
 10
26.1076087951
 20
29.6596403605
 11
24.7931126476
 21
30.4185478963
  0
LINE
  5
389
100
AcDbEntity
  8
0
100
AcDbLine
 62
7
  6
CONTINUOUS
 10
11.0244471689
 20
39.1590281127
 11
11.3486384082
 21
38.9718604477
  0
LINE
  5
38A
100
AcDbEntity
  8
0
100
AcDbLine
 62
7
  6
CONTINUOUS
 10
11.3165877545
 20
39.1536628752
 11
11.0244465801
 21
39.3223268452
  0
LINE
  5
38B
100
AcDbEntity
  8
0
100
AcDbLine
 62
7
  6
CONTINUOUS
 10
10.6633637032
 20
38.5762192707
 11
12.0071129344
 21
37.8003812733
  0
LINE
  5
38C
100
AcDbEntity
  8
0
100
AcDbLine
 62
7
  6
CONTINUOUS
 10
26.8147132211
 20
29.2513838481
 11
26.8439657412
 21
29.2344516498
  0
LINE
  5
38D
100
AcDbEntity
  8
0
100
AcDbLine
 62
7
  6
CONTINUOUS
 10
13.5748737053
 20
43.883310146
 11
13.6334529378
 21
43.8016613153
  0
LINE
  5
38E
100
AcDbEntity
  8
0
100
AcDbLine
 62
7
  6
CONTINUOUS
 10
18.7254032776
 20
37.3183261353
 11
18.6961136614
 21
37.3591505507
  0
LINE
  5
38F
100
AcDbEntity
  8
0
100
AcDbLine
 62
7
  6
CONTINUOUS
 10
16.0090967058
 20
41.1966721858
 11
16.0383863221
 21
41.1558477704
  0
LINE
  5
390
100
AcDbEntity
  8
0
100
AcDbLine
 62
7
  6
CONTINUOUS
 10
16.2618906608
 20
42.3319952789
 11
16.3204698934
 21
42.2503464481
  0
LINE
  5
391
100
AcDbEntity
  8
0
100
AcDbLine
 62
7
  6
CONTINUOUS
 10
21.6945038045
 20
33.9221012441
 11
21.6359289105
 21
34.0037500749
  0
LINE
  5
392
100
AcDbEntity
  8
0
100
AcDbLine
 62
7
  6
CONTINUOUS
 10
21.4331314653
 20
35.7212326533
 11
21.4124202332
 21
35.7670112681
  0
LINE
  5
393
100
AcDbEntity
  8
0
100
AcDbLine
 62
7
  6
CONTINUOUS
 10
21.6952641233
 20
35.6037149663
 11
21.7159753553
 21
35.5579363515
  0
LINE
  5
394
100
AcDbEntity
  8
0
100
AcDbLine
 62
7
  6
CONTINUOUS
 10
25.4004872943
 20
36.8448161599
 11
25.4004872943
 21
34.5586093919
  0
LINE
  5
395
100
AcDbEntity
  8
0
100
AcDbLine
 62
7
  6
CONTINUOUS
 10
25.4004996587
 20
28.9247794819
 11
25.4004996587
 21
24.1890654626
  0
LINE
  5
396
100
AcDbEntity
  8
0
100
AcDbLine
 62
7
  6
CONTINUOUS
 10
25.5419086506
 20
34.558609685
 11
25.5419086506
 21
36.8448164998
  0
LINE
  5
397
100
AcDbEntity
  8
0
100
AcDbLine
 62
7
  6
CONTINUOUS
 10
25.541921015
 20
24.1890658025
 11
25.541921015
 21
28.9247798219
  0
LINE
  5
398
100
AcDbEntity
  8
0
100
AcDbLine
 62
7
  6
CONTINUOUS
 10
26.1076087951
 20
29.6596403605
 11
26.1076087951
 21
11.3699862168
  0
LINE
  5
399
100
AcDbEntity
  8
0
100
AcDbLine
 62
7
  6
CONTINUOUS
 10
26.136608761
 20
36.5831242402
 11
26.136608761
 21
31.3575087705
  0
LINE
  5
39A
100
AcDbEntity
  8
0
100
AcDbLine
 62
7
  6
CONTINUOUS
 10
26.2490301513
 20
11.3699865568
 11
26.2490301513
 21
29.5779904588
  0
LINE
  5
39B
100
AcDbEntity
  8
0
100
AcDbLine
 62
7
  6
CONTINUOUS
 10
26.3487187153
 20
39.6449431564
 11
26.3487187153
 21
38.9292760484
  0
LINE
  5
39C
100
AcDbEntity
  8
0
100
AcDbLine
 62
7
  6
CONTINUOUS
 10
26.4072967703
 20
39.7265913073
 11
26.4072967703
 21
38.9630959023
  0
LINE
  5
39D
100
AcDbEntity
  8
0
100
AcDbLine
 62
7
  6
CONTINUOUS
 10
26.4194514735
 20
31.3575094504
 11
26.4194514735
 21
36.58312492
  0
LINE
  5
39E
100
AcDbEntity
  8
0
100
AcDbLine
 62
7
  6
CONTINUOUS
 10
25.4004996587
 20
24.1890654626
 11
25.3797884624
 21
24.1432868684
  0
LINE
  5
39F
100
AcDbEntity
  8
0
100
AcDbLine
 62
7
  6
CONTINUOUS
 10
27.8046574156
 20
29.2513704698
 11
27.2389696355
 21
28.5981601729
  0
LINE
  5
3A0
100
AcDbEntity
  8
0
100
AcDbLine
 62
7
  6
CONTINUOUS
 10
32.6129646863
 20
32.5989859099
 11
32.5422299205
 21
32.5243678864
  0
LINE
  5
3A1
100
AcDbEntity
  8
0
100
AcDbLine
 62
7
  6
CONTINUOUS
 10
22.2892368871
 20
23.2092760939
 11
17.8637719125
 21
20.6542479511
  0
LINE
  5
3A2
100
AcDbEntity
  8
0
100
AcDbLine
 62
7
  6
CONTINUOUS
 10
22.2892367146
 20
23.1754549436
 11
17.8223499453
 21
20.5965120592
  0
LINE
  5
3A3
100
AcDbEntity
  8
0
100
AcDbLine
 62
7
  6
CONTINUOUS
 10
31.410888163
 20
28.2307099712
 11
28.0167897444
 21
26.2711380326
  0
LINE
  5
3A4
100
AcDbEntity
  8
0
100
AcDbLine
 62
7
  6
CONTINUOUS
 10
27.9460783242
 20
26.1964919681
 11
31.4401771905
 21
28.2137988474
  0
LINE
  5
3A5
100
AcDbEntity
  8
0
100
AcDbLine
 62
7
  6
CONTINUOUS
 10
25.4004996587
 20
24.1890654626
 11
23.0670569959
 21
22.8418597548
  0
LINE
  5
3A6
100
AcDbEntity
  8
0
100
AcDbLine
 62
7
  6
CONTINUOUS
 10
25.3797884624
 20
24.1432868684
 11
23.0463457996
 21
22.7960811607
  0
LINE
  5
3A7
100
AcDbEntity
  8
0
100
AcDbLine
 62
7
  6
CONTINUOUS
 10
28.5824669262
 20
25.7812134299
 11
27.6632319378
 21
25.2504960298
  0
LINE
  5
3A8
100
AcDbEntity
  8
0
100
AcDbLine
 62
7
  6
CONTINUOUS
 10
29.8552484045
 20
33.2930071364
 11
29.8052486623
 21
33.2979595839
  0
LINE
  5
3A9
100
AcDbEntity
  8
0
100
AcDbLine
 62
7
  6
CONTINUOUS
 10
8.9955734655
 20
35.7832150308
 11
8.9455736894
 21
35.7881674587
  0
LINE
  5
3AA
100
AcDbEntity
  8
0
100
AcDbLine
 62
7
  6
CONTINUOUS
 10
13.4920309928
 20
38.529448946
 11
14.2988640207
 21
38.0636342183
  0
LINE
  5
3AB
100
AcDbEntity
  8
0
100
AcDbLine
 62
7
  6
CONTINUOUS
 10
14.7231298558
 20
37.8186897656
 11
16.9858809763
 21
36.5123193511
  0
LINE
  5
3AC
100
AcDbEntity
  8
0
100
AcDbLine
 62
7
  6
CONTINUOUS
 10
17.4101468114
 20
36.2673748984
 11
19.6728979319
 21
34.9610044839
  0
LINE
  5
3AD
100
AcDbEntity
  8
0
100
AcDbLine
 62
7
  6
CONTINUOUS
 10
20.097163767
 20
34.7160600312
 11
22.3599148874
 21
33.4096896168
  0
LINE
  5
3AE
100
AcDbEntity
  8
0
100
AcDbLine
 62
7
  6
CONTINUOUS
 10
22.7841807225
 20
33.164745164
 11
25.046931843
 21
31.8583747496
  0
LINE
  5
3AF
100
AcDbEntity
  8
0
100
AcDbLine
 62
7
  6
CONTINUOUS
 10
25.4711976781
 20
31.6134302969
 11
26.1669656466
 21
31.2117375604
  0
LINE
  5
3B0
100
AcDbEntity
  8
0
100
AcDbLine
 62
7
  6
CONTINUOUS
 10
26.278030706
 20
31.2758606196
 11
26.136608761
 21
31.3575087705
  0
LINE
  5
3B1
100
AcDbEntity
  8
0
100
AcDbLine
 62
7
  6
CONTINUOUS
 10
24.38152076
 20
32.3707863769
 11
23.4495918054
 21
32.9088236377
  0
LINE
  5
3B2
100
AcDbEntity
  8
0
100
AcDbLine
 62
7
  6
CONTINUOUS
 10
21.6945038045
 20
33.9221012441
 11
20.7625748499
 21
34.4601385049
  0
LINE
  5
3B3
100
AcDbEntity
  8
0
100
AcDbLine
 62
7
  6
CONTINUOUS
 10
19.0074868489
 20
35.4734161113
 11
18.0755578943
 21
36.0114533721
  0
LINE
  5
3B4
100
AcDbEntity
  8
0
100
AcDbLine
 62
7
  6
CONTINUOUS
 10
16.3204698934
 20
37.0247309785
 11
15.3885409388
 21
37.5627682392
  0
LINE
  5
3B5
100
AcDbEntity
  8
0
100
AcDbLine
 62
7
  6
CONTINUOUS
 10
13.6334529378
 20
38.5760458456
 11
13.4920309928
 21
38.6576939965
  0
LINE
  5
3B6
100
AcDbEntity
  8
0
100
AcDbLine
 62
7
  6
CONTINUOUS
 10
11.3779937884
 20
40.1796368489
 11
11.6229943144
 21
40.0381889292
  0
LINE
  5
3B7
100
AcDbEntity
  8
0
100
AcDbLine
 62
7
  6
CONTINUOUS
 10
11.6997524227
 20
40.0276927763
 11
11.377993372
 21
40.2134562483
  0
LINE
  5
3B8
100
AcDbEntity
  8
0
100
AcDbLine
 62
7
  6
CONTINUOUS
 10
31.4401415274
 20
28.2137782603
 11
31.410888163
 21
28.2307099712
  0
LINE
  5
3B9
100
AcDbEntity
  8
0
100
AcDbLine
 62
7
  6
CONTINUOUS
 10
21.4124202332
 20
35.7670112681
 11
21.3831306169
 21
35.8078356835
  0
LINE
  5
3BA
100
AcDbEntity
  8
0
100
AcDbLine
 62
7
  6
CONTINUOUS
 10
18.6961136614
 20
39.6453573186
 11
18.7254032776
 21
39.6045329033
  0
LINE
  5
3BB
100
AcDbEntity
  8
0
100
AcDbLine
 62
7
  6
CONTINUOUS
 10
18.9489076164
 20
40.7806804117
 11
19.0074868489
 21
40.6990315809
  0
LINE
  5
3BC
100
AcDbEntity
  8
0
100
AcDbLine
 62
7
  6
CONTINUOUS
 10
24.38152076
 20
32.3707863769
 11
24.3229458661
 21
32.4524352077
  0
LINE
  5
3BD
100
AcDbEntity
  8
0
100
AcDbLine
 62
7
  6
CONTINUOUS
 10
32.47154333
 20
15.0441836017
 11
32.4922545621
 21
14.9984049869
  0
LINE
  5
3BE
100
AcDbEntity
  8
0
100
AcDbLine
 62
7
  6
CONTINUOUS
 10
24.1201484208
 20
34.1699177862
 11
24.0994371888
 21
34.2156964009
  0
LINE
  5
3BF
100
AcDbEntity
  8
0
100
AcDbLine
 62
7
  6
CONTINUOUS
 10
24.3822810788
 20
34.0524000991
 11
24.4029923109
 21
34.0066214843
  0
LINE
  5
3C0
100
AcDbEntity
  8
0
100
AcDbLine
 62
7
  6
CONTINUOUS
 10
32.8958444927
 20
15.6158466185
 11
32.9165550846
 21
15.5700683733
  0
LINE
  5
3C1
100
AcDbEntity
  8
0
100
AcDbLine
 62
7
  6
CONTINUOUS
 10
26.8147132211
 20
29.2513838481
 11
26.8147132211
 21
11.6965818799
  0
LINE
  5
3C2
100
AcDbEntity
  8
0
100
AcDbLine
 62
7
  6
CONTINUOUS
 10
26.8440022486
 20
29.2344727244
 11
26.8440022486
 21
11.7374059553
  0
LINE
  5
3C3
100
AcDbEntity
  8
0
100
AcDbLine
 62
7
  6
CONTINUOUS
 10
27.2389696355
 20
28.5981601729
 11
27.2389696355
 21
26.5569041301
  0
LINE
  5
3C4
100
AcDbEntity
  8
0
100
AcDbLine
 62
7
  6
CONTINUOUS
 10
27.5218111704
 20
25.0055467156
 11
27.5218111704
 21
18.636827862
  0
LINE
  5
3C5
100
AcDbEntity
  8
0
100
AcDbLine
 62
7
  6
CONTINUOUS
 10
27.6632325266
 20
18.636828202
 11
27.6632325266
 21
25.0055470556
  0
LINE
  5
3C6
100
AcDbEntity
  8
0
100
AcDbLine
 62
7
  6
CONTINUOUS
 10
27.8046574156
 20
29.2513704698
 11
27.8046574156
 21
29.7891039329
  0
LINE
  5
3C7
100
AcDbEntity
  8
0
100
AcDbLine
 62
7
  6
CONTINUOUS
 10
27.8753683881
 20
29.8299286883
 11
27.8753683881
 21
26.189487451
  0
LINE
  5
3C8
100
AcDbEntity
  8
0
100
AcDbLine
 62
7
  6
CONTINUOUS
 10
28.0167897444
 20
26.2711380326
 11
28.0167897444
 21
29.9453989097
  0
LINE
  5
3C9
100
AcDbEntity
  8
0
100
AcDbLine
 62
7
  6
CONTINUOUS
 10
33.178647756
 20
33.5787831667
 11
33.2079367835
 21
33.6196072421
  0
LINE
  5
3CA
100
AcDbEntity
  8
0
100
AcDbLine
 62
7
  6
CONTINUOUS
 10
32.4008323575
 20
31.90495747
 11
31.8351445774
 21
31.2517471731
  0
LINE
  5
3CB
100
AcDbEntity
  8
0
100
AcDbLine
 62
7
  6
CONTINUOUS
 10
27.9460551507
 20
26.1965197982
 11
28.0167897444
 21
26.2711380326
  0
LINE
  5
3CC
100
AcDbEntity
  8
0
100
AcDbLine
 62
7
  6
CONTINUOUS
 10
27.7339429103
 20
25.1280217127
 11
28.6531778987
 21
25.6587391127
  0
LINE
  5
3CD
100
AcDbEntity
  8
0
100
AcDbLine
 62
7
  6
CONTINUOUS
 10
31.7851395021
 20
34.4410432699
 11
31.8351392783
 21
34.436090842
  0
LINE
  5
3CE
100
AcDbEntity
  8
0
100
AcDbLine
 62
7
  6
CONTINUOUS
 10
8.9738407418
 20
36.7503506829
 11
8.9238409657
 21
36.7553031108
  0
LINE
  5
3CF
100
AcDbEntity
  8
0
100
AcDbLine
 62
7
  6
CONTINUOUS
 10
11.2790159202
 20
37.1353729171
 11
11.3290161283
 21
37.1304207386
  0
LINE
  5
3D0
100
AcDbEntity
  8
0
100
AcDbLine
 62
7
  6
CONTINUOUS
 10
24.4029923109
 20
34.0066214843
 11
24.1201484208
 21
34.1699177862
  0
LINE
  5
3D1
100
AcDbEntity
  8
0
100
AcDbLine
 62
7
  6
CONTINUOUS
 10
21.7159753553
 20
35.5579363515
 11
21.4331314653
 21
35.7212326533
  0
LINE
  5
3D2
100
AcDbEntity
  8
0
100
AcDbLine
 62
7
  6
CONTINUOUS
 10
19.0289583998
 20
37.1092512187
 11
18.7461145097
 21
37.2725475205
  0
LINE
  5
3D3
100
AcDbEntity
  8
0
100
AcDbLine
 62
7
  6
CONTINUOUS
 10
16.3419414442
 20
38.6605660859
 11
16.0590975542
 21
38.8238623877
  0
LINE
  5
3D4
100
AcDbEntity
  8
0
100
AcDbLine
 62
7
  6
CONTINUOUS
 10
13.6549244887
 20
40.2118809531
 11
13.3720805986
 21
40.3751772549
  0
LINE
  5
3D5
100
AcDbEntity
  8
0
100
AcDbLine
 62
7
  6
CONTINUOUS
 10
24.3822810788
 20
34.0524000991
 11
24.0994371888
 21
34.2156964009
  0
LINE
  5
3D6
100
AcDbEntity
  8
0
100
AcDbLine
 62
7
  6
CONTINUOUS
 10
21.6952641233
 20
35.6037149663
 11
21.4124202332
 21
35.7670112681
  0
LINE
  5
3D7
100
AcDbEntity
  8
0
100
AcDbLine
 62
7
  6
CONTINUOUS
 10
19.0082471677
 20
37.1550298335
 11
18.7254032776
 21
37.3183261353
  0
LINE
  5
3D8
100
AcDbEntity
  8
0
100
AcDbLine
 62
7
  6
CONTINUOUS
 10
16.3212302121
 20
38.7063447007
 11
16.0383863221
 21
38.8696410025
  0
LINE
  5
3D9
100
AcDbEntity
  8
0
100
AcDbLine
 62
7
  6
CONTINUOUS
 10
13.6342132566
 20
40.2576595678
 11
13.3513693665
 21
40.4209558696
  0
LINE
  5
3DA
100
AcDbEntity
  8
0
100
AcDbLine
 62
7
  6
CONTINUOUS
 10
24.0994371888
 20
34.2156964009
 11
24.0701475725
 21
34.2565208163
  0
LINE
  5
3DB
100
AcDbEntity
  8
0
100
AcDbLine
 62
7
  6
CONTINUOUS
 10
21.3831306169
 20
38.0940424515
 11
21.4124202332
 21
38.0532180361
  0
LINE
  5
3DC
100
AcDbEntity
  8
0
100
AcDbLine
 62
7
  6
CONTINUOUS
 10
21.6359245719
 20
39.2293655445
 11
21.6945038045
 21
39.1477167137
  0
LINE
  5
3DD
100
AcDbEntity
  8
0
100
AcDbLine
 62
7
  6
CONTINUOUS
 10
24.0701475725
 20
36.5427275843
 11
24.0994371888
 21
36.5019031689
  0
LINE
  5
3DE
100
AcDbEntity
  8
0
100
AcDbLine
 62
7
  6
CONTINUOUS
 10
31.8058821813
 20
23.8723847834
 11
31.8351710731
 21
23.8216539665
  0
LINE
  5
3DF
100
AcDbEntity
  8
0
100
AcDbLine
 62
7
  6
CONTINUOUS
 10
28.7238876937
 20
25.6517348762
 11
28.7238876937
 21
25.6995617772
  0
LINE
  5
3E0
100
AcDbEntity
  8
0
100
AcDbLine
 62
7
  6
CONTINUOUS
 10
29.0357356709
 20
38.0936282892
 11
29.0357356709
 21
32.8680128196
  0
LINE
  5
3E1
100
AcDbEntity
  8
0
100
AcDbLine
 62
7
  6
CONTINUOUS
 10
29.0943137259
 20
38.1752764401
 11
29.0943137259
 21
32.9496609705
  0
LINE
  5
3E2
100
AcDbEntity
  8
0
100
AcDbLine
 62
7
  6
CONTINUOUS
 10
9.7026831907
 20
35.3749742763
 11
9.6026968552
 21
35.3510671198
  0
LINE
  5
3E3
100
AcDbEntity
  8
0
100
AcDbLine
 62
7
  6
CONTINUOUS
 10
29.0150232612
 20
38.3027038857
 11
28.9650241096
 21
38.2977510972
  0
LINE
  5
3E4
100
AcDbEntity
  8
0
100
AcDbLine
 62
7
  6
CONTINUOUS
 10
24.1701475725
 20
36.624377826
 11
24.1201477963
 21
36.6293302539
  0
LINE
  5
3E5
100
AcDbEntity
  8
0
100
AcDbLine
 62
7
  6
CONTINUOUS
 10
24.9969326556
 20
37.1355392068
 11
25.0469324318
 21
37.1305867789
  0
LINE
  5
3E6
100
AcDbEntity
  8
0
100
AcDbLine
 62
7
  6
CONTINUOUS
 10
8.9738407418
 20
38.7916067257
 11
8.9238409657
 21
38.7965591536
  0
LINE
  5
3E7
100
AcDbEntity
  8
0
100
AcDbLine
 62
7
  6
CONTINUOUS
 10
29.0943137259
 20
33.569026887
 11
29.5724058216
 21
33.2930065313
  0
LINE
  5
3E8
100
AcDbEntity
  8
0
100
AcDbLine
 62
7
  6
CONTINUOUS
 10
29.6224049732
 20
33.2979593197
 11
29.0943137259
 21
33.6028460461
  0
LINE
  5
3E9
100
AcDbEntity
  8
0
100
AcDbLine
 62
7
  6
CONTINUOUS
 10
13.3513693665
 20
42.7071626376
 11
13.6342132566
 21
42.5438663358
  0
LINE
  5
3EA
100
AcDbEntity
  8
0
100
AcDbLine
 62
7
  6
CONTINUOUS
 10
16.0383863221
 20
41.1558477704
 11
16.3212302121
 21
40.9925514686
  0
LINE
  5
3EB
100
AcDbEntity
  8
0
100
AcDbLine
 62
7
  6
CONTINUOUS
 10
18.7254032776
 20
39.6045329033
 11
19.0082471677
 21
39.4412366014
  0
LINE
  5
3EC
100
AcDbEntity
  8
0
100
AcDbLine
 62
7
  6
CONTINUOUS
 10
21.4124202332
 20
38.0532180361
 11
21.6952641233
 21
37.8899217343
  0
LINE
  5
3ED
100
AcDbEntity
  8
0
100
AcDbLine
 62
7
  6
CONTINUOUS
 10
24.0994371888
 20
36.5019031689
 11
24.3822810788
 21
36.3386068671
  0
LINE
  5
3EE
100
AcDbEntity
  8
0
100
AcDbLine
 62
7
  6
CONTINUOUS
 10
24.4529914625
 20
36.4610815242
 11
24.1701475725
 21
36.624377826
  0
LINE
  5
3EF
100
AcDbEntity
  8
0
100
AcDbLine
 62
7
  6
CONTINUOUS
 10
21.765974507
 20
38.0123963914
 11
21.4831306169
 21
38.1756926932
  0
LINE
  5
3F0
100
AcDbEntity
  8
0
100
AcDbLine
 62
7
  6
CONTINUOUS
 10
19.0789575514
 20
39.5637112585
 11
18.7961136614
 21
39.7270075604
  0
LINE
  5
3F1
100
AcDbEntity
  8
0
100
AcDbLine
 62
7
  6
CONTINUOUS
 10
16.3919405959
 20
41.1150261257
 11
16.1090967058
 21
41.2783224275
  0
LINE
  5
3F2
100
AcDbEntity
  8
0
100
AcDbLine
 62
7
  6
CONTINUOUS
 10
13.7049236403
 20
42.6663409929
 11
13.4220797502
 21
42.8296372947
  0
LINE
  5
3F3
100
AcDbEntity
  8
0
100
AcDbLine
 62
7
  6
CONTINUOUS
 10
31.410888163
 20
31.9049708483
 11
31.4401406831
 21
31.88803865
  0
LINE
  5
3F4
100
AcDbEntity
  8
0
100
AcDbLine
 62
7
  6
CONTINUOUS
 10
16.6971741626
 20
45.4142564938
 11
16.7199265258
 21
45.3875188138
  0
LINE
  5
3F5
100
AcDbEntity
  8
0
100
AcDbLine
 62
7
  6
CONTINUOUS
 10
19.3841911182
 20
43.8629416266
 11
19.4069434813
 21
43.8362039467
  0
LINE
  5
3F6
100
AcDbEntity
  8
0
100
AcDbLine
 62
7
  6
CONTINUOUS
 10
24.3229415275
 20
37.6780506773
 11
24.38152076
 21
37.5964018466
  0
LINE
  5
3F7
100
AcDbEntity
  8
0
100
AcDbLine
 62
7
  6
CONTINUOUS
 10
31.410888163
 20
31.9049708483
 11
31.410888163
 21
28.2307099712
  0
LINE
  5
3F8
100
AcDbEntity
  8
0
100
AcDbLine
 62
7
  6
CONTINUOUS
 10
27.2099361086
 20
39.3110287036
 11
27.2599352603
 21
39.3159814921
  0
LINE
  5
3F9
100
AcDbEntity
  8
0
100
AcDbLine
 62
7
  6
CONTINUOUS
 10
26.3280063057
 20
39.8540187528
 11
26.278007154
 21
39.8490659644
  0
LINE
  5
3FA
100
AcDbEntity
  8
0
100
AcDbLine
 62
7
  6
CONTINUOUS
 10
10.2466358919
 20
38.3833673309
 11
10.2966350436
 21
38.3883201194
  0
LINE
  5
3FB
100
AcDbEntity
  8
0
100
AcDbLine
 62
7
  6
CONTINUOUS
 10
24.452230555
 20
37.8005249945
 11
24.4022307788
 21
37.8054774224
  0
LINE
  5
3FC
100
AcDbEntity
  8
0
100
AcDbLine
 62
7
  6
CONTINUOUS
 10
21.4831306169
 20
38.1756926932
 11
21.4331308408
 21
38.1806451211
  0
LINE
  5
3FD
100
AcDbEntity
  8
0
100
AcDbLine
 62
7
  6
CONTINUOUS
 10
22.3099157001
 20
38.686854074
 11
22.3599154762
 21
38.6819016461
  0
LINE
  5
3FE
100
AcDbEntity
  8
0
100
AcDbLine
 62
7
  6
CONTINUOUS
 10
21.7652135994
 20
39.3518398617
 11
21.7152138233
 21
39.3567922896
  0
LINE
  5
3FF
100
AcDbEntity
  8
0
100
AcDbLine
 62
7
  6
CONTINUOUS
 10
11.6997523634
 20
40.0276935468
 11
11.6229943144
 21
40.0381889292
  0
LINE
  5
400
100
AcDbEntity
  8
0
100
AcDbLine
 62
7
  6
CONTINUOUS
 10
13.6334529378
 20
43.8016613153
 11
15.3885409388
 21
42.7883837089
  0
LINE
  5
401
100
AcDbEntity
  8
0
100
AcDbLine
 62
7
  6
CONTINUOUS
 10
16.3204698934
 20
42.2503464481
 11
18.0755578943
 21
41.2370688417
  0
LINE
  5
402
100
AcDbEntity
  8
0
100
AcDbLine
 62
7
  6
CONTINUOUS
 10
19.0074868489
 20
40.6990315809
 11
20.7625748499
 21
39.6857539745
  0
LINE
  5
403
100
AcDbEntity
  8
0
100
AcDbLine
 62
7
  6
CONTINUOUS
 10
21.6945038045
 20
39.1477167137
 11
23.4495918054
 21
38.1344391073
  0
LINE
  5
404
100
AcDbEntity
  8
0
100
AcDbLine
 62
7
  6
CONTINUOUS
 10
24.38152076
 20
37.5964018466
 11
26.136608761
 21
36.5831242402
  0
LINE
  5
405
100
AcDbEntity
  8
0
100
AcDbLine
 62
7
  6
CONTINUOUS
 10
26.2073193952
 20
36.7055987526
 11
24.4522311438
 21
37.7188765037
  0
LINE
  5
406
100
AcDbEntity
  8
0
100
AcDbLine
 62
7
  6
CONTINUOUS
 10
23.5203024397
 20
38.2569136198
 11
21.7652141882
 21
39.2701913708
  0
LINE
  5
407
100
AcDbEntity
  8
0
100
AcDbLine
 62
7
  6
CONTINUOUS
 10
20.8332854841
 20
39.808228487
 11
19.0781972326
 21
40.821506238
  0
LINE
  5
408
100
AcDbEntity
  8
0
100
AcDbLine
 62
7
  6
CONTINUOUS
 10
18.1462685286
 20
41.3595433542
 11
16.3911802771
 21
42.3728211052
  0
LINE
  5
409
100
AcDbEntity
  8
0
100
AcDbLine
 62
7
  6
CONTINUOUS
 10
15.459251573
 20
42.9108582213
 11
13.7041633215
 21
43.9241359724
  0
LINE
  5
40A
100
AcDbEntity
  8
0
100
AcDbLine
 62
7
  6
CONTINUOUS
 10
31.8351392783
 20
34.436090842
 11
33.1079367835
 21
33.7012574839
  0
LINE
  5
40B
100
AcDbEntity
  8
0
100
AcDbLine
 62
7
  6
CONTINUOUS
 10
31.8851384299
 20
34.4410436305
 11
33.1579359352
 21
33.7062102723
  0
LINE
  5
40C
100
AcDbEntity
  8
0
100
AcDbLine
 62
7
  6
CONTINUOUS
 10
22.0712080737
 20
42.3116267594
 11
22.0939604369
 21
42.2848890795
  0
LINE
  5
40D
100
AcDbEntity
  8
0
100
AcDbLine
 62
7
  6
CONTINUOUS
 10
36.0363794715
 20
23.4711650586
 11
36.0778147041
 21
23.4134217104
  0
LINE
  5
40E
100
AcDbEntity
  8
0
100
AcDbLine
 62
7
  6
CONTINUOUS
 10
31.4401771905
 20
31.8880597245
 11
31.4401771905
 21
28.2137988475
  0
LINE
  5
40F
100
AcDbEntity
  8
0
100
AcDbLine
 62
7
  6
CONTINUOUS
 10
31.7351741895
 20
23.4711472243
 11
31.7351712456
 21
23.8793896785
  0
LINE
  5
410
100
AcDbEntity
  8
0
100
AcDbLine
 62
7
  6
CONTINUOUS
 10
31.8351445774
 20
31.2517471731
 11
31.8351737732
 21
23.447232903
  0
LINE
  5
411
100
AcDbEntity
  8
0
100
AcDbLine
 62
7
  6
CONTINUOUS
 10
32.4008323575
 20
32.4426909331
 11
32.4008323575
 21
31.90495747
  0
LINE
  5
412
100
AcDbEntity
  8
0
100
AcDbLine
 62
7
  6
CONTINUOUS
 10
32.47154333
 20
32.4835156884
 11
32.47154333
 21
23.0798330797
  0
LINE
  5
413
100
AcDbEntity
  8
0
100
AcDbLine
 62
7
  6
CONTINUOUS
 10
32.47154333
 20
15.8269902173
 11
32.47154333
 21
15.0441836017
  0
LINE
  5
414
100
AcDbEntity
  8
0
100
AcDbLine
 62
7
  6
CONTINUOUS
 10
32.6129646863
 20
15.0441839416
 11
32.6129646863
 21
15.7453424063
  0
LINE
  5
415
100
AcDbEntity
  8
0
100
AcDbLine
 62
7
  6
CONTINUOUS
 10
32.6129646863
 20
22.9981852688
 11
32.6129646863
 21
32.5989859099
  0
LINE
  5
416
100
AcDbEntity
  8
0
100
AcDbLine
 62
7
  6
CONTINUOUS
 10
32.8958444927
 20
21.9845654721
 11
32.8958444927
 21
15.6158466185
  0
LINE
  5
417
100
AcDbEntity
  8
0
100
AcDbLine
 62
7
  6
CONTINUOUS
 10
31.8351445774
 20
16.1944068964
 11
31.8351060082
 21
15.377801302
  0
LINE
  5
418
100
AcDbEntity
  8
0
100
AcDbLine
 62
7
  6
CONTINUOUS
 10
26.228318955
 20
11.3242079626
 11
26.2490301513
 21
11.3699865568
  0
LINE
  5
419
100
AcDbEntity
  8
0
100
AcDbLine
 62
7
  6
CONTINUOUS
 10
34.3967619211
 20
23.2931805855
 11
33.6236565823
 21
22.8468306744
  0
LINE
  5
41A
100
AcDbEntity
  8
0
100
AcDbLine
 62
7
  6
CONTINUOUS
 10
33.6736563585
 20
22.8418782465
 11
34.4967610571
 21
23.3170951291
  0
LINE
  5
41B
100
AcDbEntity
  8
0
100
AcDbLine
 62
7
  6
CONTINUOUS
 10
35.9363933479
 20
23.4950716121
 11
33.5322403014
 21
22.107041489
  0
LINE
  5
41C
100
AcDbEntity
  8
0
100
AcDbLine
 62
7
  6
CONTINUOUS
 10
33.6029512739
 20
21.9845671718
 11
36.0778147041
 21
23.4134217104
  0
LINE
  5
41D
100
AcDbEntity
  8
0
100
AcDbLine
 62
7
  6
CONTINUOUS
 10
27.6632319378
 20
18.5551762094
 11
27.7046554627
 21
18.5790919498
  0
LINE
  5
41E
100
AcDbEntity
  8
0
100
AcDbLine
 62
7
  6
CONTINUOUS
 10
24.5229191531
 20
40.8623435708
 11
24.5729183047
 21
40.8672963592
  0
LINE
  5
41F
100
AcDbEntity
  8
0
100
AcDbLine
 62
7
  6
CONTINUOUS
 10
23.6409893501
 20
41.40533362
 11
23.5909901985
 21
41.4003808316
  0
LINE
  5
420
100
AcDbEntity
  8
0
100
AcDbLine
 62
7
  6
CONTINUOUS
 10
27.3808853474
 20
39.2123333474
 11
27.4452419849
 21
39.2089970251
  0
LINE
  5
421
100
AcDbEntity
  8
0
100
AcDbLine
 62
7
  6
CONTINUOUS
 10
24.6938683919
 20
40.7636482145
 11
24.7582250293
 21
40.7603118922
  0
LINE
  5
422
100
AcDbEntity
  8
0
100
AcDbLine
 62
7
  6
CONTINUOUS
 10
18.7961136614
 20
39.7270075604
 11
18.7461138852
 21
39.7319599883
  0
LINE
  5
423
100
AcDbEntity
  8
0
100
AcDbLine
 62
7
  6
CONTINUOUS
 10
27.0185145442
 20
39.3159805421
 11
27.0685147524
 21
39.3110283637
  0
LINE
  5
424
100
AcDbEntity
  8
0
100
AcDbLine
 62
7
  6
CONTINUOUS
 10
19.6228987445
 20
40.2381689411
 11
19.6728985207
 21
40.2332165132
  0
LINE
  5
425
100
AcDbEntity
  8
0
100
AcDbLine
 62
7
  6
CONTINUOUS
 10
19.0781966439
 20
40.9031547289
 11
19.0281968677
 21
40.9081071568
  0
LINE
  5
426
100
AcDbEntity
  8
0
100
AcDbLine
 62
7
  6
CONTINUOUS
 10
16.1090967058
 20
41.2783224275
 11
16.0590969296
 21
41.2832748554
  0
LINE
  5
427
100
AcDbEntity
  8
0
100
AcDbLine
 62
7
  6
CONTINUOUS
 10
28.8297164788
 20
38.4096883861
 11
28.8236802398
 21
38.4117321998
  0
LINE
  5
428
100
AcDbEntity
  8
0
100
AcDbLine
 62
7
  6
CONTINUOUS
 10
24.7582250293
 20
40.7603118922
 11
24.7809773925
 21
40.7335742123
  0
LINE
  5
429
100
AcDbEntity
  8
0
100
AcDbLine
 62
7
  6
CONTINUOUS
 10
27.4452419849
 20
39.2089970251
 11
27.467994348
 21
39.1822593451
  0
LINE
  5
42A
100
AcDbEntity
  8
0
100
AcDbLine
 62
7
  6
CONTINUOUS
 10
33.178647756
 20
33.5787831667
 11
33.178647756
 21
22.7696056074
  0
LINE
  5
42B
100
AcDbEntity
  8
0
100
AcDbLine
 62
7
  6
CONTINUOUS
 10
33.178647756
 20
15.4923447409
 11
33.178647756
 21
15.3707792647
  0
LINE
  5
42C
100
AcDbEntity
  8
0
100
AcDbLine
 62
7
  6
CONTINUOUS
 10
33.2079367835
 20
33.6196072421
 11
33.2079367835
 21
22.7695886106
  0
LINE
  5
42D
100
AcDbEntity
  8
0
100
AcDbLine
 62
7
  6
CONTINUOUS
 10
33.2079367835
 20
15.4923137682
 11
33.2079367835
 21
15.4116033402
  0
LINE
  5
42E
100
AcDbEntity
  8
0
100
AcDbLine
 62
7
  6
CONTINUOUS
 10
33.6029512739
 20
15.6158483182
 11
33.6029512739
 21
21.9845671718
  0
LINE
  5
42F
100
AcDbEntity
  8
0
100
AcDbLine
 62
7
  6
CONTINUOUS
 10
34.0017848383
 20
23.4395649247
 11
34.0017848383
 21
23.0651418216
  0
LINE
  5
430
100
AcDbEntity
  8
0
100
AcDbLine
 62
7
  6
CONTINUOUS
 10
26.8147132211
 20
11.6965818799
 11
26.7940020247
 21
11.6508032857
  0
LINE
  5
431
100
AcDbEntity
  8
0
100
AcDbLine
 62
7
  6
CONTINUOUS
 10
21.8359021975
 20
42.413658438
 11
21.8859013492
 21
42.4186112264
  0
LINE
  5
432
100
AcDbEntity
  8
0
100
AcDbLine
 62
7
  6
CONTINUOUS
 10
22.0068514363
 20
42.3149630817
 11
22.0712080737
 21
42.3116267594
  0
LINE
  5
433
100
AcDbEntity
  8
0
100
AcDbLine
 62
7
  6
CONTINUOUS
 10
24.3314980207
 20
40.8672956588
 11
24.3814977968
 21
40.8623432309
  0
LINE
  5
434
100
AcDbEntity
  8
0
100
AcDbLine
 62
7
  6
CONTINUOUS
 10
16.9358817889
 20
41.7894838083
 11
16.9858815651
 21
41.7845313804
  0
LINE
  5
435
100
AcDbEntity
  8
0
100
AcDbLine
 62
7
  6
CONTINUOUS
 10
16.3911796883
 20
42.454469596
 11
16.3411799121
 21
42.4594220239
  0
LINE
  5
436
100
AcDbEntity
  8
0
100
AcDbLine
 62
7
  6
CONTINUOUS
 10
13.4220797502
 20
42.8296372947
 11
13.3720799741
 21
42.8345897226
  0
LINE
  5
437
100
AcDbEntity
  8
0
100
AcDbLine
 62
7
  6
CONTINUOUS
 10
21.6444810651
 20
42.4186105259
 11
21.6944808413
 21
42.413658098
  0
LINE
  5
438
100
AcDbEntity
  8
0
100
AcDbLine
 62
7
  6
CONTINUOUS
 10
26.1426995233
 20
39.9610032532
 11
26.1366632842
 21
39.963047067
  0
LINE
  5
439
100
AcDbEntity
  8
0
100
AcDbLine
 62
7
  6
CONTINUOUS
 10
23.4556825677
 20
41.5123181204
 11
23.4496463287
 21
41.5143619342
  0
LINE
  5
43A
100
AcDbEntity
  8
0
100
AcDbLine
 62
7
  6
CONTINUOUS
 10
20.7686656121
 20
43.0636329876
 11
20.7626293731
 21
43.0656768014
  0
LINE
  5
43B
100
AcDbEntity
  8
0
100
AcDbLine
 62
7
  6
CONTINUOUS
 10
16.4618680359
 20
45.5162883169
 11
16.6328175252
 21
45.4175928161
  0
LINE
  5
43C
100
AcDbEntity
  8
0
100
AcDbLine
 62
7
  6
CONTINUOUS
 10
18.0460070487
 20
44.6017059221
 11
18.2169561647
 21
44.5030106368
  0
LINE
  5
43D
100
AcDbEntity
  8
0
100
AcDbLine
 62
7
  6
CONTINUOUS
 10
19.1488849915
 20
43.9649734498
 11
19.3198344808
 21
43.8662779489
  0
LINE
  5
43E
100
AcDbEntity
  8
0
100
AcDbLine
 62
7
  6
CONTINUOUS
 10
20.7330240043
 20
43.0503910549
 11
20.9039731202
 21
42.9516957696
  0
LINE
  5
43F
100
AcDbEntity
  8
0
100
AcDbLine
 62
7
  6
CONTINUOUS
 10
21.835901947
 20
42.4136585826
 11
22.0068514363
 21
42.3149630817
  0
LINE
  5
440
100
AcDbEntity
  8
0
100
AcDbLine
 62
7
  6
CONTINUOUS
 10
23.4200409598
 20
41.4990761877
 11
23.5909900758
 21
41.4003809024
  0
LINE
  5
441
100
AcDbEntity
  8
0
100
AcDbLine
 62
7
  6
CONTINUOUS
 10
24.5229189026
 20
40.8623437154
 11
24.6938683919
 21
40.7636482145
  0
LINE
  5
442
100
AcDbEntity
  8
0
100
AcDbLine
 62
7
  6
CONTINUOUS
 10
26.1070579154
 20
39.9477613206
 11
26.2780070313
 21
39.8490660352
  0
LINE
  5
443
100
AcDbEntity
  8
0
100
AcDbLine
 62
7
  6
CONTINUOUS
 10
27.2099358581
 20
39.3110288482
 11
27.3808853474
 21
39.2123333474
  0
LINE
  5
444
100
AcDbEntity
  8
0
100
AcDbLine
 62
7
  6
CONTINUOUS
 10
28.7940748709
 20
38.3964464534
 11
28.9650239869
 21
38.2977511681
  0
LINE
  5
445
100
AcDbEntity
  8
0
100
AcDbLine
 62
7
  6
CONTINUOUS
 10
29.0150232612
 20
38.3027038857
 11
28.8297179586
 21
38.4096875317
  0
LINE
  5
446
100
AcDbEntity
  8
0
100
AcDbLine
 62
7
  6
CONTINUOUS
 10
27.4452405631
 20
39.2089978459
 11
27.2599352603
 21
39.3159814921
  0
LINE
  5
447
100
AcDbEntity
  8
0
100
AcDbLine
 62
7
  6
CONTINUOUS
 10
26.3280063057
 20
39.8540187528
 11
26.142701003
 21
39.9610023989
  0
LINE
  5
448
100
AcDbEntity
  8
0
100
AcDbLine
 62
7
  6
CONTINUOUS
 10
24.7582236075
 20
40.7603127131
 11
24.5729183047
 21
40.8672963592
  0
LINE
  5
449
100
AcDbEntity
  8
0
100
AcDbLine
 62
7
  6
CONTINUOUS
 10
23.6409893501
 20
41.40533362
 11
23.4556840475
 21
41.5123172661
  0
LINE
  5
44A
100
AcDbEntity
  8
0
100
AcDbLine
 62
7
  6
CONTINUOUS
 10
22.071206652
 20
42.3116275803
 11
21.8859013492
 21
42.4186112264
  0
LINE
  5
44B
100
AcDbEntity
  8
0
100
AcDbLine
 62
7
  6
CONTINUOUS
 10
20.9539723946
 20
42.9566484872
 11
20.7686670919
 21
43.0636321333
  0
LINE
  5
44C
100
AcDbEntity
  8
0
100
AcDbLine
 62
7
  6
CONTINUOUS
 10
19.3841896964
 20
43.8629424474
 11
19.1988843936
 21
43.9699260936
  0
LINE
  5
44D
100
AcDbEntity
  8
0
100
AcDbLine
 62
7
  6
CONTINUOUS
 10
18.266955439
 20
44.5079633544
 11
18.0816501363
 21
44.6149470005
  0
LINE
  5
44E
100
AcDbEntity
  8
0
100
AcDbLine
 62
7
  6
CONTINUOUS
 10
16.6971727409
 20
45.4142573146
 11
16.5118674381
 21
45.5212409608
  0
LINE
  5
44F
100
AcDbEntity
  8
0
100
AcDbLine
 62
7
  6
CONTINUOUS
 10
26.8440022486
 20
11.7374059553
 11
26.8147132211
 21
11.6965818799
  0
LINE
  5
450
100
AcDbEntity
  8
0
100
AcDbLine
 62
7
  6
CONTINUOUS
 10
35.6904742473
 20
23.6370498591
 11
35.7101706571
 21
23.6579671767
  0
LINE
  5
451
100
AcDbEntity
  8
0
100
AcDbLine
 62
7
  6
CONTINUOUS
 10
20.9539723946
 20
42.9566484872
 11
20.9039732429
 21
42.9516956987
  0
LINE
  5
452
100
AcDbEntity
  8
0
100
AcDbLine
 62
7
  6
CONTINUOUS
 10
19.148885242
 20
43.9649733051
 11
19.1988843936
 21
43.9699260936
  0
LINE
  5
453
100
AcDbEntity
  8
0
100
AcDbLine
 62
7
  6
CONTINUOUS
 10
19.3198344808
 20
43.8662779489
 11
19.3841911182
 21
43.8629416266
  0
LINE
  5
454
100
AcDbEntity
  8
0
100
AcDbLine
 62
7
  6
CONTINUOUS
 10
14.2488644014
 20
43.3407984261
 11
14.2988646095
 21
43.3358462476
  0
LINE
  5
455
100
AcDbEntity
  8
0
100
AcDbLine
 62
7
  6
CONTINUOUS
 10
13.7041627327
 20
44.0057844632
 11
13.6541629566
 21
44.0107368911
  0
LINE
  5
456
100
AcDbEntity
  8
0
100
AcDbLine
 62
7
  6
CONTINUOUS
 10
18.9574641096
 20
43.9699253931
 11
19.0074638857
 21
43.9649729652
  0
LINE
  5
457
100
AcDbEntity
  8
0
100
AcDbLine
 62
7
  6
CONTINUOUS
 10
18.0816486566
 20
44.6149478548
 11
18.0756124175
 21
44.6169916686
  0
LINE
  5
458
100
AcDbEntity
  8
0
100
AcDbLine
 62
7
  6
CONTINUOUS
 10
36.0778147041
 20
23.4134217104
 11
36.0778147041
 21
17.0447028567
  0
LINE
  5
459
100
AcDbEntity
  8
0
100
AcDbLine
 62
7
  6
CONTINUOUS
 10
32.5922534899
 20
14.9984053474
 11
32.6129646863
 21
15.0441839416
  0
LINE
  5
45A
100
AcDbEntity
  8
0
100
AcDbLine
 62
7
  6
CONTINUOUS
 10
33.178647756
 20
15.3707792647
 11
33.1579365597
 21
15.3250006705
  0
LINE
  5
45B
100
AcDbEntity
  8
0
100
AcDbLine
 62
7
  6
CONTINUOUS
 10
31.8351445774
 20
15.4116002807
 11
26.8440022486
 21
12.5299801146
  0
LINE
  5
45C
100
AcDbEntity
  8
0
100
AcDbLine
 62
7
  6
CONTINUOUS
 10
31.8351444049
 20
15.3777791304
 11
26.8440022486
 21
12.4961590639
  0
LINE
  5
45D
100
AcDbEntity
  8
0
100
AcDbLine
 62
7
  6
CONTINUOUS
 10
18.266955439
 20
44.5079633544
 11
18.2169562874
 21
44.5030105659
  0
LINE
  5
45E
100
AcDbEntity
  8
0
100
AcDbLine
 62
7
  6
CONTINUOUS
 10
16.6328175252
 20
45.4175928161
 11
16.6971741626
 21
45.4142564938
  0
LINE
  5
45F
100
AcDbEntity
  8
0
100
AcDbLine
 62
7
  6
CONTINUOUS
 10
16.270447154
 20
45.5212402603
 11
16.3204469302
 21
45.5162878324
  0
LINE
  5
460
100
AcDbEntity
  8
0
100
AcDbLine
 62
7
  6
CONTINUOUS
 10
33.5822405095
 20
15.5700699735
 11
33.6029512739
 21
15.6158483182
  0
LINE
  5
461
100
AcDbEntity
  8
0
100
AcDbLine
 62
7
  6
CONTINUOUS
 10
33.2079367835
 20
15.4116033402
 11
33.178647756
 21
15.3707792647
  0
LINE
  5
462
100
AcDbEntity
  8
0
100
AcDbLine
 62
7
  6
CONTINUOUS
 10
36.0778147041
 20
17.0447028567
 11
33.6029512739
 21
15.6158483182
  0
LINE
  5
463
100
AcDbEntity
  8
0
100
AcDbLine
 62
7
  6
CONTINUOUS
 10
33.178647756
 20
15.3707792647
 11
32.6129646863
 21
15.0441839416
  0
LINE
  5
464
100
AcDbEntity
  8
0
100
AcDbLine
 62
7
  6
CONTINUOUS
 10
26.8147132211
 20
11.6965818799
 11
26.2490301513
 21
11.3699865568
  0
LINE
  5
465
100
AcDbEntity
  8
0
100
AcDbLine
 62
7
  6
CONTINUOUS
 10
36.0363924839
 20
16.9869668187
 11
33.5822400775
 21
15.570069724
  0
LINE
  5
466
100
AcDbEntity
  8
0
100
AcDbLine
 62
7
  6
CONTINUOUS
 10
26.228318955
 20
11.3242079626
 11
26.7940020247
 21
11.6508032857
  0
LINE
  5
467
100
AcDbEntity
  8
0
100
AcDbLine
 62
7
  6
CONTINUOUS
 10
32.5922534899
 20
14.9984053474
 11
33.1579365597
 21
15.3250006705
  0
LINE
  5
468
100
AcDbEntity
  8
0
100
AcDbLine
 62
7
  6
CONTINUOUS
 10
16.4618682864
 20
45.5162881723
 11
16.5118674381
 21
45.5212409608
  0
LINE
  5
469
100
AcDbEntity
  8
0
100
AcDbLine
 62
7
  6
CONTINUOUS
 10
36.0778147041
 20
17.0447028567
 11
36.0363799814
 21
16.9870007704
  0
ARC
  5
46A
100
AcDbEntity
  8
0
100
AcDbCircle
 62
7
  6
CONTINUOUS
 10
17.5102194051
 20
23.7977840335
 40
0.1
100
AcDbArc
 50
240.0001377225
 51
300.0000636796
  0
ARC
  5
46B
100
AcDbEntity
  8
0
100
AcDbCircle
 62
7
  6
CONTINUOUS
 10
10.7633271706
 20
20.3104590808
 40
0.1
100
AcDbArc
 50
180.0
 51
240.0005612632
  0
ARC
  5
46C
100
AcDbEntity
  8
0
100
AcDbCircle
 62
7
  6
CONTINUOUS
 10
18.5676782868
 20
43.6512114446
 40
1.687691139
100
AcDbArc
 50
252.2244648882
 51
254.1747083434
  0
ARC
  5
46D
100
AcDbEntity
  8
0
100
AcDbCircle
 62
7
  6
CONTINUOUS
 10
15.8806613312
 20
45.2025263118
 40
1.6876911389
100
AcDbArc
 50
252.2244648884
 51
254.1747083435
  0
ARC
  5
46E
100
AcDbEntity
  8
0
100
AcDbCircle
 62
7
  6
CONTINUOUS
 10
18.926386753
 20
43.1798078096
 40
1.1750055597
100
AcDbArc
 50
298.0227750802
 51
299.9941804449
  0
ARC
  5
46F
100
AcDbEntity
  8
0
100
AcDbCircle
 62
7
  6
CONTINUOUS
 10
16.2393697974
 20
44.7311226767
 40
1.1750055596
100
AcDbArc
 50
298.0227750807
 51
299.9941804453
  0
ARC
  5
470
100
AcDbEntity
  8
0
100
AcDbCircle
 62
7
  6
CONTINUOUS
 10
19.0357205668
 20
41.570485318
 40
0.8391456546
100
AcDbArc
 50
51.583245652
 51
52.4972338911
  0
ARC
  5
471
100
AcDbEntity
  8
0
100
AcDbCircle
 62
7
  6
CONTINUOUS
 10
16.3487036112
 20
43.1218001851
 40
0.8391456546
100
AcDbArc
 50
51.583245652
 51
52.497233891
  0
ARC
  5
472
100
AcDbEntity
  8
0
100
AcDbCircle
 62
7
  6
CONTINUOUS
 10
20.0456335802
 20
44.1650012014
 40
0.784917084
100
AcDbArc
 50
205.2149892479
 51
207.5394072976
  0
ARC
  5
473
100
AcDbEntity
  8
0
100
AcDbCircle
 62
7
  6
CONTINUOUS
 10
17.3586166246
 20
45.7163160685
 40
0.784917084
100
AcDbArc
 50
205.2149892478
 51
207.5394072977
  0
ARC
  5
474
100
AcDbEntity
  8
0
100
AcDbCircle
 62
7
  6
CONTINUOUS
 10
20.0148904382
 20
44.15044101
 40
0.7509004124
100
AcDbArc
 50
202.2364521058
 51
205.2092083495
  0
ARC
  5
475
100
AcDbEntity
  8
0
100
AcDbCircle
 62
7
  6
CONTINUOUS
 10
17.3278734827
 20
45.7017558772
 40
0.7509004124
100
AcDbArc
 50
202.2364521058
 51
205.2092083495
  0
ARC
  5
476
100
AcDbEntity
  8
0
100
AcDbCircle
 62
7
  6
CONTINUOUS
 10
16.3250992636
 20
43.1927780177
 40
0.6836665877
100
AcDbArc
 50
49.8046206865
 51
50.4695513913
  0
ARC
  5
477
100
AcDbEntity
  8
0
100
AcDbCircle
 62
7
  6
CONTINUOUS
 10
19.0121162192
 20
41.6414631507
 40
0.6836665876
100
AcDbArc
 50
49.8046206863
 51
50.4695513915
  0
ARC
  5
478
100
AcDbEntity
  8
0
100
AcDbCircle
 62
7
  6
CONTINUOUS
 10
19.018381171
 20
41.6488881103
 40
0.6739516711
100
AcDbArc
 50
49.3715123798
 51
49.8040622674
  0
ARC
  5
479
100
AcDbEntity
  8
0
100
AcDbCircle
 62
7
  6
CONTINUOUS
 10
16.3313642159
 20
43.200202978
 40
0.6739516704
100
AcDbArc
 50
49.3715123795
 51
49.8040622679
  0
ARC
  5
47A
100
AcDbEntity
  8
0
100
AcDbCircle
 62
7
  6
CONTINUOUS
 10
17.4101485984
 20
39.0572637635
 40
0.1722003561
100
AcDbArc
 50
90.0005372138
 51
93.5869397911
  0
ARC
  5
47B
100
AcDbEntity
  8
0
100
AcDbCircle
 62
7
  6
CONTINUOUS
 10
20.097165554
 20
37.5059488964
 40
0.172200356
100
AcDbArc
 50
90.0005372138
 51
93.5869397914
  0
ARC
  5
47C
100
AcDbEntity
  8
0
100
AcDbCircle
 62
7
  6
CONTINUOUS
 10
14.7231316429
 20
40.6085786307
 40
0.172200356
100
AcDbArc
 50
90.0005372136
 51
93.5869397913
  0
ARC
  5
47D
100
AcDbEntity
  8
0
100
AcDbCircle
 62
7
  6
CONTINUOUS
 10
10.2733800657
 20
36.5054048989
 40
0.1024818715
100
AcDbArc
 50
179.998524125
 51
184.4128550972
  0
ARC
  5
47E
100
AcDbEntity
  8
0
100
AcDbCircle
 62
7
  6
CONTINUOUS
 10
8.9955734655
 20
35.7015647891
 40
0.1
100
AcDbArc
 50
119.9998519061
 51
180.0
  0
ARC
  5
47F
100
AcDbEntity
  8
0
100
AcDbCircle
 62
7
  6
CONTINUOUS
 10
18.7961136614
 20
37.3591505507
 40
0.1
100
AcDbArc
 50
180.0
 51
240.0005612632
  0
ARC
  5
480
100
AcDbEntity
  8
0
100
AcDbCircle
 62
7
  6
CONTINUOUS
 10
19.0789575514
 20
37.1958542489
 40
0.1
100
AcDbArc
 50
240.0005612632
 51
299.9998519061
  0
ARC
  5
481
100
AcDbEntity
  8
0
100
AcDbCircle
 62
7
  6
CONTINUOUS
 10
18.7961136614
 20
39.6453573186
 40
0.1
100
AcDbArc
 50
119.9998519061
 51
180.0
  0
ARC
  5
482
100
AcDbEntity
  8
0
100
AcDbCircle
 62
7
  6
CONTINUOUS
 10
16.1090967058
 20
38.9104654179
 40
0.1
100
AcDbArc
 50
180.0
 51
240.0005612632
  0
ARC
  5
483
100
AcDbEntity
  8
0
100
AcDbCircle
 62
7
  6
CONTINUOUS
 10
16.3919405959
 20
38.747169116
 40
0.1
100
AcDbArc
 50
240.0005612632
 51
299.9998519061
  0
ARC
  5
484
100
AcDbEntity
  8
0
100
AcDbCircle
 62
7
  6
CONTINUOUS
 10
16.1090967058
 20
41.1966721858
 40
0.1
100
AcDbArc
 50
119.9998519061
 51
180.0
  0
ARC
  5
485
100
AcDbEntity
  8
0
100
AcDbCircle
 62
7
  6
CONTINUOUS
 10
13.4220797502
 20
40.461780285
 40
0.1
100
AcDbArc
 50
180.0
 51
240.0005612632
  0
ARC
  5
486
100
AcDbEntity
  8
0
100
AcDbCircle
 62
7
  6
CONTINUOUS
 10
13.7049236403
 20
40.2984839832
 40
0.1
100
AcDbArc
 50
240.0005612632
 51
299.9998519061
  0
ARC
  5
487
100
AcDbEntity
  8
0
100
AcDbCircle
 62
7
  6
CONTINUOUS
 10
13.4220797502
 20
42.747987053
 40
0.1
100
AcDbArc
 50
119.9998519061
 51
180.0
  0
ARC
  5
488
100
AcDbEntity
  8
0
100
AcDbCircle
 62
7
  6
CONTINUOUS
 10
33.1263007545
 20
23.3649590611
 40
0.6035897343
100
AcDbArc
 50
240.0681905784
 51
243.9306764626
  0
ARC
  5
489
100
AcDbEntity
  8
0
100
AcDbCircle
 62
7
  6
CONTINUOUS
 10
33.3788439146
 20
23.3529914187
 40
0.5900432627
100
AcDbArc
 50
296.0253352399
 51
299.9765473203
  0
ARC
  5
48A
100
AcDbEntity
  8
0
100
AcDbCircle
 62
7
  6
CONTINUOUS
 10
33.1439501693
 20
16.0464340153
 40
0.4969526467
100
AcDbArc
 50
240.0493320717
 51
243.3311320921
  0
ARC
  5
48B
100
AcDbEntity
  8
0
100
AcDbCircle
 62
7
  6
CONTINUOUS
 10
33.359361724
 20
16.0380447348
 40
0.4874276183
100
AcDbArc
 50
296.6371725959
 51
299.9831354899
  0
ARC
  5
48C
100
AcDbEntity
  8
0
100
AcDbCircle
 62
7
  6
CONTINUOUS
 10
25.4712118302
 20
24.0337752223
 40
0.1722003664
100
AcDbArc
 50
90.0005374477
 51
93.5869398061
  0
ARC
  5
48D
100
AcDbEntity
  8
0
100
AcDbCircle
 62
7
  6
CONTINUOUS
 10
26.7440022486
 20
11.7374059553
 40
0.1
100
AcDbArc
 50
299.9998519061
 51
360.0
  0
ARC
  5
48E
100
AcDbEntity
  8
0
100
AcDbCircle
 62
7
  6
CONTINUOUS
 10
22.9963460234
 20
22.8826838303
 40
0.1
100
AcDbArc
 50
240.0005612632
 51
299.9998519061
  0
ARC
  5
48F
100
AcDbEntity
  8
0
100
AcDbCircle
 62
7
  6
CONTINUOUS
 10
32.5422537137
 20
15.0850080171
 40
0.1
100
AcDbArc
 50
240.0005612632
 51
299.9998519061
  0
ARC
  5
490
100
AcDbEntity
  8
0
100
AcDbCircle
 62
7
  6
CONTINUOUS
 10
33.1079367835
 20
15.4116033402
 40
0.1
100
AcDbArc
 50
299.9998519061
 51
360.0
  0
ARC
  5
491
100
AcDbEntity
  8
0
100
AcDbCircle
 62
7
  6
CONTINUOUS
 10
26.1783191788
 20
11.4108106322
 40
0.1
100
AcDbArc
 50
240.0005612632
 51
299.9998519061
  0
ARC
  5
492
100
AcDbEntity
  8
0
100
AcDbCircle
 62
7
  6
CONTINUOUS
 10
23.9417121979
 20
40.5485817103
 40
1.687691139
100
AcDbArc
 50
252.2244648882
 51
254.1747083434
  0
ARC
  5
493
100
AcDbEntity
  8
0
100
AcDbCircle
 62
7
  6
CONTINUOUS
 10
21.2546952423
 20
42.0998965774
 40
1.687691139
100
AcDbArc
 50
252.2244648882
 51
254.1747083434
  0
ARC
  5
494
100
AcDbEntity
  8
0
100
AcDbCircle
 62
7
  6
CONTINUOUS
 10
26.6287291535
 20
38.9972668431
 40
1.687691139
100
AcDbArc
 50
252.2244648883
 51
254.1747083434
  0
ARC
  5
495
100
AcDbEntity
  8
0
100
AcDbCircle
 62
7
  6
CONTINUOUS
 10
24.3004206641
 20
40.0771780753
 40
1.1750055597
100
AcDbArc
 50
298.0227750802
 51
299.9941804449
  0
ARC
  5
496
100
AcDbEntity
  8
0
100
AcDbCircle
 62
7
  6
CONTINUOUS
 10
21.6134037085
 20
41.6284929425
 40
1.1750055598
100
AcDbArc
 50
298.0227750802
 51
299.9941804449
  0
ARC
  5
497
100
AcDbEntity
  8
0
100
AcDbCircle
 62
7
  6
CONTINUOUS
 10
26.9874376196
 20
38.5258632081
 40
1.1750055597
100
AcDbArc
 50
298.0227750802
 51
299.9941804449
  0
ARC
  5
498
100
AcDbEntity
  8
0
100
AcDbCircle
 62
7
  6
CONTINUOUS
 10
27.0967714335
 20
36.9165407165
 40
0.8391456545
100
AcDbArc
 50
51.583245652
 51
52.4972338912
  0
ARC
  5
499
100
AcDbEntity
  8
0
100
AcDbCircle
 62
7
  6
CONTINUOUS
 10
21.7227375224
 20
40.0191704509
 40
0.8391456544
100
AcDbArc
 50
51.5832456519
 51
52.4972338912
  0
ARC
  5
49A
100
AcDbEntity
  8
0
100
AcDbCircle
 62
7
  6
CONTINUOUS
 10
24.409754478
 20
38.4678555837
 40
0.8391456544
100
AcDbArc
 50
51.5832456519
 51
52.4972338912
  0
ARC
  5
49B
100
AcDbEntity
  8
0
100
AcDbCircle
 62
7
  6
CONTINUOUS
 10
28.1067040446
 20
39.5110662477
 40
0.7849389246
100
AcDbArc
 50
205.2150169596
 51
207.5420989733
  0
ARC
  5
49C
100
AcDbEntity
  8
0
100
AcDbCircle
 62
7
  6
CONTINUOUS
 10
22.7326505357
 20
42.6136863342
 40
0.784917084
100
AcDbArc
 50
205.214989248
 51
207.5394072978
  0
ARC
  5
49D
100
AcDbEntity
  8
0
100
AcDbCircle
 62
7
  6
CONTINUOUS
 10
25.4196674913
 20
41.062371467
 40
0.784917084
100
AcDbArc
 50
205.2149892478
 51
207.5394072977
  0
ARC
  5
49E
100
AcDbEntity
  8
0
100
AcDbCircle
 62
7
  6
CONTINUOUS
 10
22.7019073938
 20
42.5991261429
 40
0.7509004124
100
AcDbArc
 50
202.2364521059
 51
205.2092083496
  0
ARC
  5
49F
100
AcDbEntity
  8
0
100
AcDbCircle
 62
7
  6
CONTINUOUS
 10
28.0759413049
 20
39.4964964085
 40
0.7509004124
100
AcDbArc
 50
202.2364521057
 51
205.2092083494
  0
ARC
  5
4A0
100
AcDbEntity
  8
0
100
AcDbCircle
 62
7
  6
CONTINUOUS
 10
25.3889243493
 20
41.0478112757
 40
0.7509004124
100
AcDbArc
 50
202.2364521058
 51
205.2092083495
  0
ARC
  5
4A1
100
AcDbEntity
  8
0
100
AcDbCircle
 62
7
  6
CONTINUOUS
 10
24.3861501302
 20
38.5388334162
 40
0.6836665878
100
AcDbArc
 50
49.8046206864
 51
50.4695513913
  0
ARC
  5
4A2
100
AcDbEntity
  8
0
100
AcDbCircle
 62
7
  6
CONTINUOUS
 10
21.6991331747
 20
40.0901482835
 40
0.6836665877
100
AcDbArc
 50
49.8046206862
 51
50.4695513913
  0
ARC
  5
4A3
100
AcDbEntity
  8
0
100
AcDbCircle
 62
7
  6
CONTINUOUS
 10
27.0731670858
 20
36.9875185491
 40
0.6836665877
100
AcDbArc
 50
49.8046206862
 51
50.4695513913
  0
ARC
  5
4A4
100
AcDbEntity
  8
0
100
AcDbCircle
 62
7
  6
CONTINUOUS
 10
24.3924150813
 20
38.546258375
 40
0.6739516724
100
AcDbArc
 50
49.3715123804
 51
49.8040622671
  0
ARC
  5
4A5
100
AcDbEntity
  8
0
100
AcDbCircle
 62
7
  6
CONTINUOUS
 10
27.0794320371
 20
36.9949435081
 40
0.673951672
100
AcDbArc
 50
49.3715123803
 51
49.8040622673
  0
ARC
  5
4A6
100
AcDbEntity
  8
0
100
AcDbCircle
 62
7
  6
CONTINUOUS
 10
21.7053981262
 20
40.0975732427
 40
0.6739516716
100
AcDbArc
 50
49.3715123802
 51
49.8040622675
  0
ARC
  5
4A7
100
AcDbEntity
  8
0
100
AcDbCircle
 62
7
  6
CONTINUOUS
 10
22.7841825095
 20
35.9546340292
 40
0.1722003561
100
AcDbArc
 50
90.0005372138
 51
93.5869397911
  0
ARC
  5
4A8
100
AcDbEntity
  8
0
100
AcDbCircle
 62
7
  6
CONTINUOUS
 10
25.4711994651
 20
34.403319162
 40
0.172200356
100
AcDbArc
 50
90.0005372136
 51
93.5869397913
  0
ARC
  5
4A9
100
AcDbEntity
  8
0
100
AcDbCircle
 62
7
  6
CONTINUOUS
 10
31.8351392783
 20
34.3544406003
 40
0.1
100
AcDbArc
 50
60.0005612632
 51
119.9998519061
  0
ARC
  5
4AA
100
AcDbEntity
  8
0
100
AcDbCircle
 62
7
  6
CONTINUOUS
 10
33.1079367835
 20
33.6196072421
 40
0.1
100
AcDbArc
 50
0.0
 51
60.0005612632
  0
ARC
  5
4AB
100
AcDbEntity
  8
0
100
AcDbCircle
 62
7
  6
CONTINUOUS
 10
21.4831306169
 20
35.8078356835
 40
0.1
100
AcDbArc
 50
180.0
 51
240.0005612632
  0
ARC
  5
4AC
100
AcDbEntity
  8
0
100
AcDbCircle
 62
7
  6
CONTINUOUS
 10
21.765974507
 20
35.6445393817
 40
0.1
100
AcDbArc
 50
240.0005612632
 51
299.9998519061
  0
ARC
  5
4AD
100
AcDbEntity
  8
0
100
AcDbCircle
 62
7
  6
CONTINUOUS
 10
21.4831306169
 20
38.0940424515
 40
0.1
100
AcDbArc
 50
119.9998519061
 51
180.0
  0
ARC
  5
4AE
100
AcDbEntity
  8
0
100
AcDbCircle
 62
7
  6
CONTINUOUS
 10
24.1701475725
 20
36.5427275843
 40
0.1
100
AcDbArc
 50
119.9998519061
 51
180.0
  0
ARC
  5
4AF
100
AcDbEntity
  8
0
100
AcDbCircle
 62
7
  6
CONTINUOUS
 10
24.1701475725
 20
34.2565208163
 40
0.1
100
AcDbArc
 50
180.0
 51
240.0005612632
  0
ARC
  5
4B0
100
AcDbEntity
  8
0
100
AcDbCircle
 62
7
  6
CONTINUOUS
 10
24.4529914625
 20
34.0932245145
 40
0.1
100
AcDbArc
 50
240.0005612632
 51
299.9998519061
  0
SPLINE
  5
4B1
100
AcDbEntity
  8
0
100
AcDbSpline
 62
7
  6
CONTINUOUS
 70
0
 71
3
 72
21
 73
17
 74
0
 42
0.0000001
 43
0.0000001
 44
0.0000000001
 40
0.0
 40
0.0
 40
0.0
 40
0.0
 40
0.0787947625
 40
0.1365596998
 40
0.1736741556
 40
0.1916864071
 40
0.1940162713
 40
0.1959083225
 40
0.2116242513
 40
0.2422073162
 40
0.2865393979
 40
0.3436680708
 40
0.4124759242
 40
0.5797872732
 40
0.7784878872
 40
1.0
 40
1.0
 40
1.0
 40
1.0
 10
28.6936292629
 20
25.6702971174
 30
0.0
 10
28.6935413711
 20
25.6707644949
 30
0.0
 10
28.6933712222
 20
25.6715848507
 30
0.0
 10
28.6931375937
 20
25.672563672
 30
0.0
 10
28.6929261313
 20
25.673296346
 30
0.0
 10
28.6928571485
 20
25.6735222793
 30
0.0
 10
28.6927873815
 20
25.6737253873
 30
0.0
 10
28.6928650535
 20
25.6735643473
 30
0.0
 10
28.6929580487
 20
25.6733714253
 30
0.0
 10
28.6932463641
 20
25.6728449429
 30
0.0
 10
28.6936585182
 20
25.6721913236
 30
0.0
 10
28.694264721
 20
25.6713487659
 30
0.0
 10
28.6953809416
 20
25.6699798757
 30
0.0
 10
28.6972017095
 20
25.6680791618
 30
0.0
 10
28.6999046953
 20
25.6657763049
 30
0.0
 10
28.7020192131
 20
25.6643603637
 30
0.0
 10
28.7031770504
 20
25.6636919012
 30
0.0
  0
SPLINE
  5
4B2
100
AcDbEntity
  8
0
100
AcDbSpline
 62
7
  6
CONTINUOUS
 70
0
 71
3
 72
15
 73
11
 74
0
 42
0.0000001
 43
0.0000001
 44
0.0000000001
 40
0.0
 40
0.0
 40
0.0
 40
0.0
 40
0.1105664303
 40
0.2334100135
 40
0.3645975008
 40
0.4999952303
 40
0.6353938409
 40
0.7665841141
 40
0.8894308894
 40
1.0
 40
1.0
 40
1.0
 40
1.0
 10
32.8751273727
 20
22.8468289953
 30
0.0
 10
32.8999187003
 20
22.8325160394
 30
0.0
 10
32.9550396464
 20
22.8070348446
 30
0.0
 10
33.0456426556
 20
22.7796943825
 30
0.0
 10
33.1452570364
 20
22.7626159694
 30
0.0
 10
33.2493886954
 20
22.7568126622
 30
0.0
 10
33.3535211309
 20
22.7626153515
 30
0.0
 10
33.4531372826
 20
22.7796941365
 30
0.0
 10
33.5437423613
 20
22.8070354384
 30
0.0
 10
33.5988647569
 20
22.8325171927
 30
0.0
 10
33.6236565823
 20
22.8468306744
 30
0.0
  0
SPLINE
  5
4B3
100
AcDbEntity
  8
0
100
AcDbSpline
 62
7
  6
CONTINUOUS
 70
0
 71
3
 72
13
 73
9
 74
0
 42
0.0000001
 43
0.0000001
 44
0.0000000001
 40
0.0
 40
0.0
 40
0.0
 40
0.0
 40
0.1175038398
 40
0.241359318
 40
0.5000078067
 40
0.7586521093
 40
0.8824957404
 40
1.0
 40
1.0
 40
1.0
 40
1.0
 10
33.5822400775
 20
15.570069724
 30
0.0
 10
33.5587808749
 20
15.5565256279
 30
0.0
 10
33.5081661626
 20
15.5327890049
 30
0.0
 10
33.397727728
 20
15.4988078363
 30
0.0
 10
33.2493935198
 20
15.4824452683
 30
0.0
 10
33.1010626528
 20
15.4988094125
 30
0.0
 10
32.9906270963
 20
15.5327877757
 30
0.0
 10
32.9400151089
 20
15.5565240284
 30
0.0
 10
32.9165557248
 20
15.5700680037
 30
0.0
  0
SPLINE
  5
4B4
100
AcDbEntity
  8
0
100
AcDbSpline
 62
7
  6
CONTINUOUS
 70
0
 71
3
 72
14
 73
10
 74
0
 42
0.0000001
 43
0.0000001
 44
0.0000000001
 40
0.0
 40
0.0
 40
0.0
 40
0.0
 40
0.2662591275
 40
0.3960950554
 40
0.5230064115
 40
0.6464907896
 40
0.7654566656
 40
0.8823252166
 40
1.0
 40
1.0
 40
1.0
 40
1.0
 10
34.087667075
 20
23.4904445077
 30
0.0
 10
34.0781347375
 20
23.4895041851
 30
0.0
 10
34.063985771
 20
23.4873841568
 30
0.0
 10
34.0458406559
 20
23.4823169893
 30
0.0
 10
34.0330811178
 20
23.4773155602
 30
0.0
 10
34.0213112432
 20
23.4710697593
 30
0.0
 10
34.0110747483
 20
23.4629705803
 30
0.0
 10
34.0037287866
 20
23.4523100695
 30
0.0
 10
34.0017848383
 20
23.4437982452
 30
0.0
 10
34.0017848383
 20
23.4395649247
 30
0.0
  0
SPLINE
  5
4B5
100
AcDbEntity
  8
0
100
AcDbSpline
 62
7
  6
CONTINUOUS
 70
0
 71
3
 72
9
 73
5
 74
0
 42
0.0000001
 43
0.0000001
 44
0.0000000001
 40
0.0
 40
0.0
 40
0.0
 40
0.0
 40
0.6874209164
 40
1.0
 40
1.0
 40
1.0
 40
1.0
 10
27.6839437587
 20
18.5910495872
 30
0.0
 10
27.6810630235
 20
18.5927127428
 30
0.0
 10
27.6764716072
 20
18.5944746397
 30
0.0
 10
27.6716151637
 20
18.5951469151
 30
0.0
 10
27.670106733
 20
18.5950354702
 30
0.0
  0
SPLINE
  5
4B6
100
AcDbEntity
  8
0
100
AcDbSpline
 62
7
  6
CONTINUOUS
 70
0
 71
3
 72
12
 73
8
 74
0
 42
0.0000001
 43
0.0000001
 44
0.0000000001
 40
0.0
 40
0.0
 40
0.0
 40
0.0
 40
0.3407098051
 40
0.6162940001
 40
0.7306498006
 40
0.8306172145
 40
1.0
 40
1.0
 40
1.0
 40
1.0
 10
10.2966350436
 20
38.3883201194
 30
0.0
 10
10.2759263255
 20
38.4002760328
 30
0.0
 10
10.2399695049
 20
38.4247742873
 30
0.0
 10
10.2039503565
 20
38.4619888867
 30
0.0
 10
10.1854553281
 20
38.4911121122
 30
0.0
 10
10.1743919701
 20
38.515735356
 30
0.0
 10
10.1708981942
 20
38.5347756918
 30
0.0
 10
10.1708981942
 20
38.5466635815
 30
0.0
  0
SPLINE
  5
4B7
100
AcDbEntity
  8
0
100
AcDbSpline
 62
7
  6
CONTINUOUS
 70
0
 71
3
 72
11
 73
7
 74
0
 42
0.0000001
 43
0.0000001
 44
0.0000000001
 40
0.0
 40
0.0
 40
0.0
 40
0.0
 40
0.2416043319
 40
0.4849499257
 40
0.7364889437
 40
1.0
 40
1.0
 40
1.0
 40
1.0
 10
8.7566846319
 20
38.5466601822
 30
0.0
 10
8.7566846319
 20
38.5719699512
 30
0.0
 10
8.7651642011
 20
38.623138396
 30
0.0
 10
8.8011449446
 20
38.6925519351
 30
0.0
 10
8.8553357119
 20
38.7516825936
 30
0.0
 10
8.8999345985
 20
38.7827568884
 30
0.0
 10
8.9238409657
 20
38.7965591536
 30
0.0
  0
SPLINE
  5
4B8
100
AcDbEntity
  8
0
100
AcDbSpline
 62
7
  6
CONTINUOUS
 70
0
 71
3
 72
11
 73
7
 74
0
 42
0.0000001
 43
0.0000001
 44
0.0000000001
 40
0.0
 40
0.0
 40
0.0
 40
0.0
 40
0.2416041294
 40
0.4849495736
 40
0.7364886551
 40
1.0
 40
1.0
 40
1.0
 40
1.0
 10
8.7566846319
 20
37.4852070399
 30
0.0
 10
8.7566846319
 20
37.4598970169
 30
0.0
 10
8.7651643778
 20
37.4087280465
 30
0.0
 10
8.8011458226
 20
37.3393139297
 30
0.0
 10
8.8553375696
 20
37.2801829468
 30
0.0
 10
8.8999371925
 20
37.2491086062
 30
0.0
 10
8.9238439453
 20
37.2353063482
 30
0.0
  0
SPLINE
  5
4B9
100
AcDbEntity
  8
0
100
AcDbSpline
 62
7
  6
CONTINUOUS
 70
0
 71
3
 72
11
 73
7
 74
0
 42
0.0000001
 43
0.0000001
 44
0.0000000001
 40
0.0
 40
0.0
 40
0.0
 40
0.0
 40
0.2416043319
 40
0.4849499257
 40
0.7364889437
 40
1.0
 40
1.0
 40
1.0
 40
1.0
 10
8.7566846319
 20
36.5054041393
 30
0.0
 10
8.7566846319
 20
36.5307139083
 30
0.0
 10
8.7651642011
 20
36.5818823532
 30
0.0
 10
8.8011449446
 20
36.6512958923
 30
0.0
 10
8.8553357119
 20
36.7104265508
 30
0.0
 10
8.8999345985
 20
36.7415008456
 30
0.0
 10
8.9238409657
 20
36.7553031108
 30
0.0
  0
SPLINE
  5
4BA
100
AcDbEntity
  8
0
100
AcDbSpline
 62
7
  6
CONTINUOUS
 70
0
 71
3
 72
10
 73
6
 74
0
 42
0.0000001
 43
0.0000001
 44
0.0000000001
 40
0.0
 40
0.0
 40
0.0
 40
0.0
 40
0.5632551299
 40
0.8062171773
 40
1.0
 40
1.0
 40
1.0
 40
1.0
 10
25.4703566631
 20
24.1637056943
 30
0.0
 10
25.4527771213
 20
24.1636454335
 30
0.0
 10
25.4274464962
 20
24.1609635574
 30
0.0
 10
25.3975055485
 20
24.1519616356
 30
0.0
 10
25.3850262937
 20
24.1463109137
 30
0.0
 10
25.3797884624
 20
24.1432868684
 30
0.0
  0
SPLINE
  5
4BB
100
AcDbEntity
  8
0
100
AcDbSpline
 62
7
  6
CONTINUOUS
 70
0
 71
3
 72
13
 73
9
 74
0
 42
0.0000001
 43
0.0000001
 44
0.0000000001
 40
0.0
 40
0.0
 40
0.0
 40
0.0
 40
0.0420822506
 40
0.1129166967
 40
0.2200869082
 40
0.362991047
 40
0.5409052723
 40
1.0
 40
1.0
 40
1.0
 40
1.0
 10
11.2910611562
 20
37.1443962638
 30
0.0
 10
11.2911802698
 20
37.1445713616
 30
0.0
 10
11.2903240158
 20
37.1435632582
 30
0.0
 10
11.2898434685
 20
37.1431804221
 30
0.0
 10
11.2884942273
 20
37.1419122905
 30
0.0
 10
11.2868906067
 20
37.1406209633
 30
0.0
 10
11.2837155499
 20
37.1382318311
 30
0.0
 10
11.2810171479
 20
37.1365283196
 30
0.0
 10
11.2790163522
 20
37.1353731665
 30
0.0
  0
SPLINE
  5
4BC
100
AcDbEntity
  8
0
100
AcDbSpline
 62
7
  6
CONTINUOUS
 70
0
 71
3
 72
13
 73
9
 74
0
 42
0.0000001
 43
0.0000001
 44
0.0000000001
 40
0.0
 40
0.0
 40
0.0
 40
0.0
 40
0.0968754299
 40
0.2184173261
 40
0.4999798968
 40
0.7815622244
 40
0.9031214
 40
1.0
 40
1.0
 40
1.0
 40
1.0
 10
29.6224049732
 20
33.2979593197
 30
0.0
 10
29.6276895168
 20
33.2949083561
 30
0.0
 10
29.6402875954
 20
33.2892134277
 30
0.0
 10
29.6705306403
 20
33.2801812875
 30
0.0
 10
29.7138241475
 20
33.2756946019
 30
0.0
 10
29.7571193551
 20
33.2801796258
 30
0.0
 10
29.7873643574
 20
33.2892138228
 30
0.0
 10
29.7999639696
 20
33.2949084916
 30
0.0
 10
29.8052486677
 20
33.297959587
 30
0.0
  0
SPLINE
  5
4BD
100
AcDbEntity
  8
0
100
AcDbSpline
 62
7
  6
CONTINUOUS
 70
0
 71
3
 72
10
 73
6
 74
0
 42
0.0000001
 43
0.0000001
 44
0.0000000001
 40
0.0
 40
0.0
 40
0.0
 40
0.0
 40
0.5632551299
 40
0.806217177
 40
1.0
 40
1.0
 40
1.0
 40
1.0
 10
22.7833273432
 20
36.0845644908
 30
0.0
 10
22.7657478013
 20
36.0845042301
 30
0.0
 10
22.7404171762
 20
36.0818223539
 30
0.0
 10
22.7104762285
 20
36.0728204321
 30
0.0
 10
22.6979969737
 20
36.0671697102
 30
0.0
 10
22.6927591424
 20
36.064145665
 30
0.0
  0
SPLINE
  5
4BE
100
AcDbEntity
  8
0
100
AcDbSpline
 62
7
  6
CONTINUOUS
 70
0
 71
3
 72
11
 73
7
 74
0
 42
0.0000001
 43
0.0000001
 44
0.0000000001
 40
0.0
 40
0.0
 40
0.0
 40
0.0
 40
0.2509472751
 40
0.5005087563
 40
0.7494852993
 40
1.0
 40
1.0
 40
1.0
 40
1.0
 10
26.4072967703
 20
39.7265913073
 30
0.0
 10
26.4072967703
 20
39.7397143748
 30
0.0
 10
26.4033825629
 20
39.7660580571
 30
0.0
 10
26.3864327414
 20
39.8019437877
 30
0.0
 10
26.3607690408
 20
39.832082714
 30
0.0
 10
26.3393516893
 20
39.8474686408
 30
0.0
 10
26.3280063057
 20
39.8540187528
 30
0.0
  0
SPLINE
  5
4BF
100
AcDbEntity
  8
0
100
AcDbSpline
 62
7
  6
CONTINUOUS
 70
0
 71
3
 72
11
 73
7
 74
0
 42
0.0000001
 43
0.0000001
 44
0.0000000001
 40
0.0
 40
0.0
 40
0.0
 40
0.0
 40
0.2505000844
 40
0.4994567724
 40
0.7490213684
 40
1.0
 40
1.0
 40
1.0
 40
1.0
 10
21.7152138233
 20
39.3567922896
 30
0.0
 10
21.7038692519
 20
39.3502425373
 30
0.0
 10
21.6824553512
 20
39.3348560826
 30
0.0
 10
21.6567875681
 20
39.3047229918
 30
0.0
 10
21.6398419888
 20
39.2688346096
 30
0.0
 10
21.6359245719
 20
39.2424901326
 30
0.0
 10
21.6359245719
 20
39.2293655445
 30
0.0
  0
SPLINE
  5
4C0
100
AcDbEntity
  8
0
100
AcDbSpline
 62
7
  6
CONTINUOUS
 70
0
 71
3
 72
11
 73
7
 74
0
 42
0.0000001
 43
0.0000001
 44
0.0000000001
 40
0.0
 40
0.0
 40
0.0
 40
0.0
 40
0.2455446325
 40
0.5000611074
 40
0.7544526334
 40
1.0
 40
1.0
 40
1.0
 40
1.0
 10
24.5729183047
 20
40.8672963592
 30
0.0
 10
24.5551270622
 20
40.8775679055
 30
0.0
 10
24.5154357872
 20
40.892707784
 30
0.0
 10
24.4522027217
 20
40.9001527173
 30
0.0
 10
24.3889683016
 20
40.8927108656
 30
0.0
 10
24.3492893873
 20
40.8775674477
 30
0.0
 10
24.3314980207
 20
40.8672956588
 30
0.0
  0
SPLINE
  5
4C1
100
AcDbEntity
  8
0
100
AcDbSpline
 62
7
  6
CONTINUOUS
 70
0
 71
3
 72
21
 73
17
 74
0
 42
0.0000001
 43
0.0000001
 44
0.0000000001
 40
0.0
 40
0.0
 40
0.0
 40
0.0
 40
0.0362058524
 40
0.0754794513
 40
0.1195671601
 40
0.169388028
 40
0.2252442237
 40
0.2867135032
 40
0.3531101045
 40
0.423559663
 40
0.5723042029
 40
0.724053551
 40
0.7981624095
 40
0.8695375147
 40
0.9371478048
 40
1.0
 40
1.0
 40
1.0
 40
1.0
 10
20.2095937156
 20
41.0292932931
 30
0.0
 10
20.2095937156
 20
41.0023355856
 30
0.0
 10
20.2171666971
 20
40.9459011087
 30
0.0
 10
20.2511087896
 20
40.8627249774
 30
0.0
 10
20.3082349152
 20
40.7808275408
 30
0.0
 10
20.3881420781
 20
40.7022964296
 30
0.0
 10
20.4897000443
 20
40.6296350527
 30
0.0
 10
20.6106880242
 20
40.5650909956
 30
0.0
 10
20.7482999587
 20
40.5107604817
 30
0.0
 10
20.9532558052
 20
40.453005423
 30
0.0
 10
21.2284180994
 20
40.4155699319
 30
0.0
 10
21.5085810855
 20
40.4239221779
 30
0.0
 10
21.7273618108
 20
40.4588820424
 30
0.0
 10
21.8813690382
 20
40.4980625766
 30
0.0
 10
22.0228712715
 20
40.5493971586
 30
0.0
 10
22.1102751041
 20
40.5924021932
 30
0.0
 10
22.1508031774
 20
40.6158009372
 30
0.0
  0
SPLINE
  5
4C2
100
AcDbEntity
  8
0
100
AcDbSpline
 62
7
  6
CONTINUOUS
 70
0
 71
3
 72
12
 73
8
 74
0
 42
0.0000001
 43
0.0000001
 44
0.0000000001
 40
0.0
 40
0.0
 40
0.0
 40
0.0
 40
0.3083974603
 40
0.5736349795
 40
0.7996060134
 40
0.9019386263
 40
1.0
 40
1.0
 40
1.0
 40
1.0
 10
22.1508031774
 20
40.6158009372
 30
0.0
 10
22.1987637184
 20
40.6434907909
 30
0.0
 10
22.2842837628
 20
40.7021346824
 30
0.0
 10
22.3846199133
 20
40.8064467045
 30
0.0
 10
22.437031278
 20
40.9012396449
 30
0.0
 10
22.4564649591
 20
40.9756270536
 30
0.0
 10
22.4595937156
 20
41.0116840809
 30
0.0
 10
22.4595937156
 20
41.0292932931
 30
0.0
  0
SPLINE
  5
4C3
100
AcDbEntity
  8
0
100
AcDbSpline
 62
7
  6
CONTINUOUS
 70
0
 71
3
 72
11
 73
7
 74
0
 42
0.0000001
 43
0.0000001
 44
0.0000000001
 40
0.0
 40
0.0
 40
0.0
 40
0.0
 40
0.2509472751
 40
0.5005087563
 40
0.7494852993
 40
1.0
 40
1.0
 40
1.0
 40
1.0
 10
23.7202798148
 20
41.2779061745
 30
0.0
 10
23.7202798148
 20
41.291029242
 30
0.0
 10
23.7163656073
 20
41.3173729243
 30
0.0
 10
23.6994157859
 20
41.3532586548
 30
0.0
 10
23.6737520853
 20
41.3833975812
 30
0.0
 10
23.6523347337
 20
41.3987835079
 30
0.0
 10
23.6409893501
 20
41.40533362
 30
0.0
  0
SPLINE
  5
4C4
100
AcDbEntity
  8
0
100
AcDbSpline
 62
7
  6
CONTINUOUS
 70
0
 71
3
 72
10
 73
6
 74
0
 42
0.0000001
 43
0.0000001
 44
0.0000000001
 40
0.0
 40
0.0
 40
0.0
 40
0.0
 40
0.5632551299
 40
0.806217177
 40
1.0
 40
1.0
 40
1.0
 40
1.0
 10
20.0963103876
 20
37.635879358
 30
0.0
 10
20.0787308458
 20
37.6358190973
 30
0.0
 10
20.0534002207
 20
37.6331372211
 30
0.0
 10
20.023459273
 20
37.6241352993
 30
0.0
 10
20.0109800182
 20
37.6184845774
 30
0.0
 10
20.0057421869
 20
37.6154605321
 30
0.0
  0
SPLINE
  5
4C5
100
AcDbEntity
  8
0
100
AcDbSpline
 62
7
  6
CONTINUOUS
 70
0
 71
3
 72
11
 73
7
 74
0
 42
0.0000001
 43
0.0000001
 44
0.0000000001
 40
0.0
 40
0.0
 40
0.0
 40
0.0
 40
0.2455446325
 40
0.5000611074
 40
0.7544526334
 40
1.0
 40
1.0
 40
1.0
 40
1.0
 10
21.8859013492
 20
42.4186112264
 30
0.0
 10
21.8681101066
 20
42.4288827727
 30
0.0
 10
21.8284188316
 20
42.4440226512
 30
0.0
 10
21.7651857661
 20
42.4514675845
 30
0.0
 10
21.7019513461
 20
42.4440257328
 30
0.0
 10
21.6622724317
 20
42.4288823149
 30
0.0
 10
21.6444810651
 20
42.4186105259
 30
0.0
  0
SPLINE
  5
4C6
100
AcDbEntity
  8
0
100
AcDbSpline
 62
7
  6
CONTINUOUS
 70
0
 71
3
 72
11
 73
7
 74
0
 42
0.0000001
 43
0.0000001
 44
0.0000000001
 40
0.0
 40
0.0
 40
0.0
 40
0.0
 40
0.2505000844
 40
0.4994567724
 40
0.7490213684
 40
1.0
 40
1.0
 40
1.0
 40
1.0
 10
19.0281968677
 20
40.9081071568
 30
0.0
 10
19.0168522963
 20
40.9015574045
 30
0.0
 10
18.9954383956
 20
40.8861709498
 30
0.0
 10
18.9697706126
 20
40.8560378589
 30
0.0
 10
18.9528250332
 20
40.8201494767
 30
0.0
 10
18.9489076164
 20
40.7938049998
 30
0.0
 10
18.9489076164
 20
40.7806804117
 30
0.0
  0
SPLINE
  5
4C7
100
AcDbEntity
  8
0
100
AcDbSpline
 62
7
  6
CONTINUOUS
 70
0
 71
3
 72
15
 73
11
 74
0
 42
0.0000001
 43
0.0000001
 44
0.0000000001
 40
0.0
 40
0.0
 40
0.0
 40
0.0
 40
0.0906750927
 40
0.1908992555
 40
0.3019161614
 40
0.4238523898
 40
0.556019755
 40
0.6972021424
 40
0.8458994439
 40
1.0
 40
1.0
 40
1.0
 40
1.0
 10
22.0939998162
 20
42.2848689606
 30
0.0
 10
22.1115048299
 20
42.2389649564
 30
0.0
 10
22.1599788965
 20
42.1465361917
 30
0.0
 10
22.2634634848
 20
42.0187781419
 30
0.0
 10
22.3993378994
 20
41.8988308535
 30
0.0
 10
22.5650863088
 20
41.7898279772
 30
0.0
 10
22.7573131863
 20
41.6943700369
 30
0.0
 10
22.9721271164
 20
41.6148581462
 30
0.0
 10
23.2049678924
 20
41.5531788296
 30
0.0
 10
23.366857774
 20
41.5251834269
 30
0.0
 10
23.4496463661
 20
41.5143621566
 30
0.0
  0
SPLINE
  5
4C8
100
AcDbEntity
  8
0
100
AcDbSpline
 62
7
  6
CONTINUOUS
 70
0
 71
3
 72
21
 73
17
 74
0
 42
0.0000001
 43
0.0000001
 44
0.0000000001
 40
0.0
 40
0.0
 40
0.0
 40
0.0
 40
0.0362058524
 40
0.0754794513
 40
0.1195671601
 40
0.169388028
 40
0.2252442237
 40
0.2867135032
 40
0.3531101045
 40
0.423559663
 40
0.5723042029
 40
0.724053551
 40
0.7981624095
 40
0.8695375147
 40
0.9371478048
 40
1.0
 40
1.0
 40
1.0
 40
1.0
 10
17.52257676
 20
42.5806081603
 30
0.0
 10
17.52257676
 20
42.5536504528
 30
0.0
 10
17.5301497415
 20
42.4972159758
 30
0.0
 10
17.564091834
 20
42.4140398446
 30
0.0
 10
17.6212179597
 20
42.3321424079
 30
0.0
 10
17.7011251226
 20
42.2536112968
 30
0.0
 10
17.8026830888
 20
42.1809499198
 30
0.0
 10
17.9236710686
 20
42.1164058628
 30
0.0
 10
18.0612830032
 20
42.0620753489
 30
0.0
 10
18.2662388496
 20
42.0043202902
 30
0.0
 10
18.5414011438
 20
41.9668847991
 30
0.0
 10
18.82156413
 20
41.975237045
 30
0.0
 10
19.0403448552
 20
42.0101969096
 30
0.0
 10
19.1943520827
 20
42.0493774438
 30
0.0
 10
19.3358543159
 20
42.1007120257
 30
0.0
 10
19.4232581485
 20
42.1437170603
 30
0.0
 10
19.4637862218
 20
42.1671158043
 30
0.0
  0
SPLINE
  5
4C9
100
AcDbEntity
  8
0
100
AcDbSpline
 62
7
  6
CONTINUOUS
 70
0
 71
3
 72
12
 73
8
 74
0
 42
0.0000001
 43
0.0000001
 44
0.0000000001
 40
0.0
 40
0.0
 40
0.0
 40
0.0
 40
0.3083974603
 40
0.5736349795
 40
0.7996060134
 40
0.9019386263
 40
1.0
 40
1.0
 40
1.0
 40
1.0
 10
19.4637862218
 20
42.1671158043
 30
0.0
 10
19.5117467628
 20
42.194805658
 30
0.0
 10
19.5972668073
 20
42.2534495496
 30
0.0
 10
19.6976029578
 20
42.3577615717
 30
0.0
 10
19.7500143225
 20
42.4525545121
 30
0.0
 10
19.7694480035
 20
42.5269419208
 30
0.0
 10
19.77257676
 20
42.5629989481
 30
0.0
 10
19.77257676
 20
42.5806081603
 30
0.0
  0
SPLINE
  5
4CA
100
AcDbEntity
  8
0
100
AcDbSpline
 62
7
  6
CONTINUOUS
 70
0
 71
3
 72
11
 73
7
 74
0
 42
0.0000001
 43
0.0000001
 44
0.0000000001
 40
0.0
 40
0.0
 40
0.0
 40
0.0
 40
0.2509472751
 40
0.5005087563
 40
0.7494852993
 40
1.0
 40
1.0
 40
1.0
 40
1.0
 10
21.0332628592
 20
42.8292210416
 30
0.0
 10
21.0332628592
 20
42.8423441092
 30
0.0
 10
21.0293486518
 20
42.8686877915
 30
0.0
 10
21.0123988303
 20
42.904573522
 30
0.0
 10
20.9867351297
 20
42.9347124484
 30
0.0
 10
20.9653177782
 20
42.9500983751
 30
0.0
 10
20.9539723946
 20
42.9566484872
 30
0.0
  0
SPLINE
  5
4CB
100
AcDbEntity
  8
0
100
AcDbSpline
 62
7
  6
CONTINUOUS
 70
0
 71
3
 72
10
 73
6
 74
0
 42
0.0000001
 43
0.0000001
 44
0.0000000001
 40
0.0
 40
0.0
 40
0.0
 40
0.0
 40
0.5632551299
 40
0.806217177
 40
1.0
 40
1.0
 40
1.0
 40
1.0
 10
17.4092934321
 20
39.1871942251
 30
0.0
 10
17.3917138902
 20
39.1871339644
 30
0.0
 10
17.3663832651
 20
39.1844520883
 30
0.0
 10
17.3364423174
 20
39.1754501665
 30
0.0
 10
17.3239630626
 20
39.1697994446
 30
0.0
 10
17.3187252313
 20
39.1667753993
 30
0.0
  0
SPLINE
  5
4CC
100
AcDbEntity
  8
0
100
AcDbSpline
 62
7
  6
CONTINUOUS
 70
0
 71
3
 72
11
 73
7
 74
0
 42
0.0000001
 43
0.0000001
 44
0.0000000001
 40
0.0
 40
0.0
 40
0.0
 40
0.0
 40
0.2455446325
 40
0.5000611074
 40
0.7544526334
 40
1.0
 40
1.0
 40
1.0
 40
1.0
 10
19.1988843936
 20
43.9699260936
 30
0.0
 10
19.1810931511
 20
43.9801976399
 30
0.0
 10
19.141401876
 20
43.9953375183
 30
0.0
 10
19.0781688105
 20
44.0027824517
 30
0.0
 10
19.0149343905
 20
43.9953406
 30
0.0
 10
18.9752554761
 20
43.9801971821
 30
0.0
 10
18.9574641096
 20
43.9699253931
 30
0.0
  0
SPLINE
  5
4CD
100
AcDbEntity
  8
0
100
AcDbSpline
 62
7
  6
CONTINUOUS
 70
0
 71
3
 72
11
 73
7
 74
0
 42
0.0000001
 43
0.0000001
 44
0.0000000001
 40
0.0
 40
0.0
 40
0.0
 40
0.0
 40
0.2505000844
 40
0.4994567724
 40
0.7490213684
 40
1.0
 40
1.0
 40
1.0
 40
1.0
 10
16.3411799121
 20
42.4594220239
 30
0.0
 10
16.3298353408
 20
42.4528722717
 30
0.0
 10
16.3084214401
 20
42.437485817
 30
0.0
 10
16.282753657
 20
42.4073527261
 30
0.0
 10
16.2658080777
 20
42.3714643439
 30
0.0
 10
16.2618906608
 20
42.345119867
 30
0.0
 10
16.2618906608
 20
42.3319952789
 30
0.0
  0
SPLINE
  5
4CE
100
AcDbEntity
  8
0
100
AcDbSpline
 62
7
  6
CONTINUOUS
 70
0
 71
3
 72
15
 73
11
 74
0
 42
0.0000001
 43
0.0000001
 44
0.0000000001
 40
0.0
 40
0.0
 40
0.0
 40
0.0
 40
0.0906750927
 40
0.1908992555
 40
0.3019161614
 40
0.4238523898
 40
0.556019755
 40
0.6972021424
 40
0.8458994439
 40
1.0
 40
1.0
 40
1.0
 40
1.0
 10
19.4069828606
 20
43.8361838278
 30
0.0
 10
19.4244878743
 20
43.7902798236
 30
0.0
 10
19.472961941
 20
43.6978510589
 30
0.0
 10
19.5764465292
 20
43.570093009
 30
0.0
 10
19.7123209439
 20
43.4501457207
 30
0.0
 10
19.8780693533
 20
43.3411428444
 30
0.0
 10
20.0702962308
 20
43.2456849041
 30
0.0
 10
20.2851101608
 20
43.1661730134
 30
0.0
 10
20.5179509368
 20
43.1044936968
 30
0.0
 10
20.6798408184
 20
43.0764982941
 30
0.0
 10
20.7626294105
 20
43.0656770238
 30
0.0
  0
SPLINE
  5
4CF
100
AcDbEntity
  8
0
100
AcDbSpline
 62
7
  6
CONTINUOUS
 70
0
 71
3
 72
21
 73
17
 74
0
 42
0.0000001
 43
0.0000001
 44
0.0000000001
 40
0.0
 40
0.0
 40
0.0
 40
0.0
 40
0.0362058524
 40
0.0754794513
 40
0.1195671601
 40
0.169388028
 40
0.2252442237
 40
0.2867135032
 40
0.3531101045
 40
0.423559663
 40
0.5723042029
 40
0.724053551
 40
0.7981624095
 40
0.8695375147
 40
0.9371478048
 40
1.0
 40
1.0
 40
1.0
 40
1.0
 10
14.8355598044
 20
44.1319230274
 30
0.0
 10
14.8355598044
 20
44.1049653199
 30
0.0
 10
14.843132786
 20
44.048530843
 30
0.0
 10
14.8770748785
 20
43.9653547118
 30
0.0
 10
14.9342010041
 20
43.8834572751
 30
0.0
 10
15.014108167
 20
43.8049261639
 30
0.0
 10
15.1156661332
 20
43.732264787
 30
0.0
 10
15.2366541131
 20
43.66772073
 30
0.0
 10
15.3742660476
 20
43.6133902161
 30
0.0
 10
15.579221894
 20
43.5556351573
 30
0.0
 10
15.8543841883
 20
43.5181996662
 30
0.0
 10
16.1345471744
 20
43.5265519122
 30
0.0
 10
16.3533278996
 20
43.5615117767
 30
0.0
 10
16.5073351271
 20
43.6006923109
 30
0.0
 10
16.6488373603
 20
43.6520268929
 30
0.0
 10
16.7362411929
 20
43.6950319275
 30
0.0
 10
16.7767692662
 20
43.7184306715
 30
0.0
  0
SPLINE
  5
4D0
100
AcDbEntity
  8
0
100
AcDbSpline
 62
7
  6
CONTINUOUS
 70
0
 71
3
 72
12
 73
8
 74
0
 42
0.0000001
 43
0.0000001
 44
0.0000000001
 40
0.0
 40
0.0
 40
0.0
 40
0.0
 40
0.3083974603
 40
0.5736349795
 40
0.7996060134
 40
0.9019386263
 40
1.0
 40
1.0
 40
1.0
 40
1.0
 10
16.7767692662
 20
43.7184306715
 30
0.0
 10
16.8247298072
 20
43.7461205252
 30
0.0
 10
16.9102498517
 20
43.8047644168
 30
0.0
 10
17.0105860022
 20
43.9090764388
 30
0.0
 10
17.0629973669
 20
44.0038693792
 30
0.0
 10
17.082431048
 20
44.0782567879
 30
0.0
 10
17.0855598044
 20
44.1143138153
 30
0.0
 10
17.0855598044
 20
44.1319230274
 30
0.0
  0
SPLINE
  5
4D1
100
AcDbEntity
  8
0
100
AcDbSpline
 62
7
  6
CONTINUOUS
 70
0
 71
3
 72
11
 73
7
 74
0
 42
0.0000001
 43
0.0000001
 44
0.0000000001
 40
0.0
 40
0.0
 40
0.0
 40
0.0
 40
0.2509472751
 40
0.5005087563
 40
0.7494852993
 40
1.0
 40
1.0
 40
1.0
 40
1.0
 10
18.3462459036
 20
44.3805359088
 30
0.0
 10
18.3462459036
 20
44.3936589764
 30
0.0
 10
18.3423316962
 20
44.4200026587
 30
0.0
 10
18.3253818748
 20
44.4558883892
 30
0.0
 10
18.2997181741
 20
44.4860273155
 30
0.0
 10
18.2783008226
 20
44.5014132423
 30
0.0
 10
18.266955439
 20
44.5079633544
 30
0.0
  0
SPLINE
  5
4D2
100
AcDbEntity
  8
0
100
AcDbSpline
 62
7
  6
CONTINUOUS
 70
0
 71
3
 72
10
 73
6
 74
0
 42
0.0000001
 43
0.0000001
 44
0.0000000001
 40
0.0
 40
0.0
 40
0.0
 40
0.0
 40
0.5632551299
 40
0.806217177
 40
1.0
 40
1.0
 40
1.0
 40
1.0
 10
14.7222764765
 20
40.7385090923
 30
0.0
 10
14.7046969346
 20
40.7384488316
 30
0.0
 10
14.6793663095
 20
40.7357669555
 30
0.0
 10
14.6494253619
 20
40.7267650337
 30
0.0
 10
14.6369461071
 20
40.7211143117
 30
0.0
 10
14.6317082758
 20
40.7180902665
 30
0.0
  0
SPLINE
  5
4D3
100
AcDbEntity
  8
0
100
AcDbSpline
 62
7
  6
CONTINUOUS
 70
0
 71
3
 72
11
 73
7
 74
0
 42
0.0000001
 43
0.0000001
 44
0.0000000001
 40
0.0
 40
0.0
 40
0.0
 40
0.0
 40
0.2455446325
 40
0.5000611074
 40
0.7544526334
 40
1.0
 40
1.0
 40
1.0
 40
1.0
 10
16.5118674381
 20
45.5212409608
 30
0.0
 10
16.4940761955
 20
45.5315125071
 30
0.0
 10
16.4543849205
 20
45.5466523855
 30
0.0
 10
16.391151855
 20
45.5540973189
 30
0.0
 10
16.3279174349
 20
45.5466554672
 30
0.0
 10
16.2882385206
 20
45.5315120492
 30
0.0
 10
16.270447154
 20
45.5212402603
 30
0.0
  0
SPLINE
  5
4D4
100
AcDbEntity
  8
0
100
AcDbSpline
 62
7
  6
CONTINUOUS
 70
0
 71
3
 72
11
 73
7
 74
0
 42
0.0000001
 43
0.0000001
 44
0.0000000001
 40
0.0
 40
0.0
 40
0.0
 40
0.0
 40
0.2505000844
 40
0.4994567724
 40
0.7490213684
 40
1.0
 40
1.0
 40
1.0
 40
1.0
 10
13.6541629566
 20
44.0107368911
 30
0.0
 10
13.6428183852
 20
44.0041871389
 30
0.0
 10
13.6214044845
 20
43.9888006842
 30
0.0
 10
13.5957367014
 20
43.9586675933
 30
0.0
 10
13.5787911221
 20
43.9227792111
 30
0.0
 10
13.5748737053
 20
43.8964347341
 30
0.0
 10
13.5748737053
 20
43.883310146
 30
0.0
  0
SPLINE
  5
4D5
100
AcDbEntity
  8
0
100
AcDbSpline
 62
7
  6
CONTINUOUS
 70
0
 71
3
 72
15
 73
11
 74
0
 42
0.0000001
 43
0.0000001
 44
0.0000000001
 40
0.0
 40
0.0
 40
0.0
 40
0.0
 40
0.0906750927
 40
0.1908992555
 40
0.3019161614
 40
0.4238523898
 40
0.556019755
 40
0.6972021424
 40
0.8458994439
 40
1.0
 40
1.0
 40
1.0
 40
1.0
 10
16.719965905
 20
45.3874986949
 30
0.0
 10
16.7374709188
 20
45.3415946907
 30
0.0
 10
16.7859449854
 20
45.2491659261
 30
0.0
 10
16.8894295737
 20
45.1214078762
 30
0.0
 10
17.0253039883
 20
45.0014605878
 30
0.0
 10
17.1910523977
 20
44.8924577116
 30
0.0
 10
17.3832792752
 20
44.7969997713
 30
0.0
 10
17.5980932052
 20
44.7174878805
 30
0.0
 10
17.8309339813
 20
44.655808564
 30
0.0
 10
17.9928238629
 20
44.6278131613
 30
0.0
 10
18.075612455
 20
44.616991891
 30
0.0
  0
SPLINE
  5
4D6
100
AcDbEntity
  8
0
100
AcDbSpline
 62
7
  6
CONTINUOUS
 70
0
 71
3
 72
21
 73
17
 74
0
 42
0.0000001
 43
0.0000001
 44
0.0000000001
 40
0.0
 40
0.0
 40
0.0
 40
0.0
 40
0.0362058524
 40
0.0754794513
 40
0.1195671601
 40
0.169388028
 40
0.2252442237
 40
0.2867135032
 40
0.3531101045
 40
0.423559663
 40
0.5723042029
 40
0.724053551
 40
0.7981624095
 40
0.8695375147
 40
0.9371478048
 40
1.0
 40
1.0
 40
1.0
 40
1.0
 10
25.5836276267
 20
37.9266635587
 30
0.0
 10
25.5836276267
 20
37.8997058512
 30
0.0
 10
25.5912006082
 20
37.8432713743
 30
0.0
 10
25.6251427007
 20
37.7600952431
 30
0.0
 10
25.6822688263
 20
37.6781978064
 30
0.0
 10
25.7621759892
 20
37.5996666952
 30
0.0
 10
25.8637339554
 20
37.5270053183
 30
0.0
 10
25.9847219353
 20
37.4624612613
 30
0.0
 10
26.1223338698
 20
37.4081307474
 30
0.0
 10
26.3272897163
 20
37.3503756886
 30
0.0
 10
26.6024520105
 20
37.3129401975
 30
0.0
 10
26.8826149966
 20
37.3212924435
 30
0.0
 10
27.1013957219
 20
37.356252308
 30
0.0
 10
27.2554029493
 20
37.3954328422
 30
0.0
 10
27.3969051826
 20
37.4467674242
 30
0.0
 10
27.4843090152
 20
37.4897724588
 30
0.0
 10
27.5248370885
 20
37.5131712028
 30
0.0
  0
SPLINE
  5
4D7
100
AcDbEntity
  8
0
100
AcDbSpline
 62
7
  6
CONTINUOUS
 70
0
 71
3
 72
12
 73
8
 74
0
 42
0.0000001
 43
0.0000001
 44
0.0000000001
 40
0.0
 40
0.0
 40
0.0
 40
0.0
 40
0.3083974603
 40
0.5736349795
 40
0.7996060134
 40
0.9019386263
 40
1.0
 40
1.0
 40
1.0
 40
1.0
 10
27.5248370885
 20
37.5131712028
 30
0.0
 10
27.5727976295
 20
37.5408610565
 30
0.0
 10
27.6583176739
 20
37.599504948
 30
0.0
 10
27.7586538245
 20
37.7038169701
 30
0.0
 10
27.8110651891
 20
37.7986099105
 30
0.0
 10
27.8304988702
 20
37.8729973192
 30
0.0
 10
27.8336276267
 20
37.9090543466
 30
0.0
 10
27.8336276267
 20
37.9266635587
 30
0.0
  0
SPLINE
  5
4D8
100
AcDbEntity
  8
0
100
AcDbSpline
 62
7
  6
CONTINUOUS
 70
0
 71
3
 72
11
 73
7
 74
0
 42
0.0000001
 43
0.0000001
 44
0.0000000001
 40
0.0
 40
0.0
 40
0.0
 40
0.0
 40
0.2509472751
 40
0.5005087563
 40
0.7494852993
 40
1.0
 40
1.0
 40
1.0
 40
1.0
 10
29.0943137259
 20
38.1752764401
 30
0.0
 10
29.0943137259
 20
38.1883995076
 30
0.0
 10
29.0903995184
 20
38.21474319
 30
0.0
 10
29.073449697
 20
38.2506289205
 30
0.0
 10
29.0477859964
 20
38.2807678468
 30
0.0
 10
29.0263686448
 20
38.2961537736
 30
0.0
 10
29.0150232612
 20
38.3027038857
 30
0.0
  0
SPLINE
  5
4D9
100
AcDbEntity
  8
0
100
AcDbSpline
 62
7
  6
CONTINUOUS
 70
0
 71
3
 72
15
 73
11
 74
0
 42
0.0000001
 43
0.0000001
 44
0.0000000001
 40
0.0
 40
0.0
 40
0.0
 40
0.0
 40
0.0906750927
 40
0.1908992555
 40
0.3019161614
 40
0.4238523898
 40
0.556019755
 40
0.6972021424
 40
0.8458994439
 40
1.0
 40
1.0
 40
1.0
 40
1.0
 10
27.4680337273
 20
39.1822392262
 30
0.0
 10
27.485538741
 20
39.136335222
 30
0.0
 10
27.5340128077
 20
39.0439064574
 30
0.0
 10
27.6374973959
 20
38.9161484075
 30
0.0
 10
27.7733718105
 20
38.7962011191
 30
0.0
 10
27.9391202199
 20
38.6871982429
 30
0.0
 10
28.1313470974
 20
38.5917403026
 30
0.0
 10
28.3461610275
 20
38.5122284118
 30
0.0
 10
28.5790018035
 20
38.4505490952
 30
0.0
 10
28.7408916851
 20
38.4225536926
 30
0.0
 10
28.8236802772
 20
38.4117324223
 30
0.0
  0
SPLINE
  5
4DA
100
AcDbEntity
  8
0
100
AcDbSpline
 62
7
  6
CONTINUOUS
 70
0
 71
3
 72
11
 73
7
 74
0
 42
0.0000001
 43
0.0000001
 44
0.0000000001
 40
0.0
 40
0.0
 40
0.0
 40
0.0
 40
0.2455446325
 40
0.5000611074
 40
0.7544526334
 40
1.0
 40
1.0
 40
1.0
 40
1.0
 10
27.2599352603
 20
39.3159814921
 30
0.0
 10
27.2421440178
 20
39.3262530384
 30
0.0
 10
27.2024527427
 20
39.3413929168
 30
0.0
 10
27.1392196772
 20
39.3488378502
 30
0.0
 10
27.0759852572
 20
39.3413959985
 30
0.0
 10
27.0363063428
 20
39.3262525805
 30
0.0
 10
27.0185149762
 20
39.3159807916
 30
0.0
  0
SPLINE
  5
4DB
100
AcDbEntity
  8
0
100
AcDbSpline
 62
7
  6
CONTINUOUS
 70
0
 71
3
 72
11
 73
7
 74
0
 42
0.0000001
 43
0.0000001
 44
0.0000000001
 40
0.0
 40
0.0
 40
0.0
 40
0.0
 40
0.2505000844
 40
0.4994567724
 40
0.7490213684
 40
1.0
 40
1.0
 40
1.0
 40
1.0
 10
24.4022307788
 20
37.8054774224
 30
0.0
 10
24.3908862074
 20
37.7989276702
 30
0.0
 10
24.3694723068
 20
37.7835412155
 30
0.0
 10
24.3438045237
 20
37.7534081246
 30
0.0
 10
24.3268589443
 20
37.7175197424
 30
0.0
 10
24.3229415275
 20
37.6911752654
 30
0.0
 10
24.3229415275
 20
37.6780506773
 30
0.0
  0
SPLINE
  5
4DC
100
AcDbEntity
  8
0
100
AcDbSpline
 62
7
  6
CONTINUOUS
 70
0
 71
3
 72
10
 73
6
 74
0
 42
0.0000001
 43
0.0000001
 44
0.0000000001
 40
0.0
 40
0.0
 40
0.0
 40
0.0
 40
0.5632551299
 40
0.806217177
 40
1.0
 40
1.0
 40
1.0
 40
1.0
 10
25.4703442987
 20
34.5332496236
 30
0.0
 10
25.4527647569
 20
34.5331893629
 30
0.0
 10
25.4274341318
 20
34.5305074868
 30
0.0
 10
25.3974931841
 20
34.521505565
 30
0.0
 10
25.3850139293
 20
34.515854843
 30
0.0
 10
25.379776098
 20
34.5128307978
 30
0.0
  0
SPLINE
  5
4DD
100
AcDbEntity
  8
0
100
AcDbSpline
 62
7
  6
CONTINUOUS
 70
0
 71
3
 72
9
 73
5
 74
0
 42
0.0000001
 43
0.0000001
 44
0.0000000001
 40
0.0
 40
0.0
 40
0.0
 40
0.0
 40
0.5187556495
 40
1.0
 40
1.0
 40
1.0
 40
1.0
 10
18.7536556405
 20
23.1276182406
 30
0.0
 10
18.7907201681
 20
23.1607344649
 30
0.0
 10
18.8658127536
 20
23.2206524614
 30
0.0
 10
18.9482227447
 20
23.2702780807
 30
0.0
 10
18.9895156222
 20
23.2907963668
 30
0.0
  0
SPLINE
  5
4DE
100
AcDbEntity
  8
0
100
AcDbSpline
 62
7
  6
CONTINUOUS
 70
0
 71
3
 72
15
 73
11
 74
0
 42
0.0000001
 43
0.0000001
 44
0.0000000001
 40
0.0
 40
0.0
 40
0.0
 40
0.0
 40
0.0906750927
 40
0.1908992555
 40
0.3019161614
 40
0.4238523898
 40
0.556019755
 40
0.6972021424
 40
0.8458994439
 40
1.0
 40
1.0
 40
1.0
 40
1.0
 10
24.7810167717
 20
40.7335540934
 30
0.0
 10
24.7985217854
 20
40.6876500892
 30
0.0
 10
24.8469958521
 20
40.5952213245
 30
0.0
 10
24.9504804403
 20
40.4674632747
 30
0.0
 10
25.086354855
 20
40.3475159863
 30
0.0
 10
25.2521032644
 20
40.2385131101
 30
0.0
 10
25.4443301419
 20
40.1430551697
 30
0.0
 10
25.6591440719
 20
40.063543279
 30
0.0
 10
25.891984848
 20
40.0018639624
 30
0.0
 10
26.0538747295
 20
39.9738685598
 30
0.0
 10
26.1366633216
 20
39.9630472895
 30
0.0
  0
SPLINE
  5
4DF
100
AcDbEntity
  8
0
100
AcDbSpline
 62
7
  6
CONTINUOUS
 70
0
 71
3
 72
21
 73
17
 74
0
 42
0.0000001
 43
0.0000001
 44
0.0000000001
 40
0.0
 40
0.0
 40
0.0
 40
0.0
 40
0.0362058524
 40
0.0754794513
 40
0.1195671601
 40
0.169388028
 40
0.2252442237
 40
0.2867135032
 40
0.3531101045
 40
0.423559663
 40
0.5723042029
 40
0.724053551
 40
0.7981624095
 40
0.8695375147
 40
0.9371478048
 40
1.0
 40
1.0
 40
1.0
 40
1.0
 10
22.8966106711
 20
39.4779784259
 30
0.0
 10
22.8966106711
 20
39.4510207184
 30
0.0
 10
22.9041836527
 20
39.3945862415
 30
0.0
 10
22.9381257451
 20
39.3114101103
 30
0.0
 10
22.9952518708
 20
39.2295126736
 30
0.0
 10
23.0751590337
 20
39.1509815624
 30
0.0
 10
23.1767169999
 20
39.0783201855
 30
0.0
 10
23.2977049798
 20
39.0137761284
 30
0.0
 10
23.4353169143
 20
38.9594456146
 30
0.0
 10
23.6402727607
 20
38.9016905558
 30
0.0
 10
23.915435055
 20
38.8642550647
 30
0.0
 10
24.1955980411
 20
38.8726073107
 30
0.0
 10
24.4143787663
 20
38.9075671752
 30
0.0
 10
24.5683859938
 20
38.9467477094
 30
0.0
 10
24.709888227
 20
38.9980822914
 30
0.0
 10
24.7972920596
 20
39.041087326
 30
0.0
 10
24.8378201329
 20
39.06448607
 30
0.0
  0
SPLINE
  5
4E0
100
AcDbEntity
  8
0
100
AcDbSpline
 62
7
  6
CONTINUOUS
 70
0
 71
3
 72
12
 73
8
 74
0
 42
0.0000001
 43
0.0000001
 44
0.0000000001
 40
0.0
 40
0.0
 40
0.0
 40
0.0
 40
0.3083974603
 40
0.5736349795
 40
0.7996060134
 40
0.9019386263
 40
1.0
 40
1.0
 40
1.0
 40
1.0
 10
24.8378201329
 20
39.06448607
 30
0.0
 10
24.8857806739
 20
39.0921759237
 30
0.0
 10
24.9713007184
 20
39.1508198152
 30
0.0
 10
25.0716368689
 20
39.2551318373
 30
0.0
 10
25.1240482336
 20
39.3499247777
 30
0.0
 10
25.1434819146
 20
39.4243121864
 30
0.0
 10
25.1466106711
 20
39.4603692138
 30
0.0
 10
25.1466106711
 20
39.4779784259
 30
0.0
  0
SPLINE
  5
4E1
100
AcDbEntity
  8
0
100
AcDbSpline
 62
7
  6
CONTINUOUS
 70
0
 71
3
 72
11
 73
7
 74
0
 42
0.0000001
 43
0.0000001
 44
0.0000000001
 40
0.0
 40
0.0
 40
0.0
 40
0.0
 40
0.2372185796
 40
0.5000005262
 40
0.7627821863
 40
1.0
 40
1.0
 40
1.0
 40
1.0
 10
13.6342132566
 20
42.5438663358
 30
0.0
 10
13.6442513214
 20
42.5380709875
 30
0.0
 10
13.6675964929
 20
42.5296128423
 30
0.0
 10
13.7049240459
 20
42.5255604541
 30
0.0
 10
13.7422515425
 20
42.5296130126
 30
0.0
 10
13.7655966222
 20
42.5380712737
 30
0.0
 10
13.7756346128
 20
42.5438666757
 30
0.0
  0
SPLINE
  5
4E2
100
AcDbEntity
  8
0
100
AcDbSpline
 62
7
  6
CONTINUOUS
 70
0
 71
3
 72
21
 73
17
 74
0
 42
0.0000001
 43
0.0000001
 44
0.0000000001
 40
0.0
 40
0.0
 40
0.0
 40
0.0
 40
0.1581863109
 40
0.3139036094
 40
0.3888997257
 40
0.4610279977
 40
0.5296872582
 40
0.5944509939
 40
0.6550588774
 40
0.7115026542
 40
0.7640394659
 40
0.8132827503
 40
0.8601818227
 40
0.9060005319
 40
0.9521546495
 40
1.0
 40
1.0
 40
1.0
 40
1.0
 10
23.8299734141
 20
40.2581648291
 30
0.0
 10
23.9317456333
 20
40.2674713343
 30
0.0
 10
24.1353098098
 20
40.2711087948
 30
0.0
 10
24.3855670486
 20
40.2395932052
 30
0.0
 10
24.5756496472
 20
40.192451486
 30
0.0
 10
24.7078723236
 20
40.1477069737
 30
0.0
 10
24.8294287261
 20
40.0937364243
 30
0.0
 10
24.938488371
 20
40.0314403268
 30
0.0
 10
25.0333283842
 20
39.9616395949
 30
0.0
 10
25.1125427363
 20
39.8854145017
 30
0.0
 10
25.1747562277
 20
39.8037276811
 30
0.0
 10
25.2189389873
 20
39.7177972305
 30
0.0
 10
25.2439970765
 20
39.6288810363
 30
0.0
 10
25.2493661165
 20
39.5385922194
 30
0.0
 10
25.2347486772
 20
39.4487629717
 30
0.0
 10
25.2126175927
 20
39.3917072803
 30
0.0
 10
25.1988323836
 20
39.3640407447
 30
0.0
  0
SPLINE
  5
4E3
100
AcDbEntity
  8
0
100
AcDbSpline
 62
7
  6
CONTINUOUS
 70
0
 71
3
 72
10
 73
6
 74
0
 42
0.0000001
 43
0.0000001
 44
0.0000000001
 40
0.0
 40
0.0
 40
0.0
 40
0.0
 40
0.4636225209
 40
0.7227157179
 40
1.0
 40
1.0
 40
1.0
 40
1.0
 10
25.1988323836
 20
39.3640407447
 30
0.0
 10
25.1684866103
 20
39.3031376124
 30
0.0
 10
25.1016461062
 20
39.2174979313
 30
0.0
 10
24.989265965
 20
39.122965497
 30
0.0
 10
24.9230640889
 20
39.0798817483
 30
0.0
 10
24.8878200844
 20
39.0595337433
 30
0.0
  0
SPLINE
  5
4E4
100
AcDbEntity
  8
0
100
AcDbSpline
 62
7
  6
CONTINUOUS
 70
0
 71
3
 72
9
 73
5
 74
0
 42
0.0000001
 43
0.0000001
 44
0.0000000001
 40
0.0
 40
0.0
 40
0.0
 40
0.0
 40
0.4744361267
 40
1.0
 40
1.0
 40
1.0
 40
1.0
 10
13.7756346128
 20
40.2576599078
 30
0.0
 10
13.7655966222
 20
40.2518645058
 30
0.0
 10
13.7422603654
 20
40.2434062447
 30
0.0
 10
13.7177640045
 20
40.2407498125
 30
0.0
 10
13.7049240566
 20
40.2407497817
 30
0.0
  0
SPLINE
  5
4E5
100
AcDbEntity
  8
0
100
AcDbSpline
 62
7
  6
CONTINUOUS
 70
0
 71
3
 72
9
 73
5
 74
0
 42
0.0000001
 43
0.0000001
 44
0.0000000001
 40
0.0
 40
0.0
 40
0.0
 40
0.0
 40
0.2555021743
 40
1.0
 40
1.0
 40
1.0
 40
1.0
 10
13.7049240566
 20
40.2407497817
 30
0.0
 10
13.7011332088
 20
40.2407497726
 30
0.0
 10
13.6863040059
 20
40.2412417698
 30
0.0
 10
13.6715099668
 20
40.2436361822
 30
0.0
 10
13.6608840752
 20
40.2466535695
 30
0.0
  0
SPLINE
  5
4E6
100
AcDbEntity
  8
0
100
AcDbSpline
 62
7
  6
CONTINUOUS
 70
0
 71
3
 72
9
 73
5
 74
0
 42
0.0000001
 43
0.0000001
 44
0.0000000001
 40
0.0
 40
0.0
 40
0.0
 40
0.0
 40
0.2629554488
 40
1.0
 40
1.0
 40
1.0
 40
1.0
 10
13.6608840752
 20
40.2466535695
 30
0.0
 10
13.6584479969
 20
40.2473453318
 30
0.0
 10
13.6492601079
 20
40.2502262339
 30
0.0
 10
13.6403604334
 20
40.2541105739
 30
0.0
 10
13.6342132566
 20
40.2576595678
 30
0.0
  0
SPLINE
  5
4E7
100
AcDbEntity
  8
0
100
AcDbSpline
 62
7
  6
CONTINUOUS
 70
0
 71
3
 72
11
 73
7
 74
0
 42
0.0000001
 43
0.0000001
 44
0.0000000001
 40
0.0
 40
0.0
 40
0.0
 40
0.0
 40
0.2301095826
 40
0.4756564652
 40
0.7335725325
 40
1.0
 40
1.0
 40
1.0
 40
1.0
 10
23.1554012578
 20
40.0597235919
 30
0.0
 10
23.2024399056
 20
40.0868812058
 30
0.0
 10
23.3036861448
 20
40.1362251427
 30
0.0
 10
23.4674015448
 20
40.1935966898
 30
0.0
 10
23.6445254472
 20
40.2355447333
 30
0.0
 10
23.7673467056
 20
40.2524379638
 30
0.0
 10
23.8299734141
 20
40.2581648291
 30
0.0
  0
SPLINE
  5
4E8
100
AcDbEntity
  8
0
100
AcDbSpline
 62
7
  6
CONTINUOUS
 70
0
 71
3
 72
11
 73
7
 74
0
 42
0.0000001
 43
0.0000001
 44
0.0000000001
 40
0.0
 40
0.0
 40
0.0
 40
0.0
 40
0.237217774
 40
0.4999989081
 40
0.7627806366
 40
1.0
 40
1.0
 40
1.0
 40
1.0
 10
18.2169568762
 20
44.4213620751
 30
0.0
 10
18.2269949245
 20
44.4155667363
 30
0.0
 10
18.2459927079
 20
44.399578591
 30
0.0
 10
18.268166184
 20
44.3692783364
 30
0.0
 10
18.2833204232
 20
44.3349254127
 30
0.0
 10
18.2876678487
 20
44.3104787098
 30
0.0
 10
18.2876678487
 20
44.2988877579
 30
0.0
  0
SPLINE
  5
4E9
100
AcDbEntity
  8
0
100
AcDbSpline
 62
7
  6
CONTINUOUS
 70
0
 71
3
 72
17
 73
13
 74
0
 42
0.0000001
 43
0.0000001
 44
0.0000000001
 40
0.0
 40
0.0
 40
0.0
 40
0.0
 40
0.1520701339
 40
0.3029068309
 40
0.4478472606
 40
0.5829822891
 40
0.7054182193
 40
0.8140704783
 40
0.8637049659
 40
0.9107361744
 40
0.9558679346
 40
1.0
 40
1.0
 40
1.0
 40
1.0
 10
15.7845664051
 20
44.7734358288
 30
0.0
 10
15.8649922585
 20
44.7807903272
 30
0.0
 10
16.0262876895
 20
44.7852890903
 30
0.0
 10
16.2636415134
 20
44.7625771339
 30
0.0
 10
16.4874150266
 20
44.7114078161
 30
0.0
 10
16.6876358056
 20
44.6340442053
 30
0.0
 10
16.8554927807
 20
44.5337309389
 30
0.0
 10
16.9656671649
 20
44.4307915058
 30
0.0
 10
17.0280438333
 20
44.340902837
 30
0.0
 10
17.061042083
 20
44.272825476
 30
0.0
 10
17.0810454984
 20
44.2028786582
 30
0.0
 10
17.0855549457
 20
44.1553606875
 30
0.0
 10
17.0855585246
 20
44.1319230274
 30
0.0
  0
SPLINE
  5
4EA
100
AcDbEntity
  8
0
100
AcDbSpline
 62
7
  6
CONTINUOUS
 70
0
 71
3
 72
11
 73
7
 74
0
 42
0.0000001
 43
0.0000001
 44
0.0000000001
 40
0.0
 40
0.0
 40
0.0
 40
0.0
 40
0.2301091715
 40
0.4756557378
 40
0.7335721386
 40
1.0
 40
1.0
 40
1.0
 40
1.0
 10
15.1650613637
 20
44.5911938763
 30
0.0
 10
15.2082600606
 20
44.6161345067
 30
0.0
 10
15.3012408347
 20
44.6614509864
 30
0.0
 10
15.4515915596
 20
44.7141396511
 30
0.0
 10
15.6142566828
 20
44.7526628205
 30
0.0
 10
15.7270519748
 20
44.768176453
 30
0.0
 10
15.7845664051
 20
44.7734358288
 30
0.0
  0
SPLINE
  5
4EB
100
AcDbEntity
  8
0
100
AcDbSpline
 62
7
  6
CONTINUOUS
 70
0
 71
3
 72
13
 73
9
 74
0
 42
0.0000001
 43
0.0000001
 44
0.0000000001
 40
0.0
 40
0.0
 40
0.0
 40
0.0
 40
0.1140623922
 40
0.2375575596
 40
0.4999994774
 40
0.7624416812
 40
0.8859371837
 40
1.0
 40
1.0
 40
1.0
 40
1.0
 10
15.6713836512
 20
37.5627689191
 30
0.0
 10
15.6617189125
 20
37.5571890129
 30
0.0
 10
15.6405346488
 20
37.5473561746
 30
0.0
 10
15.5936307307
 20
37.5330534639
 30
0.0
 10
15.5299625165
 20
37.5261616639
 30
0.0
 10
15.4662942412
 20
37.5330531697
 30
0.0
 10
15.419390147
 20
37.5473556495
 30
0.0
 10
15.3982057537
 20
37.5571883819
 30
0.0
 10
15.3885409388
 20
37.5627682392
 30
0.0
  0
SPLINE
  5
4EC
100
AcDbEntity
  8
0
100
AcDbSpline
 62
7
  6
CONTINUOUS
 70
0
 71
3
 72
9
 73
5
 74
0
 42
0.0000001
 43
0.0000001
 44
0.0000000001
 40
0.0
 40
0.0
 40
0.0
 40
0.0
 40
0.2566055564
 40
1.0
 40
1.0
 40
1.0
 40
1.0
 10
15.1650613637
 20
43.8563417008
 30
0.0
 10
15.155953893
 20
43.8510835316
 30
0.0
 10
15.1207736372
 20
43.8300601968
 30
0.0
 10
15.0868697808
 20
43.8068750318
 30
0.0
 10
15.0626706285
 20
43.7883656655
 30
0.0
  0
SPLINE
  5
4ED
100
AcDbEntity
  8
0
100
AcDbSpline
 62
7
  6
CONTINUOUS
 70
0
 71
3
 72
13
 73
9
 74
0
 42
0.0000001
 43
0.0000001
 44
0.0000000001
 40
0.0
 40
0.0
 40
0.0
 40
0.0
 40
0.2710446789
 40
0.535984016
 40
0.662143952
 40
0.7821860356
 40
0.8950118542
 40
1.0
 40
1.0
 40
1.0
 40
1.0
 10
15.807879846
 20
43.9536039279
 30
0.0
 10
15.898080789
 20
43.9618523041
 30
0.0
 10
16.0780497378
 20
43.9636174368
 30
0.0
 10
16.2979559728
 20
43.9305147977
 30
0.0
 10
16.4621204884
 20
43.8825345915
 30
0.0
 10
16.5736911111
 20
43.8378126475
 30
0.0
 10
16.6734894974
 20
43.7845234347
 30
0.0
 10
16.7331849361
 20
43.7424122877
 30
0.0
 10
16.7602449751
 20
43.7200807893
 30
0.0
  0
SPLINE
  5
4EE
100
AcDbEntity
  8
0
100
AcDbSpline
 62
7
  6
CONTINUOUS
 70
0
 71
3
 72
11
 73
7
 74
0
 42
0.0000001
 43
0.0000001
 44
0.0000000001
 40
0.0
 40
0.0
 40
0.0
 40
0.0
 40
0.2301095826
 40
0.4756564652
 40
0.7335725325
 40
1.0
 40
1.0
 40
1.0
 40
1.0
 10
15.2704392126
 20
43.7955031477
 30
0.0
 10
15.3079155306
 20
43.8171399809
 30
0.0
 10
15.3885797597
 20
43.8564529535
 30
0.0
 10
15.5190140023
 20
43.9021616303
 30
0.0
 10
15.6601309775
 20
43.935582196
 30
0.0
 10
15.7579843121
 20
43.949041258
 30
0.0
 10
15.807879846
 20
43.9536039279
 30
0.0
  0
SPLINE
  5
4EF
100
AcDbEntity
  8
0
100
AcDbSpline
 62
7
  6
CONTINUOUS
 70
0
 71
3
 72
11
 73
7
 74
0
 42
0.0000001
 43
0.0000001
 44
0.0000000001
 40
0.0
 40
0.0
 40
0.0
 40
0.0
 40
0.2575908895
 40
0.5143546502
 40
0.7635986398
 40
1.0
 40
1.0
 40
1.0
 40
1.0
 10
15.8391675614
 20
43.6762567243
 30
0.0
 10
15.8883303366
 20
43.6807523875
 30
0.0
 10
15.9870831453
 20
43.684191412
 30
0.0
 10
16.1333141051
 20
43.6733058679
 30
0.0
 10
16.2734021771
 20
43.6467052771
 30
0.0
 10
16.3623313044
 20
43.6181716738
 30
0.0
 10
16.4043635485
 20
43.6012600368
 30
0.0
  0
SPLINE
  5
4F0
100
AcDbEntity
  8
0
100
AcDbSpline
 62
7
  6
CONTINUOUS
 70
0
 71
3
 72
9
 73
5
 74
0
 42
0.0000001
 43
0.0000001
 44
0.0000000001
 40
0.0
 40
0.0
 40
0.0
 40
0.0
 40
0.4832221822
 40
1.0
 40
1.0
 40
1.0
 40
1.0
 10
15.4876602899
 20
43.5889583354
 30
0.0
 10
15.541156243
 20
43.6127025131
 30
0.0
 10
15.6568197876
 20
43.6509616209
 30
0.0
 10
15.7768346718
 20
43.6705567271
 30
0.0
 10
15.8391675614
 20
43.6762567243
 30
0.0
  0
SPLINE
  5
4F1
100
AcDbEntity
  8
0
100
AcDbSpline
 62
7
  6
CONTINUOUS
 70
0
 71
3
 72
13
 73
9
 74
0
 42
0.0000001
 43
0.0000001
 44
0.0000000001
 40
0.0
 40
0.0
 40
0.0
 40
0.0
 40
0.1127791128
 40
0.2324391428
 40
0.3574376819
 40
0.4861805212
 40
0.7471106054
 40
1.0
 40
1.0
 40
1.0
 40
1.0
 10
24.8524647107
 20
39.0399291004
 30
0.0
 10
24.8058337639
 20
39.0150940325
 30
0.0
 10
24.7063797533
 20
38.97004112
 30
0.0
 10
24.5470051674
 20
38.9178091875
 30
0.0
 10
24.3759676907
 20
38.8798594216
 30
0.0
 10
24.1365301069
 20
38.8493194323
 30
0.0
 10
23.8340147673
 20
38.8502932992
 30
0.0
 10
23.595445434
 20
38.8925428655
 30
0.0
 10
23.4814704443
 20
38.9248579318
 30
0.0
  0
SPLINE
  5
4F2
100
AcDbEntity
  8
0
100
AcDbSpline
 62
7
  6
CONTINUOUS
 70
0
 71
3
 72
11
 73
7
 74
0
 42
0.0000001
 43
0.0000001
 44
0.0000000001
 40
0.0
 40
0.0
 40
0.0
 40
0.0
 40
0.2886799855
 40
0.5523111457
 40
0.7887334629
 40
1.0
 40
1.0
 40
1.0
 40
1.0
 10
23.4264791225
 20
38.9414612236
 30
0.0
 10
23.35818484
 20
38.9633733414
 30
0.0
 10
23.229999685
 20
39.013877268
 30
0.0
 10
23.0603380834
 20
39.1138646308
 30
0.0
 10
22.9270061746
 20
39.2317476511
 30
0.0
 10
22.8630094722
 20
39.3247591207
 30
0.0
 10
22.8404413012
 20
39.3721496121
 30
0.0
  0
SPLINE
  5
4F3
100
AcDbEntity
  8
0
100
AcDbSpline
 62
7
  6
CONTINUOUS
 70
0
 71
3
 72
15
 73
11
 74
0
 42
0.0000001
 43
0.0000001
 44
0.0000000001
 40
0.0
 40
0.0
 40
0.0
 40
0.0
 40
0.115541463
 40
0.2272397082
 40
0.3388048093
 40
0.4539447537
 40
0.5758375846
 40
0.7068154328
 40
0.848214282
 40
1.0
 40
1.0
 40
1.0
 40
1.0
 10
22.8404413012
 20
39.3721496121
 30
0.0
 10
22.8265731575
 20
39.4012710745
 30
0.0
 10
22.8048445924
 20
39.4614600445
 30
0.0
 10
22.7929863501
 20
39.5561018119
 30
0.0
 10
22.8032380487
 20
39.6508568459
 30
0.0
 10
22.8350545323
 20
39.7436083003
 30
0.0
 10
22.8876587772
 20
39.832573804
 30
0.0
 10
22.9597602465
 20
39.9163880781
 30
0.0
 10
23.0499982478
 20
39.9936356751
 30
0.0
 10
23.118705035
 20
40.0385371442
 30
0.0
 10
23.1554012578
 20
40.0597235919
 30
0.0
  0
SPLINE
  5
4F4
100
AcDbEntity
  8
0
100
AcDbSpline
 62
7
  6
CONTINUOUS
 70
0
 71
3
 72
8
 73
4
 74
0
 42
0.0000001
 43
0.0000001
 44
0.0000000001
 40
0.0
 40
0.0
 40
0.0
 40
0.0
 40
1.0
 40
1.0
 40
1.0
 40
1.0
 10
27.6839437587
 20
18.5910495872
 30
0.0
 10
27.6816257333
 20
18.5923878689
 30
0.0
 10
27.6794588159
 20
18.594022321
 30
0.0
 10
27.6775200844
 20
18.5958677369
 30
0.0
  0
SPLINE
  5
4F5
100
AcDbEntity
  8
0
100
AcDbSpline
 62
7
  6
CONTINUOUS
 70
0
 71
3
 72
9
 73
5
 74
0
 42
0.0000001
 43
0.0000001
 44
0.0000000001
 40
0.0
 40
0.0
 40
0.0
 40
0.0
 40
0.4555565414
 40
1.0
 40
1.0
 40
1.0
 40
1.0
 10
27.6775200844
 20
18.5958677369
 30
0.0
 10
27.6726514082
 20
18.6005020725
 30
0.0
 10
27.6649961834
 20
18.6138786103
 30
0.0
 10
27.6632325266
 20
18.6287949984
 30
0.0
 10
27.6632325266
 20
18.636828202
 30
0.0
  0
SPLINE
  5
4F6
100
AcDbEntity
  8
0
100
AcDbSpline
 62
7
  6
CONTINUOUS
 70
0
 71
3
 72
15
 73
11
 74
0
 42
0.0000001
 43
0.0000001
 44
0.0000000001
 40
0.0
 40
0.0
 40
0.0
 40
0.0
 40
0.1480779156
 40
0.2917120753
 40
0.4292400984
 40
0.5595897799
 40
0.6819637574
 40
0.7959208886
 40
0.9016719369
 40
1.0
 40
1.0
 40
1.0
 40
1.0
 10
20.7330240043
 20
43.0503910549
 30
0.0
 10
20.6533724204
 20
43.0612352299
 30
0.0
 10
20.4972099974
 20
43.0886917726
 30
0.0
 10
20.2715081815
 20
43.1476957343
 30
0.0
 10
20.0609124774
 20
43.2231881531
 30
0.0
 10
19.8690370661
 20
43.3138710361
 30
0.0
 10
19.6989996204
 20
43.4182216947
 30
0.0
 10
19.5536449105
 20
43.534716736
 30
0.0
 10
19.4354893078
 20
43.6615008515
 30
0.0
 10
19.3743299933
 20
43.7547556427
 30
0.0
 10
19.3496530659
 20
43.8020880541
 30
0.0
  0
SPLINE
  5
4F7
100
AcDbEntity
  8
0
100
AcDbSpline
 62
7
  6
CONTINUOUS
 70
0
 71
3
 72
12
 73
8
 74
0
 42
0.0000001
 43
0.0000001
 44
0.0000000001
 40
0.0
 40
0.0
 40
0.0
 40
0.0
 40
0.2914688093
 40
0.5388339648
 40
0.6522718743
 40
0.7640859833
 40
1.0
 40
1.0
 40
1.0
 40
1.0
 10
20.9039738317
 20
42.8700472079
 30
0.0
 10
20.9103645843
 20
42.8737368886
 30
0.0
 10
20.921509891
 20
42.8819479387
 30
0.0
 10
20.9309336716
 20
42.8961542072
 30
0.0
 10
20.9335037807
 20
42.9079736125
 30
0.0
 10
20.9330042641
 20
42.9197528513
 30
0.0
 10
20.9291329922
 20
42.9281184699
 30
0.0
 10
20.9256468586
 20
42.9329684119
 30
0.0
  0
SPLINE
  5
4F8
100
AcDbEntity
  8
0
100
AcDbSpline
 62
7
  6
CONTINUOUS
 70
0
 71
3
 72
9
 73
5
 74
0
 42
0.0000001
 43
0.0000001
 44
0.0000000001
 40
0.0
 40
0.0
 40
0.0
 40
0.0
 40
0.2306975391
 40
1.0
 40
1.0
 40
1.0
 40
1.0
 10
20.9256468586
 20
42.9329684119
 30
0.0
 10
20.9243556327
 20
42.9347647776
 30
0.0
 10
20.9182224443
 20
42.9421659704
 30
0.0
 10
20.9103620462
 20
42.9480072049
 30
0.0
 10
20.9039731202
 20
42.9516957696
 30
0.0
  0
SPLINE
  5
4F9
100
AcDbEntity
  8
0
100
AcDbSpline
 62
7
  6
CONTINUOUS
 70
0
 71
3
 72
11
 73
7
 74
0
 42
0.0000001
 43
0.0000001
 44
0.0000000001
 40
0.0
 40
0.0
 40
0.0
 40
0.0
 40
0.2372438577
 40
0.5000007501
 40
0.7627572332
 40
1.0
 40
1.0
 40
1.0
 40
1.0
 10
18.1462685286
 20
41.3595433542
 30
0.0
 10
18.156307591
 20
41.3537474299
 30
0.0
 10
18.1796533378
 20
41.3452909805
 30
0.0
 10
18.2169792373
 20
41.3412391334
 30
0.0
 10
18.2543050714
 20
41.3452912088
 30
0.0
 10
18.2776506598
 20
41.3537478687
 30
0.0
 10
18.2876896343
 20
41.3595438387
 30
0.0
  0
SPLINE
  5
4FA
100
AcDbEntity
  8
0
100
AcDbSpline
 62
7
  6
CONTINUOUS
 70
0
 71
3
 72
11
 73
7
 74
0
 42
0.0000001
 43
0.0000001
 44
0.0000000001
 40
0.0
 40
0.0
 40
0.0
 40
0.0
 40
0.2891678238
 40
0.5490791106
 40
0.782357745
 40
1.0
 40
1.0
 40
1.0
 40
1.0
 10
16.3911794378
 20
42.4544694514
 30
0.0
 10
16.3867999991
 20
42.4519409964
 30
0.0
 10
16.3788507965
 20
42.4464455145
 30
0.0
 10
16.3693169534
 20
42.4364630382
 30
0.0
 10
16.363302068
 20
42.4253883985
 30
0.0
 10
16.3618927921
 20
42.4174512799
 30
0.0
 10
16.3618928301
 20
42.4136451779
 30
0.0
  0
SPLINE
  5
4FB
100
AcDbEntity
  8
0
100
AcDbSpline
 62
7
  6
CONTINUOUS
 70
0
 71
3
 72
11
 73
7
 74
0
 42
0.0000001
 43
0.0000001
 44
0.0000000001
 40
0.0
 40
0.0
 40
0.0
 40
0.0
 40
0.2176415873
 40
0.4509202907
 40
0.710832026
 40
1.0
 40
1.0
 40
1.0
 40
1.0
 10
16.3618928301
 20
42.4136451779
 30
0.0
 10
16.361892868
 20
42.409839067
 30
0.0
 10
16.3633023097
 20
42.4019019457
 30
0.0
 10
16.3693174266
 20
42.3908273598
 30
0.0
 10
16.378851487
 20
42.3808449764
 30
0.0
 10
16.3868007942
 20
42.3753495436
 30
0.0
 10
16.3911802771
 20
42.3728211052
 30
0.0
  0
SPLINE
  5
4FC
100
AcDbEntity
  8
0
100
AcDbSpline
 62
7
  6
CONTINUOUS
 70
0
 71
3
 72
9
 73
5
 74
0
 42
0.0000001
 43
0.0000001
 44
0.0000000001
 40
0.0
 40
0.0
 40
0.0
 40
0.0
 40
0.4744870036
 40
1.0
 40
1.0
 40
1.0
 40
1.0
 10
19.1488849915
 20
43.9649734498
 30
0.0
 10
19.138845929
 20
43.970769374
 30
0.0
 10
19.115508981
 20
43.9792258229
 30
0.0
 10
19.0910129103
 20
43.9818818816
 30
0.0
 10
19.0781742648
 20
43.9818818389
 30
0.0
  0
SPLINE
  5
4FD
100
AcDbEntity
  8
0
100
AcDbSpline
 62
7
  6
CONTINUOUS
 70
0
 71
3
 72
9
 73
5
 74
0
 42
0.0000001
 43
0.0000001
 44
0.0000000001
 40
0.0
 40
0.0
 40
0.0
 40
0.0
 40
0.5255137545
 40
1.0
 40
1.0
 40
1.0
 40
1.0
 10
19.0781742648
 20
43.9818818389
 30
0.0
 10
19.0653356393
 20
43.9818817962
 30
0.0
 10
19.0408396499
 20
43.9792255957
 30
0.0
 10
19.0175028602
 20
43.9707689352
 30
0.0
 10
19.0074638857
 20
43.9649729652
 30
0.0
  0
SPLINE
  5
4FE
100
AcDbEntity
  8
0
100
AcDbSpline
 62
7
  6
CONTINUOUS
 70
0
 71
3
 72
21
 73
17
 74
0
 42
0.0000001
 43
0.0000001
 44
0.0000000001
 40
0.0
 40
0.0
 40
0.0
 40
0.0
 40
0.1581863109
 40
0.3139036094
 40
0.3888997257
 40
0.4610279977
 40
0.5296872582
 40
0.5944509939
 40
0.6550588774
 40
0.7115026542
 40
0.7640394659
 40
0.8132827503
 40
0.8601818227
 40
0.9060005319
 40
0.9521546495
 40
1.0
 40
1.0
 40
1.0
 40
1.0
 10
18.455939503
 20
43.3607945634
 30
0.0
 10
18.5577117222
 20
43.3701010686
 30
0.0
 10
18.7612758986
 20
43.3737385291
 30
0.0
 10
19.0115331375
 20
43.3422229395
 30
0.0
 10
19.2016157361
 20
43.2950812204
 30
0.0
 10
19.3338384125
 20
43.2503367081
 30
0.0
 10
19.455394815
 20
43.1963661586
 30
0.0
 10
19.5644544599
 20
43.1340700611
 30
0.0
 10
19.6592944731
 20
43.0642693293
 30
0.0
 10
19.7385088252
 20
42.9880442361
 30
0.0
 10
19.8007223165
 20
42.9063574155
 30
0.0
 10
19.8449050762
 20
42.8204269648
 30
0.0
 10
19.8699631654
 20
42.7315107706
 30
0.0
 10
19.8753322054
 20
42.6412219537
 30
0.0
 10
19.860714766
 20
42.5513927061
 30
0.0
 10
19.8385836816
 20
42.4943370146
 30
0.0
 10
19.8247984725
 20
42.4666704791
 30
0.0
  0
SPLINE
  5
4FF
100
AcDbEntity
  8
0
100
AcDbSpline
 62
7
  6
CONTINUOUS
 70
0
 71
3
 72
10
 73
6
 74
0
 42
0.0000001
 43
0.0000001
 44
0.0000000001
 40
0.0
 40
0.0
 40
0.0
 40
0.0
 40
0.4636225209
 40
0.7227157179
 40
1.0
 40
1.0
 40
1.0
 40
1.0
 10
19.8247984725
 20
42.4666704791
 30
0.0
 10
19.7944526991
 20
42.4057673468
 30
0.0
 10
19.727612195
 20
42.3201276656
 30
0.0
 10
19.6152320539
 20
42.2255952314
 30
0.0
 10
19.5490301778
 20
42.1825114827
 30
0.0
 10
19.5137861733
 20
42.1621634777
 30
0.0
  0
SPLINE
  5
500
100
AcDbEntity
  8
0
100
AcDbSpline
 62
7
  6
CONTINUOUS
 70
0
 71
3
 72
11
 73
7
 74
0
 42
0.0000001
 43
0.0000001
 44
0.0000000001
 40
0.0
 40
0.0
 40
0.0
 40
0.0
 40
0.2301095826
 40
0.4756564652
 40
0.7335725325
 40
1.0
 40
1.0
 40
1.0
 40
1.0
 10
17.7813673467
 20
43.1623533263
 30
0.0
 10
17.8284059945
 20
43.1895109401
 30
0.0
 10
17.9296522337
 20
43.238854877
 30
0.0
 10
18.0933676337
 20
43.2962264242
 30
0.0
 10
18.2704915361
 20
43.3381744677
 30
0.0
 10
18.3933127945
 20
43.3550676981
 30
0.0
 10
18.455939503
 20
43.3607945634
 30
0.0
  0
SPLINE
  5
501
100
AcDbEntity
  8
0
100
AcDbSpline
 62
7
  6
CONTINUOUS
 70
0
 71
3
 72
13
 73
9
 74
0
 42
0.0000001
 43
0.0000001
 44
0.0000000001
 40
0.0
 40
0.0
 40
0.0
 40
0.0
 40
0.1127791128
 40
0.2324391428
 40
0.3574376819
 40
0.4861805212
 40
0.7471106054
 40
1.0
 40
1.0
 40
1.0
 40
1.0
 10
19.4784307996
 20
42.1425588347
 30
0.0
 10
19.4317998527
 20
42.1177237668
 30
0.0
 10
19.3323458421
 20
42.0726708543
 30
0.0
 10
19.1729712563
 20
42.0204389219
 30
0.0
 10
19.0019337796
 20
41.9824891559
 30
0.0
 10
18.7624961957
 20
41.9519491666
 30
0.0
 10
18.4599808562
 20
41.9529230335
 30
0.0
 10
18.2214115228
 20
41.9951725999
 30
0.0
 10
18.1074365332
 20
42.0274876661
 30
0.0
  0
SPLINE
  5
502
100
AcDbEntity
  8
0
100
AcDbSpline
 62
7
  6
CONTINUOUS
 70
0
 71
3
 72
11
 73
7
 74
0
 42
0.0000001
 43
0.0000001
 44
0.0000000001
 40
0.0
 40
0.0
 40
0.0
 40
0.0
 40
0.2886799855
 40
0.5523111457
 40
0.7887334629
 40
1.0
 40
1.0
 40
1.0
 40
1.0
 10
18.0524452113
 20
42.044090958
 30
0.0
 10
17.9841509289
 20
42.0660030757
 30
0.0
 10
17.8559657739
 20
42.1165070023
 30
0.0
 10
17.6863041723
 20
42.2164943651
 30
0.0
 10
17.5529722634
 20
42.3343773855
 30
0.0
 10
17.4889755611
 20
42.4273888551
 30
0.0
 10
17.4664073901
 20
42.4747793465
 30
0.0
  0
SPLINE
  5
503
100
AcDbEntity
  8
0
100
AcDbSpline
 62
7
  6
CONTINUOUS
 70
0
 71
3
 72
15
 73
11
 74
0
 42
0.0000001
 43
0.0000001
 44
0.0000000001
 40
0.0
 40
0.0
 40
0.0
 40
0.0
 40
0.115541463
 40
0.2272397082
 40
0.3388048093
 40
0.4539447537
 40
0.5758375846
 40
0.7068154328
 40
0.848214282
 40
1.0
 40
1.0
 40
1.0
 40
1.0
 10
17.4664073901
 20
42.4747793465
 30
0.0
 10
17.4525392464
 20
42.5039008089
 30
0.0
 10
17.4308106813
 20
42.5640897788
 30
0.0
 10
17.418952439
 20
42.6587315462
 30
0.0
 10
17.4292041375
 20
42.7534865803
 30
0.0
 10
17.4610206212
 20
42.8462380347
 30
0.0
 10
17.5136248661
 20
42.9352035383
 30
0.0
 10
17.5857263354
 20
43.0190178124
 30
0.0
 10
17.6759643366
 20
43.0962654095
 30
0.0
 10
17.7446711239
 20
43.1411668786
 30
0.0
 10
17.7813673467
 20
43.1623533263
 30
0.0
  0
SPLINE
  5
504
100
AcDbEntity
  8
0
100
AcDbSpline
 62
7
  6
CONTINUOUS
 70
0
 71
3
 72
11
 73
7
 74
0
 42
0.0000001
 43
0.0000001
 44
0.0000000001
 40
0.0
 40
0.0
 40
0.0
 40
0.0
 40
0.23721727
 40
0.499998382
 40
0.7627803746
 40
1.0
 40
1.0
 40
1.0
 40
1.0
 10
18.1462682781
 20
41.3595434988
 30
0.0
 10
18.1362302986
 20
41.3537481032
 30
0.0
 10
18.1172326639
 20
41.337759847
 30
0.0
 10
18.0950593867
 20
41.3074594956
 30
0.0
 10
18.079905284
 20
41.2731065136
 30
0.0
 10
18.0755578943
 20
41.2486597998
 30
0.0
 10
18.0755578943
 20
41.2370688417
 30
0.0
  0
SPLINE
  5
505
100
AcDbEntity
  8
0
100
AcDbSpline
 62
7
  6
CONTINUOUS
 70
0
 71
3
 72
11
 73
7
 74
0
 42
0.0000001
 43
0.0000001
 44
0.0000000001
 40
0.0
 40
0.0
 40
0.0
 40
0.0
 40
0.2372193634
 40
0.5000010919
 40
0.762782226
 40
1.0
 40
1.0
 40
1.0
 40
1.0
 10
18.3584006068
 20
41.2370695216
 30
0.0
 10
18.3584006068
 20
41.2486604734
 30
0.0
 10
18.3540531813
 20
41.2731071764
 30
0.0
 10
18.3388989421
 20
41.3074601001
 30
0.0
 10
18.316725466
 20
41.3377603547
 30
0.0
 10
18.2977276826
 20
41.3537484999
 30
0.0
 10
18.2876896343
 20
41.3595438387
 30
0.0
  0
SPLINE
  5
506
100
AcDbEntity
  8
0
100
AcDbSpline
 62
7
  6
CONTINUOUS
 70
0
 71
3
 72
13
 73
9
 74
0
 42
0.0000001
 43
0.0000001
 44
0.0000000001
 40
0.0
 40
0.0
 40
0.0
 40
0.0
 40
0.1140527599
 40
0.2375333554
 40
0.5000005226
 40
0.7624674038
 40
0.8859476642
 40
1.0
 40
1.0
 40
1.0
 40
1.0
 10
18.0755578943
 20
41.2370688417
 30
0.0
 10
18.0852219101
 20
41.2314894458
 30
0.0
 10
18.106403193
 20
41.2216556294
 30
0.0
 10
18.1533075331
 20
41.2073526895
 30
0.0
 10
18.2169794721
 20
41.2004586017
 30
0.0
 10
18.28065135
 20
41.2073529838
 30
0.0
 10
18.3275555138
 20
41.2216561545
 30
0.0
 10
18.3487366672
 20
41.2314900767
 30
0.0
 10
18.3584006068
 20
41.2370695216
 30
0.0
  0
SPLINE
  5
507
100
AcDbEntity
  8
0
100
AcDbSpline
 62
7
  6
CONTINUOUS
 70
0
 71
3
 72
11
 73
7
 74
0
 42
0.0000001
 43
0.0000001
 44
0.0000000001
 40
0.0
 40
0.0
 40
0.0
 40
0.0
 40
0.2372196254
 40
0.500001618
 40
0.76278273
 40
1.0
 40
1.0
 40
1.0
 40
1.0
 10
16.3204698934
 20
42.2503464481
 30
0.0
 10
16.3204698934
 20
42.2619374062
 30
0.0
 10
16.3248172831
 20
42.28638412
 30
0.0
 10
16.3399713858
 20
42.320737102
 30
0.0
 10
16.3621446629
 20
42.3510374534
 30
0.0
 10
16.3811422976
 20
42.3670257096
 30
0.0
 10
16.3911802771
 20
42.3728211052
 30
0.0
  0
SPLINE
  5
508
100
AcDbEntity
  8
0
100
AcDbSpline
 62
7
  6
CONTINUOUS
 70
0
 71
3
 72
9
 73
5
 74
0
 42
0.0000001
 43
0.0000001
 44
0.0000000001
 40
0.0
 40
0.0
 40
0.0
 40
0.0
 40
0.4773840406
 40
1.0
 40
1.0
 40
1.0
 40
1.0
 10
17.2687254552
 20
41.6212350786
 30
0.0
 10
17.2818035718
 20
41.6287856877
 30
0.0
 10
17.3110918822
 20
41.6413828122
 30
0.0
 10
17.3420450062
 20
41.6485932465
 30
0.0
 10
17.3583827869
 20
41.6511207159
 30
0.0
  0
SPLINE
  5
509
100
AcDbEntity
  8
0
100
AcDbSpline
 62
7
  6
CONTINUOUS
 70
0
 71
3
 72
9
 73
5
 74
0
 42
0.0000001
 43
0.0000001
 44
0.0000000001
 40
0.0
 40
0.0
 40
0.0
 40
0.0
 40
0.2245233449
 40
1.0
 40
1.0
 40
1.0
 40
1.0
 10
17.0376450008
 20
41.8362945738
 30
0.0
 10
17.0353170891
 20
41.8312786094
 30
0.0
 10
17.0226165443
 20
41.8100011542
 30
0.0
 10
17.0024221421
 20
41.79408103
 30
0.0
 10
16.9858815651
 20
41.7845313804
 30
0.0
  0
SPLINE
  5
50A
100
AcDbEntity
  8
0
100
AcDbSpline
 62
7
  6
CONTINUOUS
 70
0
 71
3
 72
11
 73
7
 74
0
 42
0.0000001
 43
0.0000001
 44
0.0000000001
 40
0.0
 40
0.0
 40
0.0
 40
0.0
 40
0.2372178137
 40
0.4999994738
 40
0.7627814204
 40
1.0
 40
1.0
 40
1.0
 40
1.0
 10
17.3394364277
 20
41.4987607614
 30
0.0
 10
17.3494744183
 20
41.5045561634
 30
0.0
 10
17.372819498
 20
41.5130144245
 30
0.0
 10
17.4101469946
 20
41.517066983
 30
0.0
 10
17.4474745476
 20
41.5130145949
 30
0.0
 10
17.4708197191
 20
41.5045564497
 30
0.0
 10
17.4808577839
 20
41.4987611014
 30
0.0
  0
SPLINE
  5
50B
100
AcDbEntity
  8
0
100
AcDbSpline
 62
7
  6
CONTINUOUS
 70
0
 71
3
 72
11
 73
7
 74
0
 42
0.0000001
 43
0.0000001
 44
0.0000000001
 40
0.0
 40
0.0
 40
0.0
 40
0.0
 40
0.237217774
 40
0.4999989081
 40
0.7627806366
 40
1.0
 40
1.0
 40
1.0
 40
1.0
 10
17.2687254552
 20
41.6212350786
 30
0.0
 10
17.2787635035
 20
41.6154397398
 30
0.0
 10
17.2977612869
 20
41.5994515946
 30
0.0
 10
17.319934763
 20
41.5691513399
 30
0.0
 10
17.3350890022
 20
41.5347984162
 30
0.0
 10
17.3394364277
 20
41.5103517133
 30
0.0
 10
17.3394364277
 20
41.4987607614
 30
0.0
  0
SPLINE
  5
50C
100
AcDbEntity
  8
0
100
AcDbSpline
 62
7
  6
CONTINUOUS
 70
0
 71
3
 72
9
 73
5
 74
0
 42
0.0000001
 43
0.0000001
 44
0.0000000001
 40
0.0
 40
0.0
 40
0.0
 40
0.0
 40
0.47443666
 40
1.0
 40
1.0
 40
1.0
 40
1.0
 10
17.4808577839
 20
39.2125543334
 30
0.0
 10
17.4708197198
 20
39.218349683
 30
0.0
 10
17.4474833701
 20
39.2268078262
 30
0.0
 10
17.4229869457
 20
39.2294641504
 30
0.0
 10
17.4101469838
 20
39.2294641196
 30
0.0
  0
SPLINE
  5
50D
100
AcDbEntity
  8
0
100
AcDbSpline
 62
7
  6
CONTINUOUS
 70
0
 71
3
 72
9
 73
5
 74
0
 42
0.0000001
 43
0.0000001
 44
0.0000000001
 40
0.0
 40
0.0
 40
0.0
 40
0.0
 40
0.5252219452
 40
1.0
 40
1.0
 40
1.0
 40
1.0
 10
17.3993752234
 20
39.2291267817
 30
0.0
 10
17.3884401519
 20
39.228441216
 30
0.0
 10
17.367693053
 20
39.2251718975
 30
0.0
 10
17.3480137656
 20
39.2175060923
 30
0.0
 10
17.3394364277
 20
39.2125539935
 30
0.0
  0
SPLINE
  5
50E
100
AcDbEntity
  8
0
100
AcDbSpline
 62
7
  6
CONTINUOUS
 70
0
 71
3
 72
9
 73
5
 74
0
 42
0.0000001
 43
0.0000001
 44
0.0000000001
 40
0.0
 40
0.0
 40
0.0
 40
0.0
 40
0.5447423966
 40
1.0
 40
1.0
 40
1.0
 40
1.0
 10
16.9151700038
 20
41.825353705
 30
0.0
 10
16.9221776744
 20
41.821307916
 30
0.0
 10
16.9342946173
 20
41.8122517146
 30
0.0
 10
16.942038258
 20
41.7987886387
 30
0.0
 10
16.9435697371
 20
41.7922018459
 30
0.0
  0
SPLINE
  5
50F
100
AcDbEntity
  8
0
100
AcDbSpline
 62
7
  6
CONTINUOUS
 70
0
 71
3
 72
9
 73
5
 74
0
 42
0.0000001
 43
0.0000001
 44
0.0000000001
 40
0.0
 40
0.0
 40
0.0
 40
0.0
 40
0.4744377155
 40
1.0
 40
1.0
 40
1.0
 40
1.0
 10
16.0383863221
 20
41.1558477704
 30
0.0
 10
16.0383863221
 20
41.1674387285
 30
0.0
 10
16.0427293002
 20
41.191877801
 30
0.0
 10
16.0526769511
 20
41.2144206408
 30
0.0
 10
16.059096914
 20
41.2255404045
 30
0.0
  0
SPLINE
  5
510
100
AcDbEntity
  8
0
100
AcDbSpline
 62
7
  6
CONTINUOUS
 70
0
 71
3
 72
9
 73
5
 74
0
 42
0.0000001
 43
0.0000001
 44
0.0000000001
 40
0.0
 40
0.0
 40
0.0
 40
0.0
 40
0.255502651
 40
1.0
 40
1.0
 40
1.0
 40
1.0
 10
16.059096914
 20
41.2255404045
 30
0.0
 10
16.0609923414
 20
41.2288233993
 30
0.0
 10
16.068833067
 20
41.2414199131
 30
0.0
 10
16.0783037997
 20
41.2530347379
 30
0.0
 10
16.0862299689
 20
41.2607282997
 30
0.0
  0
SPLINE
  5
511
100
AcDbEntity
  8
0
100
AcDbSpline
 62
7
  6
CONTINUOUS
 70
0
 71
3
 72
9
 73
5
 74
0
 42
0.0000001
 43
0.0000001
 44
0.0000000001
 40
0.0
 40
0.0
 40
0.0
 40
0.0
 40
0.2629554435
 40
1.0
 40
1.0
 40
1.0
 40
1.0
 10
16.0862299689
 20
41.2607282997
 30
0.0
 10
16.0880470804
 20
41.2624920847
 30
0.0
 10
16.0951359144
 20
41.2690084269
 30
0.0
 10
16.1029496413
 20
41.2747734393
 30
0.0
 10
16.1090967058
 20
41.2783224275
 30
0.0
  0
SPLINE
  5
512
100
AcDbEntity
  8
0
100
AcDbSpline
 62
7
  6
CONTINUOUS
 70
0
 71
3
 72
11
 73
7
 74
0
 42
0.0000001
 43
0.0000001
 44
0.0000000001
 40
0.0
 40
0.0
 40
0.0
 40
0.0
 40
0.23721727
 40
0.499998382
 40
0.7627803746
 40
1.0
 40
1.0
 40
1.0
 40
1.0
 10
16.3919405959
 20
41.1150261257
 30
0.0
 10
16.3819026164
 20
41.1092307302
 30
0.0
 10
16.3629049817
 20
41.0932424739
 30
0.0
 10
16.3407317045
 20
41.0629421225
 30
0.0
 10
16.3255776019
 20
41.0285891406
 30
0.0
 10
16.3212302121
 20
41.0041424267
 30
0.0
 10
16.3212302121
 20
40.9925514686
 30
0.0
  0
SPLINE
  5
513
100
AcDbEntity
  8
0
100
AcDbSpline
 62
7
  6
CONTINUOUS
 70
0
 71
3
 72
11
 73
7
 74
0
 42
0.0000001
 43
0.0000001
 44
0.0000000001
 40
0.0
 40
0.0
 40
0.0
 40
0.0
 40
0.2372193634
 40
0.5000010919
 40
0.762782226
 40
1.0
 40
1.0
 40
1.0
 40
1.0
 10
16.4626515684
 20
40.9925518086
 30
0.0
 10
16.4626515684
 20
41.0041427604
 30
0.0
 10
16.4583041429
 20
41.0285894634
 30
0.0
 10
16.4431499037
 20
41.0629423871
 30
0.0
 10
16.4209764276
 20
41.0932426417
 30
0.0
 10
16.4019786442
 20
41.1092307869
 30
0.0
 10
16.3919405959
 20
41.1150261257
 30
0.0
  0
SPLINE
  5
514
100
AcDbEntity
  8
0
100
AcDbSpline
 62
7
  6
CONTINUOUS
 70
0
 71
3
 72
11
 73
7
 74
0
 42
0.0000001
 43
0.0000001
 44
0.0000000001
 40
0.0
 40
0.0
 40
0.0
 40
0.0
 40
0.2372185796
 40
0.5000005262
 40
0.7627821863
 40
1.0
 40
1.0
 40
1.0
 40
1.0
 10
16.3212302121
 20
40.9925514686
 30
0.0
 10
16.331268277
 20
40.9867561203
 30
0.0
 10
16.3546134485
 20
40.9782979751
 30
0.0
 10
16.3919410014
 20
40.974245587
 30
0.0
 10
16.4292684981
 20
40.9782981455
 30
0.0
 10
16.4526135777
 20
40.9867564066
 30
0.0
 10
16.4626515684
 20
40.9925518086
 30
0.0
  0
SPLINE
  5
515
100
AcDbEntity
  8
0
100
AcDbSpline
 62
7
  6
CONTINUOUS
 70
0
 71
3
 72
9
 73
5
 74
0
 42
0.0000001
 43
0.0000001
 44
0.0000000001
 40
0.0
 40
0.0
 40
0.0
 40
0.0
 40
0.4744361267
 40
1.0
 40
1.0
 40
1.0
 40
1.0
 10
16.4626515684
 20
38.7063450406
 30
0.0
 10
16.4526135777
 20
38.7005496386
 30
0.0
 10
16.4292773209
 20
38.6920913775
 30
0.0
 10
16.40478096
 20
38.6894349454
 30
0.0
 10
16.3919410122
 20
38.6894349145
 30
0.0
  0
SPLINE
  5
516
100
AcDbEntity
  8
0
100
AcDbSpline
 62
7
  6
CONTINUOUS
 70
0
 71
3
 72
9
 73
5
 74
0
 42
0.0000001
 43
0.0000001
 44
0.0000000001
 40
0.0
 40
0.0
 40
0.0
 40
0.0
 40
0.2555021743
 40
1.0
 40
1.0
 40
1.0
 40
1.0
 10
16.3919410122
 20
38.6894349145
 30
0.0
 10
16.3881501644
 20
38.6894349054
 30
0.0
 10
16.3733209614
 20
38.6899269026
 30
0.0
 10
16.3585269224
 20
38.692321315
 30
0.0
 10
16.3479010308
 20
38.6953387023
 30
0.0
  0
SPLINE
  5
517
100
AcDbEntity
  8
0
100
AcDbSpline
 62
7
  6
CONTINUOUS
 70
0
 71
3
 72
9
 73
5
 74
0
 42
0.0000001
 43
0.0000001
 44
0.0000000001
 40
0.0
 40
0.0
 40
0.0
 40
0.0
 40
0.2629554488
 40
1.0
 40
1.0
 40
1.0
 40
1.0
 10
16.3479010308
 20
38.6953387023
 30
0.0
 10
16.3454649524
 20
38.6960304646
 30
0.0
 10
16.3362770634
 20
38.6989113668
 30
0.0
 10
16.327377389
 20
38.7027957067
 30
0.0
 10
16.3212302121
 20
38.7063447007
 30
0.0
  0
SPLINE
  5
518
100
AcDbEntity
  8
0
100
AcDbSpline
 62
7
  6
CONTINUOUS
 70
0
 71
3
 72
11
 73
7
 74
0
 42
0.0000001
 43
0.0000001
 44
0.0000000001
 40
0.0
 40
0.0
 40
0.0
 40
0.0
 40
0.237217774
 40
0.4999989081
 40
0.7627806366
 40
1.0
 40
1.0
 40
1.0
 40
1.0
 10
20.9039738317
 20
42.8700472079
 30
0.0
 10
20.91401188
 20
42.8642518691
 30
0.0
 10
20.9330096634
 20
42.8482637239
 30
0.0
 10
20.9551831395
 20
42.8179634692
 30
0.0
 10
20.9703373787
 20
42.7836105455
 30
0.0
 10
20.9746848042
 20
42.7591638426
 30
0.0
 10
20.9746848042
 20
42.7475728907
 30
0.0
  0
SPLINE
  5
519
100
AcDbEntity
  8
0
100
AcDbSpline
 62
7
  6
CONTINUOUS
 70
0
 71
3
 72
17
 73
13
 74
0
 42
0.0000001
 43
0.0000001
 44
0.0000000001
 40
0.0
 40
0.0
 40
0.0
 40
0.0
 40
0.1520701339
 40
0.3029068309
 40
0.4478472606
 40
0.5829822891
 40
0.7054182193
 40
0.8140704783
 40
0.8637049659
 40
0.9107361744
 40
0.9558679346
 40
1.0
 40
1.0
 40
1.0
 40
1.0
 10
18.4715833607
 20
43.2221209616
 30
0.0
 10
18.5520092141
 20
43.22947546
 30
0.0
 10
18.7133046451
 20
43.2339742231
 30
0.0
 10
18.9506584689
 20
43.2112622667
 30
0.0
 10
19.1744319821
 20
43.1600929489
 30
0.0
 10
19.3746527612
 20
43.0827293381
 30
0.0
 10
19.5425097363
 20
42.9824160718
 30
0.0
 10
19.6526841205
 20
42.8794766386
 30
0.0
 10
19.7150607889
 20
42.7895879699
 30
0.0
 10
19.7480590385
 20
42.7215106088
 30
0.0
 10
19.768062454
 20
42.651563791
 30
0.0
 10
19.7725719013
 20
42.6040458203
 30
0.0
 10
19.7725754801
 20
42.5806081602
 30
0.0
  0
SPLINE
  5
51A
100
AcDbEntity
  8
0
100
AcDbSpline
 62
7
  6
CONTINUOUS
 70
0
 71
3
 72
11
 73
7
 74
0
 42
0.0000001
 43
0.0000001
 44
0.0000000001
 40
0.0
 40
0.0
 40
0.0
 40
0.0
 40
0.2301091715
 40
0.4756557378
 40
0.7335721386
 40
1.0
 40
1.0
 40
1.0
 40
1.0
 10
17.8520783192
 20
43.0398790091
 30
0.0
 10
17.8952770161
 20
43.0648196395
 30
0.0
 10
17.9882577903
 20
43.1101361193
 30
0.0
 10
18.1386085152
 20
43.1628247839
 30
0.0
 10
18.3012736383
 20
43.2013479534
 30
0.0
 10
18.4140689304
 20
43.2168615858
 30
0.0
 10
18.4715833607
 20
43.2221209616
 30
0.0
  0
SPLINE
  5
51B
100
AcDbEntity
  8
0
100
AcDbSpline
 62
7
  6
CONTINUOUS
 70
0
 71
3
 72
9
 73
5
 74
0
 42
0.0000001
 43
0.0000001
 44
0.0000000001
 40
0.0
 40
0.0
 40
0.0
 40
0.0
 40
0.2566055564
 40
1.0
 40
1.0
 40
1.0
 40
1.0
 10
17.8520783192
 20
42.3050268337
 30
0.0
 10
17.8429708486
 20
42.2997686644
 30
0.0
 10
17.8077905928
 20
42.2787453296
 30
0.0
 10
17.7738867364
 20
42.2555601646
 30
0.0
 10
17.749687584
 20
42.2370507983
 30
0.0
  0
SPLINE
  5
51C
100
AcDbEntity
  8
0
100
AcDbSpline
 62
7
  6
CONTINUOUS
 70
0
 71
3
 72
13
 73
9
 74
0
 42
0.0000001
 43
0.0000001
 44
0.0000000001
 40
0.0
 40
0.0
 40
0.0
 40
0.0
 40
0.2710446789
 40
0.535984016
 40
0.662143952
 40
0.7821860356
 40
0.8950118542
 40
1.0
 40
1.0
 40
1.0
 40
1.0
 10
18.4948968015
 20
42.4022890607
 30
0.0
 10
18.5850977446
 20
42.4105374369
 30
0.0
 10
18.7650666934
 20
42.4123025696
 30
0.0
 10
18.9849729283
 20
42.3791999305
 30
0.0
 10
19.1491374439
 20
42.3312197243
 30
0.0
 10
19.2607080667
 20
42.2864977803
 30
0.0
 10
19.360506453
 20
42.2332085675
 30
0.0
 10
19.4202018916
 20
42.1910974206
 30
0.0
 10
19.4472619307
 20
42.1687659222
 30
0.0
  0
SPLINE
  5
51D
100
AcDbEntity
  8
0
100
AcDbSpline
 62
7
  6
CONTINUOUS
 70
0
 71
3
 72
11
 73
7
 74
0
 42
0.0000001
 43
0.0000001
 44
0.0000000001
 40
0.0
 40
0.0
 40
0.0
 40
0.0
 40
0.2301095826
 40
0.4756564652
 40
0.7335725325
 40
1.0
 40
1.0
 40
1.0
 40
1.0
 10
17.9574561682
 20
42.2441882806
 30
0.0
 10
17.9949324862
 20
42.2658251137
 30
0.0
 10
18.0755967152
 20
42.3051380863
 30
0.0
 10
18.2060309578
 20
42.3508467631
 30
0.0
 10
18.3471479331
 20
42.3842673288
 30
0.0
 10
18.4450012677
 20
42.3977263908
 30
0.0
 10
18.4948968015
 20
42.4022890607
 30
0.0
  0
SPLINE
  5
51E
100
AcDbEntity
  8
0
100
AcDbSpline
 62
7
  6
CONTINUOUS
 70
0
 71
3
 72
11
 73
7
 74
0
 42
0.0000001
 43
0.0000001
 44
0.0000000001
 40
0.0
 40
0.0
 40
0.0
 40
0.0
 40
0.2575908895
 40
0.5143546502
 40
0.7635986398
 40
1.0
 40
1.0
 40
1.0
 40
1.0
 10
18.526184517
 20
42.1249418571
 30
0.0
 10
18.5753472922
 20
42.1294375203
 30
0.0
 10
18.6741001008
 20
42.1328765448
 30
0.0
 10
18.8203310607
 20
42.1219910008
 30
0.0
 10
18.9604191327
 20
42.0953904099
 30
0.0
 10
19.04934826
 20
42.0668568066
 30
0.0
 10
19.0913805041
 20
42.0499451696
 30
0.0
  0
SPLINE
  5
51F
100
AcDbEntity
  8
0
100
AcDbSpline
 62
7
  6
CONTINUOUS
 70
0
 71
3
 72
9
 73
5
 74
0
 42
0.0000001
 43
0.0000001
 44
0.0000000001
 40
0.0
 40
0.0
 40
0.0
 40
0.0
 40
0.4832221822
 40
1.0
 40
1.0
 40
1.0
 40
1.0
 10
18.1746772455
 20
42.0376434682
 30
0.0
 10
18.2281731986
 20
42.0613876459
 30
0.0
 10
18.3438367432
 20
42.0996467537
 30
0.0
 10
18.4638516274
 20
42.1192418599
 30
0.0
 10
18.526184517
 20
42.1249418571
 30
0.0
  0
SPLINE
  5
520
100
AcDbEntity
  8
0
100
AcDbSpline
 62
7
  6
CONTINUOUS
 70
0
 71
3
 72
15
 73
11
 74
0
 42
0.0000001
 43
0.0000001
 44
0.0000000001
 40
0.0
 40
0.0
 40
0.0
 40
0.0
 40
0.1480779156
 40
0.2917120753
 40
0.4292400984
 40
0.5595897799
 40
0.6819637574
 40
0.7959208886
 40
0.9016719369
 40
1.0
 40
1.0
 40
1.0
 40
1.0
 10
23.4200409598
 20
41.4990761877
 30
0.0
 10
23.3403893759
 20
41.5099203628
 30
0.0
 10
23.184226953
 20
41.5373769055
 30
0.0
 10
22.958525137
 20
41.5963808671
 30
0.0
 10
22.747929433
 20
41.6718732859
 30
0.0
 10
22.5560540216
 20
41.762556169
 30
0.0
 10
22.386016576
 20
41.8669068275
 30
0.0
 10
22.2406618661
 20
41.9834018688
 30
0.0
 10
22.1225062634
 20
42.1101859843
 30
0.0
 10
22.0613469489
 20
42.2034407755
 30
0.0
 10
22.0366700214
 20
42.2507731869
 30
0.0
  0
SPLINE
  5
521
100
AcDbEntity
  8
0
100
AcDbSpline
 62
7
  6
CONTINUOUS
 70
0
 71
3
 72
12
 73
8
 74
0
 42
0.0000001
 43
0.0000001
 44
0.0000000001
 40
0.0
 40
0.0
 40
0.0
 40
0.0
 40
0.2914688093
 40
0.5388339648
 40
0.6522718743
 40
0.7640859833
 40
1.0
 40
1.0
 40
1.0
 40
1.0
 10
23.5909907873
 20
41.3187323407
 30
0.0
 10
23.5973815398
 20
41.3224220214
 30
0.0
 10
23.6085268466
 20
41.3306330715
 30
0.0
 10
23.6179506272
 20
41.34483934
 30
0.0
 10
23.6205207363
 20
41.3566587454
 30
0.0
 10
23.6200212197
 20
41.3684379841
 30
0.0
 10
23.6161499478
 20
41.3768036028
 30
0.0
 10
23.6126638142
 20
41.3816535447
 30
0.0
  0
SPLINE
  5
522
100
AcDbEntity
  8
0
100
AcDbSpline
 62
7
  6
CONTINUOUS
 70
0
 71
3
 72
9
 73
5
 74
0
 42
0.0000001
 43
0.0000001
 44
0.0000000001
 40
0.0
 40
0.0
 40
0.0
 40
0.0
 40
0.2306975391
 40
1.0
 40
1.0
 40
1.0
 40
1.0
 10
23.6126638142
 20
41.3816535447
 30
0.0
 10
23.6113725882
 20
41.3834499104
 30
0.0
 10
23.6052393998
 20
41.3908511032
 30
0.0
 10
23.5973790017
 20
41.3966923377
 30
0.0
 10
23.5909900758
 20
41.4003809024
 30
0.0
  0
SPLINE
  5
523
100
AcDbEntity
  8
0
100
AcDbSpline
 62
7
  6
CONTINUOUS
 70
0
 71
3
 72
11
 73
7
 74
0
 42
0.0000001
 43
0.0000001
 44
0.0000000001
 40
0.0
 40
0.0
 40
0.0
 40
0.0
 40
0.2372438577
 40
0.5000007501
 40
0.7627572332
 40
1.0
 40
1.0
 40
1.0
 40
1.0
 10
20.8332854841
 20
39.808228487
 30
0.0
 10
20.8433245466
 20
39.8024325627
 30
0.0
 10
20.8666702933
 20
39.7939761133
 30
0.0
 10
20.9039961928
 20
39.7899242662
 30
0.0
 10
20.941322027
 20
39.7939763416
 30
0.0
 10
20.9646676154
 20
39.8024330015
 30
0.0
 10
20.9747065898
 20
39.8082289715
 30
0.0
  0
SPLINE
  5
524
100
AcDbEntity
  8
0
100
AcDbSpline
 62
7
  6
CONTINUOUS
 70
0
 71
3
 72
11
 73
7
 74
0
 42
0.0000001
 43
0.0000001
 44
0.0000000001
 40
0.0
 40
0.0
 40
0.0
 40
0.0
 40
0.2891678238
 40
0.5490791106
 40
0.782357745
 40
1.0
 40
1.0
 40
1.0
 40
1.0
 10
19.0781963934
 20
40.9031545842
 30
0.0
 10
19.0738169547
 20
40.9006261292
 30
0.0
 10
19.065867752
 20
40.8951306473
 30
0.0
 10
19.056333909
 20
40.885148171
 30
0.0
 10
19.0503190235
 20
40.8740735313
 30
0.0
 10
19.0489097477
 20
40.8661364128
 30
0.0
 10
19.0489097856
 20
40.8623303108
 30
0.0
  0
SPLINE
  5
525
100
AcDbEntity
  8
0
100
AcDbSpline
 62
7
  6
CONTINUOUS
 70
0
 71
3
 72
11
 73
7
 74
0
 42
0.0000001
 43
0.0000001
 44
0.0000000001
 40
0.0
 40
0.0
 40
0.0
 40
0.0
 40
0.2176415873
 40
0.4509202907
 40
0.710832026
 40
1.0
 40
1.0
 40
1.0
 40
1.0
 10
19.0489097856
 20
40.8623303108
 30
0.0
 10
19.0489098236
 20
40.8585241999
 30
0.0
 10
19.0503192652
 20
40.8505870785
 30
0.0
 10
19.0563343821
 20
40.8395124926
 30
0.0
 10
19.0658684426
 20
40.8295301092
 30
0.0
 10
19.0738177497
 20
40.8240346764
 30
0.0
 10
19.0781972326
 20
40.821506238
 30
0.0
  0
SPLINE
  5
526
100
AcDbEntity
  8
0
100
AcDbSpline
 62
7
  6
CONTINUOUS
 70
0
 71
3
 72
9
 73
5
 74
0
 42
0.0000001
 43
0.0000001
 44
0.0000000001
 40
0.0
 40
0.0
 40
0.0
 40
0.0
 40
0.4744870036
 40
1.0
 40
1.0
 40
1.0
 40
1.0
 10
21.835901947
 20
42.4136585826
 30
0.0
 10
21.8258628846
 20
42.4194545069
 30
0.0
 10
21.8025259365
 20
42.4279109557
 30
0.0
 10
21.7780298658
 20
42.4305670144
 30
0.0
 10
21.7651912203
 20
42.4305669717
 30
0.0
  0
SPLINE
  5
527
100
AcDbEntity
  8
0
100
AcDbSpline
 62
7
  6
CONTINUOUS
 70
0
 71
3
 72
9
 73
5
 74
0
 42
0.0000001
 43
0.0000001
 44
0.0000000001
 40
0.0
 40
0.0
 40
0.0
 40
0.0
 40
0.5255137545
 40
1.0
 40
1.0
 40
1.0
 40
1.0
 10
21.7651912203
 20
42.4305669717
 30
0.0
 10
21.7523525948
 20
42.430566929
 30
0.0
 10
21.7278566055
 20
42.4279107285
 30
0.0
 10
21.7045198158
 20
42.4194540681
 30
0.0
 10
21.6944808413
 20
42.413658098
 30
0.0
  0
SPLINE
  5
528
100
AcDbEntity
  8
0
100
AcDbSpline
 62
7
  6
CONTINUOUS
 70
0
 71
3
 72
21
 73
17
 74
0
 42
0.0000001
 43
0.0000001
 44
0.0000000001
 40
0.0
 40
0.0
 40
0.0
 40
0.0
 40
0.1581863109
 40
0.3139036094
 40
0.3888997257
 40
0.4610279977
 40
0.5296872582
 40
0.5944509939
 40
0.6550588774
 40
0.7115026542
 40
0.7640394659
 40
0.8132827503
 40
0.8601818227
 40
0.9060005319
 40
0.9521546495
 40
1.0
 40
1.0
 40
1.0
 40
1.0
 10
21.1429564585
 20
41.8094796962
 30
0.0
 10
21.2447286778
 20
41.8187862015
 30
0.0
 10
21.4482928542
 20
41.822423662
 30
0.0
 10
21.698550093
 20
41.7909080723
 30
0.0
 10
21.8886326916
 20
41.7437663532
 30
0.0
 10
22.020855368
 20
41.6990218409
 30
0.0
 10
22.1424117706
 20
41.6450512915
 30
0.0
 10
22.2514714154
 20
41.582755194
 30
0.0
 10
22.3463114286
 20
41.5129544621
 30
0.0
 10
22.4255257808
 20
41.4367293689
 30
0.0
 10
22.4877392721
 20
41.3550425483
 30
0.0
 10
22.5319220318
 20
41.2691120977
 30
0.0
 10
22.5569801209
 20
41.1801959034
 30
0.0
 10
22.5623491609
 20
41.0899070866
 30
0.0
 10
22.5477317216
 20
41.0000778389
 30
0.0
 10
22.5256006372
 20
40.9430221474
 30
0.0
 10
22.511815428
 20
40.9153556119
 30
0.0
  0
SPLINE
  5
529
100
AcDbEntity
  8
0
100
AcDbSpline
 62
7
  6
CONTINUOUS
 70
0
 71
3
 72
10
 73
6
 74
0
 42
0.0000001
 43
0.0000001
 44
0.0000000001
 40
0.0
 40
0.0
 40
0.0
 40
0.0
 40
0.4636225209
 40
0.7227157179
 40
1.0
 40
1.0
 40
1.0
 40
1.0
 10
22.511815428
 20
40.9153556119
 30
0.0
 10
22.4814696547
 20
40.8544524796
 30
0.0
 10
22.4146291506
 20
40.7688127984
 30
0.0
 10
22.3022490095
 20
40.6742803642
 30
0.0
 10
22.2360471333
 20
40.6311966155
 30
0.0
 10
22.2008031289
 20
40.6108486105
 30
0.0
  0
SPLINE
  5
52A
100
AcDbEntity
  8
0
100
AcDbSpline
 62
7
  6
CONTINUOUS
 70
0
 71
3
 72
11
 73
7
 74
0
 42
0.0000001
 43
0.0000001
 44
0.0000000001
 40
0.0
 40
0.0
 40
0.0
 40
0.0
 40
0.2301095826
 40
0.4756564652
 40
0.7335725325
 40
1.0
 40
1.0
 40
1.0
 40
1.0
 10
20.4683843023
 20
41.6110384591
 30
0.0
 10
20.5154229501
 20
41.638196073
 30
0.0
 10
20.6166691892
 20
41.6875400099
 30
0.0
 10
20.7803845893
 20
41.744911557
 30
0.0
 10
20.9575084916
 20
41.7868596005
 30
0.0
 10
21.08032975
 20
41.803752831
 30
0.0
 10
21.1429564585
 20
41.8094796962
 30
0.0
  0
SPLINE
  5
52B
100
AcDbEntity
  8
0
100
AcDbSpline
 62
7
  6
CONTINUOUS
 70
0
 71
3
 72
13
 73
9
 74
0
 42
0.0000001
 43
0.0000001
 44
0.0000000001
 40
0.0
 40
0.0
 40
0.0
 40
0.0
 40
0.1127791128
 40
0.2324391428
 40
0.3574376819
 40
0.4861805212
 40
0.7471106054
 40
1.0
 40
1.0
 40
1.0
 40
1.0
 10
22.1654477551
 20
40.5912439675
 30
0.0
 10
22.1188168083
 20
40.5664088997
 30
0.0
 10
22.0193627977
 20
40.5213559871
 30
0.0
 10
21.8599882119
 20
40.4691240547
 30
0.0
 10
21.6889507351
 20
40.4311742888
 30
0.0
 10
21.4495131513
 20
40.4006342995
 30
0.0
 10
21.1469978118
 20
40.4016081663
 30
0.0
 10
20.9084284784
 20
40.4438577327
 30
0.0
 10
20.7944534888
 20
40.476172799
 30
0.0
  0
SPLINE
  5
52C
100
AcDbEntity
  8
0
100
AcDbSpline
 62
7
  6
CONTINUOUS
 70
0
 71
3
 72
11
 73
7
 74
0
 42
0.0000001
 43
0.0000001
 44
0.0000000001
 40
0.0
 40
0.0
 40
0.0
 40
0.0
 40
0.2886799855
 40
0.5523111457
 40
0.7887334629
 40
1.0
 40
1.0
 40
1.0
 40
1.0
 10
20.7394621669
 20
40.4927760908
 30
0.0
 10
20.6711678845
 20
40.5146882085
 30
0.0
 10
20.5429827294
 20
40.5651921352
 30
0.0
 10
20.3733211278
 20
40.665179498
 30
0.0
 10
20.239989219
 20
40.7830625183
 30
0.0
 10
20.1759925166
 20
40.8760739879
 30
0.0
 10
20.1534243456
 20
40.9234644793
 30
0.0
  0
SPLINE
  5
52D
100
AcDbEntity
  8
0
100
AcDbSpline
 62
7
  6
CONTINUOUS
 70
0
 71
3
 72
15
 73
11
 74
0
 42
0.0000001
 43
0.0000001
 44
0.0000000001
 40
0.0
 40
0.0
 40
0.0
 40
0.0
 40
0.115541463
 40
0.2272397082
 40
0.3388048093
 40
0.4539447537
 40
0.5758375846
 40
0.7068154328
 40
0.848214282
 40
1.0
 40
1.0
 40
1.0
 40
1.0
 10
20.1534243456
 20
40.9234644793
 30
0.0
 10
20.1395562019
 20
40.9525859417
 30
0.0
 10
20.1178276369
 20
41.0127749116
 30
0.0
 10
20.1059693946
 20
41.107416679
 30
0.0
 10
20.1162210931
 20
41.2021717131
 30
0.0
 10
20.1480375768
 20
41.2949231675
 30
0.0
 10
20.2006418217
 20
41.3838886712
 30
0.0
 10
20.272743291
 20
41.4677029453
 30
0.0
 10
20.3629812922
 20
41.5449505423
 30
0.0
 10
20.4316880794
 20
41.5898520114
 30
0.0
 10
20.4683843023
 20
41.6110384591
 30
0.0
  0
SPLINE
  5
52E
100
AcDbEntity
  8
0
100
AcDbSpline
 62
7
  6
CONTINUOUS
 70
0
 71
3
 72
17
 73
13
 74
0
 42
0.0000001
 43
0.0000001
 44
0.0000000001
 40
0.0
 40
0.0
 40
0.0
 40
0.0
 40
0.1520701339
 40
0.3029068309
 40
0.4478472606
 40
0.5829822891
 40
0.7054182193
 40
0.8140704783
 40
0.8637049659
 40
0.9107361744
 40
0.9558679346
 40
1.0
 40
1.0
 40
1.0
 40
1.0
 10
23.8456172718
 20
40.1194912272
 30
0.0
 10
23.9260431252
 20
40.1268457256
 30
0.0
 10
24.0873385562
 20
40.1313444888
 30
0.0
 10
24.32469238
 20
40.1086325324
 30
0.0
 10
24.5484658932
 20
40.0574632145
 30
0.0
 10
24.7486866723
 20
39.9800996038
 30
0.0
 10
24.9165436474
 20
39.8797863374
 30
0.0
 10
25.0267180316
 20
39.7768469043
 30
0.0
 10
25.0890947
 20
39.6869582355
 30
0.0
 10
25.1220929496
 20
39.6188808745
 30
0.0
 10
25.1420963651
 20
39.5489340567
 30
0.0
 10
25.1466058124
 20
39.501416086
 30
0.0
 10
25.1466093913
 20
39.4779784258
 30
0.0
  0
SPLINE
  5
52F
100
AcDbEntity
  8
0
100
AcDbSpline
 62
7
  6
CONTINUOUS
 70
0
 71
3
 72
11
 73
7
 74
0
 42
0.0000001
 43
0.0000001
 44
0.0000000001
 40
0.0
 40
0.0
 40
0.0
 40
0.0
 40
0.23721727
 40
0.499998382
 40
0.7627803746
 40
1.0
 40
1.0
 40
1.0
 40
1.0
 10
20.8332852336
 20
39.8082286316
 30
0.0
 10
20.8232472541
 20
39.8024332361
 30
0.0
 10
20.8042496195
 20
39.7864449798
 30
0.0
 10
20.7820763423
 20
39.7561446284
 30
0.0
 10
20.7669222396
 20
39.7217916465
 30
0.0
 10
20.7625748499
 20
39.6973449326
 30
0.0
 10
20.7625748499
 20
39.6857539745
 30
0.0
  0
SPLINE
  5
530
100
AcDbEntity
  8
0
100
AcDbSpline
 62
7
  6
CONTINUOUS
 70
0
 71
3
 72
11
 73
7
 74
0
 42
0.0000001
 43
0.0000001
 44
0.0000000001
 40
0.0
 40
0.0
 40
0.0
 40
0.0
 40
0.2372193634
 40
0.5000010919
 40
0.762782226
 40
1.0
 40
1.0
 40
1.0
 40
1.0
 10
21.0454175624
 20
39.6857546544
 30
0.0
 10
21.0454175624
 20
39.6973456063
 30
0.0
 10
21.0410701369
 20
39.7217923092
 30
0.0
 10
21.0259158977
 20
39.7561452329
 30
0.0
 10
21.0037424216
 20
39.7864454875
 30
0.0
 10
20.9847446381
 20
39.8024336328
 30
0.0
 10
20.9747065898
 20
39.8082289715
 30
0.0
  0
SPLINE
  5
531
100
AcDbEntity
  8
0
100
AcDbSpline
 62
7
  6
CONTINUOUS
 70
0
 71
3
 72
13
 73
9
 74
0
 42
0.0000001
 43
0.0000001
 44
0.0000000001
 40
0.0
 40
0.0
 40
0.0
 40
0.0
 40
0.1140527599
 40
0.2375333554
 40
0.5000005226
 40
0.7624674038
 40
0.8859476642
 40
1.0
 40
1.0
 40
1.0
 40
1.0
 10
20.7625748499
 20
39.6857539745
 30
0.0
 10
20.7722388657
 20
39.6801745786
 30
0.0
 10
20.7934201486
 20
39.6703407622
 30
0.0
 10
20.8403244886
 20
39.6560378223
 30
0.0
 10
20.9039964276
 20
39.6491437345
 30
0.0
 10
20.9676683056
 20
39.6560381166
 30
0.0
 10
21.0145724694
 20
39.6703412874
 30
0.0
 10
21.0357536227
 20
39.6801752095
 30
0.0
 10
21.0454175624
 20
39.6857546544
 30
0.0
  0
SPLINE
  5
532
100
AcDbEntity
  8
0
100
AcDbSpline
 62
7
  6
CONTINUOUS
 70
0
 71
3
 72
11
 73
7
 74
0
 42
0.0000001
 43
0.0000001
 44
0.0000000001
 40
0.0
 40
0.0
 40
0.0
 40
0.0
 40
0.2372196254
 40
0.500001618
 40
0.76278273
 40
1.0
 40
1.0
 40
1.0
 40
1.0
 10
19.0074868489
 20
40.6990315809
 30
0.0
 10
19.0074868489
 20
40.710622539
 30
0.0
 10
19.0118342386
 20
40.7350692529
 30
0.0
 10
19.0269883413
 20
40.7694222348
 30
0.0
 10
19.0491616185
 20
40.7997225862
 30
0.0
 10
19.0681592532
 20
40.8157108425
 30
0.0
 10
19.0781972326
 20
40.821506238
 30
0.0
  0
SPLINE
  5
533
100
AcDbEntity
  8
0
100
AcDbSpline
 62
7
  6
CONTINUOUS
 70
0
 71
3
 72
9
 73
5
 74
0
 42
0.0000001
 43
0.0000001
 44
0.0000000001
 40
0.0
 40
0.0
 40
0.0
 40
0.0
 40
0.2389991235
 40
1.0
 40
1.0
 40
1.0
 40
1.0
 10
29.8552485341
 20
33.2930072112
 30
0.0
 10
29.8522684617
 20
33.2912866805
 30
0.0
 10
29.8395977011
 20
33.2844389877
 30
0.0
 10
29.8262290113
 20
33.2789182417
 30
0.0
 10
29.815864665
 20
33.2753640915
 30
0.0
  0
SPLINE
  5
534
100
AcDbEntity
  8
0
100
AcDbSpline
 62
7
  6
CONTINUOUS
 70
0
 71
3
 72
9
 73
5
 74
0
 42
0.0000001
 43
0.0000001
 44
0.0000000001
 40
0.0
 40
0.0
 40
0.0
 40
0.0
 40
0.2404264762
 40
1.0
 40
1.0
 40
1.0
 40
1.0
 10
29.815864665
 20
33.2753640915
 30
0.0
 10
29.8080125851
 20
33.2726714497
 30
0.0
 10
29.7748318572
 20
33.2630196738
 30
0.0
 10
29.7400523557
 20
33.2591895258
 30
0.0
 10
29.7138274217
 20
33.2591894638
 30
0.0
  0
SPLINE
  5
535
100
AcDbEntity
  8
0
100
AcDbSpline
 62
7
  6
CONTINUOUS
 70
0
 71
3
 72
9
 73
5
 74
0
 42
0.0000001
 43
0.0000001
 44
0.0000000001
 40
0.0
 40
0.0
 40
0.0
 40
0.0
 40
0.2576110061
 40
1.0
 40
1.0
 40
1.0
 40
1.0
 10
29.7138274217
 20
33.2591894638
 30
0.0
 10
29.7049343502
 20
33.2591894428
 30
0.0
 10
29.6704410859
 20
33.2605268337
 30
0.0
 10
29.6360316144
 20
33.2670506964
 30
0.0
 10
29.6117891283
 20
33.2753638723
 30
0.0
  0
SPLINE
  5
536
100
AcDbEntity
  8
0
100
AcDbSpline
 62
7
  6
CONTINUOUS
 70
0
 71
3
 72
9
 73
5
 74
0
 42
0.0000001
 43
0.0000001
 44
0.0000000001
 40
0.0
 40
0.0
 40
0.0
 40
0.0
 40
0.2606842487
 40
1.0
 40
1.0
 40
1.0
 40
1.0
 10
29.6117891283
 20
33.2753638723
 30
0.0
 10
29.6082390206
 20
33.2765812669
 30
0.0
 10
29.5947247445
 20
33.2815420948
 30
0.0
 10
29.5816237119
 20
33.2876847002
 30
0.0
 10
29.5724058216
 20
33.2930065313
 30
0.0
  0
SPLINE
  5
537
100
AcDbEntity
  8
0
100
AcDbSpline
 62
7
  6
CONTINUOUS
 70
0
 71
3
 72
9
 73
5
 74
0
 42
0.0000001
 43
0.0000001
 44
0.0000000001
 40
0.0
 40
0.0
 40
0.0
 40
0.0
 40
0.4773840406
 40
1.0
 40
1.0
 40
1.0
 40
1.0
 10
19.9557424107
 20
40.0699202114
 30
0.0
 10
19.9688205274
 20
40.0774708205
 30
0.0
 10
19.9981088378
 20
40.090067945
 30
0.0
 10
20.0290619617
 20
40.0972783793
 30
0.0
 10
20.0453997424
 20
40.0998058488
 30
0.0
  0
SPLINE
  5
538
100
AcDbEntity
  8
0
100
AcDbSpline
 62
7
  6
CONTINUOUS
 70
0
 71
3
 72
9
 73
5
 74
0
 42
0.0000001
 43
0.0000001
 44
0.0000000001
 40
0.0
 40
0.0
 40
0.0
 40
0.0
 40
0.2245233449
 40
1.0
 40
1.0
 40
1.0
 40
1.0
 10
19.7246619564
 20
40.2849797067
 30
0.0
 10
19.7223340447
 20
40.2799637422
 30
0.0
 10
19.7096334999
 20
40.258686287
 30
0.0
 10
19.6894390977
 20
40.2427661628
 30
0.0
 10
19.6728985207
 20
40.2332165132
 30
0.0
  0
SPLINE
  5
539
100
AcDbEntity
  8
0
100
AcDbSpline
 62
7
  6
CONTINUOUS
 70
0
 71
3
 72
11
 73
7
 74
0
 42
0.0000001
 43
0.0000001
 44
0.0000000001
 40
0.0
 40
0.0
 40
0.0
 40
0.0
 40
0.2372178137
 40
0.4999994738
 40
0.7627814204
 40
1.0
 40
1.0
 40
1.0
 40
1.0
 10
20.0264533832
 20
39.9474458943
 30
0.0
 10
20.0364913739
 20
39.9532412963
 30
0.0
 10
20.0598364536
 20
39.9616995574
 30
0.0
 10
20.0971639502
 20
39.9657521159
 30
0.0
 10
20.1344915031
 20
39.9616997277
 30
0.0
 10
20.1578366746
 20
39.9532415825
 30
0.0
 10
20.1678747395
 20
39.9474462342
 30
0.0
  0
SPLINE
  5
53A
100
AcDbEntity
  8
0
100
AcDbSpline
 62
7
  6
CONTINUOUS
 70
0
 71
3
 72
11
 73
7
 74
0
 42
0.0000001
 43
0.0000001
 44
0.0000000001
 40
0.0
 40
0.0
 40
0.0
 40
0.0
 40
0.237217774
 40
0.4999989081
 40
0.7627806366
 40
1.0
 40
1.0
 40
1.0
 40
1.0
 10
19.9557424107
 20
40.0699202114
 30
0.0
 10
19.965780459
 20
40.0641248726
 30
0.0
 10
19.9847782424
 20
40.0481367274
 30
0.0
 10
20.0069517185
 20
40.0178364728
 30
0.0
 10
20.0221059577
 20
39.9834835491
 30
0.0
 10
20.0264533832
 20
39.9590368461
 30
0.0
 10
20.0264533832
 20
39.9474458943
 30
0.0
  0
SPLINE
  5
53B
100
AcDbEntity
  8
0
100
AcDbSpline
 62
7
  6
CONTINUOUS
 70
0
 71
3
 72
9
 73
5
 74
0
 42
0.0000001
 43
0.0000001
 44
0.0000000001
 40
0.0
 40
0.0
 40
0.0
 40
0.0
 40
0.47443666
 40
1.0
 40
1.0
 40
1.0
 40
1.0
 10
20.1678747395
 20
37.6612394662
 30
0.0
 10
20.1578366754
 20
37.6670348158
 30
0.0
 10
20.1345003256
 20
37.675492959
 30
0.0
 10
20.1100039012
 20
37.6781492832
 30
0.0
 10
20.0971639394
 20
37.6781492524
 30
0.0
  0
SPLINE
  5
53C
100
AcDbEntity
  8
0
100
AcDbSpline
 62
7
  6
CONTINUOUS
 70
0
 71
3
 72
9
 73
5
 74
0
 42
0.0000001
 43
0.0000001
 44
0.0000000001
 40
0.0
 40
0.0
 40
0.0
 40
0.0
 40
0.5252219452
 40
1.0
 40
1.0
 40
1.0
 40
1.0
 10
20.086392179
 20
37.6778119145
 30
0.0
 10
20.0754571074
 20
37.6771263488
 30
0.0
 10
20.0547100086
 20
37.6738570304
 30
0.0
 10
20.0350307211
 20
37.6661912251
 30
0.0
 10
20.0264533832
 20
37.6612391263
 30
0.0
  0
SPLINE
  5
53D
100
AcDbEntity
  8
0
100
AcDbSpline
 62
7
  6
CONTINUOUS
 70
0
 71
3
 72
13
 73
9
 74
0
 42
0.0000001
 43
0.0000001
 44
0.0000000001
 40
0.0
 40
0.0
 40
0.0
 40
0.0
 40
0.1140623922
 40
0.2375575596
 40
0.4999994774
 40
0.7624416812
 40
0.8859371837
 40
1.0
 40
1.0
 40
1.0
 40
1.0
 10
26.4194514735
 20
31.3575094504
 30
0.0
 10
26.4097867347
 20
31.3519295442
 30
0.0
 10
26.388602471
 20
31.3420967059
 30
0.0
 10
26.3416985529
 20
31.3277939952
 30
0.0
 10
26.2780303387
 20
31.3209021952
 30
0.0
 10
26.2143620635
 20
31.3277937009
 30
0.0
 10
26.1674579692
 20
31.3420961807
 30
0.0
 10
26.146273576
 20
31.3519289132
 30
0.0
 10
26.136608761
 20
31.3575087705
 30
0.0
  0
SPLINE
  5
53E
100
AcDbEntity
  8
0
100
AcDbSpline
 62
7
  6
CONTINUOUS
 70
0
 71
3
 72
9
 73
5
 74
0
 42
0.0000001
 43
0.0000001
 44
0.0000000001
 40
0.0
 40
0.0
 40
0.0
 40
0.0
 40
0.5447423966
 40
1.0
 40
1.0
 40
1.0
 40
1.0
 10
19.6021869593
 20
40.2740388378
 30
0.0
 10
19.60919463
 20
40.2699930488
 30
0.0
 10
19.6213115728
 20
40.2609368474
 30
0.0
 10
19.6290552135
 20
40.2474737715
 30
0.0
 10
19.6305866926
 20
40.2408869787
 30
0.0
  0
SPLINE
  5
53F
100
AcDbEntity
  8
0
100
AcDbSpline
 62
7
  6
CONTINUOUS
 70
0
 71
3
 72
9
 73
5
 74
0
 42
0.0000001
 43
0.0000001
 44
0.0000000001
 40
0.0
 40
0.0
 40
0.0
 40
0.0
 40
0.4744377155
 40
1.0
 40
1.0
 40
1.0
 40
1.0
 10
18.7254032776
 20
39.6045329033
 30
0.0
 10
18.7254032776
 20
39.6161238613
 30
0.0
 10
18.7297462558
 20
39.6405629338
 30
0.0
 10
18.7396939066
 20
39.6631057737
 30
0.0
 10
18.7461138695
 20
39.6742255373
 30
0.0
  0
SPLINE
  5
540
100
AcDbEntity
  8
0
100
AcDbSpline
 62
7
  6
CONTINUOUS
 70
0
 71
3
 72
9
 73
5
 74
0
 42
0.0000001
 43
0.0000001
 44
0.0000000001
 40
0.0
 40
0.0
 40
0.0
 40
0.0
 40
0.255502651
 40
1.0
 40
1.0
 40
1.0
 40
1.0
 10
18.7461138695
 20
39.6742255373
 30
0.0
 10
18.7480092969
 20
39.6775085321
 30
0.0
 10
18.7558500225
 20
39.690105046
 30
0.0
 10
18.7653207552
 20
39.7017198707
 30
0.0
 10
18.7732469245
 20
39.7094134325
 30
0.0
  0
SPLINE
  5
541
100
AcDbEntity
  8
0
100
AcDbSpline
 62
7
  6
CONTINUOUS
 70
0
 71
3
 72
9
 73
5
 74
0
 42
0.0000001
 43
0.0000001
 44
0.0000000001
 40
0.0
 40
0.0
 40
0.0
 40
0.0
 40
0.2629554435
 40
1.0
 40
1.0
 40
1.0
 40
1.0
 10
18.7732469245
 20
39.7094134325
 30
0.0
 10
18.7750640359
 20
39.7111772175
 30
0.0
 10
18.7821528699
 20
39.7176935597
 30
0.0
 10
18.7899665968
 20
39.7234585722
 30
0.0
 10
18.7961136614
 20
39.7270075604
 30
0.0
  0
SPLINE
  5
542
100
AcDbEntity
  8
0
100
AcDbSpline
 62
7
  6
CONTINUOUS
 70
0
 71
3
 72
11
 73
7
 74
0
 42
0.0000001
 43
0.0000001
 44
0.0000000001
 40
0.0
 40
0.0
 40
0.0
 40
0.0
 40
0.23721727
 40
0.499998382
 40
0.7627803746
 40
1.0
 40
1.0
 40
1.0
 40
1.0
 10
19.0789575514
 20
39.5637112585
 30
0.0
 10
19.0689195719
 20
39.557915863
 30
0.0
 10
19.0499219373
 20
39.5419276067
 30
0.0
 10
19.0277486601
 20
39.5116272554
 30
0.0
 10
19.0125945574
 20
39.4772742734
 30
0.0
 10
19.0082471677
 20
39.4528275595
 30
0.0
 10
19.0082471677
 20
39.4412366014
 30
0.0
  0
SPLINE
  5
543
100
AcDbEntity
  8
0
100
AcDbSpline
 62
7
  6
CONTINUOUS
 70
0
 71
3
 72
11
 73
7
 74
0
 42
0.0000001
 43
0.0000001
 44
0.0000000001
 40
0.0
 40
0.0
 40
0.0
 40
0.0
 40
0.2372193634
 40
0.5000010919
 40
0.762782226
 40
1.0
 40
1.0
 40
1.0
 40
1.0
 10
19.1496685239
 20
39.4412369414
 30
0.0
 10
19.1496685239
 20
39.4528278933
 30
0.0
 10
19.1453210984
 20
39.4772745962
 30
0.0
 10
19.1301668592
 20
39.5116275199
 30
0.0
 10
19.1079933831
 20
39.5419277745
 30
0.0
 10
19.0889955997
 20
39.5579159198
 30
0.0
 10
19.0789575514
 20
39.5637112585
 30
0.0
  0
SPLINE
  5
544
100
AcDbEntity
  8
0
100
AcDbSpline
 62
7
  6
CONTINUOUS
 70
0
 71
3
 72
11
 73
7
 74
0
 42
0.0000001
 43
0.0000001
 44
0.0000000001
 40
0.0
 40
0.0
 40
0.0
 40
0.0
 40
0.2372185796
 40
0.5000005262
 40
0.7627821863
 40
1.0
 40
1.0
 40
1.0
 40
1.0
 10
19.0082471677
 20
39.4412366014
 30
0.0
 10
19.0182852325
 20
39.4354412531
 30
0.0
 10
19.0416304041
 20
39.4269831079
 30
0.0
 10
19.078957957
 20
39.4229307198
 30
0.0
 10
19.1162854536
 20
39.4269832783
 30
0.0
 10
19.1396305333
 20
39.4354415394
 30
0.0
 10
19.1496685239
 20
39.4412369414
 30
0.0
  0
SPLINE
  5
545
100
AcDbEntity
  8
0
100
AcDbSpline
 62
7
  6
CONTINUOUS
 70
0
 71
3
 72
9
 73
5
 74
0
 42
0.0000001
 43
0.0000001
 44
0.0000000001
 40
0.0
 40
0.0
 40
0.0
 40
0.0
 40
0.4744361267
 40
1.0
 40
1.0
 40
1.0
 40
1.0
 10
19.1496685239
 20
37.1550301734
 30
0.0
 10
19.1396305333
 20
37.1492347714
 30
0.0
 10
19.1162942765
 20
37.1407765103
 30
0.0
 10
19.0917979156
 20
37.1381200782
 30
0.0
 10
19.0789579678
 20
37.1381200473
 30
0.0
  0
SPLINE
  5
546
100
AcDbEntity
  8
0
100
AcDbSpline
 62
7
  6
CONTINUOUS
 70
0
 71
3
 72
9
 73
5
 74
0
 42
0.0000001
 43
0.0000001
 44
0.0000000001
 40
0.0
 40
0.0
 40
0.0
 40
0.0
 40
0.2555021743
 40
1.0
 40
1.0
 40
1.0
 40
1.0
 10
19.0789579678
 20
37.1381200473
 30
0.0
 10
19.0751671199
 20
37.1381200382
 30
0.0
 10
19.060337917
 20
37.1386120355
 30
0.0
 10
19.0455438779
 20
37.1410064478
 30
0.0
 10
19.0349179863
 20
37.1440238351
 30
0.0
  0
SPLINE
  5
547
100
AcDbEntity
  8
0
100
AcDbSpline
 62
7
  6
CONTINUOUS
 70
0
 71
3
 72
9
 73
5
 74
0
 42
0.0000001
 43
0.0000001
 44
0.0000000001
 40
0.0
 40
0.0
 40
0.0
 40
0.0
 40
0.2629554488
 40
1.0
 40
1.0
 40
1.0
 40
1.0
 10
19.0349179863
 20
37.1440238351
 30
0.0
 10
19.032481908
 20
37.1447155975
 30
0.0
 10
19.023294019
 20
37.1475964996
 30
0.0
 10
19.0143943445
 20
37.1514808396
 30
0.0
 10
19.0082471677
 20
37.1550298335
 30
0.0
  0
SPLINE
  5
548
100
AcDbEntity
  8
0
100
AcDbSpline
 62
7
  6
CONTINUOUS
 70
0
 71
3
 72
11
 73
7
 74
0
 42
0.0000001
 43
0.0000001
 44
0.0000000001
 40
0.0
 40
0.0
 40
0.0
 40
0.0
 40
0.237217774
 40
0.4999989081
 40
0.7627806366
 40
1.0
 40
1.0
 40
1.0
 40
1.0
 10
23.5909907873
 20
41.3187323407
 30
0.0
 10
23.6010288356
 20
41.3129370019
 30
0.0
 10
23.620026619
 20
41.2969488567
 30
0.0
 10
23.6422000951
 20
41.2666486021
 30
0.0
 10
23.6573543343
 20
41.2322956783
 30
0.0
 10
23.6617017598
 20
41.2078489754
 30
0.0
 10
23.6617017598
 20
41.1962580236
 30
0.0
  0
SPLINE
  5
549
100
AcDbEntity
  8
0
100
AcDbSpline
 62
7
  6
CONTINUOUS
 70
0
 71
3
 72
17
 73
13
 74
0
 42
0.0000001
 43
0.0000001
 44
0.0000000001
 40
0.0
 40
0.0
 40
0.0
 40
0.0
 40
0.1520701339
 40
0.3029068309
 40
0.4478472606
 40
0.5829822891
 40
0.7054182193
 40
0.8140704783
 40
0.8637049659
 40
0.9107361744
 40
0.9558679346
 40
1.0
 40
1.0
 40
1.0
 40
1.0
 10
21.1586003162
 20
41.6708060944
 30
0.0
 10
21.2390261697
 20
41.6781605928
 30
0.0
 10
21.4003216006
 20
41.6826593559
 30
0.0
 10
21.6376754245
 20
41.6599473995
 30
0.0
 10
21.8614489377
 20
41.6087780817
 30
0.0
 10
22.0616697167
 20
41.5314144709
 30
0.0
 10
22.2295266919
 20
41.4311012046
 30
0.0
 10
22.3397010761
 20
41.3281617715
 30
0.0
 10
22.4020777444
 20
41.2382731027
 30
0.0
 10
22.4350759941
 20
41.1701957417
 30
0.0
 10
22.4550794096
 20
41.1002489239
 30
0.0
 10
22.4595888569
 20
41.0527309531
 30
0.0
 10
22.4595924357
 20
41.029293293
 30
0.0
  0
SPLINE
  5
54A
100
AcDbEntity
  8
0
100
AcDbSpline
 62
7
  6
CONTINUOUS
 70
0
 71
3
 72
11
 73
7
 74
0
 42
0.0000001
 43
0.0000001
 44
0.0000000001
 40
0.0
 40
0.0
 40
0.0
 40
0.0
 40
0.2301091715
 40
0.4756557378
 40
0.7335721386
 40
1.0
 40
1.0
 40
1.0
 40
1.0
 10
20.5390952748
 20
41.4885641419
 30
0.0
 10
20.5822939717
 20
41.5135047723
 30
0.0
 10
20.6752747458
 20
41.5588212521
 30
0.0
 10
20.8256254708
 20
41.6115099167
 30
0.0
 10
20.9882905939
 20
41.6500330862
 30
0.0
 10
21.1010858859
 20
41.6655467186
 30
0.0
 10
21.1586003162
 20
41.6708060944
 30
0.0
  0
SPLINE
  5
54B
100
AcDbEntity
  8
0
100
AcDbSpline
 62
7
  6
CONTINUOUS
 70
0
 71
3
 72
9
 73
5
 74
0
 42
0.0000001
 43
0.0000001
 44
0.0000000001
 40
0.0
 40
0.0
 40
0.0
 40
0.0
 40
0.2566055564
 40
1.0
 40
1.0
 40
1.0
 40
1.0
 10
20.5390952748
 20
40.7537119665
 30
0.0
 10
20.5299878041
 20
40.7484537972
 30
0.0
 10
20.4948075484
 20
40.7274304624
 30
0.0
 10
20.4609036919
 20
40.7042452974
 30
0.0
 10
20.4367045396
 20
40.6857359312
 30
0.0
  0
SPLINE
  5
54C
100
AcDbEntity
  8
0
100
AcDbSpline
 62
7
  6
CONTINUOUS
 70
0
 71
3
 72
13
 73
9
 74
0
 42
0.0000001
 43
0.0000001
 44
0.0000000001
 40
0.0
 40
0.0
 40
0.0
 40
0.0
 40
0.2710446789
 40
0.535984016
 40
0.662143952
 40
0.7821860356
 40
0.8950118542
 40
1.0
 40
1.0
 40
1.0
 40
1.0
 10
21.1819137571
 20
40.8509741936
 30
0.0
 10
21.2721147001
 20
40.8592225697
 30
0.0
 10
21.452083649
 20
40.8609877025
 30
0.0
 10
21.6719898839
 20
40.8278850633
 30
0.0
 10
21.8361543995
 20
40.7799048572
 30
0.0
 10
21.9477250223
 20
40.7351829131
 30
0.0
 10
22.0475234086
 20
40.6818937004
 30
0.0
 10
22.1072188472
 20
40.6397825534
 30
0.0
 10
22.1342788862
 20
40.617451055
 30
0.0
  0
SPLINE
  5
54D
100
AcDbEntity
  8
0
100
AcDbSpline
 62
7
  6
CONTINUOUS
 70
0
 71
3
 72
11
 73
7
 74
0
 42
0.0000001
 43
0.0000001
 44
0.0000000001
 40
0.0
 40
0.0
 40
0.0
 40
0.0
 40
0.2301095826
 40
0.4756564652
 40
0.7335725325
 40
1.0
 40
1.0
 40
1.0
 40
1.0
 10
20.6444731237
 20
40.6928734134
 30
0.0
 10
20.6819494418
 20
40.7145102466
 30
0.0
 10
20.7626136708
 20
40.7538232192
 30
0.0
 10
20.8930479134
 20
40.7995318959
 30
0.0
 10
21.0341648886
 20
40.8329524616
 30
0.0
 10
21.1320182232
 20
40.8464115236
 30
0.0
 10
21.1819137571
 20
40.8509741936
 30
0.0
  0
SPLINE
  5
54E
100
AcDbEntity
  8
0
100
AcDbSpline
 62
7
  6
CONTINUOUS
 70
0
 71
3
 72
11
 73
7
 74
0
 42
0.0000001
 43
0.0000001
 44
0.0000000001
 40
0.0
 40
0.0
 40
0.0
 40
0.0
 40
0.2301091715
 40
0.4756557378
 40
0.7335721386
 40
1.0
 40
1.0
 40
1.0
 40
1.0
 10
23.2261122303
 20
39.9372492747
 30
0.0
 10
23.2693109273
 20
39.9621899052
 30
0.0
 10
23.3622917014
 20
40.0075063849
 30
0.0
 10
23.5126424263
 20
40.0601950495
 30
0.0
 10
23.6753075495
 20
40.098718219
 30
0.0
 10
23.7881028415
 20
40.1142318514
 30
0.0
 10
23.8456172718
 20
40.1194912272
 30
0.0
  0
SPLINE
  5
54F
100
AcDbEntity
  8
0
100
AcDbSpline
 62
7
  6
CONTINUOUS
 70
0
 71
3
 72
11
 73
7
 74
0
 42
0.0000001
 43
0.0000001
 44
0.0000000001
 40
0.0
 40
0.0
 40
0.0
 40
0.0
 40
0.2575908895
 40
0.5143546502
 40
0.7635986398
 40
1.0
 40
1.0
 40
1.0
 40
1.0
 10
21.2132014725
 20
40.5736269899
 30
0.0
 10
21.2623642477
 20
40.5781226531
 30
0.0
 10
21.3611170564
 20
40.5815616776
 30
0.0
 10
21.5073480162
 20
40.5706761336
 30
0.0
 10
21.6474360883
 20
40.5440755428
 30
0.0
 10
21.7363652156
 20
40.5155419394
 30
0.0
 10
21.7783974596
 20
40.4986303024
 30
0.0
  0
SPLINE
  5
550
100
AcDbEntity
  8
0
100
AcDbSpline
 62
7
  6
CONTINUOUS
 70
0
 71
3
 72
9
 73
5
 74
0
 42
0.0000001
 43
0.0000001
 44
0.0000000001
 40
0.0
 40
0.0
 40
0.0
 40
0.0
 40
0.4832221822
 40
1.0
 40
1.0
 40
1.0
 40
1.0
 10
20.8616942011
 20
40.486328601
 30
0.0
 10
20.9151901541
 20
40.5100727787
 30
0.0
 10
21.0308536987
 20
40.5483318865
 30
0.0
 10
21.1508685829
 20
40.5679269927
 30
0.0
 10
21.2132014725
 20
40.5736269899
 30
0.0
  0
SPLINE
  5
551
100
AcDbEntity
  8
0
100
AcDbSpline
 62
7
  6
CONTINUOUS
 70
0
 71
3
 72
10
 73
6
 74
0
 42
0.0000001
 43
0.0000001
 44
0.0000000001
 40
0.0
 40
0.0
 40
0.0
 40
0.0
 40
0.4871932059
 40
0.7362972966
 40
1.0
 40
1.0
 40
1.0
 40
1.0
 10
11.258304567
 20
37.1712430632
 30
0.0
 10
11.2700514283
 20
37.1780253106
 30
0.0
 10
11.2877968803
 20
37.1886613179
 30
0.0
 10
11.3147899192
 20
37.1962851758
 30
0.0
 10
11.3292204347
 20
37.1969048546
 30
0.0
 10
11.336540307
 20
37.1963367281
 30
0.0
  0
SPLINE
  5
552
100
AcDbEntity
  8
0
100
AcDbSpline
 62
7
  6
CONTINUOUS
 70
0
 71
3
 72
9
 73
5
 74
0
 42
0.0000001
 43
0.0000001
 44
0.0000000001
 40
0.0
 40
0.0
 40
0.0
 40
0.0
 40
0.2310607067
 40
1.0
 40
1.0
 40
1.0
 40
1.0
 10
11.336540307
 20
37.1963367281
 30
0.0
 10
11.3401235145
 20
37.1960586201
 30
0.0
 10
11.3555571337
 20
37.1939680566
 30
0.0
 10
11.3704215818
 20
37.1881639806
 30
0.0
 10
11.3807795641
 20
37.182183932
 30
0.0
  0
SPLINE
  5
553
100
AcDbEntity
  8
0
100
AcDbSpline
 62
7
  6
CONTINUOUS
 70
0
 71
3
 72
9
 73
5
 74
0
 42
0.0000001
 43
0.0000001
 44
0.0000000001
 40
0.0
 40
0.0
 40
0.0
 40
0.0
 40
0.2427627796
 40
1.0
 40
1.0
 40
1.0
 40
1.0
 10
20.5473409011
 20
40.6274427695
 30
0.0
 10
20.5547881764
 20
40.6333113672
 30
0.0
 10
20.5859381592
 20
40.6568827171
 30
0.0
 10
20.618859758
 20
40.6780856181
 30
0.0
 10
20.6444731237
 20
40.6928734134
 30
0.0
  0
SPLINE
  5
554
100
AcDbEntity
  8
0
100
AcDbSpline
 62
7
  6
CONTINUOUS
 70
0
 71
3
 72
11
 73
7
 74
0
 42
0.0000001
 43
0.0000001
 44
0.0000000001
 40
0.0
 40
0.0
 40
0.0
 40
0.0
 40
0.2372196254
 40
0.500001618
 40
0.76278273
 40
1.0
 40
1.0
 40
1.0
 40
1.0
 10
21.6945038045
 20
39.1477167137
 30
0.0
 10
21.6945038045
 20
39.1593076718
 30
0.0
 10
21.6988511942
 20
39.1837543857
 30
0.0
 10
21.7140052969
 20
39.2181073677
 30
0.0
 10
21.7361785741
 20
39.248407719
 30
0.0
 10
21.7551762087
 20
39.2643959753
 30
0.0
 10
21.7652141882
 20
39.2701913708
 30
0.0
  0
SPLINE
  5
555
100
AcDbEntity
  8
0
100
AcDbSpline
 62
7
  6
CONTINUOUS
 70
0
 71
3
 72
11
 73
7
 74
0
 42
0.0000001
 43
0.0000001
 44
0.0000000001
 40
0.0
 40
0.0
 40
0.0
 40
0.0
 40
0.23721727
 40
0.499998382
 40
0.7627803746
 40
1.0
 40
1.0
 40
1.0
 40
1.0
 10
23.5203021892
 20
38.2569137644
 30
0.0
 10
23.5102642097
 20
38.2511183689
 30
0.0
 10
23.491266575
 20
38.2351301126
 30
0.0
 10
23.4690932978
 20
38.2048297613
 30
0.0
 10
23.4539391952
 20
38.1704767793
 30
0.0
 10
23.4495918054
 20
38.1460300654
 30
0.0
 10
23.4495918054
 20
38.1344391073
 30
0.0
  0
SPLINE
  5
556
100
AcDbEntity
  8
0
100
AcDbSpline
 62
7
  6
CONTINUOUS
 70
0
 71
3
 72
11
 73
7
 74
0
 42
0.0000001
 43
0.0000001
 44
0.0000000001
 40
0.0
 40
0.0
 40
0.0
 40
0.0
 40
0.2372193634
 40
0.5000010919
 40
0.762782226
 40
1.0
 40
1.0
 40
1.0
 40
1.0
 10
23.7324345179
 20
38.1344397872
 30
0.0
 10
23.7324345179
 20
38.1460307391
 30
0.0
 10
23.7280870924
 20
38.170477442
 30
0.0
 10
23.7129328532
 20
38.2048303657
 30
0.0
 10
23.6907593771
 20
38.2351306203
 30
0.0
 10
23.6717615937
 20
38.2511187656
 30
0.0
 10
23.6617235454
 20
38.2569141044
 30
0.0
  0
SPLINE
  5
557
100
AcDbEntity
  8
0
100
AcDbSpline
 62
7
  6
CONTINUOUS
 70
0
 71
3
 72
13
 73
9
 74
0
 42
0.0000001
 43
0.0000001
 44
0.0000000001
 40
0.0
 40
0.0
 40
0.0
 40
0.0
 40
0.1140527599
 40
0.2375333554
 40
0.5000005226
 40
0.7624674038
 40
0.8859476642
 40
1.0
 40
1.0
 40
1.0
 40
1.0
 10
23.4495918054
 20
38.1344391073
 30
0.0
 10
23.4592558212
 20
38.1288597114
 30
0.0
 10
23.4804371042
 20
38.119025895
 30
0.0
 10
23.5273414442
 20
38.1047229551
 30
0.0
 10
23.5910133832
 20
38.0978288673
 30
0.0
 10
23.6546852611
 20
38.1047232494
 30
0.0
 10
23.7015894249
 20
38.1190264202
 30
0.0
 10
23.7227705783
 20
38.1288603424
 30
0.0
 10
23.7324345179
 20
38.1344397872
 30
0.0
  0
SPLINE
  5
558
100
AcDbEntity
  8
0
100
AcDbSpline
 62
7
  6
CONTINUOUS
 70
0
 71
3
 72
11
 73
7
 74
0
 42
0.0000001
 43
0.0000001
 44
0.0000000001
 40
0.0
 40
0.0
 40
0.0
 40
0.0
 40
0.237217774
 40
0.4999989081
 40
0.7627806366
 40
1.0
 40
1.0
 40
1.0
 40
1.0
 10
26.2780077428
 20
39.7674174735
 30
0.0
 10
26.2880457911
 20
39.7616221348
 30
0.0
 10
26.3070435746
 20
39.7456339895
 30
0.0
 10
26.3292170507
 20
39.7153337349
 30
0.0
 10
26.3443712899
 20
39.6809808112
 30
0.0
 10
26.3487187153
 20
39.6565341083
 30
0.0
 10
26.3487187153
 20
39.6449431564
 30
0.0
  0
SPLINE
  5
559
100
AcDbEntity
  8
0
100
AcDbSpline
 62
7
  6
CONTINUOUS
 70
0
 71
3
 72
13
 73
9
 74
0
 42
0.0000001
 43
0.0000001
 44
0.0000000001
 40
0.0
 40
0.0
 40
0.0
 40
0.0
 40
0.1081028286
 40
0.2182390266
 40
0.3322412356
 40
0.4516668797
 40
0.7106956814
 40
1.0
 40
1.0
 40
1.0
 40
1.0
 10
20.2095937157
 20
41.0292932931
 30
0.0
 10
20.2095951349
 20
41.0505920451
 30
0.0
 10
20.2133176019
 20
41.0936747355
 30
0.0
 10
20.2298144226
 20
41.1573062514
 30
0.0
 10
20.2570435324
 20
41.2195726312
 30
0.0
 10
20.3086128822
 20
41.3021092124
 30
0.0
 10
20.4001998765
 20
41.3984280076
 30
0.0
 10
20.4897320757
 20
41.4600644558
 30
0.0
 10
20.5390952748
 20
41.4885641419
 30
0.0
  0
SPLINE
  5
55A
100
AcDbEntity
  8
0
100
AcDbSpline
 62
7
  6
CONTINUOUS
 70
0
 71
3
 72
15
 73
11
 74
0
 42
0.0000001
 43
0.0000001
 44
0.0000000001
 40
0.0
 40
0.0
 40
0.0
 40
0.0
 40
0.1085181236
 40
0.2282469593
 40
0.3567267186
 40
0.4905146896
 40
0.6256597102
 40
0.7580468265
 40
0.8839194828
 40
1.0
 40
1.0
 40
1.0
 40
1.0
 10
22.2336091699
 20
40.6848847959
 30
0.0
 10
22.1826299103
 20
40.724009329
 30
0.0
 10
22.0660409853
 20
40.7943401644
 30
0.0
 10
21.8686323809
 20
40.8716222936
 30
0.0
 10
21.647689888
 20
40.9233589296
 30
0.0
 10
21.41295873
 20
40.9472531172
 30
0.0
 10
21.1747704107
 20
40.9422638956
 30
0.0
 10
20.9435870848
 20
40.9086564204
 30
0.0
 10
20.7297307474
 20
40.8478445863
 30
0.0
 10
20.5986262598
 20
40.7880819916
 30
0.0
 10
20.5390952748
 20
40.7537119665
 30
0.0
  0
SPLINE
  5
55B
100
AcDbEntity
  8
0
100
AcDbSpline
 62
7
  6
CONTINUOUS
 70
0
 71
3
 72
9
 73
5
 74
0
 42
0.0000001
 43
0.0000001
 44
0.0000000001
 40
0.0
 40
0.0
 40
0.0
 40
0.0
 40
0.4773840406
 40
1.0
 40
1.0
 40
1.0
 40
1.0
 10
22.6427593663
 20
38.5186053442
 30
0.0
 10
22.6558374829
 20
38.5261559533
 30
0.0
 10
22.6851257934
 20
38.5387530778
 30
0.0
 10
22.7160789173
 20
38.5459635122
 30
0.0
 10
22.732416698
 20
38.5484909816
 30
0.0
  0
SPLINE
  5
55C
100
AcDbEntity
  8
0
100
AcDbSpline
 62
7
  6
CONTINUOUS
 70
0
 71
3
 72
9
 73
5
 74
0
 42
0.0000001
 43
0.0000001
 44
0.0000000001
 40
0.0
 40
0.0
 40
0.0
 40
0.0
 40
0.2245233449
 40
1.0
 40
1.0
 40
1.0
 40
1.0
 10
22.411678912
 20
38.7336648395
 30
0.0
 10
22.4093510002
 20
38.728648875
 30
0.0
 10
22.3966504555
 20
38.7073714198
 30
0.0
 10
22.3764560533
 20
38.6914512957
 30
0.0
 10
22.3599154762
 20
38.6819016461
 30
0.0
  0
SPLINE
  5
55D
100
AcDbEntity
  8
0
100
AcDbSpline
 62
7
  6
CONTINUOUS
 70
0
 71
3
 72
11
 73
7
 74
0
 42
0.0000001
 43
0.0000001
 44
0.0000000001
 40
0.0
 40
0.0
 40
0.0
 40
0.0
 40
0.2372178137
 40
0.4999994738
 40
0.7627814204
 40
1.0
 40
1.0
 40
1.0
 40
1.0
 10
22.7134703388
 20
38.3961310271
 30
0.0
 10
22.7235083294
 20
38.4019264291
 30
0.0
 10
22.7468534091
 20
38.4103846902
 30
0.0
 10
22.7841809057
 20
38.4144372487
 30
0.0
 10
22.8215084587
 20
38.4103848605
 30
0.0
 10
22.8448536302
 20
38.4019267153
 30
0.0
 10
22.854891695
 20
38.396131367
 30
0.0
  0
SPLINE
  5
55E
100
AcDbEntity
  8
0
100
AcDbSpline
 62
7
  6
CONTINUOUS
 70
0
 71
3
 72
11
 73
7
 74
0
 42
0.0000001
 43
0.0000001
 44
0.0000000001
 40
0.0
 40
0.0
 40
0.0
 40
0.0
 40
0.237217774
 40
0.4999989081
 40
0.7627806366
 40
1.0
 40
1.0
 40
1.0
 40
1.0
 10
22.6427593663
 20
38.5186053442
 30
0.0
 10
22.6527974146
 20
38.5128100055
 30
0.0
 10
22.671795198
 20
38.4968218602
 30
0.0
 10
22.6939686741
 20
38.4665216056
 30
0.0
 10
22.7091229133
 20
38.4321686819
 30
0.0
 10
22.7134703388
 20
38.407721979
 30
0.0
 10
22.7134703388
 20
38.3961310271
 30
0.0
  0
SPLINE
  5
55F
100
AcDbEntity
  8
0
100
AcDbSpline
 62
7
  6
CONTINUOUS
 70
0
 71
3
 72
9
 73
5
 74
0
 42
0.0000001
 43
0.0000001
 44
0.0000000001
 40
0.0
 40
0.0
 40
0.0
 40
0.0
 40
0.47443666
 40
1.0
 40
1.0
 40
1.0
 40
1.0
 10
22.854891695
 20
36.1099245991
 30
0.0
 10
22.8448536309
 20
36.1157199487
 30
0.0
 10
22.8215172812
 20
36.1241780918
 30
0.0
 10
22.7970208568
 20
36.126834416
 30
0.0
 10
22.784180895
 20
36.1268343852
 30
0.0
  0
SPLINE
  5
560
100
AcDbEntity
  8
0
100
AcDbSpline
 62
7
  6
CONTINUOUS
 70
0
 71
3
 72
9
 73
5
 74
0
 42
0.0000001
 43
0.0000001
 44
0.0000000001
 40
0.0
 40
0.0
 40
0.0
 40
0.0
 40
0.5252219452
 40
1.0
 40
1.0
 40
1.0
 40
1.0
 10
22.7734091345
 20
36.1264970473
 30
0.0
 10
22.762474063
 20
36.1258114816
 30
0.0
 10
22.7417269641
 20
36.1225421632
 30
0.0
 10
22.7220476767
 20
36.1148763579
 30
0.0
 10
22.7134703388
 20
36.1099242591
 30
0.0
  0
SPLINE
  5
561
100
AcDbEntity
  8
0
100
AcDbSpline
 62
7
  6
CONTINUOUS
 70
0
 71
3
 72
10
 73
6
 74
0
 42
0.0000001
 43
0.0000001
 44
0.0000000001
 40
0.0
 40
0.0
 40
0.0
 40
0.0
 40
0.4903628442
 40
0.7396111872
 40
1.0
 40
1.0
 40
1.0
 40
1.0
 10
25.541921015
 20
24.1890658025
 30
0.0
 10
25.5310380074
 20
24.1827823155
 30
0.0
 10
25.5146686767
 20
24.1729774209
 30
0.0
 10
25.4901447627
 20
24.1650577812
 30
0.0
 10
25.477033698
 20
24.1636625065
 30
0.0
 10
25.4703607041
 20
24.163695915
 30
0.0
  0
SPLINE
  5
562
100
AcDbEntity
  8
0
100
AcDbSpline
 62
7
  6
CONTINUOUS
 70
0
 71
3
 72
12
 73
8
 74
0
 42
0.0000001
 43
0.0000001
 44
0.0000000001
 40
0.0
 40
0.0
 40
0.0
 40
0.0
 40
0.1109699343
 40
0.2305099652
 40
0.4821570284
 40
0.7404786984
 40
1.0
 40
1.0
 40
1.0
 40
1.0
 10
25.4194460179
 20
29.0771394364
 30
0.0
 10
25.4257727913
 20
29.0734867548
 30
0.0
 10
25.4382403957
 20
29.0647197508
 30
0.0
 10
25.4618547957
 20
29.0434409926
 30
0.0
 10
25.488651826
 20
29.0115826236
 30
0.0
 10
25.5164693091
 20
28.9691846352
 30
0.0
 10
25.5333784423
 20
28.9395759096
 30
0.0
 10
25.541921015
 20
28.9247798219
 30
0.0
  0
SPLINE
  5
563
100
AcDbEntity
  8
0
100
AcDbSpline
 62
7
  6
CONTINUOUS
 70
0
 71
3
 72
9
 73
5
 74
0
 42
0.0000001
 43
0.0000001
 44
0.0000000001
 40
0.0
 40
0.0
 40
0.0
 40
0.0
 40
0.5447423966
 40
1.0
 40
1.0
 40
1.0
 40
1.0
 10
22.2892039149
 20
38.7227239706
 30
0.0
 10
22.2962115855
 20
38.7186781816
 30
0.0
 10
22.3083285284
 20
38.7096219802
 30
0.0
 10
22.3160721691
 20
38.6961589044
 30
0.0
 10
22.3176036482
 20
38.6895721115
 30
0.0
  0
SPLINE
  5
564
100
AcDbEntity
  8
0
100
AcDbSpline
 62
7
  6
CONTINUOUS
 70
0
 71
3
 72
9
 73
5
 74
0
 42
0.0000001
 43
0.0000001
 44
0.0000000001
 40
0.0
 40
0.0
 40
0.0
 40
0.0
 40
0.4744377155
 40
1.0
 40
1.0
 40
1.0
 40
1.0
 10
21.4124202332
 20
38.0532180361
 30
0.0
 10
21.4124202332
 20
38.0648089942
 30
0.0
 10
21.4167632114
 20
38.0892480666
 30
0.0
 10
21.4267108622
 20
38.1117909065
 30
0.0
 10
21.4331308251
 20
38.1229106701
 30
0.0
  0
SPLINE
  5
565
100
AcDbEntity
  8
0
100
AcDbSpline
 62
7
  6
CONTINUOUS
 70
0
 71
3
 72
9
 73
5
 74
0
 42
0.0000001
 43
0.0000001
 44
0.0000000001
 40
0.0
 40
0.0
 40
0.0
 40
0.0
 40
0.255502651
 40
1.0
 40
1.0
 40
1.0
 40
1.0
 10
21.4331308251
 20
38.1229106701
 30
0.0
 10
21.4350262525
 20
38.1261936649
 30
0.0
 10
21.4428669781
 20
38.1387901788
 30
0.0
 10
21.4523377108
 20
38.1504050035
 30
0.0
 10
21.4602638801
 20
38.1580985653
 30
0.0
  0
SPLINE
  5
566
100
AcDbEntity
  8
0
100
AcDbSpline
 62
7
  6
CONTINUOUS
 70
0
 71
3
 72
9
 73
5
 74
0
 42
0.0000001
 43
0.0000001
 44
0.0000000001
 40
0.0
 40
0.0
 40
0.0
 40
0.0
 40
0.2629554435
 40
1.0
 40
1.0
 40
1.0
 40
1.0
 10
21.4602638801
 20
38.1580985653
 30
0.0
 10
21.4620809915
 20
38.1598623503
 30
0.0
 10
21.4691698255
 20
38.1663786926
 30
0.0
 10
21.4769835524
 20
38.172143705
 30
0.0
 10
21.4831306169
 20
38.1756926932
 30
0.0
  0
SPLINE
  5
567
100
AcDbEntity
  8
0
100
AcDbSpline
 62
7
  6
CONTINUOUS
 70
0
 71
3
 72
11
 73
7
 74
0
 42
0.0000001
 43
0.0000001
 44
0.0000000001
 40
0.0
 40
0.0
 40
0.0
 40
0.0
 40
0.23721727
 40
0.499998382
 40
0.7627803746
 40
1.0
 40
1.0
 40
1.0
 40
1.0
 10
21.765974507
 20
38.0123963914
 30
0.0
 10
21.7559365275
 20
38.0066009958
 30
0.0
 10
21.7369388928
 20
37.9906127395
 30
0.0
 10
21.7147656156
 20
37.9603123882
 30
0.0
 10
21.699611513
 20
37.9259594062
 30
0.0
 10
21.6952641233
 20
37.9015126924
 30
0.0
 10
21.6952641233
 20
37.8899217343
 30
0.0
  0
SPLINE
  5
568
100
AcDbEntity
  8
0
100
AcDbSpline
 62
7
  6
CONTINUOUS
 70
0
 71
3
 72
11
 73
7
 74
0
 42
0.0000001
 43
0.0000001
 44
0.0000000001
 40
0.0
 40
0.0
 40
0.0
 40
0.0
 40
0.2372193634
 40
0.5000010919
 40
0.762782226
 40
1.0
 40
1.0
 40
1.0
 40
1.0
 10
21.8366854795
 20
37.8899220742
 30
0.0
 10
21.8366854795
 20
37.9015130261
 30
0.0
 10
21.832338054
 20
37.925959729
 30
0.0
 10
21.8171838148
 20
37.9603126527
 30
0.0
 10
21.7950103387
 20
37.9906129073
 30
0.0
 10
21.7760125553
 20
38.0066010526
 30
0.0
 10
21.765974507
 20
38.0123963914
 30
0.0
  0
SPLINE
  5
569
100
AcDbEntity
  8
0
100
AcDbSpline
 62
7
  6
CONTINUOUS
 70
0
 71
3
 72
11
 73
7
 74
0
 42
0.0000001
 43
0.0000001
 44
0.0000000001
 40
0.0
 40
0.0
 40
0.0
 40
0.0
 40
0.2372185796
 40
0.5000005262
 40
0.7627821863
 40
1.0
 40
1.0
 40
1.0
 40
1.0
 10
21.6952641233
 20
37.8899217343
 30
0.0
 10
21.7053021881
 20
37.8841263859
 30
0.0
 10
21.7286473596
 20
37.8756682408
 30
0.0
 10
21.7659749126
 20
37.8716158526
 30
0.0
 10
21.8033024092
 20
37.8756684111
 30
0.0
 10
21.8266474889
 20
37.8841266722
 30
0.0
 10
21.8366854795
 20
37.8899220742
 30
0.0
  0
SPLINE
  5
56A
100
AcDbEntity
  8
0
100
AcDbSpline
 62
7
  6
CONTINUOUS
 70
0
 71
3
 72
11
 73
7
 74
0
 42
0.0000001
 43
0.0000001
 44
0.0000000001
 40
0.0
 40
0.0
 40
0.0
 40
0.0
 40
0.2177486811
 40
0.4508908272
 40
0.7104626199
 40
1.0
 40
1.0
 40
1.0
 40
1.0
 10
10.1709214233
 20
38.5466635815
 30
0.0
 10
10.1709214224
 20
38.5657044957
 30
0.0
 10
10.1779140714
 20
38.605403077
 30
0.0
 10
10.2080304266
 20
38.6607223565
 30
0.0
 10
10.2556268519
 20
38.7106901265
 30
0.0
 10
10.2954168887
 20
38.7381247966
 30
0.0
 10
10.3173433317
 20
38.7507839588
 30
0.0
  0
SPLINE
  5
56B
100
AcDbEntity
  8
0
100
AcDbSpline
 62
7
  6
CONTINUOUS
 70
0
 71
3
 72
9
 73
5
 74
0
 42
0.0000001
 43
0.0000001
 44
0.0000000001
 40
0.0
 40
0.0
 40
0.0
 40
0.0
 40
0.4744361267
 40
1.0
 40
1.0
 40
1.0
 40
1.0
 10
21.8366854795
 20
35.6037153062
 30
0.0
 10
21.8266474889
 20
35.5979199042
 30
0.0
 10
21.803311232
 20
35.5894616431
 30
0.0
 10
21.7788148712
 20
35.586805211
 30
0.0
 10
21.7659749233
 20
35.5868051801
 30
0.0
  0
SPLINE
  5
56C
100
AcDbEntity
  8
0
100
AcDbSpline
 62
7
  6
CONTINUOUS
 70
0
 71
3
 72
9
 73
5
 74
0
 42
0.0000001
 43
0.0000001
 44
0.0000000001
 40
0.0
 40
0.0
 40
0.0
 40
0.0
 40
0.2555021743
 40
1.0
 40
1.0
 40
1.0
 40
1.0
 10
21.7659749233
 20
35.5868051801
 30
0.0
 10
21.7621840755
 20
35.586805171
 30
0.0
 10
21.7473548725
 20
35.5872971683
 30
0.0
 10
21.7325608335
 20
35.5896915807
 30
0.0
 10
21.7219349419
 20
35.5927089679
 30
0.0
  0
SPLINE
  5
56D
100
AcDbEntity
  8
0
100
AcDbSpline
 62
7
  6
CONTINUOUS
 70
0
 71
3
 72
9
 73
5
 74
0
 42
0.0000001
 43
0.0000001
 44
0.0000000001
 40
0.0
 40
0.0
 40
0.0
 40
0.0
 40
0.2629554488
 40
1.0
 40
1.0
 40
1.0
 40
1.0
 10
21.7219349419
 20
35.5927089679
 30
0.0
 10
21.7194988636
 20
35.5934007303
 30
0.0
 10
21.7103109746
 20
35.5962816324
 30
0.0
 10
21.7014113001
 20
35.6001659724
 30
0.0
 10
21.6952641233
 20
35.6037149663
 30
0.0
  0
SPLINE
  5
56E
100
AcDbEntity
  8
0
100
AcDbSpline
 62
7
  6
CONTINUOUS
 70
0
 71
3
 72
10
 73
6
 74
0
 42
0.0000001
 43
0.0000001
 44
0.0000000001
 40
0.0
 40
0.0
 40
0.0
 40
0.0
 40
0.4903052556
 40
0.7395858005
 40
1.0
 40
1.0
 40
1.0
 40
1.0
 10
25.5419086506
 20
34.558609685
 30
0.0
 10
25.5310269366
 20
34.5523269448
 30
0.0
 10
25.5146500566
 20
34.5425320307
 30
0.0
 10
25.4901117356
 20
34.5346558954
 30
0.0
 10
25.4769999712
 20
34.5332716317
 30
0.0
 10
25.4703263296
 20
34.5333037021
 30
0.0
  0
SPLINE
  5
56F
100
AcDbEntity
  8
0
100
AcDbSpline
 62
7
  6
CONTINUOUS
 70
0
 71
3
 72
12
 73
8
 74
0
 42
0.0000001
 43
0.0000001
 44
0.0000000001
 40
0.0
 40
0.0
 40
0.0
 40
0.0
 40
0.1109858146
 40
0.2305657625
 40
0.4822068682
 40
0.740500635
 40
1.0
 40
1.0
 40
1.0
 40
1.0
 10
25.4194336535
 20
36.9971761144
 30
0.0
 10
25.4257609932
 20
36.9935231058
 30
0.0
 10
25.4382247319
 20
36.9847440558
 30
0.0
 10
25.461816916
 20
36.9634392991
 30
0.0
 10
25.4886142374
 20
36.9315873666
 30
0.0
 10
25.516456877
 20
36.8892129225
 30
0.0
 10
25.5333672577
 20
36.8596105442
 30
0.0
 10
25.5419086506
 20
36.8448164998
 30
0.0
  0
SPLINE
  5
570
100
AcDbEntity
  8
0
100
AcDbSpline
 62
7
  6
CONTINUOUS
 70
0
 71
3
 72
11
 73
7
 74
0
 42
0.0000001
 43
0.0000001
 44
0.0000000001
 40
0.0
 40
0.0
 40
0.0
 40
0.0
 40
0.1317334761
 40
0.2770606595
 40
0.6883224813
 40
1.0
 40
1.0
 40
1.0
 40
1.0
 10
26.1076087951
 20
29.6596403605
 30
0.0
 10
26.1138188529
 20
29.6560550631
 30
0.0
 10
26.1269403613
 20
29.6486200787
 30
0.0
 10
26.159472234
 20
29.6300314638
 30
0.0
 10
26.2001222622
 20
29.6059152508
 30
0.0
 10
26.2343375258
 20
29.5864734926
 30
0.0
 10
26.2490301513
 20
29.5779904588
 30
0.0
  0
SPLINE
  5
571
100
AcDbEntity
  8
0
100
AcDbSpline
 62
7
  6
CONTINUOUS
 70
0
 71
3
 72
9
 73
5
 74
0
 42
0.0000001
 43
0.0000001
 44
0.0000000001
 40
0.0
 40
0.0
 40
0.0
 40
0.0
 40
0.2364409047
 40
1.0
 40
1.0
 40
1.0
 40
1.0
 10
33.1079367835
 20
33.7012574839
 30
0.0
 10
33.1099089122
 20
33.7001189006
 30
0.0
 10
33.1180699155
 20
33.6949935652
 30
0.0
 10
33.1255263915
 20
33.6887858076
 30
0.0
 10
33.1308033437
 20
33.6836638222
 30
0.0
  0
SPLINE
  5
572
100
AcDbEntity
  8
0
100
AcDbSpline
 62
7
  6
CONTINUOUS
 70
0
 71
3
 72
9
 73
5
 74
0
 42
0.0000001
 43
0.0000001
 44
0.0000000001
 40
0.0
 40
0.0
 40
0.0
 40
0.0
 40
0.2430466145
 40
1.0
 40
1.0
 40
1.0
 40
1.0
 10
33.1308033437
 20
33.6836638222
 30
0.0
 10
33.1333911524
 20
33.681152009
 30
0.0
 10
33.1436343922
 20
33.6704055853
 30
0.0
 10
33.1523210503
 20
33.6582027429
 30
0.0
 10
33.1579369917
 20
33.6484757012
 30
0.0
  0
SPLINE
  5
573
100
AcDbEntity
  8
0
100
AcDbSpline
 62
7
  6
CONTINUOUS
 70
0
 71
3
 72
9
 73
5
 74
0
 42
0.0000001
 43
0.0000001
 44
0.0000000001
 40
0.0
 40
0.0
 40
0.0
 40
0.0
 40
0.2555022621
 40
1.0
 40
1.0
 40
1.0
 40
1.0
 10
33.1579369917
 20
33.6484757012
 30
0.0
 10
33.1598324824
 20
33.6451926332
 30
0.0
 10
33.1668211924
 20
33.6321037528
 30
0.0
 10
33.1721446333
 20
33.6180940386
 30
0.0
 10
33.1748443592
 20
33.6073826825
 30
0.0
  0
SPLINE
  5
574
100
AcDbEntity
  8
0
100
AcDbSpline
 62
7
  6
CONTINUOUS
 70
0
 71
3
 72
9
 73
5
 74
0
 42
0.0000001
 43
0.0000001
 44
0.0000000001
 40
0.0
 40
0.0
 40
0.0
 40
0.0
 40
0.2629546114
 40
1.0
 40
1.0
 40
1.0
 40
1.0
 10
33.1748443592
 20
33.6073826825
 30
0.0
 10
33.1754632492
 20
33.6049271918
 30
0.0
 10
33.1775620323
 20
33.5955301387
 30
0.0
 10
33.178647756
 20
33.5858809994
 30
0.0
 10
33.178647756
 20
33.5787831667
 30
0.0
  0
SPLINE
  5
575
100
AcDbEntity
  8
0
100
AcDbSpline
 62
7
  6
CONTINUOUS
 70
0
 71
3
 72
9
 73
5
 74
0
 42
0.0000001
 43
0.0000001
 44
0.0000000001
 40
0.0
 40
0.0
 40
0.0
 40
0.0
 40
0.2427627796
 40
1.0
 40
1.0
 40
1.0
 40
1.0
 10
17.8603239456
 20
42.1787576366
 30
0.0
 10
17.8677712209
 20
42.1846262344
 30
0.0
 10
17.8989212036
 20
42.2081975842
 30
0.0
 10
17.9318428025
 20
42.2294004853
 30
0.0
 10
17.9574561682
 20
42.2441882806
 30
0.0
  0
SPLINE
  5
576
100
AcDbEntity
  8
0
100
AcDbSpline
 62
7
  6
CONTINUOUS
 70
0
 71
3
 72
13
 73
9
 74
0
 42
0.0000001
 43
0.0000001
 44
0.0000000001
 40
0.0
 40
0.0
 40
0.0
 40
0.0
 40
0.1081028286
 40
0.2182390266
 40
0.3322412356
 40
0.4516668797
 40
0.7106956814
 40
1.0
 40
1.0
 40
1.0
 40
1.0
 10
17.5225767602
 20
42.5806081603
 30
0.0
 10
17.5225781793
 20
42.6019069123
 30
0.0
 10
17.5263006463
 20
42.6449896026
 30
0.0
 10
17.5427974671
 20
42.7086211185
 30
0.0
 10
17.5700265769
 20
42.7708874983
 30
0.0
 10
17.6215959266
 20
42.8534240796
 30
0.0
 10
17.7131829209
 20
42.9497428748
 30
0.0
 10
17.8027151202
 20
43.0113793229
 30
0.0
 10
17.8520783192
 20
43.0398790091
 30
0.0
  0
SPLINE
  5
577
100
AcDbEntity
  8
0
100
AcDbSpline
 62
7
  6
CONTINUOUS
 70
0
 71
3
 72
15
 73
11
 74
0
 42
0.0000001
 43
0.0000001
 44
0.0000000001
 40
0.0
 40
0.0
 40
0.0
 40
0.0
 40
0.1085181236
 40
0.2282469593
 40
0.3567267186
 40
0.4905146896
 40
0.6256597102
 40
0.7580468265
 40
0.8839194828
 40
1.0
 40
1.0
 40
1.0
 40
1.0
 10
19.5465922144
 20
42.2361996631
 30
0.0
 10
19.4956129547
 20
42.2753241961
 30
0.0
 10
19.3790240297
 20
42.3456550316
 30
0.0
 10
19.1816154254
 20
42.4229371607
 30
0.0
 10
18.9606729324
 20
42.4746737967
 30
0.0
 10
18.7259417745
 20
42.4985679843
 30
0.0
 10
18.4877534551
 20
42.4935787628
 30
0.0
 10
18.2565701293
 20
42.4599712876
 30
0.0
 10
18.0427137918
 20
42.3991594535
 30
0.0
 10
17.9116093042
 20
42.3393968587
 30
0.0
 10
17.8520783192
 20
42.3050268337
 30
0.0
  0
SPLINE
  5
578
100
AcDbEntity
  8
0
100
AcDbSpline
 62
7
  6
CONTINUOUS
 70
0
 71
3
 72
9
 73
5
 74
0
 42
0.0000001
 43
0.0000001
 44
0.0000000001
 40
0.0
 40
0.0
 40
0.0
 40
0.0
 40
0.7489789541
 40
1.0
 40
1.0
 40
1.0
 40
1.0
 10
14.2281530482
 20
43.3766685722
 30
0.0
 10
14.2373180501
 20
43.3819601398
 30
0.0
 10
14.2495014425
 20
43.3892041507
 30
0.0
 10
14.2625564596
 20
43.3946675901
 30
0.0
 10
14.265889347
 20
43.3958809181
 30
0.0
  0
SPLINE
  5
579
100
AcDbEntity
  8
0
100
AcDbSpline
 62
7
  6
CONTINUOUS
 70
0
 71
3
 72
11
 73
7
 74
0
 42
0.0000001
 43
0.0000001
 44
0.0000000001
 40
0.0
 40
0.0
 40
0.0
 40
0.0
 40
0.2217715978
 40
0.4557357271
 40
0.7127241434
 40
1.0
 40
1.0
 40
1.0
 40
1.0
 10
14.265889347
 20
43.3958809181
 30
0.0
 10
14.2719935742
 20
43.3981031444
 30
0.0
 10
14.2849793616
 20
43.4015912198
 30
0.0
 10
14.3060099684
 20
43.4025748519
 30
0.0
 10
14.3286111786
 20
43.3983361051
 30
0.0
 10
14.3433404894
 20
43.3918168182
 30
0.0
 10
14.3506280453
 20
43.387609441
 30
0.0
  0
SPLINE
  5
57A
100
AcDbEntity
  8
0
100
AcDbSpline
 62
7
  6
CONTINUOUS
 70
0
 71
3
 72
10
 73
6
 74
0
 42
0.0000001
 43
0.0000001
 44
0.0000000001
 40
0.0
 40
0.0
 40
0.0
 40
0.0
 40
0.4903052556
 40
0.7395858005
 40
1.0
 40
1.0
 40
1.0
 40
1.0
 10
14.7938408283
 20
40.7638691537
 30
0.0
 10
14.7829591144
 20
40.7575864136
 30
0.0
 10
14.7665822344
 20
40.7477914994
 30
0.0
 10
14.7420439134
 20
40.7399153641
 30
0.0
 10
14.728932149
 20
40.7385311004
 30
0.0
 10
14.7222585074
 20
40.7385631708
 30
0.0
  0
SPLINE
  5
57B
100
AcDbEntity
  8
0
100
AcDbSpline
 62
7
  6
CONTINUOUS
 70
0
 71
3
 72
9
 73
5
 74
0
 42
0.0000001
 43
0.0000001
 44
0.0000000001
 40
0.0
 40
0.0
 40
0.0
 40
0.0
 40
0.4744361267
 40
1.0
 40
1.0
 40
1.0
 40
1.0
 10
32.6129646863
 20
15.0441839416
 30
0.0
 10
32.6029266956
 20
15.0383885396
 30
0.0
 10
32.5795904388
 20
15.0299302785
 30
0.0
 10
32.5550940779
 20
15.0272738464
 30
0.0
 10
32.5422541301
 20
15.0272738155
 30
0.0
  0
SPLINE
  5
57C
100
AcDbEntity
  8
0
100
AcDbSpline
 62
7
  6
CONTINUOUS
 70
0
 71
3
 72
9
 73
5
 74
0
 42
0.0000001
 43
0.0000001
 44
0.0000000001
 40
0.0
 40
0.0
 40
0.0
 40
0.0
 40
0.2555021743
 40
1.0
 40
1.0
 40
1.0
 40
1.0
 10
32.5422541301
 20
15.0272738155
 30
0.0
 10
32.5384632823
 20
15.0272738064
 30
0.0
 10
32.5236340793
 20
15.0277658037
 30
0.0
 10
32.5088400403
 20
15.030160216
 30
0.0
 10
32.4982141487
 20
15.0331776033
 30
0.0
  0
SPLINE
  5
57D
100
AcDbEntity
  8
0
100
AcDbSpline
 62
7
  6
CONTINUOUS
 70
0
 71
3
 72
9
 73
5
 74
0
 42
0.0000001
 43
0.0000001
 44
0.0000000001
 40
0.0
 40
0.0
 40
0.0
 40
0.0
 40
0.2629554488
 40
1.0
 40
1.0
 40
1.0
 40
1.0
 10
32.4982141487
 20
15.0331776033
 30
0.0
 10
32.4957780703
 20
15.0338693656
 30
0.0
 10
32.4865901813
 20
15.0367502678
 30
0.0
 10
32.4776905069
 20
15.0406346078
 30
0.0
 10
32.47154333
 20
15.0441836017
 30
0.0
  0
SPLINE
  5
57E
100
AcDbEntity
  8
0
100
AcDbSpline
 62
7
  6
CONTINUOUS
 70
0
 71
3
 72
9
 73
5
 74
0
 42
0.0000001
 43
0.0000001
 44
0.0000000001
 40
0.0
 40
0.0
 40
0.0
 40
0.0
 40
0.5447423966
 40
1.0
 40
1.0
 40
1.0
 40
1.0
 10
11.258304567
 20
37.1712430632
 30
0.0
 10
11.2653122376
 20
37.1671972742
 30
0.0
 10
11.2774291805
 20
37.1581410728
 30
0.0
 10
11.2851728212
 20
37.1446779969
 30
0.0
 10
11.2867043003
 20
37.1380912041
 30
0.0
  0
SPLINE
  5
57F
100
AcDbEntity
  8
0
100
AcDbSpline
 62
7
  6
CONTINUOUS
 70
0
 71
3
 72
12
 73
8
 74
0
 42
0.0000001
 43
0.0000001
 44
0.0000000001
 40
0.0
 40
0.0
 40
0.0
 40
0.0
 40
0.1109858146
 40
0.2305657625
 40
0.4822068682
 40
0.740500635
 40
1.0
 40
1.0
 40
1.0
 40
1.0
 10
14.6713658313
 20
43.2024355831
 30
0.0
 10
14.677693171
 20
43.1987825745
 30
0.0
 10
14.6901569097
 20
43.1900035245
 30
0.0
 10
14.7137490938
 20
43.1686987678
 30
0.0
 10
14.7405464151
 20
43.1368468353
 30
0.0
 10
14.7683890548
 20
43.0944723912
 30
0.0
 10
14.7852994354
 20
43.0648700129
 30
0.0
 10
14.7938408283
 20
43.0500759685
 30
0.0
  0
SPLINE
  5
580
100
AcDbEntity
  8
0
100
AcDbSpline
 62
7
  6
CONTINUOUS
 70
0
 71
3
 72
9
 73
5
 74
0
 42
0.0000001
 43
0.0000001
 44
0.0000000001
 40
0.0
 40
0.0
 40
0.0
 40
0.0
 40
0.2245233449
 40
1.0
 40
1.0
 40
1.0
 40
1.0
 10
11.3807795641
 20
37.182183932
 30
0.0
 10
11.3784516524
 20
37.1771679676
 30
0.0
 10
11.3657511076
 20
37.1558905124
 30
0.0
 10
11.3455567054
 20
37.1399703882
 30
0.0
 10
11.3290161283
 20
37.1304207386
 30
0.0
  0
SPLINE
  5
581
100
AcDbEntity
  8
0
100
AcDbSpline
 62
7
  6
CONTINUOUS
 70
0
 71
3
 72
9
 73
5
 74
0
 42
0.0000001
 43
0.0000001
 44
0.0000000001
 40
0.0
 40
0.0
 40
0.0
 40
0.0
 40
0.4773840406
 40
1.0
 40
1.0
 40
1.0
 40
1.0
 10
25.3297886862
 20
29.0472537991
 30
0.0
 10
25.3428668029
 20
29.0548044082
 30
0.0
 10
25.3721551133
 20
29.0674015327
 30
0.0
 10
25.4031082372
 20
29.074611967
 30
0.0
 10
25.4194460179
 20
29.0771394364
 30
0.0
  0
SPLINE
  5
582
100
AcDbEntity
  8
0
100
AcDbSpline
 62
7
  6
CONTINUOUS
 70
0
 71
3
 72
11
 73
7
 74
0
 42
0.0000001
 43
0.0000001
 44
0.0000000001
 40
0.0
 40
0.0
 40
0.0
 40
0.0
 40
0.2119966313
 40
0.4706728517
 40
0.746871159
 40
1.0
 40
1.0
 40
1.0
 40
1.0
 10
17.8637719126
 20
25.3899619704
 30
0.0
 10
17.8594881529
 20
25.3994307004
 30
0.0
 10
17.8471985956
 20
25.4191547401
 30
0.0
 10
17.8237713197
 20
25.4473881552
 30
0.0
 10
17.7955148468
 20
25.4738410088
 30
0.0
 10
17.7745183776
 20
25.4893218274
 30
0.0
 10
17.7637717401
 20
25.4955262611
 30
0.0
  0
SPLINE
  5
583
100
AcDbEntity
  8
0
100
AcDbSpline
 62
7
  6
CONTINUOUS
 70
0
 71
3
 72
11
 73
7
 74
0
 42
0.0000001
 43
0.0000001
 44
0.0000000001
 40
0.0
 40
0.0
 40
0.0
 40
0.0
 40
0.2119795894
 40
0.4706174472
 40
0.7467741175
 40
1.0
 40
1.0
 40
1.0
 40
1.0
 10
17.4102204103
 20
24.6043833639
 30
0.0
 10
17.399877729
 20
24.6033589338
 30
0.0
 10
17.3766460456
 20
24.6041143588
 30
0.0
 10
17.3405071555
 20
24.6103686663
 30
0.0
 10
17.3033632366
 20
24.6213195608
 30
0.0
 10
17.2795513263
 20
24.6319959745
 30
0.0
 10
17.2687990541
 20
24.6382036614
 30
0.0
  0
SPLINE
  5
584
100
AcDbEntity
  8
0
100
AcDbSpline
 62
7
  6
CONTINUOUS
 70
0
 71
3
 72
9
 73
5
 74
0
 42
0.0000001
 43
0.0000001
 44
0.0000000001
 40
0.0
 40
0.0
 40
0.0
 40
0.0
 40
0.7489789541
 40
1.0
 40
1.0
 40
1.0
 40
1.0
 10
16.9151700038
 20
41.825353705
 30
0.0
 10
16.9243350057
 20
41.8306452726
 30
0.0
 10
16.9365183981
 20
41.8378892835
 30
0.0
 10
16.9495734152
 20
41.8433527229
 30
0.0
 10
16.9529063025
 20
41.8445660509
 30
0.0
  0
SPLINE
  5
585
100
AcDbEntity
  8
0
100
AcDbSpline
 62
7
  6
CONTINUOUS
 70
0
 71
3
 72
11
 73
7
 74
0
 42
0.0000001
 43
0.0000001
 44
0.0000000001
 40
0.0
 40
0.0
 40
0.0
 40
0.0
 40
0.2217715978
 40
0.4557357271
 40
0.7127241434
 40
1.0
 40
1.0
 40
1.0
 40
1.0
 10
16.9529063025
 20
41.8445660509
 30
0.0
 10
16.9590105298
 20
41.8467882772
 30
0.0
 10
16.9719963172
 20
41.8502763526
 30
0.0
 10
16.9930269239
 20
41.8512599847
 30
0.0
 10
17.0156281342
 20
41.8470212379
 30
0.0
 10
17.030357445
 20
41.840501951
 30
0.0
 10
17.0376450008
 20
41.8362945738
 30
0.0
  0
SPLINE
  5
586
100
AcDbEntity
  8
0
100
AcDbSpline
 62
7
  6
CONTINUOUS
 70
0
 71
3
 72
11
 73
7
 74
0
 42
0.0000001
 43
0.0000001
 44
0.0000000001
 40
0.0
 40
0.0
 40
0.0
 40
0.0
 40
0.257045806
 40
0.5196514631
 40
0.7719127929
 40
1.0
 40
1.0
 40
1.0
 40
1.0
 10
17.4102204103
 20
23.8555222216
 30
0.0
 10
17.401099672
 20
23.8458939612
 30
0.0
 10
17.3797003017
 20
23.8290786779
 30
0.0
 10
17.3425397638
 20
23.8134732805
 30
0.0
 10
17.3038462143
 20
23.8091389802
 30
0.0
 10
17.2789907306
 20
23.8158172102
 30
0.0
 10
17.268799054
 20
23.8217012442
 30
0.0
  0
SPLINE
  5
587
100
AcDbEntity
  8
0
100
AcDbSpline
 62
7
  6
CONTINUOUS
 70
0
 71
3
 72
10
 73
6
 74
0
 42
0.0000001
 43
0.0000001
 44
0.0000000001
 40
0.0
 40
0.0
 40
0.0
 40
0.0
 40
0.4903052556
 40
0.7395858005
 40
1.0
 40
1.0
 40
1.0
 40
1.0
 10
17.4808577839
 20
39.2125542865
 30
0.0
 10
17.4699760699
 20
39.2062715464
 30
0.0
 10
17.45359919
 20
39.1964766322
 30
0.0
 10
17.4290608689
 20
39.1886004969
 30
0.0
 10
17.4159491045
 20
39.1872162332
 30
0.0
 10
17.409275463
 20
39.1872483037
 30
0.0
  0
SPLINE
  5
588
100
AcDbEntity
  8
0
100
AcDbSpline
 62
7
  6
CONTINUOUS
 70
0
 71
3
 72
12
 73
8
 74
0
 42
0.0000001
 43
0.0000001
 44
0.0000000001
 40
0.0
 40
0.0
 40
0.0
 40
0.0
 40
0.1109858146
 40
0.2305657625
 40
0.4822068682
 40
0.740500635
 40
1.0
 40
1.0
 40
1.0
 40
1.0
 10
17.3583827869
 20
41.6511207159
 30
0.0
 10
17.3647101265
 20
41.6474677073
 30
0.0
 10
17.3771738653
 20
41.6386886573
 30
0.0
 10
17.4007660494
 20
41.6173839007
 30
0.0
 10
17.4275633707
 20
41.5855319682
 30
0.0
 10
17.4554060103
 20
41.543157524
 30
0.0
 10
17.472316391
 20
41.5135551457
 30
0.0
 10
17.4808577839
 20
41.4987611014
 30
0.0
  0
SPLINE
  5
589
100
AcDbEntity
  8
0
100
AcDbSpline
 62
7
  6
CONTINUOUS
 70
0
 71
3
 72
9
 73
5
 74
0
 42
0.0000001
 43
0.0000001
 44
0.0000000001
 40
0.0
 40
0.0
 40
0.0
 40
0.0
 40
0.4744377155
 40
1.0
 40
1.0
 40
1.0
 40
1.0
 10
8.9248630818
 20
35.6607403737
 30
0.0
 10
8.9248630818
 20
35.6723313318
 30
0.0
 10
8.9292060599
 20
35.6967704043
 30
0.0
 10
8.9391537108
 20
35.7193132441
 30
0.0
 10
8.9455736737
 20
35.7304330078
 30
0.0
  0
SPLINE
  5
58A
100
AcDbEntity
  8
0
100
AcDbSpline
 62
7
  6
CONTINUOUS
 70
0
 71
3
 72
9
 73
5
 74
0
 42
0.0000001
 43
0.0000001
 44
0.0000000001
 40
0.0
 40
0.0
 40
0.0
 40
0.0
 40
0.255502651
 40
1.0
 40
1.0
 40
1.0
 40
1.0
 10
8.9455736737
 20
35.7304330078
 30
0.0
 10
8.9474691011
 20
35.7337160026
 30
0.0
 10
8.9553098267
 20
35.7463125164
 30
0.0
 10
8.9647805594
 20
35.7579273412
 30
0.0
 10
8.9727067287
 20
35.765620903
 30
0.0
  0
SPLINE
  5
58B
100
AcDbEntity
  8
0
100
AcDbSpline
 62
7
  6
CONTINUOUS
 70
0
 71
3
 72
9
 73
5
 74
0
 42
0.0000001
 43
0.0000001
 44
0.0000000001
 40
0.0
 40
0.0
 40
0.0
 40
0.0
 40
0.2629554435
 40
1.0
 40
1.0
 40
1.0
 40
1.0
 10
8.9727067287
 20
35.765620903
 30
0.0
 10
8.9745238401
 20
35.767384688
 30
0.0
 10
8.9816126741
 20
35.7739010302
 30
0.0
 10
8.989426401
 20
35.7796660426
 30
0.0
 10
8.9955734655
 20
35.7832150308
 30
0.0
  0
SPLINE
  5
58C
100
AcDbEntity
  8
0
100
AcDbSpline
 62
7
  6
CONTINUOUS
 70
0
 71
3
 72
9
 73
5
 74
0
 42
0.0000001
 43
0.0000001
 44
0.0000000001
 40
0.0
 40
0.0
 40
0.0
 40
0.0
 40
0.7489789541
 40
1.0
 40
1.0
 40
1.0
 40
1.0
 10
19.6021869593
 20
40.2740388378
 30
0.0
 10
19.6113519612
 20
40.2793304054
 30
0.0
 10
19.6235353536
 20
40.2865744163
 30
0.0
 10
19.6365903707
 20
40.2920378557
 30
0.0
 10
19.6399232581
 20
40.2932511837
 30
0.0
  0
SPLINE
  5
58D
100
AcDbEntity
  8
0
100
AcDbSpline
 62
7
  6
CONTINUOUS
 70
0
 71
3
 72
11
 73
7
 74
0
 42
0.0000001
 43
0.0000001
 44
0.0000000001
 40
0.0
 40
0.0
 40
0.0
 40
0.0
 40
0.2217715978
 40
0.4557357271
 40
0.7127241434
 40
1.0
 40
1.0
 40
1.0
 40
1.0
 10
19.6399232581
 20
40.2932511837
 30
0.0
 10
19.6460274853
 20
40.29547341
 30
0.0
 10
19.6590132728
 20
40.2989614854
 30
0.0
 10
19.6800438795
 20
40.2999451175
 30
0.0
 10
19.7026450897
 20
40.2957063708
 30
0.0
 10
19.7173744005
 20
40.2891870838
 30
0.0
 10
19.7246619564
 20
40.2849797067
 30
0.0
  0
SPLINE
  5
58E
100
AcDbEntity
  8
0
100
AcDbSpline
 62
7
  6
CONTINUOUS
 70
0
 71
3
 72
11
 73
7
 74
0
 42
0.0000001
 43
0.0000001
 44
0.0000000001
 40
0.0
 40
0.0
 40
0.0
 40
0.0
 40
0.2177482241
 40
0.4508901735
 40
0.7104621366
 40
1.0
 40
1.0
 40
1.0
 40
1.0
 10
8.7567078609
 20
38.5466601822
 30
0.0
 10
8.7567078617
 20
38.5276190626
 30
0.0
 10
8.7637006701
 20
38.4879200235
 30
0.0
 10
8.7938176769
 20
38.4326002088
 30
0.0
 10
8.8414150672
 20
38.3826320682
 30
0.0
 10
8.88120586
 20
38.3551972935
 30
0.0
 10
8.9031327133
 20
38.3425381052
 30
0.0
  0
SPLINE
  5
58F
100
AcDbEntity
  8
0
100
AcDbSpline
 62
7
  6
CONTINUOUS
 70
0
 71
3
 72
10
 73
6
 74
0
 42
0.0000001
 43
0.0000001
 44
0.0000000001
 40
0.0
 40
0.0
 40
0.0
 40
0.0
 40
0.4903052556
 40
0.7395858005
 40
1.0
 40
1.0
 40
1.0
 40
1.0
 10
20.1678747395
 20
37.6612394193
 30
0.0
 10
20.1569930255
 20
37.6549566792
 30
0.0
 10
20.1406161455
 20
37.645161765
 30
0.0
 10
20.1160778245
 20
37.6372856298
 30
0.0
 10
20.1029660601
 20
37.6359013661
 30
0.0
 10
20.0962924185
 20
37.6359334365
 30
0.0
  0
SPLINE
  5
590
100
AcDbEntity
  8
0
100
AcDbSpline
 62
7
  6
CONTINUOUS
 70
0
 71
3
 72
12
 73
8
 74
0
 42
0.0000001
 43
0.0000001
 44
0.0000000001
 40
0.0
 40
0.0
 40
0.0
 40
0.0
 40
0.1109858146
 40
0.2305657625
 40
0.4822068682
 40
0.740500635
 40
1.0
 40
1.0
 40
1.0
 40
1.0
 10
20.0453997424
 20
40.0998058488
 30
0.0
 10
20.0517270821
 20
40.0961528401
 30
0.0
 10
20.0641908208
 20
40.0873737901
 30
0.0
 10
20.0877830049
 20
40.0660690335
 30
0.0
 10
20.1145803262
 20
40.034217101
 30
0.0
 10
20.1424229659
 20
39.9918426569
 30
0.0
 10
20.1593333466
 20
39.9622402785
 30
0.0
 10
20.1678747395
 20
39.9474462342
 30
0.0
  0
SPLINE
  5
591
100
AcDbEntity
  8
0
100
AcDbSpline
 62
7
  6
CONTINUOUS
 70
0
 71
3
 72
9
 73
5
 74
0
 42
0.0000001
 43
0.0000001
 44
0.0000000001
 40
0.0
 40
0.0
 40
0.0
 40
0.0
 40
0.7489789541
 40
1.0
 40
1.0
 40
1.0
 40
1.0
 10
22.2892039149
 20
38.7227239706
 30
0.0
 10
22.2983689168
 20
38.7280155382
 30
0.0
 10
22.3105523092
 20
38.7352595492
 30
0.0
 10
22.3236073263
 20
38.7407229885
 30
0.0
 10
22.3269402137
 20
38.7419363166
 30
0.0
  0
SPLINE
  5
592
100
AcDbEntity
  8
0
100
AcDbSpline
 62
7
  6
CONTINUOUS
 70
0
 71
3
 72
11
 73
7
 74
0
 42
0.0000001
 43
0.0000001
 44
0.0000000001
 40
0.0
 40
0.0
 40
0.0
 40
0.0
 40
0.2217715978
 40
0.4557357271
 40
0.7127241434
 40
1.0
 40
1.0
 40
1.0
 40
1.0
 10
22.3269402137
 20
38.7419363166
 30
0.0
 10
22.3330444409
 20
38.7441585429
 30
0.0
 10
22.3460302283
 20
38.7476466182
 30
0.0
 10
22.367060835
 20
38.7486302503
 30
0.0
 10
22.3896620453
 20
38.7443915036
 30
0.0
 10
22.4043913561
 20
38.7378722167
 30
0.0
 10
22.411678912
 20
38.7336648395
 30
0.0
  0
SPLINE
  5
593
100
AcDbEntity
  8
0
100
AcDbSpline
 62
7
  6
CONTINUOUS
 70
0
 71
3
 72
10
 73
6
 74
0
 42
0.0000001
 43
0.0000001
 44
0.0000000001
 40
0.0
 40
0.0
 40
0.0
 40
0.0
 40
0.4903052556
 40
0.7395858005
 40
1.0
 40
1.0
 40
1.0
 40
1.0
 10
22.854891695
 20
36.1099245522
 30
0.0
 10
22.844009981
 20
36.103641812
 30
0.0
 10
22.8276331011
 20
36.0938468979
 30
0.0
 10
22.80309478
 20
36.0859707626
 30
0.0
 10
22.7899830157
 20
36.0845864989
 30
0.0
 10
22.7833093741
 20
36.0846185693
 30
0.0
  0
SPLINE
  5
594
100
AcDbEntity
  8
0
100
AcDbSpline
 62
7
  6
CONTINUOUS
 70
0
 71
3
 72
12
 73
8
 74
0
 42
0.0000001
 43
0.0000001
 44
0.0000000001
 40
0.0
 40
0.0
 40
0.0
 40
0.0
 40
0.1109858146
 40
0.2305657625
 40
0.4822068682
 40
0.740500635
 40
1.0
 40
1.0
 40
1.0
 40
1.0
 10
22.732416698
 20
38.5484909816
 30
0.0
 10
22.7387440377
 20
38.544837973
 30
0.0
 10
22.7512077764
 20
38.5360589229
 30
0.0
 10
22.7747999605
 20
38.5147541663
 30
0.0
 10
22.8015972818
 20
38.4829022338
 30
0.0
 10
22.8294399214
 20
38.4405277897
 30
0.0
 10
22.8463503021
 20
38.4109254114
 30
0.0
 10
22.854891695
 20
38.396131367
 30
0.0
  0
SPLINE
  5
595
100
AcDbEntity
  8
0
100
AcDbSpline
 62
7
  6
CONTINUOUS
 70
0
 71
3
 72
9
 73
5
 74
0
 42
0.0000001
 43
0.0000001
 44
0.0000000001
 40
0.0
 40
0.0
 40
0.0
 40
0.0
 40
0.7489789541
 40
1.0
 40
1.0
 40
1.0
 40
1.0
 10
24.9762208705
 20
37.1714091035
 30
0.0
 10
24.9853858724
 20
37.1767006711
 30
0.0
 10
24.9975692647
 20
37.183944682
 30
0.0
 10
25.0106242818
 20
37.1894081214
 30
0.0
 10
25.0139571692
 20
37.1906214494
 30
0.0
  0
SPLINE
  5
596
100
AcDbEntity
  8
0
100
AcDbSpline
 62
7
  6
CONTINUOUS
 70
0
 71
3
 72
11
 73
7
 74
0
 42
0.0000001
 43
0.0000001
 44
0.0000000001
 40
0.0
 40
0.0
 40
0.0
 40
0.0
 40
0.2217715978
 40
0.4557357271
 40
0.7127241434
 40
1.0
 40
1.0
 40
1.0
 40
1.0
 10
25.0139571692
 20
37.1906214494
 30
0.0
 10
25.0200613964
 20
37.1928436757
 30
0.0
 10
25.0330471839
 20
37.1963317511
 30
0.0
 10
25.0540777906
 20
37.1973153832
 30
0.0
 10
25.0766790009
 20
37.1930766364
 30
0.0
 10
25.0914083116
 20
37.1865573495
 30
0.0
 10
25.0986958675
 20
37.1823499723
 30
0.0
  0
SPLINE
  5
597
100
AcDbEntity
  8
0
100
AcDbSpline
 62
7
  6
CONTINUOUS
 70
0
 71
3
 72
9
 73
5
 74
0
 42
0.0000001
 43
0.0000001
 44
0.0000000001
 40
0.0
 40
0.0
 40
0.0
 40
0.0
 40
0.47443666
 40
1.0
 40
1.0
 40
1.0
 40
1.0
 10
25.5419086506
 20
34.5586097319
 30
0.0
 10
25.5318705865
 20
34.5644050815
 30
0.0
 10
25.5085342367
 20
34.5728632247
 30
0.0
 10
25.4840378123
 20
34.5755195488
 30
0.0
 10
25.4711978505
 20
34.575519518
 30
0.0
  0
SPLINE
  5
598
100
AcDbEntity
  8
0
100
AcDbSpline
 62
7
  6
CONTINUOUS
 70
0
 71
3
 72
9
 73
5
 74
0
 42
0.0000001
 43
0.0000001
 44
0.0000000001
 40
0.0
 40
0.0
 40
0.0
 40
0.0
 40
0.5252219452
 40
1.0
 40
1.0
 40
1.0
 40
1.0
 10
25.4604260901
 20
34.5751821802
 30
0.0
 10
25.4494910185
 20
34.5744966144
 30
0.0
 10
25.4287439197
 20
34.571227296
 30
0.0
 10
25.4090646323
 20
34.5635614907
 30
0.0
 10
25.4004872943
 20
34.5586093919
 30
0.0
  0
SPLINE
  5
599
100
AcDbEntity
  8
0
100
AcDbSpline
 62
7
  6
CONTINUOUS
 70
0
 71
3
 72
9
 73
5
 74
0
 42
0.0000001
 43
0.0000001
 44
0.0000000001
 40
0.0
 40
0.0
 40
0.0
 40
0.0
 40
0.2427627796
 40
1.0
 40
1.0
 40
1.0
 40
1.0
 10
15.17330699
 20
43.7300725038
 30
0.0
 10
15.1807542653
 20
43.7359411016
 30
0.0
 10
15.2119042481
 20
43.7595124514
 30
0.0
 10
15.2448258469
 20
43.7807153525
 30
0.0
 10
15.2704392126
 20
43.7955031477
 30
0.0
  0
SPLINE
  5
59A
100
AcDbEntity
  8
0
100
AcDbSpline
 62
7
  6
CONTINUOUS
 70
0
 71
3
 72
9
 73
5
 74
0
 42
0.0000001
 43
0.0000001
 44
0.0000000001
 40
0.0
 40
0.0
 40
0.0
 40
0.0
 40
0.4744361267
 40
1.0
 40
1.0
 40
1.0
 40
1.0
 10
24.5237024351
 20
34.0524004391
 30
0.0
 10
24.5136644444
 20
34.0466050371
 30
0.0
 10
24.4903281876
 20
34.0381467759
 30
0.0
 10
24.4658318267
 20
34.0354903438
 30
0.0
 10
24.4529918789
 20
34.035490313
 30
0.0
  0
SPLINE
  5
59B
100
AcDbEntity
  8
0
100
AcDbSpline
 62
7
  6
CONTINUOUS
 70
0
 71
3
 72
9
 73
5
 74
0
 42
0.0000001
 43
0.0000001
 44
0.0000000001
 40
0.0
 40
0.0
 40
0.0
 40
0.0
 40
0.2555021743
 40
1.0
 40
1.0
 40
1.0
 40
1.0
 10
24.4529918789
 20
34.035490313
 30
0.0
 10
24.449201031
 20
34.0354903039
 30
0.0
 10
24.4343718281
 20
34.0359823011
 30
0.0
 10
24.4195777891
 20
34.0383767135
 30
0.0
 10
24.4089518975
 20
34.0413941008
 30
0.0
  0
SPLINE
  5
59C
100
AcDbEntity
  8
0
100
AcDbSpline
 62
7
  6
CONTINUOUS
 70
0
 71
3
 72
9
 73
5
 74
0
 42
0.0000001
 43
0.0000001
 44
0.0000000001
 40
0.0
 40
0.0
 40
0.0
 40
0.0
 40
0.2629554488
 40
1.0
 40
1.0
 40
1.0
 40
1.0
 10
24.4089518975
 20
34.0413941008
 30
0.0
 10
24.4065158191
 20
34.0420858631
 30
0.0
 10
24.3973279301
 20
34.0449667652
 30
0.0
 10
24.3884282557
 20
34.0488511052
 30
0.0
 10
24.3822810788
 20
34.0524000991
 30
0.0
  0
SPLINE
  5
59D
100
AcDbEntity
  8
0
100
AcDbSpline
 62
7
  6
CONTINUOUS
 70
0
 71
3
 72
13
 73
9
 74
0
 42
0.0000001
 43
0.0000001
 44
0.0000000001
 40
0.0
 40
0.0
 40
0.0
 40
0.0
 40
0.1140623922
 40
0.2375575596
 40
0.4999994774
 40
0.7624416812
 40
0.8859371837
 40
1.0
 40
1.0
 40
1.0
 40
1.0
 10
23.7324345179
 20
32.9088243176
 30
0.0
 10
23.7227697791
 20
32.9032444113
 30
0.0
 10
23.7015855154
 20
32.8934115731
 30
0.0
 10
23.6546815974
 20
32.8791088624
 30
0.0
 10
23.5910133832
 20
32.8722170624
 30
0.0
 10
23.5273451079
 20
32.8791085681
 30
0.0
 10
23.4804410136
 20
32.8934110479
 30
0.0
 10
23.4592566204
 20
32.9032437804
 30
0.0
 10
23.4495918054
 20
32.9088236377
 30
0.0
  0
SPLINE
  5
59E
100
AcDbEntity
  8
0
100
AcDbSpline
 62
7
  6
CONTINUOUS
 70
0
 71
3
 72
9
 73
5
 74
0
 42
0.0000001
 43
0.0000001
 44
0.0000000001
 40
0.0
 40
0.0
 40
0.0
 40
0.0
 40
0.4744324481
 40
1.0
 40
1.0
 40
1.0
 40
1.0
 10
17.5102194051
 20
22.0831289575
 30
0.0
 10
17.5001814788
 20
22.0773335927
 30
0.0
 10
17.4811872952
 20
22.0613539625
 30
0.0
 10
17.4666396141
 20
22.0414667637
 30
0.0
 10
17.4602196133
 20
22.0303469345
 30
0.0
  0
SPLINE
  5
59F
100
AcDbEntity
  8
0
100
AcDbSpline
 62
7
  6
CONTINUOUS
 70
0
 71
3
 72
11
 73
7
 74
0
 42
0.0000001
 43
0.0000001
 44
0.0000000001
 40
0.0
 40
0.0
 40
0.0
 40
0.0
 40
0.2367367876
 40
0.4997672322
 40
0.7630056643
 40
1.0
 40
1.0
 40
1.0
 40
1.0
 10
17.5809303777
 20
21.9606546404
 30
0.0
 10
17.5809303777
 20
21.9722213892
 30
0.0
 10
17.576570202
 20
21.9966493829
 30
0.0
 10
17.5614566325
 20
22.0310326662
 30
0.0
 10
17.5392303207
 20
22.0613212812
 30
0.0
 10
17.5202474579
 20
22.0773393896
 30
0.0
 10
17.5102194051
 20
22.0831289575
 30
0.0
  0
SPLINE
  5
5A0
100
AcDbEntity
  8
0
100
AcDbSpline
 62
7
  6
CONTINUOUS
 70
0
 71
3
 72
11
 73
7
 74
0
 42
0.0000001
 43
0.0000001
 44
0.0000000001
 40
0.0
 40
0.0
 40
0.0
 40
0.0
 40
0.2531545044
 40
0.5293309306
 40
0.7879920344
 40
1.0
 40
1.0
 40
1.0
 40
1.0
 10
17.268799054
 20
21.6987949597
 30
0.0
 10
17.2795467578
 20
21.6925899104
 30
0.0
 10
17.3034520725
 20
21.6821471731
 30
0.0
 10
17.3404886855
 20
21.6709035705
 30
0.0
 10
17.3766517659
 20
21.6647314944
 30
0.0
 10
17.3998778243
 20
21.6639502416
 30
0.0
 10
17.4102204103
 20
21.6649746622
 30
0.0
  0
SPLINE
  5
5A1
100
AcDbEntity
  8
0
100
AcDbSpline
 62
7
  6
CONTINUOUS
 70
0
 71
3
 72
11
 73
7
 74
0
 42
0.0000001
 43
0.0000001
 44
0.0000000001
 40
0.0
 40
0.0
 40
0.0
 40
0.0
 40
0.2372428334
 40
0.4999989082
 40
0.7627555772
 40
1.0
 40
1.0
 40
1.0
 40
1.0
 10
22.2185259146
 20
24.8014547619
 30
0.0
 10
22.2285649708
 20
24.7956588412
 30
0.0
 10
22.2475616637
 20
24.7796694081
 30
0.0
 10
22.2697339104
 20
24.7493702658
 30
0.0
 10
22.284887801
 20
24.715018963
 30
0.0
 10
22.2892368871
 20
24.6905725605
 30
0.0
 10
22.2892368871
 20
24.6789804448
 30
0.0
  0
SPLINE
  5
5A2
100
AcDbEntity
  8
0
100
AcDbSpline
 62
7
  6
CONTINUOUS
 70
0
 71
3
 72
13
 73
9
 74
0
 42
0.0000001
 43
0.0000001
 44
0.0000000001
 40
0.0
 40
0.0
 40
0.0
 40
0.0
 40
0.1081028286
 40
0.2182390266
 40
0.3322412356
 40
0.4516668797
 40
0.7106956814
 40
1.0
 40
1.0
 40
1.0
 40
1.0
 10
14.8355598046
 20
44.1319230274
 30
0.0
 10
14.8355612237
 20
44.1532217795
 30
0.0
 10
14.8392836908
 20
44.1963044698
 30
0.0
 10
14.8557805115
 20
44.2599359857
 30
0.0
 10
14.8830096213
 20
44.3222023655
 30
0.0
 10
14.9345789711
 20
44.4047389468
 30
0.0
 10
15.0261659654
 20
44.501057742
 30
0.0
 10
15.1156981646
 20
44.5626941901
 30
0.0
 10
15.1650613637
 20
44.5911938763
 30
0.0
  0
SPLINE
  5
5A3
100
AcDbEntity
  8
0
100
AcDbSpline
 62
7
  6
CONTINUOUS
 70
0
 71
3
 72
15
 73
11
 74
0
 42
0.0000001
 43
0.0000001
 44
0.0000000001
 40
0.0
 40
0.0
 40
0.0
 40
0.0
 40
0.1085181236
 40
0.2282469593
 40
0.3567267186
 40
0.4905146896
 40
0.6256597102
 40
0.7580468265
 40
0.8839194828
 40
1.0
 40
1.0
 40
1.0
 40
1.0
 10
16.8595752588
 20
43.7875145302
 30
0.0
 10
16.8085959992
 20
43.8266390633
 30
0.0
 10
16.6920070742
 20
43.8969698988
 30
0.0
 10
16.4945984698
 20
43.9742520279
 30
0.0
 10
16.2736559768
 20
44.0259886639
 30
0.0
 10
16.0389248189
 20
44.0498828515
 30
0.0
 10
15.8007364995
 20
44.04489363
 30
0.0
 10
15.5695531737
 20
44.0112861548
 30
0.0
 10
15.3556968362
 20
43.9504743207
 30
0.0
 10
15.2245923487
 20
43.8907117259
 30
0.0
 10
15.1650613637
 20
43.8563417008
 30
0.0
  0
SPLINE
  5
5A4
100
AcDbEntity
  8
0
100
AcDbSpline
 62
7
  6
CONTINUOUS
 70
0
 71
3
 72
9
 73
5
 74
0
 42
0.0000001
 43
0.0000001
 44
0.0000000001
 40
0.0
 40
0.0
 40
0.0
 40
0.0
 40
0.5447423966
 40
1.0
 40
1.0
 40
1.0
 40
1.0
 10
24.9762208705
 20
37.1714091035
 30
0.0
 10
24.9832285411
 20
37.1673633145
 30
0.0
 10
24.995345484
 20
37.158307113
 30
0.0
 10
25.0030891246
 20
37.1448440372
 30
0.0
 10
25.0046206038
 20
37.1382572443
 30
0.0
  0
SPLINE
  5
5A5
100
AcDbEntity
  8
0
100
AcDbSpline
 62
7
  6
CONTINUOUS
 70
0
 71
3
 72
9
 73
5
 74
0
 42
0.0000001
 43
0.0000001
 44
0.0000000001
 40
0.0
 40
0.0
 40
0.0
 40
0.0
 40
0.4773840406
 40
1.0
 40
1.0
 40
1.0
 40
1.0
 10
25.3297763218
 20
36.9672904771
 30
0.0
 10
25.3428544385
 20
36.9748410862
 30
0.0
 10
25.3721427489
 20
36.9874382106
 30
0.0
 10
25.4030958728
 20
36.994648645
 30
0.0
 10
25.4194336535
 20
36.9971761144
 30
0.0
  0
SPLINE
  5
5A6
100
AcDbEntity
  8
0
100
AcDbSpline
 62
7
  6
CONTINUOUS
 70
0
 71
3
 72
9
 73
5
 74
0
 42
0.0000001
 43
0.0000001
 44
0.0000000001
 40
0.0
 40
0.0
 40
0.0
 40
0.0
 40
0.2245233449
 40
1.0
 40
1.0
 40
1.0
 40
1.0
 10
25.0986958675
 20
37.1823499723
 30
0.0
 10
25.0963679558
 20
37.1773340079
 30
0.0
 10
25.083667411
 20
37.1560565527
 30
0.0
 10
25.0634730088
 20
37.1401364285
 30
0.0
 10
25.0469324318
 20
37.1305867789
 30
0.0
  0
SPLINE
  5
5A7
100
AcDbEntity
  8
0
100
AcDbSpline
 62
7
  6
CONTINUOUS
 70
0
 71
3
 72
11
 73
7
 74
0
 42
0.0000001
 43
0.0000001
 44
0.0000000001
 40
0.0
 40
0.0
 40
0.0
 40
0.0
 40
0.2372196254
 40
0.500001618
 40
0.76278273
 40
1.0
 40
1.0
 40
1.0
 40
1.0
 10
24.38152076
 20
37.5964018466
 30
0.0
 10
24.38152076
 20
37.6079928047
 30
0.0
 10
24.3858681498
 20
37.6324395185
 30
0.0
 10
24.4010222524
 20
37.6667925005
 30
0.0
 10
24.4231955296
 20
37.6970928518
 30
0.0
 10
24.4421931643
 20
37.7130811081
 30
0.0
 10
24.4522311438
 20
37.7188765037
 30
0.0
  0
SPLINE
  5
5A8
100
AcDbEntity
  8
0
100
AcDbSpline
 62
7
  6
CONTINUOUS
 70
0
 71
3
 72
13
 73
9
 74
0
 42
0.0000001
 43
0.0000001
 44
0.0000000001
 40
0.0
 40
0.0
 40
0.0
 40
0.0
 40
0.1140634788
 40
0.2375593656
 40
0.5000016071
 40
0.7624429691
 40
0.8859378253
 40
1.0
 40
1.0
 40
1.0
 40
1.0
 10
27.5218111704
 20
25.0055467156
 30
0.0
 10
27.5218111704
 20
25.0167066979
 30
0.0
 10
27.5238877531
 20
25.0399694388
 30
0.0
 10
27.5349531
 20
25.0877410784
 30
0.0
 10
27.5608186451
 20
25.1463254282
 30
0.0
 10
27.5986210849
 20
25.1980179477
 30
0.0
 10
27.6344595532
 20
25.2314865169
 30
0.0
 10
27.6535672058
 20
25.2449161275
 30
0.0
 10
27.6632319378
 20
25.2504960298
 30
0.0
  0
SPLINE
  5
5A9
100
AcDbEntity
  8
0
100
AcDbSpline
 62
7
  6
CONTINUOUS
 70
0
 71
3
 72
9
 73
5
 74
0
 42
0.0000001
 43
0.0000001
 44
0.0000000001
 40
0.0
 40
0.0
 40
0.0
 40
0.0
 40
0.5119728687
 40
1.0
 40
1.0
 40
1.0
 40
1.0
 10
17.5809303777
 20
23.756959958
 30
0.0
 10
17.5744687692
 20
23.7457680618
 30
0.0
 10
17.5583153576
 20
23.7257498352
 30
0.0
 10
17.5363827582
 20
23.7120479608
 30
0.0
 10
17.5248644214
 20
23.7076797244
 30
0.0
  0
SPLINE
  5
5AA
100
AcDbEntity
  8
0
100
AcDbSpline
 62
7
  6
CONTINUOUS
 70
0
 71
3
 72
9
 73
5
 74
0
 42
0.0000001
 43
0.0000001
 44
0.0000000001
 40
0.0
 40
0.0
 40
0.0
 40
0.0
 40
0.5155790696
 40
1.0
 40
1.0
 40
1.0
 40
1.0
 10
17.5248644214
 20
23.7076797244
 30
0.0
 10
17.5141963685
 20
23.7036339512
 30
0.0
 10
17.4917136056
 20
23.6995008653
 30
0.0
 10
17.4695034087
 20
23.7058214924
 30
0.0
 10
17.4602196133
 20
23.7111813729
 30
0.0
  0
SPLINE
  5
5AB
100
AcDbEntity
  8
0
100
AcDbSpline
 62
7
  6
CONTINUOUS
 70
0
 71
3
 72
15
 73
11
 74
0
 42
0.0000001
 43
0.0000001
 44
0.0000000001
 40
0.0
 40
0.0
 40
0.0
 40
0.0
 40
0.1445822152
 40
0.2745368465
 40
0.3911757579
 40
0.4999970592
 40
0.6088188942
 40
0.725459225
 40
0.8554157721
 40
1.0
 40
1.0
 40
1.0
 40
1.0
 10
27.6632319378
 20
18.5551762094
 30
0.0
 10
27.6544730204
 20
18.5501192762
 30
0.0
 10
27.6370039239
 20
18.541847107
 30
0.0
 10
27.6101848265
 20
18.5353135577
 30
0.0
 10
27.5849715074
 20
18.5359796907
 30
0.0
 10
27.5625542314
 20
18.5440969416
 30
0.0
 10
27.5443161701
 20
18.5594527708
 30
0.0
 10
27.5311328922
 20
18.5809555429
 30
0.0
 10
27.523381744
 20
18.6074487676
 30
0.0
 10
27.5218111704
 20
18.6267138097
 30
0.0
 10
27.5218111704
 20
18.636827862
 30
0.0
  0
SPLINE
  5
5AC
100
AcDbEntity
  8
0
100
AcDbSpline
 62
7
  6
CONTINUOUS
 70
0
 71
3
 72
15
 73
11
 74
0
 42
0.0000001
 43
0.0000001
 44
0.0000000001
 40
0.0
 40
0.0
 40
0.0
 40
0.0
 40
0.1445822152
 40
0.2745368465
 40
0.3911757579
 40
0.4999970592
 40
0.6088188942
 40
0.725459225
 40
0.8554157721
 40
1.0
 40
1.0
 40
1.0
 40
1.0
 10
28.5824669262
 20
25.7812134299
 30
0.0
 10
28.5912258436
 20
25.786270363
 30
0.0
 10
28.6086949402
 20
25.7945425322
 30
0.0
 10
28.6355140375
 20
25.8010760816
 30
0.0
 10
28.6607273567
 20
25.8004099486
 30
0.0
 10
28.6831446326
 20
25.7922926977
 30
0.0
 10
28.7013826939
 20
25.7769368684
 30
0.0
 10
28.7145659719
 20
25.7554340963
 30
0.0
 10
28.72231712
 20
25.7289408716
 30
0.0
 10
28.7238876937
 20
25.7096758296
 30
0.0
 10
28.7238876937
 20
25.6995617772
 30
0.0
  0
SPLINE
  5
5AD
100
AcDbEntity
  8
0
100
AcDbSpline
 62
7
  6
CONTINUOUS
 70
0
 71
3
 72
11
 73
7
 74
0
 42
0.0000001
 43
0.0000001
 44
0.0000000001
 40
0.0
 40
0.0
 40
0.0
 40
0.0
 40
0.2177482241
 40
0.4508901735
 40
0.7104621366
 40
1.0
 40
1.0
 40
1.0
 40
1.0
 10
8.7567078609
 20
36.5054041393
 30
0.0
 10
8.7567078617
 20
36.4863630198
 30
0.0
 10
8.7637006701
 20
36.4466639807
 30
0.0
 10
8.7938176769
 20
36.391344166
 30
0.0
 10
8.8414150672
 20
36.3413760254
 30
0.0
 10
8.88120586
 20
36.3139412507
 30
0.0
 10
8.9031327133
 20
36.3012820624
 30
0.0
  0
SPLINE
  5
5AE
100
AcDbEntity
  8
0
100
AcDbSpline
 62
7
  6
CONTINUOUS
 70
0
 71
3
 72
15
 73
11
 74
0
 42
0.0000001
 43
0.0000001
 44
0.0000000001
 40
0.0
 40
0.0
 40
0.0
 40
0.0
 40
0.148076898
 40
0.2917102643
 40
0.4292377973
 40
0.5595873408
 40
0.6819615574
 40
0.7959192614
 40
0.9016710933
 40
1.0
 40
1.0
 40
1.0
 40
1.0
 10
28.7940748709
 20
38.3964464534
 30
0.0
 10
28.714425657
 20
38.4072903058
 30
0.0
 10
28.5582677577
 20
38.4347458713
 30
0.0
 10
28.3325721119
 20
38.4937473156
 30
0.0
 10
28.1219814623
 20
38.5692363039
 30
0.0
 10
27.9301096929
 20
38.6599149603
 30
0.0
 10
27.7600742423
 20
38.7642607625
 30
0.0
 10
27.6147196702
 20
38.8807504473
 30
0.0
 10
27.4965621454
 20
39.0075288835
 30
0.0
 10
27.4354000053
 20
39.1007797265
 30
0.0
 10
27.4107212148
 20
39.1481103056
 30
0.0
  0
SPLINE
  5
5AF
100
AcDbEntity
  8
0
100
AcDbSpline
 62
7
  6
CONTINUOUS
 70
0
 71
3
 72
12
 73
8
 74
0
 42
0.0000001
 43
0.0000001
 44
0.0000000001
 40
0.0
 40
0.0
 40
0.0
 40
0.0
 40
0.2914688093
 40
0.5388339648
 40
0.6522718743
 40
0.7640859833
 40
1.0
 40
1.0
 40
1.0
 40
1.0
 10
28.9650246984
 20
38.2161026064
 30
0.0
 10
28.971415451
 20
38.2197922871
 30
0.0
 10
28.9825607577
 20
38.2280033372
 30
0.0
 10
28.9919845383
 20
38.2422096057
 30
0.0
 10
28.9945546474
 20
38.254029011
 30
0.0
 10
28.9940551308
 20
38.2658082497
 30
0.0
 10
28.9901838589
 20
38.2741738684
 30
0.0
 10
28.9866977253
 20
38.2790238103
 30
0.0
  0
SPLINE
  5
5B0
100
AcDbEntity
  8
0
100
AcDbSpline
 62
7
  6
CONTINUOUS
 70
0
 71
3
 72
9
 73
5
 74
0
 42
0.0000001
 43
0.0000001
 44
0.0000000001
 40
0.0
 40
0.0
 40
0.0
 40
0.0
 40
0.2306975391
 40
1.0
 40
1.0
 40
1.0
 40
1.0
 10
28.9866977253
 20
38.2790238103
 30
0.0
 10
28.9854064993
 20
38.2808201761
 30
0.0
 10
28.979273311
 20
38.2882213688
 30
0.0
 10
28.9714129128
 20
38.2940626034
 30
0.0
 10
28.9650239869
 20
38.2977511681
 30
0.0
  0
SPLINE
  5
5B1
100
AcDbEntity
  8
0
100
AcDbSpline
 62
7
  6
CONTINUOUS
 70
0
 71
3
 72
11
 73
7
 74
0
 42
0.0000001
 43
0.0000001
 44
0.0000000001
 40
0.0
 40
0.0
 40
0.0
 40
0.0
 40
0.2372438577
 40
0.5000007501
 40
0.7627572332
 40
1.0
 40
1.0
 40
1.0
 40
1.0
 10
26.2073193952
 20
36.7055987526
 30
0.0
 10
26.2173584577
 20
36.6998028283
 30
0.0
 10
26.2407042045
 20
36.6913463789
 30
0.0
 10
26.2780301039
 20
36.6872945319
 30
0.0
 10
26.3153559381
 20
36.6913466073
 30
0.0
 10
26.3387015265
 20
36.6998032672
 30
0.0
 10
26.348740501
 20
36.7055992372
 30
0.0
  0
SPLINE
  5
5B2
100
AcDbEntity
  8
0
100
AcDbSpline
 62
7
  6
CONTINUOUS
 70
0
 71
3
 72
11
 73
7
 74
0
 42
0.0000001
 43
0.0000001
 44
0.0000000001
 40
0.0
 40
0.0
 40
0.0
 40
0.0
 40
0.2891678238
 40
0.5490791106
 40
0.782357745
 40
1.0
 40
1.0
 40
1.0
 40
1.0
 10
24.4522303045
 20
37.8005248499
 30
0.0
 10
24.4478508658
 20
37.7979963949
 30
0.0
 10
24.4399016631
 20
37.792500913
 30
0.0
 10
24.4303678201
 20
37.7825184367
 30
0.0
 10
24.4243529346
 20
37.771443797
 30
0.0
 10
24.4229436588
 20
37.7635066784
 30
0.0
 10
24.4229436968
 20
37.7597005764
 30
0.0
  0
SPLINE
  5
5B3
100
AcDbEntity
  8
0
100
AcDbSpline
 62
7
  6
CONTINUOUS
 70
0
 71
3
 72
11
 73
7
 74
0
 42
0.0000001
 43
0.0000001
 44
0.0000000001
 40
0.0
 40
0.0
 40
0.0
 40
0.0
 40
0.2176415873
 40
0.4509202907
 40
0.710832026
 40
1.0
 40
1.0
 40
1.0
 40
1.0
 10
24.4229436968
 20
37.7597005764
 30
0.0
 10
24.4229437347
 20
37.7558944655
 30
0.0
 10
24.4243531764
 20
37.7479573442
 30
0.0
 10
24.4303682932
 20
37.7368827583
 30
0.0
 10
24.4399023537
 20
37.7269003749
 30
0.0
 10
24.4478516609
 20
37.7214049421
 30
0.0
 10
24.4522311438
 20
37.7188765037
 30
0.0
  0
SPLINE
  5
5B4
100
AcDbEntity
  8
0
100
AcDbSpline
 62
7
  6
CONTINUOUS
 70
0
 71
3
 72
9
 73
5
 74
0
 42
0.0000001
 43
0.0000001
 44
0.0000000001
 40
0.0
 40
0.0
 40
0.0
 40
0.0
 40
0.4744870036
 40
1.0
 40
1.0
 40
1.0
 40
1.0
 10
27.2099358581
 20
39.3110288482
 30
0.0
 10
27.1998967957
 20
39.3168247725
 30
0.0
 10
27.1765598477
 20
39.3252812214
 30
0.0
 10
27.152063777
 20
39.32793728
 30
0.0
 10
27.1392251315
 20
39.3279372374
 30
0.0
  0
SPLINE
  5
5B5
100
AcDbEntity
  8
0
100
AcDbSpline
 62
7
  6
CONTINUOUS
 70
0
 71
3
 72
9
 73
5
 74
0
 42
0.0000001
 43
0.0000001
 44
0.0000000001
 40
0.0
 40
0.0
 40
0.0
 40
0.0
 40
0.5255137545
 40
1.0
 40
1.0
 40
1.0
 40
1.0
 10
27.1392251315
 20
39.3279372374
 30
0.0
 10
27.126386506
 20
39.3279371947
 30
0.0
 10
27.1018905166
 20
39.3252809942
 30
0.0
 10
27.0785537269
 20
39.3168243337
 30
0.0
 10
27.0685147524
 20
39.3110283637
 30
0.0
  0
SPLINE
  5
5B6
100
AcDbEntity
  8
0
100
AcDbSpline
 62
7
  6
CONTINUOUS
 70
0
 71
3
 72
21
 73
17
 74
0
 42
0.0000001
 43
0.0000001
 44
0.0000000001
 40
0.0
 40
0.0
 40
0.0
 40
0.0
 40
0.1581863109
 40
0.3139036094
 40
0.3888997257
 40
0.4610279977
 40
0.5296872582
 40
0.5944509939
 40
0.6550588774
 40
0.7115026542
 40
0.7640394659
 40
0.8132827503
 40
0.8601818227
 40
0.9060005319
 40
0.9521546495
 40
1.0
 40
1.0
 40
1.0
 40
1.0
 10
26.5169903696
 20
38.7068499619
 30
0.0
 10
26.6187625889
 20
38.7161564671
 30
0.0
 10
26.8223267653
 20
38.7197939276
 30
0.0
 10
27.0725840041
 20
38.688278338
 30
0.0
 10
27.2626666028
 20
38.6411366188
 30
0.0
 10
27.3948892792
 20
38.5963921066
 30
0.0
 10
27.5164456817
 20
38.5424215571
 30
0.0
 10
27.6255053265
 20
38.4801254596
 30
0.0
 10
27.7203453398
 20
38.4103247278
 30
0.0
 10
27.7995596919
 20
38.3340996346
 30
0.0
 10
27.8617731832
 20
38.2524128139
 30
0.0
 10
27.9059559429
 20
38.1664823633
 30
0.0
 10
27.931014032
 20
38.0775661691
 30
0.0
 10
27.9363830721
 20
37.9872773522
 30
0.0
 10
27.9217656327
 20
37.8974481046
 30
0.0
 10
27.8996345483
 20
37.8403924131
 30
0.0
 10
27.8858493391
 20
37.8127258775
 30
0.0
  0
SPLINE
  5
5B7
100
AcDbEntity
  8
0
100
AcDbSpline
 62
7
  6
CONTINUOUS
 70
0
 71
3
 72
10
 73
6
 74
0
 42
0.0000001
 43
0.0000001
 44
0.0000000001
 40
0.0
 40
0.0
 40
0.0
 40
0.0
 40
0.4636225209
 40
0.7227157179
 40
1.0
 40
1.0
 40
1.0
 40
1.0
 10
27.8858493391
 20
37.8127258775
 30
0.0
 10
27.8555035658
 20
37.7518227453
 30
0.0
 10
27.7886630617
 20
37.6661830641
 30
0.0
 10
27.6762829206
 20
37.5716506298
 30
0.0
 10
27.6100810444
 20
37.5285668811
 30
0.0
 10
27.57483704
 20
37.5082188761
 30
0.0
  0
SPLINE
  5
5B8
100
AcDbEntity
  8
0
100
AcDbSpline
 62
7
  6
CONTINUOUS
 70
0
 71
3
 72
9
 73
5
 74
0
 42
0.0000001
 43
0.0000001
 44
0.0000000001
 40
0.0
 40
0.0
 40
0.0
 40
0.0
 40
0.2427627796
 40
1.0
 40
1.0
 40
1.0
 40
1.0
 10
25.9213748123
 20
37.5248130351
 30
0.0
 10
25.9288220875
 20
37.5306816329
 30
0.0
 10
25.9599720703
 20
37.5542529827
 30
0.0
 10
25.9928936692
 20
37.5754558837
 30
0.0
 10
26.0185070348
 20
37.590243679
 30
0.0
  0
SPLINE
  5
5B9
100
AcDbEntity
  8
0
100
AcDbSpline
 62
7
  6
CONTINUOUS
 70
0
 71
3
 72
11
 73
7
 74
0
 42
0.0000001
 43
0.0000001
 44
0.0000000001
 40
0.0
 40
0.0
 40
0.0
 40
0.0
 40
0.2301095826
 40
0.4756564652
 40
0.7335725325
 40
1.0
 40
1.0
 40
1.0
 40
1.0
 10
25.8424182134
 20
38.5084087247
 30
0.0
 10
25.8894568612
 20
38.5355663386
 30
0.0
 10
25.9907031004
 20
38.5849102755
 30
0.0
 10
26.1544185004
 20
38.6422818226
 30
0.0
 10
26.3315424028
 20
38.6842298661
 30
0.0
 10
26.4543636612
 20
38.7011230966
 30
0.0
 10
26.5169903696
 20
38.7068499619
 30
0.0
  0
SPLINE
  5
5BA
100
AcDbEntity
  8
0
100
AcDbSpline
 62
7
  6
CONTINUOUS
 70
0
 71
3
 72
13
 73
9
 74
0
 42
0.0000001
 43
0.0000001
 44
0.0000000001
 40
0.0
 40
0.0
 40
0.0
 40
0.0
 40
0.1127791128
 40
0.2324391428
 40
0.3574376819
 40
0.4861805212
 40
0.7471106054
 40
1.0
 40
1.0
 40
1.0
 40
1.0
 10
27.5394816663
 20
37.4886142332
 30
0.0
 10
27.4928507194
 20
37.4637791653
 30
0.0
 10
27.3933967088
 20
37.4187262528
 30
0.0
 10
27.234022123
 20
37.3664943204
 30
0.0
 10
27.0629846462
 20
37.3285445544
 30
0.0
 10
26.8235470624
 20
37.2980045651
 30
0.0
 10
26.5210317229
 20
37.298978432
 30
0.0
 10
26.2824623895
 20
37.3412279983
 30
0.0
 10
26.1684873999
 20
37.3735430646
 30
0.0
  0
SPLINE
  5
5BB
100
AcDbEntity
  8
0
100
AcDbSpline
 62
7
  6
CONTINUOUS
 70
0
 71
3
 72
11
 73
7
 74
0
 42
0.0000001
 43
0.0000001
 44
0.0000000001
 40
0.0
 40
0.0
 40
0.0
 40
0.0
 40
0.2886799855
 40
0.5523111457
 40
0.7887334629
 40
1.0
 40
1.0
 40
1.0
 40
1.0
 10
26.113496078
 20
37.3901463565
 30
0.0
 10
26.0452017956
 20
37.4120584742
 30
0.0
 10
25.9170166405
 20
37.4625624008
 30
0.0
 10
25.747355039
 20
37.5625497636
 30
0.0
 10
25.6140231301
 20
37.6804327839
 30
0.0
 10
25.5500264277
 20
37.7734442536
 30
0.0
 10
25.5274582567
 20
37.8208347449
 30
0.0
  0
SPLINE
  5
5BC
100
AcDbEntity
  8
0
100
AcDbSpline
 62
7
  6
CONTINUOUS
 70
0
 71
3
 72
15
 73
11
 74
0
 42
0.0000001
 43
0.0000001
 44
0.0000000001
 40
0.0
 40
0.0
 40
0.0
 40
0.0
 40
0.115541463
 40
0.2272397082
 40
0.3388048093
 40
0.4539447537
 40
0.5758375846
 40
0.7068154328
 40
0.848214282
 40
1.0
 40
1.0
 40
1.0
 40
1.0
 10
25.5274582567
 20
37.8208347449
 30
0.0
 10
25.5135901131
 20
37.8499562074
 30
0.0
 10
25.491861548
 20
37.9101451773
 30
0.0
 10
25.4800033057
 20
38.0047869447
 30
0.0
 10
25.4902550042
 20
38.0995419788
 30
0.0
 10
25.5220714879
 20
38.1922934331
 30
0.0
 10
25.5746757328
 20
38.2812589368
 30
0.0
 10
25.6467772021
 20
38.3650732109
 30
0.0
 10
25.7370152033
 20
38.4423208079
 30
0.0
 10
25.8057219906
 20
38.4872222771
 30
0.0
 10
25.8424182134
 20
38.5084087247
 30
0.0
  0
SPLINE
  5
5BD
100
AcDbEntity
  8
0
100
AcDbSpline
 62
7
  6
CONTINUOUS
 70
0
 71
3
 72
11
 73
7
 74
0
 42
0.0000001
 43
0.0000001
 44
0.0000000001
 40
0.0
 40
0.0
 40
0.0
 40
0.0
 40
0.237217774
 40
0.4999989081
 40
0.7627806366
 40
1.0
 40
1.0
 40
1.0
 40
1.0
 10
28.9650246984
 20
38.2161026064
 30
0.0
 10
28.9750627467
 20
38.2103072676
 30
0.0
 10
28.9940605301
 20
38.1943191223
 30
0.0
 10
29.0162340062
 20
38.1640188677
 30
0.0
 10
29.0313882454
 20
38.129665944
 30
0.0
 10
29.0357356709
 20
38.1052192411
 30
0.0
 10
29.0357356709
 20
38.0936282892
 30
0.0
  0
SPLINE
  5
5BE
100
AcDbEntity
  8
0
100
AcDbSpline
 62
7
  6
CONTINUOUS
 70
0
 71
3
 72
13
 73
9
 74
0
 42
0.0000001
 43
0.0000001
 44
0.0000000001
 40
0.0
 40
0.0
 40
0.0
 40
0.0
 40
0.1081028286
 40
0.2182390266
 40
0.3322412356
 40
0.4516668797
 40
0.7106956814
 40
1.0
 40
1.0
 40
1.0
 40
1.0
 10
25.5836276269
 20
37.9266635587
 30
0.0
 10
25.583629046
 20
37.9479623108
 30
0.0
 10
25.587351513
 20
37.9910450011
 30
0.0
 10
25.6038483337
 20
38.054676517
 30
0.0
 10
25.6310774436
 20
38.1169428968
 30
0.0
 10
25.6826467933
 20
38.1994794781
 30
0.0
 10
25.7742337876
 20
38.2957982733
 30
0.0
 10
25.8637659868
 20
38.3574347214
 30
0.0
 10
25.9131291859
 20
38.3859344076
 30
0.0
  0
SPLINE
  5
5BF
100
AcDbEntity
  8
0
100
AcDbSpline
 62
7
  6
CONTINUOUS
 70
0
 71
3
 72
15
 73
11
 74
0
 42
0.0000001
 43
0.0000001
 44
0.0000000001
 40
0.0
 40
0.0
 40
0.0
 40
0.0
 40
0.1085181236
 40
0.2282469593
 40
0.3567267186
 40
0.4905146896
 40
0.6256597102
 40
0.7580468265
 40
0.8839194828
 40
1.0
 40
1.0
 40
1.0
 40
1.0
 10
27.607643081
 20
37.5822550615
 30
0.0
 10
27.5566638214
 20
37.6213795946
 30
0.0
 10
27.4400748964
 20
37.6917104301
 30
0.0
 10
27.2426662921
 20
37.7689925592
 30
0.0
 10
27.0217237991
 20
37.8207291952
 30
0.0
 10
26.7869926411
 20
37.8446233828
 30
0.0
 10
26.5488043218
 20
37.8396341613
 30
0.0
 10
26.317620996
 20
37.8060266861
 30
0.0
 10
26.1037646585
 20
37.745214852
 30
0.0
 10
25.9726601709
 20
37.6854522572
 30
0.0
 10
25.9131291859
 20
37.6510822321
 30
0.0
  0
SPLINE
  5
5C0
100
AcDbEntity
  8
0
100
AcDbSpline
 62
7
  6
CONTINUOUS
 70
0
 71
3
 72
11
 73
7
 74
0
 42
0.0000001
 43
0.0000001
 44
0.0000000001
 40
0.0
 40
0.0
 40
0.0
 40
0.0
 40
0.23721727
 40
0.499998382
 40
0.7627803746
 40
1.0
 40
1.0
 40
1.0
 40
1.0
 10
26.2073191447
 20
36.7055988973
 30
0.0
 10
26.1972811653
 20
36.6998035017
 30
0.0
 10
26.1782835306
 20
36.6838152454
 30
0.0
 10
26.1561102534
 20
36.6535148941
 30
0.0
 10
26.1409561507
 20
36.6191619121
 30
0.0
 10
26.136608761
 20
36.5947151982
 30
0.0
 10
26.136608761
 20
36.5831242402
 30
0.0
  0
SPLINE
  5
5C1
100
AcDbEntity
  8
0
100
AcDbSpline
 62
7
  6
CONTINUOUS
 70
0
 71
3
 72
11
 73
7
 74
0
 42
0.0000001
 43
0.0000001
 44
0.0000000001
 40
0.0
 40
0.0
 40
0.0
 40
0.0
 40
0.2372193634
 40
0.5000010919
 40
0.762782226
 40
1.0
 40
1.0
 40
1.0
 40
1.0
 10
26.4194514735
 20
36.58312492
 30
0.0
 10
26.4194514735
 20
36.5947158719
 30
0.0
 10
26.415104048
 20
36.6191625748
 30
0.0
 10
26.3999498088
 20
36.6535154985
 30
0.0
 10
26.3777763327
 20
36.6838157531
 30
0.0
 10
26.3587785493
 20
36.6998038984
 30
0.0
 10
26.348740501
 20
36.7055992372
 30
0.0
  0
SPLINE
  5
5C2
100
AcDbEntity
  8
0
100
AcDbSpline
 62
7
  6
CONTINUOUS
 70
0
 71
3
 72
13
 73
9
 74
0
 42
0.0000001
 43
0.0000001
 44
0.0000000001
 40
0.0
 40
0.0
 40
0.0
 40
0.0
 40
0.1140527599
 40
0.2375333554
 40
0.5000005226
 40
0.7624674038
 40
0.8859476642
 40
1.0
 40
1.0
 40
1.0
 40
1.0
 10
26.136608761
 20
36.5831242402
 30
0.0
 10
26.1462727768
 20
36.5775448443
 30
0.0
 10
26.1674540597
 20
36.5677110278
 30
0.0
 10
26.2143583997
 20
36.553408088
 30
0.0
 10
26.2780303387
 20
36.5465140001
 30
0.0
 10
26.3417022167
 20
36.5534083823
 30
0.0
 10
26.3886063805
 20
36.567711553
 30
0.0
 10
26.4097875338
 20
36.5775454752
 30
0.0
 10
26.4194514735
 20
36.58312492
 30
0.0
  0
SPLINE
  5
5C3
100
AcDbEntity
  8
0
100
AcDbSpline
 62
7
  6
CONTINUOUS
 70
0
 71
3
 72
17
 73
13
 74
0
 42
0.0000001
 43
0.0000001
 44
0.0000000001
 40
0.0
 40
0.0
 40
0.0
 40
0.0
 40
0.1520701339
 40
0.3029068309
 40
0.4478472606
 40
0.5829822891
 40
0.7054182193
 40
0.8140704783
 40
0.8637049659
 40
0.9107361744
 40
0.9558679346
 40
1.0
 40
1.0
 40
1.0
 40
1.0
 10
26.5326342274
 20
38.5681763601
 30
0.0
 10
26.6130600808
 20
38.5755308585
 30
0.0
 10
26.7743555118
 20
38.5800296216
 30
0.0
 10
27.0117093356
 20
38.5573176652
 30
0.0
 10
27.2354828488
 20
38.5061483474
 30
0.0
 10
27.4357036279
 20
38.4287847366
 30
0.0
 10
27.603560603
 20
38.3284714702
 30
0.0
 10
27.7137349872
 20
38.2255320371
 30
0.0
 10
27.7761116556
 20
38.1356433683
 30
0.0
 10
27.8091099052
 20
38.0675660073
 30
0.0
 10
27.8291133207
 20
37.9976191895
 30
0.0
 10
27.833622768
 20
37.9501012188
 30
0.0
 10
27.8336263468
 20
37.9266635587
 30
0.0
  0
SPLINE
  5
5C4
100
AcDbEntity
  8
0
100
AcDbSpline
 62
7
  6
CONTINUOUS
 70
0
 71
3
 72
11
 73
7
 74
0
 42
0.0000001
 43
0.0000001
 44
0.0000000001
 40
0.0
 40
0.0
 40
0.0
 40
0.0
 40
0.2301091715
 40
0.4756557378
 40
0.7335721386
 40
1.0
 40
1.0
 40
1.0
 40
1.0
 10
25.9131291859
 20
38.3859344076
 30
0.0
 10
25.9563278828
 20
38.410875038
 30
0.0
 10
26.0493086569
 20
38.4561915177
 30
0.0
 10
26.1996593819
 20
38.5088801824
 30
0.0
 10
26.362324505
 20
38.5474033518
 30
0.0
 10
26.4751197971
 20
38.5629169843
 30
0.0
 10
26.5326342274
 20
38.5681763601
 30
0.0
  0
SPLINE
  5
5C5
100
AcDbEntity
  8
0
100
AcDbSpline
 62
7
  6
CONTINUOUS
 70
0
 71
3
 72
9
 73
5
 74
0
 42
0.0000001
 43
0.0000001
 44
0.0000000001
 40
0.0
 40
0.0
 40
0.0
 40
0.0
 40
0.2566055564
 40
1.0
 40
1.0
 40
1.0
 40
1.0
 10
25.9131291859
 20
37.6510822321
 30
0.0
 10
25.9040217152
 20
37.6458240629
 30
0.0
 10
25.8688414595
 20
37.6248007281
 30
0.0
 10
25.834937603
 20
37.6016155631
 30
0.0
 10
25.8107384507
 20
37.5831061968
 30
0.0
  0
SPLINE
  5
5C6
100
AcDbEntity
  8
0
100
AcDbSpline
 62
7
  6
CONTINUOUS
 70
0
 71
3
 72
13
 73
9
 74
0
 42
0.0000001
 43
0.0000001
 44
0.0000000001
 40
0.0
 40
0.0
 40
0.0
 40
0.0
 40
0.2710446789
 40
0.535984016
 40
0.662143952
 40
0.7821860356
 40
0.8950118542
 40
1.0
 40
1.0
 40
1.0
 40
1.0
 10
26.5559476682
 20
37.7483444592
 30
0.0
 10
26.6461486112
 20
37.7565928354
 30
0.0
 10
26.8261175601
 20
37.7583579681
 30
0.0
 10
27.046023795
 20
37.725255329
 30
0.0
 10
27.2101883106
 20
37.6772751228
 30
0.0
 10
27.3217589334
 20
37.6325531788
 30
0.0
 10
27.4215573197
 20
37.579263966
 30
0.0
 10
27.4812527583
 20
37.537152819
 30
0.0
 10
27.5083127973
 20
37.5148213206
 30
0.0
  0
SPLINE
  5
5C7
100
AcDbEntity
  8
0
100
AcDbSpline
 62
7
  6
CONTINUOUS
 70
0
 71
3
 72
11
 73
7
 74
0
 42
0.0000001
 43
0.0000001
 44
0.0000000001
 40
0.0
 40
0.0
 40
0.0
 40
0.0
 40
0.2301095826
 40
0.4756564652
 40
0.7335725325
 40
1.0
 40
1.0
 40
1.0
 40
1.0
 10
26.0185070348
 20
37.590243679
 30
0.0
 10
26.0559833529
 20
37.6118805122
 30
0.0
 10
26.1366475819
 20
37.6511934848
 30
0.0
 10
26.2670818245
 20
37.6969021616
 30
0.0
 10
26.4081987997
 20
37.7303227273
 30
0.0
 10
26.5060521343
 20
37.7437817893
 30
0.0
 10
26.5559476682
 20
37.7483444592
 30
0.0
  0
SPLINE
  5
5C8
100
AcDbEntity
  8
0
100
AcDbSpline
 62
7
  6
CONTINUOUS
 70
0
 71
3
 72
11
 73
7
 74
0
 42
0.0000001
 43
0.0000001
 44
0.0000000001
 40
0.0
 40
0.0
 40
0.0
 40
0.0
 40
0.2575908895
 40
0.5143546502
 40
0.7635986398
 40
1.0
 40
1.0
 40
1.0
 40
1.0
 10
26.5872353836
 20
37.4709972556
 30
0.0
 10
26.6363981588
 20
37.4754929188
 30
0.0
 10
26.7351509675
 20
37.4789319433
 30
0.0
 10
26.8813819274
 20
37.4680463992
 30
0.0
 10
27.0214699994
 20
37.4414458084
 30
0.0
 10
27.1103991267
 20
37.4129122051
 30
0.0
 10
27.1524313707
 20
37.3960005681
 30
0.0
  0
SPLINE
  5
5C9
100
AcDbEntity
  8
0
100
AcDbSpline
 62
7
  6
CONTINUOUS
 70
0
 71
3
 72
9
 73
5
 74
0
 42
0.0000001
 43
0.0000001
 44
0.0000000001
 40
0.0
 40
0.0
 40
0.0
 40
0.0
 40
0.4832221822
 40
1.0
 40
1.0
 40
1.0
 40
1.0
 10
26.2357281122
 20
37.3836988667
 30
0.0
 10
26.2892240653
 20
37.4074430444
 30
0.0
 10
26.4048876099
 20
37.4457021522
 30
0.0
 10
26.5249024941
 20
37.4652972584
 30
0.0
 10
26.5872353836
 20
37.4709972556
 30
0.0
  0
SPLINE
  5
5CA
100
AcDbEntity
  8
0
100
AcDbSpline
 62
7
  6
CONTINUOUS
 70
0
 71
3
 72
9
 73
5
 74
0
 42
0.0000001
 43
0.0000001
 44
0.0000000001
 40
0.0
 40
0.0
 40
0.0
 40
0.0
 40
0.4793292748
 40
1.0
 40
1.0
 40
1.0
 40
1.0
 10
19.0928191129
 20
23.4464560273
 30
0.0
 10
19.0456297886
 20
23.4230078175
 30
0.0
 10
18.9516236107
 20
23.3649447136
 30
0.0
 10
18.8672238086
 20
23.2939541657
 30
0.0
 10
18.8257551645
 20
23.2545001217
 30
0.0
  0
SPLINE
  5
5CB
100
AcDbEntity
  8
0
100
AcDbSpline
 62
7
  6
CONTINUOUS
 70
0
 71
3
 72
9
 73
5
 74
0
 42
0.0000001
 43
0.0000001
 44
0.0000000001
 40
0.0
 40
0.0
 40
0.0
 40
0.0
 40
0.4744361267
 40
1.0
 40
1.0
 40
1.0
 40
1.0
 10
26.2490301513
 20
11.3699865568
 30
0.0
 10
26.2389921607
 20
11.3641911548
 30
0.0
 10
26.2156559039
 20
11.3557328936
 30
0.0
 10
26.191159543
 20
11.3530764615
 30
0.0
 10
26.1783195952
 20
11.3530764307
 30
0.0
  0
SPLINE
  5
5CC
100
AcDbEntity
  8
0
100
AcDbSpline
 62
7
  6
CONTINUOUS
 70
0
 71
3
 72
9
 73
5
 74
0
 42
0.0000001
 43
0.0000001
 44
0.0000000001
 40
0.0
 40
0.0
 40
0.0
 40
0.0
 40
0.2555021743
 40
1.0
 40
1.0
 40
1.0
 40
1.0
 10
26.1783195952
 20
11.3530764307
 30
0.0
 10
26.1745287473
 20
11.3530764216
 30
0.0
 10
26.1596995444
 20
11.3535684188
 30
0.0
 10
26.1449055053
 20
11.3559628312
 30
0.0
 10
26.1342796137
 20
11.3589802185
 30
0.0
  0
SPLINE
  5
5CD
100
AcDbEntity
  8
0
100
AcDbSpline
 62
7
  6
CONTINUOUS
 70
0
 71
3
 72
9
 73
5
 74
0
 42
0.0000001
 43
0.0000001
 44
0.0000000001
 40
0.0
 40
0.0
 40
0.0
 40
0.0
 40
0.2629554488
 40
1.0
 40
1.0
 40
1.0
 40
1.0
 10
26.1342796137
 20
11.3589802185
 30
0.0
 10
26.1318435354
 20
11.3596719808
 30
0.0
 10
26.1226556464
 20
11.3625528829
 30
0.0
 10
26.1137559719
 20
11.3664372229
 30
0.0
 10
26.1076087951
 20
11.3699862168
 30
0.0
  0
SPLINE
  5
5CE
100
AcDbEntity
  8
0
100
AcDbSpline
 62
7
  6
CONTINUOUS
 70
0
 71
3
 72
11
 73
7
 74
0
 42
0.0000001
 43
0.0000001
 44
0.0000000001
 40
0.0
 40
0.0
 40
0.0
 40
0.0
 40
0.2372178137
 40
0.4999994738
 40
0.7627814204
 40
1.0
 40
1.0
 40
1.0
 40
1.0
 10
25.4004872943
 20
36.8448161599
 30
0.0
 10
25.410525285
 20
36.8506115619
 30
0.0
 10
25.4338703647
 20
36.859069823
 30
0.0
 10
25.4711978613
 20
36.8631223815
 30
0.0
 10
25.5085254142
 20
36.8590699933
 30
0.0
 10
25.5318705857
 20
36.8506118482
 30
0.0
 10
25.5419086506
 20
36.8448164998
 30
0.0
  0
SPLINE
  5
5CF
100
AcDbEntity
  8
0
100
AcDbSpline
 62
7
  6
CONTINUOUS
 70
0
 71
3
 72
11
 73
7
 74
0
 42
0.0000001
 43
0.0000001
 44
0.0000000001
 40
0.0
 40
0.0
 40
0.0
 40
0.0
 40
0.237217774
 40
0.4999989081
 40
0.7627806366
 40
1.0
 40
1.0
 40
1.0
 40
1.0
 10
25.3297763218
 20
36.9672904771
 30
0.0
 10
25.3398143701
 20
36.9614951383
 30
0.0
 10
25.3588121536
 20
36.945506993
 30
0.0
 10
25.3809856297
 20
36.9152067384
 30
0.0
 10
25.3961398689
 20
36.8808538147
 30
0.0
 10
25.4004872943
 20
36.8564071118
 30
0.0
 10
25.4004872943
 20
36.8448161599
 30
0.0
  0
SPLINE
  5
5D0
100
AcDbEntity
  8
0
100
AcDbSpline
 62
7
  6
CONTINUOUS
 70
0
 71
3
 72
11
 73
7
 74
0
 42
0.0000001
 43
0.0000001
 44
0.0000000001
 40
0.0
 40
0.0
 40
0.0
 40
0.0
 40
0.23721727
 40
0.499998382
 40
0.7627803746
 40
1.0
 40
1.0
 40
1.0
 40
1.0
 10
24.4529914625
 20
36.4610815242
 30
0.0
 10
24.4429534831
 20
36.4552861286
 30
0.0
 10
24.4239558484
 20
36.4392978724
 30
0.0
 10
24.4017825712
 20
36.408997521
 30
0.0
 10
24.3866284685
 20
36.374644539
 30
0.0
 10
24.3822810788
 20
36.3501978252
 30
0.0
 10
24.3822810788
 20
36.3386068671
 30
0.0
  0
SPLINE
  5
5D1
100
AcDbEntity
  8
0
100
AcDbSpline
 62
7
  6
CONTINUOUS
 70
0
 71
3
 72
11
 73
7
 74
0
 42
0.0000001
 43
0.0000001
 44
0.0000000001
 40
0.0
 40
0.0
 40
0.0
 40
0.0
 40
0.2372193634
 40
0.5000010919
 40
0.762782226
 40
1.0
 40
1.0
 40
1.0
 40
1.0
 10
24.5237024351
 20
36.338607207
 30
0.0
 10
24.5237024351
 20
36.3501981589
 30
0.0
 10
24.5193550096
 20
36.3746448618
 30
0.0
 10
24.5042007704
 20
36.4089977855
 30
0.0
 10
24.4820272943
 20
36.4392980401
 30
0.0
 10
24.4630295108
 20
36.4552861854
 30
0.0
 10
24.4529914625
 20
36.4610815242
 30
0.0
  0
SPLINE
  5
5D2
100
AcDbEntity
  8
0
100
AcDbSpline
 62
7
  6
CONTINUOUS
 70
0
 71
3
 72
11
 73
7
 74
0
 42
0.0000001
 43
0.0000001
 44
0.0000000001
 40
0.0
 40
0.0
 40
0.0
 40
0.0
 40
0.2372185796
 40
0.5000005262
 40
0.7627821863
 40
1.0
 40
1.0
 40
1.0
 40
1.0
 10
24.3822810788
 20
36.3386068671
 30
0.0
 10
24.3923191437
 20
36.3328115188
 30
0.0
 10
24.4156643152
 20
36.3243533736
 30
0.0
 10
24.4529918681
 20
36.3203009854
 30
0.0
 10
24.4903193647
 20
36.3243535439
 30
0.0
 10
24.5136644444
 20
36.332811805
 30
0.0
 10
24.5237024351
 20
36.338607207
 30
0.0
  0
SPLINE
  5
5D3
100
AcDbEntity
  8
0
100
AcDbSpline
 62
7
  6
CONTINUOUS
 70
0
 71
3
 72
9
 73
5
 74
0
 42
0.0000001
 43
0.0000001
 44
0.0000000001
 40
0.0
 40
0.0
 40
0.0
 40
0.0
 40
0.4744377155
 40
1.0
 40
1.0
 40
1.0
 40
1.0
 10
24.0994371888
 20
36.5019031689
 30
0.0
 10
24.0994371888
 20
36.513494127
 30
0.0
 10
24.1037801669
 20
36.5379331995
 30
0.0
 10
24.1137278178
 20
36.5604760393
 30
0.0
 10
24.1201477807
 20
36.5715958029
 30
0.0
  0
SPLINE
  5
5D4
100
AcDbEntity
  8
0
100
AcDbSpline
 62
7
  6
CONTINUOUS
 70
0
 71
3
 72
9
 73
5
 74
0
 42
0.0000001
 43
0.0000001
 44
0.0000000001
 40
0.0
 40
0.0
 40
0.0
 40
0.0
 40
0.255502651
 40
1.0
 40
1.0
 40
1.0
 40
1.0
 10
24.1201477807
 20
36.5715958029
 30
0.0
 10
24.1220432081
 20
36.5748787977
 30
0.0
 10
24.1298839336
 20
36.5874753116
 30
0.0
 10
24.1393546663
 20
36.5990901363
 30
0.0
 10
24.1472808356
 20
36.6067836981
 30
0.0
  0
SPLINE
  5
5D5
100
AcDbEntity
  8
0
100
AcDbSpline
 62
7
  6
CONTINUOUS
 70
0
 71
3
 72
9
 73
5
 74
0
 42
0.0000001
 43
0.0000001
 44
0.0000000001
 40
0.0
 40
0.0
 40
0.0
 40
0.0
 40
0.2629554435
 40
1.0
 40
1.0
 40
1.0
 40
1.0
 10
24.1472808356
 20
36.6067836981
 30
0.0
 10
24.149097947
 20
36.6085474832
 30
0.0
 10
24.1561867811
 20
36.6150638254
 30
0.0
 10
24.1640005079
 20
36.6208288378
 30
0.0
 10
24.1701475725
 20
36.624377826
 30
0.0
  0
SPLINE
  5
5D6
100
AcDbEntity
  8
0
100
AcDbSpline
 62
7
  6
CONTINUOUS
 70
0
 71
3
 72
13
 73
9
 74
0
 42
0.0000001
 43
0.0000001
 44
0.0000000001
 40
0.0
 40
0.0
 40
0.0
 40
0.0
 40
0.1081028286
 40
0.2182390266
 40
0.3322412356
 40
0.4516668797
 40
0.7106956814
 40
1.0
 40
1.0
 40
1.0
 40
1.0
 10
22.8966106713
 20
39.4779784259
 30
0.0
 10
22.8966120904
 20
39.4992771779
 30
0.0
 10
22.9003345574
 20
39.5423598683
 30
0.0
 10
22.9168313782
 20
39.6059913842
 30
0.0
 10
22.944060488
 20
39.668257764
 30
0.0
 10
22.9956298378
 20
39.7507943453
 30
0.0
 10
23.0872168321
 20
39.8471131404
 30
0.0
 10
23.1767490313
 20
39.9087495886
 30
0.0
 10
23.2261122303
 20
39.9372492747
 30
0.0
  0
SPLINE
  5
5D7
100
AcDbEntity
  8
0
100
AcDbSpline
 62
7
  6
CONTINUOUS
 70
0
 71
3
 72
15
 73
11
 74
0
 42
0.0000001
 43
0.0000001
 44
0.0000000001
 40
0.0
 40
0.0
 40
0.0
 40
0.0
 40
0.1085181236
 40
0.2282469593
 40
0.3567267186
 40
0.4905146896
 40
0.6256597102
 40
0.7580468265
 40
0.8839194828
 40
1.0
 40
1.0
 40
1.0
 40
1.0
 10
24.9206261255
 20
39.1335699287
 30
0.0
 10
24.8696468658
 20
39.1726944618
 30
0.0
 10
24.7530579409
 20
39.2430252972
 30
0.0
 10
24.5556493365
 20
39.3203074264
 30
0.0
 10
24.3347068435
 20
39.3720440624
 30
0.0
 10
24.0999756856
 20
39.39593825
 30
0.0
 10
23.8617873662
 20
39.3909490284
 30
0.0
 10
23.6306040404
 20
39.3573415532
 30
0.0
 10
23.4167477029
 20
39.2965297191
 30
0.0
 10
23.2856432153
 20
39.2367671244
 30
0.0
 10
23.2261122303
 20
39.2023970993
 30
0.0
  0
SPLINE
  5
5D8
100
AcDbEntity
  8
0
100
AcDbSpline
 62
7
  6
CONTINUOUS
 70
0
 71
3
 72
9
 73
5
 74
0
 42
0.0000001
 43
0.0000001
 44
0.0000000001
 40
0.0
 40
0.0
 40
0.0
 40
0.0
 40
0.4832221822
 40
1.0
 40
1.0
 40
1.0
 40
1.0
 10
23.5487111566
 20
38.9350137339
 30
0.0
 10
23.6022071097
 20
38.9587579115
 30
0.0
 10
23.7178706543
 20
38.9970170194
 30
0.0
 10
23.8378855385
 20
39.0166121256
 30
0.0
 10
23.9002184281
 20
39.0223121227
 30
0.0
  0
SPLINE
  5
5D9
100
AcDbEntity
  8
0
100
AcDbSpline
 62
7
  6
CONTINUOUS
 70
0
 71
3
 72
11
 73
7
 74
0
 42
0.0000001
 43
0.0000001
 44
0.0000000001
 40
0.0
 40
0.0
 40
0.0
 40
0.0
 40
0.2575908895
 40
0.5143546502
 40
0.7635986398
 40
1.0
 40
1.0
 40
1.0
 40
1.0
 10
23.9002184281
 20
39.0223121227
 30
0.0
 10
23.9493812033
 20
39.026807786
 30
0.0
 10
24.0481340119
 20
39.0302468104
 30
0.0
 10
24.1943649718
 20
39.0193612664
 30
0.0
 10
24.3344530438
 20
38.9927606756
 30
0.0
 10
24.4233821711
 20
38.9642270723
 30
0.0
 10
24.4654144152
 20
38.9473154352
 30
0.0
  0
SPLINE
  5
5DA
100
AcDbEntity
  8
0
100
AcDbSpline
 62
7
  6
CONTINUOUS
 70
0
 71
3
 72
11
 73
7
 74
0
 42
0.0000001
 43
0.0000001
 44
0.0000000001
 40
0.0
 40
0.0
 40
0.0
 40
0.0
 40
0.2301095826
 40
0.4756564652
 40
0.7335725325
 40
1.0
 40
1.0
 40
1.0
 40
1.0
 10
23.3314900793
 20
39.1415585462
 30
0.0
 10
23.3689663973
 20
39.1631953794
 30
0.0
 10
23.4496306263
 20
39.202508352
 30
0.0
 10
23.5800648689
 20
39.2482170287
 30
0.0
 10
23.7211818442
 20
39.2816375944
 30
0.0
 10
23.8190351788
 20
39.2950966564
 30
0.0
 10
23.8689307127
 20
39.2996593264
 30
0.0
  0
SPLINE
  5
5DB
100
AcDbEntity
  8
0
100
AcDbSpline
 62
7
  6
CONTINUOUS
 70
0
 71
3
 72
13
 73
9
 74
0
 42
0.0000001
 43
0.0000001
 44
0.0000000001
 40
0.0
 40
0.0
 40
0.0
 40
0.0
 40
0.2710446789
 40
0.535984016
 40
0.662143952
 40
0.7821860356
 40
0.8950118542
 40
1.0
 40
1.0
 40
1.0
 40
1.0
 10
23.8689307127
 20
39.2996593264
 30
0.0
 10
23.9591316557
 20
39.3079077026
 30
0.0
 10
24.1391006045
 20
39.3096728353
 30
0.0
 10
24.3590068395
 20
39.2765701961
 30
0.0
 10
24.5231713551
 20
39.22858999
 30
0.0
 10
24.6347419778
 20
39.183868046
 30
0.0
 10
24.7345403641
 20
39.1305788332
 30
0.0
 10
24.7942358027
 20
39.0884676862
 30
0.0
 10
24.8212958418
 20
39.0661361878
 30
0.0
  0
SPLINE
  5
5DC
100
AcDbEntity
  8
0
100
AcDbSpline
 62
7
  6
CONTINUOUS
 70
0
 71
3
 72
9
 73
5
 74
0
 42
0.0000001
 43
0.0000001
 44
0.0000000001
 40
0.0
 40
0.0
 40
0.0
 40
0.0
 40
0.2566055564
 40
1.0
 40
1.0
 40
1.0
 40
1.0
 10
23.2261122303
 20
39.2023970993
 30
0.0
 10
23.2170047597
 20
39.1971389301
 30
0.0
 10
23.1818245039
 20
39.1761155952
 30
0.0
 10
23.1479206475
 20
39.1529304302
 30
0.0
 10
23.1237214952
 20
39.134421064
 30
0.0
  0
SPLINE
  5
5DD
100
AcDbEntity
  8
0
100
AcDbSpline
 62
7
  6
CONTINUOUS
 70
0
 71
3
 72
9
 73
5
 74
0
 42
0.0000001
 43
0.0000001
 44
0.0000000001
 40
0.0
 40
0.0
 40
0.0
 40
0.0
 40
0.2427627796
 40
1.0
 40
1.0
 40
1.0
 40
1.0
 10
23.2343578567
 20
39.0761279023
 30
0.0
 10
23.241805132
 20
39.0819965
 30
0.0
 10
23.2729551148
 20
39.1055678499
 30
0.0
 10
23.3058767136
 20
39.1267707509
 30
0.0
 10
23.3314900793
 20
39.1415585462
 30
0.0
  0
SPLINE
  5
5DE
100
AcDbEntity
  8
0
100
AcDbSpline
 62
7
  6
CONTINUOUS
 70
0
 71
3
 72
13
 73
9
 74
0
 42
0.0000001
 43
0.0000001
 44
0.0000000001
 40
0.0
 40
0.0
 40
0.0
 40
0.0
 40
0.1140623922
 40
0.2375575596
 40
0.4999994774
 40
0.7624416812
 40
0.8859371837
 40
1.0
 40
1.0
 40
1.0
 40
1.0
 10
21.0454175624
 20
34.4601391848
 30
0.0
 10
21.0357528236
 20
34.4545592785
 30
0.0
 10
21.0145685599
 20
34.4447264403
 30
0.0
 10
20.9676646418
 20
34.4304237296
 30
0.0
 10
20.9039964276
 20
34.4235319296
 30
0.0
 10
20.8403281523
 20
34.4304234353
 30
0.0
 10
20.7934240581
 20
34.4447259151
 30
0.0
 10
20.7722396649
 20
34.4545586476
 30
0.0
 10
20.7625748499
 20
34.4601385049
 30
0.0
  0
SPLINE
  5
5DF
100
AcDbEntity
  8
0
100
AcDbSpline
 62
7
  6
CONTINUOUS
 70
0
 71
3
 72
11
 73
7
 74
0
 42
0.0000001
 43
0.0000001
 44
0.0000000001
 40
0.0
 40
0.0
 40
0.0
 40
0.0
 40
0.2372193634
 40
0.5000010919
 40
0.762782226
 40
1.0
 40
1.0
 40
1.0
 40
1.0
 10
28.5824669262
 20
25.7812134299
 30
0.0
 10
28.5824669262
 20
25.769622478
 30
0.0
 10
28.5868143517
 20
25.7451757751
 30
0.0
 10
28.6019685909
 20
25.7108228514
 30
0.0
 10
28.624142067
 20
25.6805225968
 30
0.0
 10
28.6431398504
 20
25.6645344515
 30
0.0
 10
28.6531778987
 20
25.6587391127
 30
0.0
  0
SPLINE
  5
5E0
100
AcDbEntity
  8
0
100
AcDbSpline
 62
7
  6
CONTINUOUS
 70
0
 71
3
 72
15
 73
11
 74
0
 42
0.0000001
 43
0.0000001
 44
0.0000000001
 40
0.0
 40
0.0
 40
0.0
 40
0.0
 40
0.1480779156
 40
0.2917120753
 40
0.4292400984
 40
0.5595897799
 40
0.6819637574
 40
0.7959208886
 40
0.9016719369
 40
1.0
 40
1.0
 40
1.0
 40
1.0
 10
26.1070579154
 20
39.9477613206
 30
0.0
 10
26.0274063315
 20
39.9586054956
 30
0.0
 10
25.8712439085
 20
39.9860620383
 30
0.0
 10
25.6455420926
 20
40.0450659999
 30
0.0
 10
25.4349463885
 20
40.1205584187
 30
0.0
 10
25.2430709772
 20
40.2112413018
 30
0.0
 10
25.0730335316
 20
40.3155919603
 30
0.0
 10
24.9276788216
 20
40.4320870017
 30
0.0
 10
24.8095232189
 20
40.5588711172
 30
0.0
 10
24.7483639044
 20
40.6521259084
 30
0.0
 10
24.723686977
 20
40.6994583197
 30
0.0
  0
SPLINE
  5
5E1
100
AcDbEntity
  8
0
100
AcDbSpline
 62
7
  6
CONTINUOUS
 70
0
 71
3
 72
11
 73
7
 74
0
 42
0.0000001
 43
0.0000001
 44
0.0000000001
 40
0.0
 40
0.0
 40
0.0
 40
0.0
 40
0.2394289521
 40
0.4999995484
 40
0.7605703865
 40
1.0
 40
1.0
 40
1.0
 40
1.0
 10
33.577894587
 20
15.6023509538
 30
0.0
 10
33.5296508109
 20
15.5781031181
 30
0.0
 10
33.421157902
 20
15.5425468333
 30
0.0
 10
33.2493983136
 20
15.5254558845
 30
0.0
 10
33.077638502
 20
15.5425460946
 30
0.0
 10
32.9691452295
 20
15.57810188
 30
0.0
 10
32.9209011674
 20
15.6023494785
 30
0.0
  0
SPLINE
  5
5E2
100
AcDbEntity
  8
0
100
AcDbSpline
 62
7
  6
CONTINUOUS
 70
0
 71
3
 72
9
 73
5
 74
0
 42
0.0000001
 43
0.0000001
 44
0.0000000001
 40
0.0
 40
0.0
 40
0.0
 40
0.0
 40
0.5079511496
 40
1.0
 40
1.0
 40
1.0
 40
1.0
 10
34.2079067356
 20
23.4838614766
 30
0.0
 10
34.1878002103
 20
23.4875052084
 30
0.0
 10
34.1477865434
 20
23.4923711856
 30
0.0
 10
34.1073657601
 20
23.4923876951
 30
0.0
 10
34.087667075
 20
23.4904445077
 30
0.0
  0
SPLINE
  5
5E3
100
AcDbEntity
  8
0
100
AcDbSpline
 62
7
  6
CONTINUOUS
 70
0
 71
3
 72
15
 73
11
 74
0
 42
0.0000001
 43
0.0000001
 44
0.0000000001
 40
0.0
 40
0.0
 40
0.0
 40
0.0
 40
0.1140714744
 40
0.2373523007
 40
0.36698326
 40
0.5000005213
 40
0.6330177103
 40
0.7626484578
 40
0.8859289499
 40
1.0
 40
1.0
 40
1.0
 40
1.0
 10
32.8958444927
 20
21.9845654721
 30
0.0
 10
32.920030289
 20
21.970602112
 30
0.0
 10
32.9729728393
 20
21.9459822083
 30
0.0
 10
33.0591446107
 20
21.919742124
 30
0.0
 10
33.1524783607
 20
21.9036224653
 30
0.0
 10
33.2493984795
 20
21.89821042
 30
0.0
 10
33.346318521
 20
21.9036229253
 30
0.0
 10
33.439652042
 20
21.9197430271
 30
0.0
 10
33.5258234421
 20
21.9459835212
 30
0.0
 10
33.5787656683
 20
21.9706036893
 30
0.0
 10
33.6029512739
 20
21.9845671718
 30
0.0
  0
SPLINE
  5
5E4
100
AcDbEntity
  8
0
100
AcDbSpline
 62
7
  6
CONTINUOUS
 70
0
 71
3
 72
11
 73
7
 74
0
 42
0.0000001
 43
0.0000001
 44
0.0000000001
 40
0.0
 40
0.0
 40
0.0
 40
0.0
 40
0.2372193634
 40
0.5000010919
 40
0.762782226
 40
1.0
 40
1.0
 40
1.0
 40
1.0
 10
33.6029512739
 20
21.9845671718
 30
0.0
 10
33.6029512739
 20
21.9961581237
 30
0.0
 10
33.5986038484
 20
22.0206048266
 30
0.0
 10
33.5834496092
 20
22.0549577503
 30
0.0
 10
33.5612761331
 20
22.0852580049
 30
0.0
 10
33.5422783497
 20
22.1012461502
 30
0.0
 10
33.5322403014
 20
22.107041489
 30
0.0
  0
SPLINE
  5
5E5
100
AcDbEntity
  8
0
100
AcDbSpline
 62
7
  6
CONTINUOUS
 70
0
 71
3
 72
12
 73
8
 74
0
 42
0.0000001
 43
0.0000001
 44
0.0000000001
 40
0.0
 40
0.0
 40
0.0
 40
0.0
 40
0.2914688093
 40
0.5388339648
 40
0.6522718743
 40
0.7640859833
 40
1.0
 40
1.0
 40
1.0
 40
1.0
 10
26.2780077428
 20
39.7674174735
 30
0.0
 10
26.2843984954
 20
39.7711071542
 30
0.0
 10
26.2955438021
 20
39.7793182044
 30
0.0
 10
26.3049675827
 20
39.7935244729
 30
0.0
 10
26.3075376918
 20
39.8053438782
 30
0.0
 10
26.3070381752
 20
39.8171231169
 30
0.0
 10
26.3031669033
 20
39.8254887356
 30
0.0
 10
26.2996807697
 20
39.8303386775
 30
0.0
  0
SPLINE
  5
5E6
100
AcDbEntity
  8
0
100
AcDbSpline
 62
7
  6
CONTINUOUS
 70
0
 71
3
 72
9
 73
5
 74
0
 42
0.0000001
 43
0.0000001
 44
0.0000000001
 40
0.0
 40
0.0
 40
0.0
 40
0.0
 40
0.2306975391
 40
1.0
 40
1.0
 40
1.0
 40
1.0
 10
26.2996807697
 20
39.8303386775
 30
0.0
 10
26.2983895438
 20
39.8321350433
 30
0.0
 10
26.2922563554
 20
39.839536236
 30
0.0
 10
26.2843959573
 20
39.8453774706
 30
0.0
 10
26.2780070313
 20
39.8490660352
 30
0.0
  0
SPLINE
  5
5E7
100
AcDbEntity
  8
0
100
AcDbSpline
 62
7
  6
CONTINUOUS
 70
0
 71
3
 72
13
 73
9
 74
0
 42
0.0000001
 43
0.0000001
 44
0.0000000001
 40
0.0
 40
0.0
 40
0.0
 40
0.0
 40
0.1140623922
 40
0.2375575596
 40
0.4999994774
 40
0.7624416812
 40
0.8859371837
 40
1.0
 40
1.0
 40
1.0
 40
1.0
 10
18.3584006068
 20
36.0114540519
 30
0.0
 10
18.348735868
 20
36.0058741457
 30
0.0
 10
18.3275516043
 20
35.9960413074
 30
0.0
 10
18.2806476863
 20
35.9817385968
 30
0.0
 10
18.216979472
 20
35.9748467967
 30
0.0
 10
18.1533111968
 20
35.9817383025
 30
0.0
 10
18.1064071025
 20
35.9960407823
 30
0.0
 10
18.0852227093
 20
36.0058735148
 30
0.0
 10
18.0755578943
 20
36.0114533721
 30
0.0
  0
SPLINE
  5
5E8
100
AcDbEntity
  8
0
100
AcDbSpline
 62
7
  6
CONTINUOUS
 70
0
 71
3
 72
11
 73
7
 74
0
 42
0.0000001
 43
0.0000001
 44
0.0000000001
 40
0.0
 40
0.0
 40
0.0
 40
0.0
 40
0.23721727
 40
0.499998382
 40
0.7627803746
 40
1.0
 40
1.0
 40
1.0
 40
1.0
 10
32.9665548764
 20
22.1070401292
 30
0.0
 10
32.956516897
 20
22.1012447337
 30
0.0
 10
32.9375192623
 20
22.0852564774
 30
0.0
 10
32.9153459851
 20
22.054956126
 30
0.0
 10
32.9001918824
 20
22.0206031441
 30
0.0
 10
32.8958444927
 20
21.9961564302
 30
0.0
 10
32.8958444927
 20
21.9845654721
 30
0.0
  0
SPLINE
  5
5E9
100
AcDbEntity
  8
0
100
AcDbSpline
 62
7
  6
CONTINUOUS
 70
0
 71
3
 72
11
 73
7
 74
0
 42
0.0000001
 43
0.0000001
 44
0.0000000001
 40
0.0
 40
0.0
 40
0.0
 40
0.0
 40
0.2372178137
 40
0.4999994738
 40
0.7627814204
 40
1.0
 40
1.0
 40
1.0
 40
1.0
 10
27.5218111704
 20
25.0055467156
 30
0.0
 10
27.531849161
 20
25.0113421176
 30
0.0
 10
27.5551942407
 20
25.0198003787
 30
0.0
 10
27.5925217373
 20
25.0238529372
 30
0.0
 10
27.6298492903
 20
25.0198005491
 30
0.0
 10
27.6531944618
 20
25.0113424039
 30
0.0
 10
27.6632325266
 20
25.0055470556
 30
0.0
  0
SPLINE
  5
5EA
100
AcDbEntity
  8
0
100
AcDbSpline
 62
7
  6
CONTINUOUS
 70
0
 71
3
 72
15
 73
11
 74
0
 42
0.0000001
 43
0.0000001
 44
0.0000000001
 40
0.0
 40
0.0
 40
0.0
 40
0.0
 40
0.1480779156
 40
0.2917120753
 40
0.4292400984
 40
0.5595897799
 40
0.6819637574
 40
0.7959208886
 40
0.9016719369
 40
1.0
 40
1.0
 40
1.0
 40
1.0
 10
18.0460070487
 20
44.6017059221
 30
0.0
 10
17.9663554648
 20
44.6125500971
 30
0.0
 10
17.8101930419
 20
44.6400066398
 30
0.0
 10
17.5844912259
 20
44.6990106015
 30
0.0
 10
17.3738955219
 20
44.7745030202
 30
0.0
 10
17.1820201105
 20
44.8651859033
 30
0.0
 10
17.0119826649
 20
44.9695365618
 30
0.0
 10
16.866627955
 20
45.0860316032
 30
0.0
 10
16.7484723523
 20
45.2128157187
 30
0.0
 10
16.6873130378
 20
45.3060705099
 30
0.0
 10
16.6626361103
 20
45.3534029213
 30
0.0
  0
SPLINE
  5
5EB
100
AcDbEntity
  8
0
100
AcDbSpline
 62
7
  6
CONTINUOUS
 70
0
 71
3
 72
11
 73
7
 74
0
 42
0.0000001
 43
0.0000001
 44
0.0000000001
 40
0.0
 40
0.0
 40
0.0
 40
0.0
 40
0.2372196254
 40
0.500001618
 40
0.76278273
 40
1.0
 40
1.0
 40
1.0
 40
1.0
 10
27.6632325266
 20
25.0055470556
 30
0.0
 10
27.6632325266
 20
25.0171380137
 30
0.0
 10
27.6675799163
 20
25.0415847275
 30
0.0
 10
27.682734019
 20
25.0759377095
 30
0.0
 10
27.7049072962
 20
25.1062380609
 30
0.0
 10
27.7239049309
 20
25.1222263171
 30
0.0
 10
27.7339429103
 20
25.1280217127
 30
0.0
  0
SPLINE
  5
5EC
100
AcDbEntity
  8
0
100
AcDbSpline
 62
7
  6
CONTINUOUS
 70
0
 71
3
 72
11
 73
7
 74
0
 42
0.0000001
 43
0.0000001
 44
0.0000000001
 40
0.0
 40
0.0
 40
0.0
 40
0.0
 40
0.237217774
 40
0.4999989081
 40
0.7627806366
 40
1.0
 40
1.0
 40
1.0
 40
1.0
 10
27.7339429103
 20
25.1280217127
 30
0.0
 10
27.723904862
 20
25.1338170515
 30
0.0
 10
27.7049070786
 20
25.1498051967
 30
0.0
 10
27.6827336025
 20
25.1801054513
 30
0.0
 10
27.6675793633
 20
25.214458375
 30
0.0
 10
27.6632319378
 20
25.238905078
 30
0.0
 10
27.6632319378
 20
25.2504960298
 30
0.0
  0
SPLINE
  5
5ED
100
AcDbEntity
  8
0
100
AcDbSpline
 62
7
  6
CONTINUOUS
 70
0
 71
3
 72
12
 73
8
 74
0
 42
0.0000001
 43
0.0000001
 44
0.0000000001
 40
0.0
 40
0.0
 40
0.0
 40
0.0
 40
0.2914688093
 40
0.5388339648
 40
0.6522718743
 40
0.7640859833
 40
1.0
 40
1.0
 40
1.0
 40
1.0
 10
18.2169568762
 20
44.4213620751
 30
0.0
 10
18.2233476287
 20
44.4250517558
 30
0.0
 10
18.2344929354
 20
44.4332628059
 30
0.0
 10
18.243916716
 20
44.4474690744
 30
0.0
 10
18.2464868252
 20
44.4592884797
 30
0.0
 10
18.2459873086
 20
44.4710677184
 30
0.0
 10
18.2421160367
 20
44.4794333371
 30
0.0
 10
18.2386299031
 20
44.4842832791
 30
0.0
  0
SPLINE
  5
5EE
100
AcDbEntity
  8
0
100
AcDbSpline
 62
7
  6
CONTINUOUS
 70
0
 71
3
 72
9
 73
5
 74
0
 42
0.0000001
 43
0.0000001
 44
0.0000000001
 40
0.0
 40
0.0
 40
0.0
 40
0.0
 40
0.2306975391
 40
1.0
 40
1.0
 40
1.0
 40
1.0
 10
18.2386299031
 20
44.4842832791
 30
0.0
 10
18.2373386771
 20
44.4860796448
 30
0.0
 10
18.2312054887
 20
44.4934808375
 30
0.0
 10
18.2233450906
 20
44.4993220721
 30
0.0
 10
18.2169561647
 20
44.5030106368
 30
0.0
  0
SPLINE
  5
5EF
100
AcDbEntity
  8
0
100
AcDbSpline
 62
7
  6
CONTINUOUS
 70
0
 71
3
 72
11
 73
7
 74
0
 42
0.0000001
 43
0.0000001
 44
0.0000000001
 40
0.0
 40
0.0
 40
0.0
 40
0.0
 40
0.2372438577
 40
0.5000007501
 40
0.7627572332
 40
1.0
 40
1.0
 40
1.0
 40
1.0
 10
15.459251573
 20
42.9108582213
 30
0.0
 10
15.4692906354
 20
42.9050622971
 30
0.0
 10
15.4926363822
 20
42.8966058476
 30
0.0
 10
15.5299622817
 20
42.8925540006
 30
0.0
 10
15.5672881159
 20
42.896606076
 30
0.0
 10
15.5906337042
 20
42.9050627359
 30
0.0
 10
15.6006726787
 20
42.9108587059
 30
0.0
  0
SPLINE
  5
5F0
100
AcDbEntity
  8
0
100
AcDbSpline
 62
7
  6
CONTINUOUS
 70
0
 71
3
 72
11
 73
7
 74
0
 42
0.0000001
 43
0.0000001
 44
0.0000000001
 40
0.0
 40
0.0
 40
0.0
 40
0.0
 40
0.2891678238
 40
0.5490791106
 40
0.782357745
 40
1.0
 40
1.0
 40
1.0
 40
1.0
 10
13.7041624822
 20
44.0057843186
 30
0.0
 10
13.6997830436
 20
44.0032558636
 30
0.0
 10
13.6918338409
 20
43.9977603817
 30
0.0
 10
13.6822999979
 20
43.9877779054
 30
0.0
 10
13.6762851124
 20
43.9767032657
 30
0.0
 10
13.6748758366
 20
43.9687661471
 30
0.0
 10
13.6748758745
 20
43.9649600451
 30
0.0
  0
SPLINE
  5
5F1
100
AcDbEntity
  8
0
100
AcDbSpline
 62
7
  6
CONTINUOUS
 70
0
 71
3
 72
11
 73
7
 74
0
 42
0.0000001
 43
0.0000001
 44
0.0000000001
 40
0.0
 40
0.0
 40
0.0
 40
0.0
 40
0.2176415873
 40
0.4509202907
 40
0.710832026
 40
1.0
 40
1.0
 40
1.0
 40
1.0
 10
13.6748758745
 20
43.9649600451
 30
0.0
 10
13.6748759125
 20
43.9611539342
 30
0.0
 10
13.6762853541
 20
43.9532168129
 30
0.0
 10
13.682300471
 20
43.942142227
 30
0.0
 10
13.6918345314
 20
43.9321598436
 30
0.0
 10
13.6997838386
 20
43.9266644108
 30
0.0
 10
13.7041633215
 20
43.9241359724
 30
0.0
  0
SPLINE
  5
5F2
100
AcDbEntity
  8
0
100
AcDbSpline
 62
7
  6
CONTINUOUS
 70
0
 71
3
 72
9
 73
5
 74
0
 42
0.0000001
 43
0.0000001
 44
0.0000000001
 40
0.0
 40
0.0
 40
0.0
 40
0.0
 40
0.4744870036
 40
1.0
 40
1.0
 40
1.0
 40
1.0
 10
16.4618680359
 20
45.5162883169
 30
0.0
 10
16.4518289735
 20
45.5220842412
 30
0.0
 10
16.4284920254
 20
45.5305406901
 30
0.0
 10
16.4039959547
 20
45.5331967487
 30
0.0
 10
16.3911573092
 20
45.5331967061
 30
0.0
  0
SPLINE
  5
5F3
100
AcDbEntity
  8
0
100
AcDbSpline
 62
7
  6
CONTINUOUS
 70
0
 71
3
 72
9
 73
5
 74
0
 42
0.0000001
 43
0.0000001
 44
0.0000000001
 40
0.0
 40
0.0
 40
0.0
 40
0.0
 40
0.5255137545
 40
1.0
 40
1.0
 40
1.0
 40
1.0
 10
16.3911573092
 20
45.5331967061
 30
0.0
 10
16.3783186837
 20
45.5331966634
 30
0.0
 10
16.3538226943
 20
45.5305404629
 30
0.0
 10
16.3304859047
 20
45.5220838024
 30
0.0
 10
16.3204469302
 20
45.5162878324
 30
0.0
  0
SPLINE
  5
5F4
100
AcDbEntity
  8
0
100
AcDbSpline
 62
7
  6
CONTINUOUS
 70
0
 71
3
 72
21
 73
17
 74
0
 42
0.0000001
 43
0.0000001
 44
0.0000000001
 40
0.0
 40
0.0
 40
0.0
 40
0.0
 40
0.1581863109
 40
0.3139036094
 40
0.3888997257
 40
0.4610279977
 40
0.5296872582
 40
0.5944509939
 40
0.6550588774
 40
0.7115026542
 40
0.7640394659
 40
0.8132827503
 40
0.8601818227
 40
0.9060005319
 40
0.9521546495
 40
1.0
 40
1.0
 40
1.0
 40
1.0
 10
15.7689225474
 20
44.9121094306
 30
0.0
 10
15.8706947666
 20
44.9214159358
 30
0.0
 10
16.0742589431
 20
44.9250533963
 30
0.0
 10
16.3245161819
 20
44.8935378067
 30
0.0
 10
16.5145987805
 20
44.8463960876
 30
0.0
 10
16.6468214569
 20
44.8016515753
 30
0.0
 10
16.7683778594
 20
44.7476810258
 30
0.0
 10
16.8774375043
 20
44.6853849283
 30
0.0
 10
16.9722775175
 20
44.6155841965
 30
0.0
 10
17.0514918697
 20
44.5393591033
 30
0.0
 10
17.113705361
 20
44.4576722826
 30
0.0
 10
17.1578881206
 20
44.371741832
 30
0.0
 10
17.1829462098
 20
44.2828256378
 30
0.0
 10
17.1883152498
 20
44.1925368209
 30
0.0
 10
17.1736978105
 20
44.1027075733
 30
0.0
 10
17.151566726
 20
44.0456518818
 30
0.0
 10
17.1377815169
 20
44.0179853462
 30
0.0
  0
SPLINE
  5
5F5
100
AcDbEntity
  8
0
100
AcDbSpline
 62
7
  6
CONTINUOUS
 70
0
 71
3
 72
10
 73
6
 74
0
 42
0.0000001
 43
0.0000001
 44
0.0000000001
 40
0.0
 40
0.0
 40
0.0
 40
0.0
 40
0.4636225209
 40
0.7227157179
 40
1.0
 40
1.0
 40
1.0
 40
1.0
 10
17.1377815169
 20
44.0179853462
 30
0.0
 10
17.1074357436
 20
43.957082214
 30
0.0
 10
17.0405952395
 20
43.8714425328
 30
0.0
 10
16.9282150983
 20
43.7769100985
 30
0.0
 10
16.8620132222
 20
43.7338263498
 30
0.0
 10
16.8267692178
 20
43.7134783449
 30
0.0
  0
SPLINE
  5
5F6
100
AcDbEntity
  8
0
100
AcDbSpline
 62
7
  6
CONTINUOUS
 70
0
 71
3
 72
11
 73
7
 74
0
 42
0.0000001
 43
0.0000001
 44
0.0000000001
 40
0.0
 40
0.0
 40
0.0
 40
0.0
 40
0.2301095826
 40
0.4756564652
 40
0.7335725325
 40
1.0
 40
1.0
 40
1.0
 40
1.0
 10
15.0943503911
 20
44.7136681934
 30
0.0
 10
15.141389039
 20
44.7408258073
 30
0.0
 10
15.2426352781
 20
44.7901697442
 30
0.0
 10
15.4063506781
 20
44.8475412913
 30
0.0
 10
15.5834745805
 20
44.8894893348
 30
0.0
 10
15.7062958389
 20
44.9063825653
 30
0.0
 10
15.7689225474
 20
44.9121094306
 30
0.0
  0
SPLINE
  5
5F7
100
AcDbEntity
  8
0
100
AcDbSpline
 62
7
  6
CONTINUOUS
 70
0
 71
3
 72
13
 73
9
 74
0
 42
0.0000001
 43
0.0000001
 44
0.0000000001
 40
0.0
 40
0.0
 40
0.0
 40
0.0
 40
0.1127791128
 40
0.2324391428
 40
0.3574376819
 40
0.4861805212
 40
0.7471106054
 40
1.0
 40
1.0
 40
1.0
 40
1.0
 10
16.791413844
 20
43.6938737019
 30
0.0
 10
16.7447828972
 20
43.669038634
 30
0.0
 10
16.6453288866
 20
43.6239857215
 30
0.0
 10
16.4859543007
 20
43.5717537891
 30
0.0
 10
16.314916824
 20
43.5338040231
 30
0.0
 10
16.0754792402
 20
43.5032640338
 30
0.0
 10
15.7729639007
 20
43.5042379007
 30
0.0
 10
15.5343945673
 20
43.546487467
 30
0.0
 10
15.4204195777
 20
43.5788025333
 30
0.0
  0
SPLINE
  5
5F8
100
AcDbEntity
  8
0
100
AcDbSpline
 62
7
  6
CONTINUOUS
 70
0
 71
3
 72
11
 73
7
 74
0
 42
0.0000001
 43
0.0000001
 44
0.0000000001
 40
0.0
 40
0.0
 40
0.0
 40
0.0
 40
0.2886799855
 40
0.5523111457
 40
0.7887334629
 40
1.0
 40
1.0
 40
1.0
 40
1.0
 10
15.3654282558
 20
43.5954058252
 30
0.0
 10
15.2971339734
 20
43.6173179429
 30
0.0
 10
15.1689488183
 20
43.6678218695
 30
0.0
 10
14.9992872167
 20
43.7678092323
 30
0.0
 10
14.8659553079
 20
43.8856922526
 30
0.0
 10
14.8019586055
 20
43.9787037223
 30
0.0
 10
14.7793904345
 20
44.0260942137
 30
0.0
  0
SPLINE
  5
5F9
100
AcDbEntity
  8
0
100
AcDbSpline
 62
7
  6
CONTINUOUS
 70
0
 71
3
 72
15
 73
11
 74
0
 42
0.0000001
 43
0.0000001
 44
0.0000000001
 40
0.0
 40
0.0
 40
0.0
 40
0.0
 40
0.115541463
 40
0.2272397082
 40
0.3388048093
 40
0.4539447537
 40
0.5758375846
 40
0.7068154328
 40
0.848214282
 40
1.0
 40
1.0
 40
1.0
 40
1.0
 10
14.7793904345
 20
44.0260942137
 30
0.0
 10
14.7655222908
 20
44.0552156761
 30
0.0
 10
14.7437937257
 20
44.115404646
 30
0.0
 10
14.7319354834
 20
44.2100464134
 30
0.0
 10
14.742187182
 20
44.3048014475
 30
0.0
 10
14.7740036656
 20
44.3975529018
 30
0.0
 10
14.8266079105
 20
44.4865184055
 30
0.0
 10
14.8987093799
 20
44.5703326796
 30
0.0
 10
14.9889473811
 20
44.6475802766
 30
0.0
 10
15.0576541683
 20
44.6924817458
 30
0.0
 10
15.0943503911
 20
44.7136681934
 30
0.0
  0
SPLINE
  5
5FA
100
AcDbEntity
  8
0
100
AcDbSpline
 62
7
  6
CONTINUOUS
 70
0
 71
3
 72
9
 73
5
 74
0
 42
0.0000001
 43
0.0000001
 44
0.0000000001
 40
0.0
 40
0.0
 40
0.0
 40
0.0
 40
0.5447417271
 40
1.0
 40
1.0
 40
1.0
 40
1.0
 10
27.6632319378
 20
18.5551762094
 30
0.0
 10
27.6632319378
 20
18.5632683633
 30
0.0
 10
27.6650167035
 20
18.5782908885
 30
0.0
 10
27.6728052563
 20
18.5917291006
 30
0.0
 10
27.6777443626
 20
18.5963488087
 30
0.0
  0
SPLINE
  5
5FB
100
AcDbEntity
  8
0
100
AcDbSpline
 62
7
  6
CONTINUOUS
 70
0
 71
3
 72
11
 73
7
 74
0
 42
0.0000001
 43
0.0000001
 44
0.0000000001
 40
0.0
 40
0.0
 40
0.0
 40
0.0
 40
0.2372185796
 40
0.5000005262
 40
0.7627821863
 40
1.0
 40
1.0
 40
1.0
 40
1.0
 10
27.6632325266
 20
18.636828202
 30
0.0
 10
27.6531944618
 20
18.6426235503
 30
0.0
 10
27.6298492903
 20
18.6510816955
 30
0.0
 10
27.5925217373
 20
18.6551340836
 30
0.0
 10
27.5551942407
 20
18.6510815251
 30
0.0
 10
27.531849161
 20
18.642623264
 30
0.0
 10
27.5218111704
 20
18.636827862
 30
0.0
  0
SPLINE
  5
5FC
100
AcDbEntity
  8
0
100
AcDbSpline
 62
7
  6
CONTINUOUS
 70
0
 71
3
 72
9
 73
5
 74
0
 42
0.0000001
 43
0.0000001
 44
0.0000000001
 40
0.0
 40
0.0
 40
0.0
 40
0.0
 40
0.4551094431
 40
1.0
 40
1.0
 40
1.0
 40
1.0
 10
28.695453749
 20
25.666259076
 30
0.0
 10
28.6969607684
 20
25.6728725953
 30
0.0
 10
28.704696974
 20
25.686409228
 30
0.0
 10
28.7168545477
 20
25.6955012128
 30
0.0
 10
28.7238876937
 20
25.6995617772
 30
0.0
  0
SPLINE
  5
5FD
100
AcDbEntity
  8
0
100
AcDbSpline
 62
7
  6
CONTINUOUS
 70
0
 71
3
 72
11
 73
7
 74
0
 42
0.0000001
 43
0.0000001
 44
0.0000000001
 40
0.0
 40
0.0
 40
0.0
 40
0.0
 40
0.1950437198
 40
0.5779949174
 40
0.7961299319
 40
1.0
 40
1.0
 40
1.0
 40
1.0
 10
22.2892362983
 20
28.1082888459
 30
0.0
 10
22.2892363748
 20
28.0976719845
 30
0.0
 10
22.2894591244
 20
28.0662100626
 30
0.0
 10
22.2891458751
 20
28.0228745514
 30
0.0
 10
22.2889778827
 20
27.9790578901
 30
0.0
 10
22.2892368871
 20
27.9560874213
 30
0.0
 10
22.2892368871
 20
27.9449901133
 30
0.0
  0
SPLINE
  5
5FE
100
AcDbEntity
  8
0
100
AcDbSpline
 62
7
  6
CONTINUOUS
 70
0
 71
3
 72
11
 73
7
 74
0
 42
0.0000001
 43
0.0000001
 44
0.0000000001
 40
0.0
 40
0.0
 40
0.0
 40
0.0
 40
0.2372193634
 40
0.5000010919
 40
0.762782226
 40
1.0
 40
1.0
 40
1.0
 40
1.0
 10
23.0670569959
 20
27.5775737742
 30
0.0
 10
23.0670569959
 20
27.5891647261
 30
0.0
 10
23.0627095704
 20
27.613611429
 30
0.0
 10
23.0475553312
 20
27.6479643527
 30
0.0
 10
23.0253818551
 20
27.6782646073
 30
0.0
 10
23.0063840717
 20
27.6942527526
 30
0.0
 10
22.9963460234
 20
27.7000480913
 30
0.0
  0
SPLINE
  5
5FF
100
AcDbEntity
  8
0
100
AcDbSpline
 62
7
  6
CONTINUOUS
 70
0
 71
3
 72
11
 73
7
 74
0
 42
0.0000001
 43
0.0000001
 44
0.0000000001
 40
0.0
 40
0.0
 40
0.0
 40
0.0
 40
0.2372185796
 40
0.5000005262
 40
0.7627821863
 40
1.0
 40
1.0
 40
1.0
 40
1.0
 10
22.9256356397
 20
27.5775734342
 30
0.0
 10
22.9356737045
 20
27.5717780859
 30
0.0
 10
22.9590188761
 20
27.5633199407
 30
0.0
 10
22.996346429
 20
27.5592675526
 30
0.0
 10
23.0336739256
 20
27.5633201111
 30
0.0
 10
23.0570190053
 20
27.5717783722
 30
0.0
 10
23.0670569959
 20
27.5775737742
 30
0.0
  0
SPLINE
  5
600
100
AcDbEntity
  8
0
100
AcDbSpline
 62
7
  6
CONTINUOUS
 70
0
 71
3
 72
11
 73
7
 74
0
 42
0.0000001
 43
0.0000001
 44
0.0000000001
 40
0.0
 40
0.0
 40
0.0
 40
0.0
 40
0.23721727
 40
0.499998382
 40
0.7627803746
 40
1.0
 40
1.0
 40
1.0
 40
1.0
 10
22.9963460234
 20
27.7000480913
 30
0.0
 10
22.986308044
 20
27.6942526958
 30
0.0
 10
22.9673104093
 20
27.6782644395
 30
0.0
 10
22.9451371321
 20
27.6479640882
 30
0.0
 10
22.9299830294
 20
27.6136111062
 30
0.0
 10
22.9256356397
 20
27.5891643923
 30
0.0
 10
22.9256356397
 20
27.5775734342
 30
0.0
  0
SPLINE
  5
601
100
AcDbEntity
  8
0
100
AcDbSpline
 62
7
  6
CONTINUOUS
 70
0
 71
3
 72
11
 73
7
 74
0
 42
0.0000001
 43
0.0000001
 44
0.0000000001
 40
0.0
 40
0.0
 40
0.0
 40
0.0
 40
0.2372178137
 40
0.4999994738
 40
0.7627814204
 40
1.0
 40
1.0
 40
1.0
 40
1.0
 10
25.4004996587
 20
28.9247794819
 30
0.0
 10
25.4105376494
 20
28.9305748839
 30
0.0
 10
25.4338827291
 20
28.939033145
 30
0.0
 10
25.4712102257
 20
28.9430857035
 30
0.0
 10
25.5085377786
 20
28.9390333154
 30
0.0
 10
25.5318829501
 20
28.9305751702
 30
0.0
 10
25.541921015
 20
28.9247798219
 30
0.0
  0
SPLINE
  5
602
100
AcDbEntity
  8
0
100
AcDbSpline
 62
7
  6
CONTINUOUS
 70
0
 71
3
 72
11
 73
7
 74
0
 42
0.0000001
 43
0.0000001
 44
0.0000000001
 40
0.0
 40
0.0
 40
0.0
 40
0.0
 40
0.237217774
 40
0.4999989081
 40
0.7627806366
 40
1.0
 40
1.0
 40
1.0
 40
1.0
 10
25.3297886862
 20
29.0472537991
 30
0.0
 10
25.3398267345
 20
29.0414584603
 30
0.0
 10
25.358824518
 20
29.0254703151
 30
0.0
 10
25.3809979941
 20
28.9951700604
 30
0.0
 10
25.3961522333
 20
28.9608171367
 30
0.0
 10
25.4004996587
 20
28.9363704338
 30
0.0
 10
25.4004996587
 20
28.9247794819
 30
0.0
  0
SPLINE
  5
603
100
AcDbEntity
  8
0
100
AcDbSpline
 62
7
  6
CONTINUOUS
 70
0
 71
3
 72
9
 73
5
 74
0
 42
0.0000001
 43
0.0000001
 44
0.0000000001
 40
0.0
 40
0.0
 40
0.0
 40
0.0
 40
0.47443666
 40
1.0
 40
1.0
 40
1.0
 40
1.0
 10
25.541921015
 20
24.1890658025
 30
0.0
 10
25.5318829501
 20
24.1948611509
 30
0.0
 10
25.5085466015
 20
24.203319296
 30
0.0
 10
25.4840501767
 20
24.2059756195
 30
0.0
 10
25.4712102149
 20
24.2059755887
 30
0.0
  0
SPLINE
  5
604
100
AcDbEntity
  8
0
100
AcDbSpline
 62
7
  6
CONTINUOUS
 70
0
 71
3
 72
9
 73
5
 74
0
 42
0.0000001
 43
0.0000001
 44
0.0000000001
 40
0.0
 40
0.0
 40
0.0
 40
0.0
 40
0.5252219447
 40
1.0
 40
1.0
 40
1.0
 40
1.0
 10
25.4604384545
 20
24.2056382508
 30
0.0
 10
25.4495033829
 20
24.204952685
 30
0.0
 10
25.4287562841
 20
24.2016833667
 30
0.0
 10
25.4090769967
 20
24.1940175614
 30
0.0
 10
25.4004996587
 20
24.1890654626
 30
0.0
  0
SPLINE
  5
605
100
AcDbEntity
  8
0
100
AcDbSpline
 62
7
  6
CONTINUOUS
 70
0
 71
3
 72
13
 73
9
 74
0
 42
0.0000001
 43
0.0000001
 44
0.0000000001
 40
0.0
 40
0.0
 40
0.0
 40
0.0
 40
0.1141762243
 40
0.2375705078
 40
0.5000006893
 40
0.7624304955
 40
0.8858242827
 40
1.0
 40
1.0
 40
1.0
 40
1.0
 10
32.9665548764
 20
22.1070401292
 30
0.0
 10
32.9859039315
 20
22.0958691998
 30
0.0
 10
33.0282611492
 20
22.0761696847
 30
0.0
 10
33.1220905336
 20
22.0476231233
 30
0.0
 10
33.2493981154
 20
22.033829943
 30
0.0
 10
33.3767055326
 20
22.0476237511
 30
0.0
 10
33.470534507
 20
22.0761707435
 30
0.0
 10
33.5128914127
 20
22.0958704696
 30
0.0
 10
33.5322403014
 20
22.107041489
 30
0.0
  0
SPLINE
  5
606
100
AcDbEntity
  8
0
100
AcDbSpline
 62
7
  6
CONTINUOUS
 70
0
 71
3
 72
11
 73
7
 74
0
 42
0.0000001
 43
0.0000001
 44
0.0000000001
 40
0.0
 40
0.0
 40
0.0
 40
0.0
 40
0.23721727
 40
0.499998382
 40
0.7627803746
 40
1.0
 40
1.0
 40
1.0
 40
1.0
 10
15.4592513225
 20
42.910858366
 30
0.0
 10
15.449213343
 20
42.9050629704
 30
0.0
 10
15.4302157083
 20
42.8890747141
 30
0.0
 10
15.4080424312
 20
42.8587743628
 30
0.0
 10
15.3928883285
 20
42.8244213808
 30
0.0
 10
15.3885409388
 20
42.799974667
 30
0.0
 10
15.3885409388
 20
42.7883837089
 30
0.0
  0
SPLINE
  5
607
100
AcDbEntity
  8
0
100
AcDbSpline
 62
7
  6
CONTINUOUS
 70
0
 71
3
 72
11
 73
7
 74
0
 42
0.0000001
 43
0.0000001
 44
0.0000000001
 40
0.0
 40
0.0
 40
0.0
 40
0.0
 40
0.2372193634
 40
0.5000010919
 40
0.762782226
 40
1.0
 40
1.0
 40
1.0
 40
1.0
 10
15.6713836512
 20
42.7883843887
 30
0.0
 10
15.6713836512
 20
42.7999753406
 30
0.0
 10
15.6670362258
 20
42.8244220435
 30
0.0
 10
15.6518819865
 20
42.8587749672
 30
0.0
 10
15.6297085104
 20
42.8890752219
 30
0.0
 10
15.610710727
 20
42.9050633671
 30
0.0
 10
15.6006726787
 20
42.9108587059
 30
0.0
  0
SPLINE
  5
608
100
AcDbEntity
  8
0
100
AcDbSpline
 62
7
  6
CONTINUOUS
 70
0
 71
3
 72
13
 73
9
 74
0
 42
0.0000001
 43
0.0000001
 44
0.0000000001
 40
0.0
 40
0.0
 40
0.0
 40
0.0
 40
0.1140527599
 40
0.2375333554
 40
0.5000005226
 40
0.7624674038
 40
0.8859476642
 40
1.0
 40
1.0
 40
1.0
 40
1.0
 10
15.3885409388
 20
42.7883837089
 30
0.0
 10
15.3982049546
 20
42.782804313
 30
0.0
 10
15.4193862375
 20
42.7729704965
 30
0.0
 10
15.4662905775
 20
42.7586675567
 30
0.0
 10
15.5299625165
 20
42.7517734688
 30
0.0
 10
15.5936343944
 20
42.758667851
 30
0.0
 10
15.6405385582
 20
42.7729710217
 30
0.0
 10
15.6617197116
 20
42.7828049439
 30
0.0
 10
15.6713836512
 20
42.7883843887
 30
0.0
  0
SPLINE
  5
609
100
AcDbEntity
  8
0
100
AcDbSpline
 62
7
  6
CONTINUOUS
 70
0
 71
3
 72
11
 73
7
 74
0
 42
0.0000001
 43
0.0000001
 44
0.0000000001
 40
0.0
 40
0.0
 40
0.0
 40
0.0
 40
0.2398177433
 40
0.4999997337
 40
0.7601818905
 40
1.0
 40
1.0
 40
1.0
 40
1.0
 10
33.6377363329
 20
22.8227784731
 30
0.0
 10
33.580381302
 20
22.7946920379
 30
0.0
 10
33.4521031907
 20
22.7534798032
 30
0.0
 10
33.2493926642
 20
22.7336500108
 30
0.0
 10
33.0466819652
 20
22.7534789878
 30
0.0
 10
32.9184035234
 20
22.7946906042
 30
0.0
 10
32.8610482371
 20
22.82277674
 30
0.0
  0
SPLINE
  5
60A
100
AcDbEntity
  8
0
100
AcDbSpline
 62
7
  6
CONTINUOUS
 70
0
 71
3
 72
12
 73
8
 74
0
 42
0.0000001
 43
0.0000001
 44
0.0000000001
 40
0.0
 40
0.0
 40
0.0
 40
0.0
 40
0.2276097723
 40
0.4799304729
 40
0.6111665183
 40
0.74306314
 40
1.0
 40
1.0
 40
1.0
 40
1.0
 10
17.2687990541
 20
20.8822925426
 30
0.0
 10
17.2789738955
 20
20.876418228
 30
0.0
 10
17.3038410739
 20
20.8698791851
 30
0.0
 10
17.3357095928
 20
20.8732921907
 30
0.0
 10
17.3610010603
 20
20.8818151943
 30
0.0
 10
17.3850401077
 20
20.8938905585
 30
0.0
 10
17.4010995054
 20
20.9064850836
 30
0.0
 10
17.4102204103
 20
20.91611352
 30
0.0
  0
SPLINE
  5
60B
100
AcDbEntity
  8
0
100
AcDbSpline
 62
7
  6
CONTINUOUS
 70
0
 71
3
 72
9
 73
5
 74
0
 42
0.0000001
 43
0.0000001
 44
0.0000000001
 40
0.0
 40
0.0
 40
0.0
 40
0.0
 40
0.4744361267
 40
1.0
 40
1.0
 40
1.0
 40
1.0
 10
23.0670569959
 20
22.8418597548
 30
0.0
 10
23.0570190053
 20
22.8360643528
 30
0.0
 10
23.0336827485
 20
22.8276060917
 30
0.0
 10
23.0091863876
 20
22.8249496596
 30
0.0
 10
22.9963464398
 20
22.8249496287
 30
0.0
  0
SPLINE
  5
60C
100
AcDbEntity
  8
0
100
AcDbSpline
 62
7
  6
CONTINUOUS
 70
0
 71
3
 72
9
 73
5
 74
0
 42
0.0000001
 43
0.0000001
 44
0.0000000001
 40
0.0
 40
0.0
 40
0.0
 40
0.0
 40
0.2555021743
 40
1.0
 40
1.0
 40
1.0
 40
1.0
 10
22.9963464398
 20
22.8249496287
 30
0.0
 10
22.9925555919
 20
22.8249496196
 30
0.0
 10
22.977726389
 20
22.8254416169
 30
0.0
 10
22.9629323499
 20
22.8278360292
 30
0.0
 10
22.9523064583
 20
22.8308534165
 30
0.0
  0
SPLINE
  5
60D
100
AcDbEntity
  8
0
100
AcDbSpline
 62
7
  6
CONTINUOUS
 70
0
 71
3
 72
9
 73
5
 74
0
 42
0.0000001
 43
0.0000001
 44
0.0000000001
 40
0.0
 40
0.0
 40
0.0
 40
0.0
 40
0.2629554488
 40
1.0
 40
1.0
 40
1.0
 40
1.0
 10
22.9523064583
 20
22.8308534165
 30
0.0
 10
22.94987038
 20
22.8315451789
 30
0.0
 10
22.940682491
 20
22.834426081
 30
0.0
 10
22.9317828165
 20
22.838310421
 30
0.0
 10
22.9256356397
 20
22.8418594149
 30
0.0
  0
SPLINE
  5
60E
100
AcDbEntity
  8
0
100
AcDbSpline
 62
7
  6
CONTINUOUS
 70
0
 71
3
 72
9
 73
5
 74
0
 42
0.0000001
 43
0.0000001
 44
0.0000000001
 40
0.0
 40
0.0
 40
0.0
 40
0.0
 40
0.2573476683
 40
1.0
 40
1.0
 40
1.0
 40
1.0
 10
4.8736665057
 20
29.2970323649
 30
0.0
 10
4.875841589
 20
29.3007997406
 30
0.0
 10
4.8848436896
 20
29.3151063628
 30
0.0
 10
4.8959706926
 20
29.3281389423
 30
0.0
 10
4.9053651035
 20
29.3364660873
 30
0.0
  0
SPLINE
  5
60F
100
AcDbEntity
  8
0
100
AcDbSpline
 62
7
  6
CONTINUOUS
 70
0
 71
3
 72
9
 73
5
 74
0
 42
0.0000001
 43
0.0000001
 44
0.0000000001
 40
0.0
 40
0.0
 40
0.0
 40
0.0
 40
0.2605912419
 40
1.0
 40
1.0
 40
1.0
 40
1.0
 10
4.9053651035
 20
29.3364660873
 30
0.0
 10
4.9068389022
 20
29.3377724528
 30
0.0
 10
4.9126061471
 20
29.3426560711
 30
0.0
 10
4.918826829
 20
29.3470203362
 30
0.0
 10
4.9236662975
 20
29.349814388
 30
0.0
  0
SPLINE
  5
610
100
AcDbEntity
  8
0
100
AcDbSpline
 62
7
  6
CONTINUOUS
 70
0
 71
3
 72
11
 73
7
 74
0
 42
0.0000001
 43
0.0000001
 44
0.0000000001
 40
0.0
 40
0.0
 40
0.0
 40
0.0
 40
0.2372196254
 40
0.500001618
 40
0.76278273
 40
1.0
 40
1.0
 40
1.0
 40
1.0
 10
13.6334529378
 20
43.8016613153
 30
0.0
 10
13.6334529378
 20
43.8132522734
 30
0.0
 10
13.6378003275
 20
43.8376989872
 30
0.0
 10
13.6529544302
 20
43.8720519692
 30
0.0
 10
13.6751277074
 20
43.9023523205
 30
0.0
 10
13.6941253421
 20
43.9183405768
 30
0.0
 10
13.7041633215
 20
43.9241359724
 30
0.0
  0
SPLINE
  5
611
100
AcDbEntity
  8
0
100
AcDbSpline
 62
7
  6
CONTINUOUS
 70
0
 71
3
 72
11
 73
7
 74
0
 42
0.0000001
 43
0.0000001
 44
0.0000000001
 40
0.0
 40
0.0
 40
0.0
 40
0.0
 40
0.2372438577
 40
0.5000007501
 40
0.7627572332
 40
1.0
 40
1.0
 40
1.0
 40
1.0
 10
23.5203024397
 20
38.2569136198
 30
0.0
 10
23.5303415021
 20
38.2511176955
 30
0.0
 10
23.5536872489
 20
38.2426612461
 30
0.0
 10
23.5910131484
 20
38.2386093991
 30
0.0
 10
23.6283389825
 20
38.2426614744
 30
0.0
 10
23.6516845709
 20
38.2511181343
 30
0.0
 10
23.6617235454
 20
38.2569141044
 30
0.0
  0
SPLINE
  5
612
100
AcDbEntity
  8
0
100
AcDbSpline
 62
7
  6
CONTINUOUS
 70
0
 71
3
 72
11
 73
7
 74
0
 42
0.0000001
 43
0.0000001
 44
0.0000000001
 40
0.0
 40
0.0
 40
0.0
 40
0.0
 40
0.2372193634
 40
0.5000010919
 40
0.762782226
 40
1.0
 40
1.0
 40
1.0
 40
1.0
 10
10.3173433317
 20
38.7507839588
 30
0.0
 10
10.3173433317
 20
38.7623749107
 30
0.0
 10
10.3129959062
 20
38.7868216136
 30
0.0
 10
10.297841667
 20
38.8211745373
 30
0.0
 10
10.2756681909
 20
38.8514747919
 30
0.0
 10
10.2566704075
 20
38.8674629372
 30
0.0
 10
10.2466323592
 20
38.8732582759
 30
0.0
  0
SPLINE
  5
613
100
AcDbEntity
  8
0
100
AcDbSpline
 62
7
  6
CONTINUOUS
 70
0
 71
3
 72
10
 73
6
 74
0
 42
0.0000001
 43
0.0000001
 44
0.0000000001
 40
0.0
 40
0.0
 40
0.0
 40
0.0
 40
0.5609881575
 40
0.7941314372
 40
1.0
 40
1.0
 40
1.0
 40
1.0
 10
11.3747609096
 20
38.9867429395
 30
0.0
 10
11.3691393804
 20
39.0194066363
 30
0.0
 10
11.3557174824
 20
39.0647588944
 30
0.0
 10
11.3332844025
 20
39.1193940041
 30
0.0
 10
11.3222367759
 20
39.1428913068
 30
0.0
 10
11.3165877544
 20
39.1536628752
 30
0.0
  0
SPLINE
  5
614
100
AcDbEntity
  8
0
100
AcDbSpline
 62
7
  6
CONTINUOUS
 70
0
 71
3
 72
11
 73
7
 74
0
 42
0.0000001
 43
0.0000001
 44
0.0000000001
 40
0.0
 40
0.0
 40
0.0
 40
0.0
 40
0.1950437199
 40
0.5779949174
 40
0.7961299319
 40
1.0
 40
1.0
 40
1.0
 40
1.0
 10
11.0244465801
 20
39.3223268452
 30
0.0
 10
11.0244466567
 20
39.3117099839
 30
0.0
 10
11.0246694061
 20
39.280248062
 30
0.0
 10
11.0243561569
 20
39.2369125508
 30
0.0
 10
11.0241881645
 20
39.1930958895
 30
0.0
 10
11.0244471689
 20
39.1701254207
 30
0.0
 10
11.0244471689
 20
39.1590281127
 30
0.0
  0
SPLINE
  5
615
100
AcDbEntity
  8
0
100
AcDbSpline
 62
7
  6
CONTINUOUS
 70
0
 71
3
 72
9
 73
5
 74
0
 42
0.0000001
 43
0.0000001
 44
0.0000000001
 40
0.0
 40
0.0
 40
0.0
 40
0.0
 40
0.5300926987
 40
1.0
 40
1.0
 40
1.0
 40
1.0
 10
10.2466358919
 20
38.3833673309
 30
0.0
 10
10.2180032176
 20
38.3998980392
 30
0.0
 10
10.1665135413
 20
38.4358695491
 30
0.0
 10
10.1243417597
 20
38.4829952322
 30
0.0
 10
10.1084817009
 20
38.5076413134
 30
0.0
  0
SPLINE
  5
616
100
AcDbEntity
  8
0
100
AcDbSpline
 62
7
  6
CONTINUOUS
 70
0
 71
3
 72
15
 73
11
 74
0
 42
0.0000001
 43
0.0000001
 44
0.0000000001
 40
0.0
 40
0.0
 40
0.0
 40
0.0
 40
0.1198629594
 40
0.233470487
 40
0.3449102975
 40
0.4585648641
 40
0.5785145084
 40
0.7078644882
 40
0.8483608558
 40
1.0
 40
1.0
 40
1.0
 40
1.0
 10
10.1084817009
 20
38.5076413134
 30
0.0
 10
10.0989015334
 20
38.5225286217
 30
0.0
 10
10.082944334
 20
38.5534445003
 30
0.0
 10
10.0703979536
 20
38.6033100213
 30
0.0
 10
10.0704636818
 20
38.6538614777
 30
0.0
 10
10.0831565968
 20
38.7037250365
 30
0.0
 10
10.1080336226
 20
38.7516731483
 30
0.0
 10
10.1443118096
 20
38.7967928377
 30
0.0
 10
10.1911084166
 20
38.8382073036
 30
0.0
 10
10.227236228
 20
38.8620599812
 30
0.0
 10
10.2466323592
 20
38.8732582759
 30
0.0
  0
SPLINE
  5
617
100
AcDbEntity
  8
0
100
AcDbSpline
 62
7
  6
CONTINUOUS
 70
0
 71
3
 72
9
 73
5
 74
0
 42
0.0000001
 43
0.0000001
 44
0.0000000001
 40
0.0
 40
0.0
 40
0.0
 40
0.0
 40
0.2548329385
 40
1.0
 40
1.0
 40
1.0
 40
1.0
 10
8.9738407418
 20
38.7916067257
 30
0.0
 10
8.9713895479
 20
38.7901915367
 30
0.0
 10
8.9618347812
 20
38.7845282658
 30
0.0
 10
8.9525415637
 20
38.778420982
 30
0.0
 10
8.9458053416
 20
38.773612338
 30
0.0
  0
SPLINE
  5
618
100
AcDbEntity
  8
0
100
AcDbSpline
 62
7
  6
CONTINUOUS
 70
0
 71
3
 72
15
 73
11
 74
0
 42
0.0000001
 43
0.0000001
 44
0.0000000001
 40
0.0
 40
0.0
 40
0.0
 40
0.0
 40
0.1391274092
 40
0.2643309716
 40
0.3787715843
 40
0.4882294413
 40
0.5997213109
 40
0.719769758
 40
0.8528051663
 40
1.0
 40
1.0
 40
1.0
 40
1.0
 10
8.9458053416
 20
38.773612338
 30
0.0
 10
8.9312129939
 20
38.7631956083
 30
0.0
 10
8.9050092073
 20
38.7410469785
 30
0.0
 10
8.8751160004
 20
38.7018806026
 30
0.0
 10
8.8580124733
 20
38.6595688681
 30
0.0
 10
8.8549618802
 20
38.6156957263
 30
0.0
 10
8.8661694677
 20
38.5724751486
 30
0.0
 10
8.8907819502
 20
38.531809839
 30
0.0
 10
8.9274204008
 20
38.4949717389
 30
0.0
 10
8.9574159422
 20
38.47449677
 30
0.0
 10
8.9738432428
 20
38.4650126782
 30
0.0
  0
SPLINE
  5
619
100
AcDbEntity
  8
0
100
AcDbSpline
 62
7
  6
CONTINUOUS
 70
0
 71
3
 72
11
 73
7
 74
0
 42
0.0000001
 43
0.0000001
 44
0.0000000001
 40
0.0
 40
0.0
 40
0.0
 40
0.0
 40
0.2891678238
 40
0.5490791106
 40
0.782357745
 40
1.0
 40
1.0
 40
1.0
 40
1.0
 10
21.7652133489
 20
39.351839717
 30
0.0
 10
21.7608339102
 20
39.349311262
 30
0.0
 10
21.7528847076
 20
39.3438157802
 30
0.0
 10
21.7433508646
 20
39.3338333038
 30
0.0
 10
21.7373359791
 20
39.3227586642
 30
0.0
 10
21.7359267032
 20
39.3148215456
 30
0.0
 10
21.7359267412
 20
39.3110154436
 30
0.0
  0
SPLINE
  5
61A
100
AcDbEntity
  8
0
100
AcDbSpline
 62
7
  6
CONTINUOUS
 70
0
 71
3
 72
11
 73
7
 74
0
 42
0.0000001
 43
0.0000001
 44
0.0000000001
 40
0.0
 40
0.0
 40
0.0
 40
0.0
 40
0.2176415873
 40
0.4509202907
 40
0.710832026
 40
1.0
 40
1.0
 40
1.0
 40
1.0
 10
21.7359267412
 20
39.3110154436
 30
0.0
 10
21.7359267792
 20
39.3072093327
 30
0.0
 10
21.7373362208
 20
39.2992722113
 30
0.0
 10
21.7433513377
 20
39.2881976254
 30
0.0
 10
21.7528853981
 20
39.278215242
 30
0.0
 10
21.7608347053
 20
39.2727198093
 30
0.0
 10
21.7652141882
 20
39.2701913708
 30
0.0
  0
SPLINE
  5
61B
100
AcDbEntity
  8
0
100
AcDbSpline
 62
7
  6
CONTINUOUS
 70
0
 71
3
 72
9
 73
5
 74
0
 42
0.0000001
 43
0.0000001
 44
0.0000000001
 40
0.0
 40
0.0
 40
0.0
 40
0.0
 40
0.4773840406
 40
1.0
 40
1.0
 40
1.0
 40
1.0
 10
14.5817084996
 20
43.1725499458
 30
0.0
 10
14.5947866162
 20
43.1801005549
 30
0.0
 10
14.6240749267
 20
43.1926976794
 30
0.0
 10
14.6550280506
 20
43.1999081137
 30
0.0
 10
14.6713658313
 20
43.2024355831
 30
0.0
  0
SPLINE
  5
61C
100
AcDbEntity
  8
0
100
AcDbSpline
 62
7
  6
CONTINUOUS
 70
0
 71
3
 72
11
 73
7
 74
0
 42
0.0000001
 43
0.0000001
 44
0.0000000001
 40
0.0
 40
0.0
 40
0.0
 40
0.0
 40
0.2372196254
 40
0.500001618
 40
0.76278273
 40
1.0
 40
1.0
 40
1.0
 40
1.0
 10
8.9031327133
 20
38.3425381052
 30
0.0
 10
8.9031327133
 20
38.3541290633
 30
0.0
 10
8.907480103
 20
38.3785757772
 30
0.0
 10
8.9226342057
 20
38.4129287592
 30
0.0
 10
8.9448074828
 20
38.4432291105
 30
0.0
 10
8.9638051175
 20
38.4592173668
 30
0.0
 10
8.973843097
 20
38.4650127623
 30
0.0
  0
SPLINE
  5
61D
100
AcDbEntity
  8
0
100
AcDbSpline
 62
7
  6
CONTINUOUS
 70
0
 71
3
 72
9
 73
5
 74
0
 42
0.0000001
 43
0.0000001
 44
0.0000000001
 40
0.0
 40
0.0
 40
0.0
 40
0.0
 40
0.2245233449
 40
1.0
 40
1.0
 40
1.0
 40
1.0
 10
14.3506280453
 20
43.387609441
 30
0.0
 10
14.3483001336
 20
43.3825934766
 30
0.0
 10
14.3355995888
 20
43.3613160214
 30
0.0
 10
14.3154051866
 20
43.3453958972
 30
0.0
 10
14.2988646095
 20
43.3358462476
 30
0.0
  0
SPLINE
  5
61E
100
AcDbEntity
  8
0
100
AcDbSpline
 62
7
  6
CONTINUOUS
 70
0
 71
3
 72
11
 73
7
 74
0
 42
0.0000001
 43
0.0000001
 44
0.0000000001
 40
0.0
 40
0.0
 40
0.0
 40
0.0
 40
0.2372178137
 40
0.4999994738
 40
0.7627814204
 40
1.0
 40
1.0
 40
1.0
 40
1.0
 10
14.6524194721
 20
43.0500756286
 30
0.0
 10
14.6624574627
 20
43.0558710306
 30
0.0
 10
14.6858025424
 20
43.0643292917
 30
0.0
 10
14.7231300391
 20
43.0683818502
 30
0.0
 10
14.760457592
 20
43.064329462
 30
0.0
 10
14.7838027635
 20
43.0558713169
 30
0.0
 10
14.7938408283
 20
43.0500759685
 30
0.0
  0
SPLINE
  5
61F
100
AcDbEntity
  8
0
100
AcDbSpline
 62
7
  6
CONTINUOUS
 70
0
 71
3
 72
11
 73
7
 74
0
 42
0.0000001
 43
0.0000001
 44
0.0000000001
 40
0.0
 40
0.0
 40
0.0
 40
0.0
 40
0.2895378634
 40
0.5491098265
 40
0.7822517759
 40
1.0
 40
1.0
 40
1.0
 40
1.0
 10
8.9031327133
 20
37.281084963
 30
0.0
 10
8.88120586
 20
37.2937441512
 30
0.0
 10
8.8414150672
 20
37.321178926
 30
0.0
 10
8.7938176769
 20
37.3711470665
 30
0.0
 10
8.7637006701
 20
37.4264668812
 30
0.0
 10
8.7567078617
 20
37.4661659204
 30
0.0
 10
8.7567078609
 20
37.4852070399
 30
0.0
  0
SPLINE
  5
620
100
AcDbEntity
  8
0
100
AcDbSpline
 62
7
  6
CONTINUOUS
 70
0
 71
3
 72
11
 73
7
 74
0
 42
0.0000001
 43
0.0000001
 44
0.0000000001
 40
0.0
 40
0.0
 40
0.0
 40
0.0
 40
0.237217774
 40
0.4999989081
 40
0.7627806366
 40
1.0
 40
1.0
 40
1.0
 40
1.0
 10
14.5817084996
 20
43.1725499458
 30
0.0
 10
14.5917465479
 20
43.166754607
 30
0.0
 10
14.6107443313
 20
43.1507664617
 30
0.0
 10
14.6329178074
 20
43.1204662071
 30
0.0
 10
14.6480720466
 20
43.0861132834
 30
0.0
 10
14.6524194721
 20
43.0616665805
 30
0.0
 10
14.6524194721
 20
43.0500756286
 30
0.0
  0
SPLINE
  5
621
100
AcDbEntity
  8
0
100
AcDbSpline
 62
7
  6
CONTINUOUS
 70
0
 71
3
 72
9
 73
5
 74
0
 42
0.0000001
 43
0.0000001
 44
0.0000000001
 40
0.0
 40
0.0
 40
0.0
 40
0.0
 40
0.47443666
 40
1.0
 40
1.0
 40
1.0
 40
1.0
 10
14.7938408283
 20
40.7638692006
 30
0.0
 10
14.7838027643
 20
40.7696645502
 30
0.0
 10
14.7604664145
 20
40.7781226934
 30
0.0
 10
14.7359699901
 20
40.7807790176
 30
0.0
 10
14.7231300283
 20
40.7807789867
 30
0.0
  0
SPLINE
  5
622
100
AcDbEntity
  8
0
100
AcDbSpline
 62
7
  6
CONTINUOUS
 70
0
 71
3
 72
9
 73
5
 74
0
 42
0.0000001
 43
0.0000001
 44
0.0000000001
 40
0.0
 40
0.0
 40
0.0
 40
0.0
 40
0.5252219452
 40
1.0
 40
1.0
 40
1.0
 40
1.0
 10
14.7123582678
 20
40.7804416489
 30
0.0
 10
14.7014231963
 20
40.7797560831
 30
0.0
 10
14.6806760975
 20
40.7764867647
 30
0.0
 10
14.66099681
 20
40.7688209594
 30
0.0
 10
14.6524194721
 20
40.7638688606
 30
0.0
  0
SPLINE
  5
623
100
AcDbEntity
  8
0
100
AcDbSpline
 62
7
  6
CONTINUOUS
 70
0
 71
3
 72
9
 73
5
 74
0
 42
0.0000001
 43
0.0000001
 44
0.0000000001
 40
0.0
 40
0.0
 40
0.0
 40
0.0
 40
0.5447423966
 40
1.0
 40
1.0
 40
1.0
 40
1.0
 10
14.2281530482
 20
43.3766685722
 30
0.0
 10
14.2351607189
 20
43.3726227832
 30
0.0
 10
14.2472776617
 20
43.3635665817
 30
0.0
 10
14.2550213024
 20
43.3501035059
 30
0.0
 10
14.2565527815
 20
43.343516713
 30
0.0
  0
SPLINE
  5
624
100
AcDbEntity
  8
0
100
AcDbSpline
 62
7
  6
CONTINUOUS
 70
0
 71
3
 72
9
 73
5
 74
0
 42
0.0000001
 43
0.0000001
 44
0.0000000001
 40
0.0
 40
0.0
 40
0.0
 40
0.0
 40
0.5137229498
 40
1.0
 40
1.0
 40
1.0
 40
1.0
 10
10.1084817009
 20
36.4663852705
 30
0.0
 10
10.0983407968
 20
36.4821439475
 30
0.0
 10
10.0816244717
 20
36.5149585349
 30
0.0
 10
10.0733971144
 20
36.5509668073
 30
0.0
 10
10.0717763232
 20
36.5686310636
 30
0.0
  0
SPLINE
  5
625
100
AcDbEntity
  8
0
100
AcDbSpline
 62
7
  6
CONTINUOUS
 70
0
 71
3
 72
9
 73
5
 74
0
 42
0.0000001
 43
0.0000001
 44
0.0000000001
 40
0.0
 40
0.0
 40
0.0
 40
0.0
 40
0.2548329385
 40
1.0
 40
1.0
 40
1.0
 40
1.0
 10
8.9738407418
 20
36.7503506829
 30
0.0
 10
8.9713895479
 20
36.7489354938
 30
0.0
 10
8.9618347812
 20
36.743272223
 30
0.0
 10
8.9525415637
 20
36.7371649392
 30
0.0
 10
8.9458053416
 20
36.7323562951
 30
0.0
  0
SPLINE
  5
626
100
AcDbEntity
  8
0
100
AcDbSpline
 62
7
  6
CONTINUOUS
 70
0
 71
3
 72
15
 73
11
 74
0
 42
0.0000001
 43
0.0000001
 44
0.0000000001
 40
0.0
 40
0.0
 40
0.0
 40
0.0
 40
0.1391274092
 40
0.2643309716
 40
0.3787715843
 40
0.4882294413
 40
0.5997213109
 40
0.719769758
 40
0.8528051663
 40
1.0
 40
1.0
 40
1.0
 40
1.0
 10
8.9458053416
 20
36.7323562951
 30
0.0
 10
8.9312129939
 20
36.7219395655
 30
0.0
 10
8.9050092073
 20
36.6997909356
 30
0.0
 10
8.8751160004
 20
36.6606245598
 30
0.0
 10
8.8580124733
 20
36.6183128253
 30
0.0
 10
8.8549618802
 20
36.5744396835
 30
0.0
 10
8.8661694677
 20
36.5312191058
 30
0.0
 10
8.8907819502
 20
36.4905537962
 30
0.0
 10
8.9274204008
 20
36.4537156961
 30
0.0
 10
8.9574159422
 20
36.4332407272
 30
0.0
 10
8.9738432428
 20
36.4237566353
 30
0.0
  0
SPLINE
  5
627
100
AcDbEntity
  8
0
100
AcDbSpline
 62
7
  6
CONTINUOUS
 70
0
 71
3
 72
9
 73
5
 74
0
 42
0.0000001
 43
0.0000001
 44
0.0000000001
 40
0.0
 40
0.0
 40
0.0
 40
0.0
 40
0.4744870036
 40
1.0
 40
1.0
 40
1.0
 40
1.0
 10
24.5229189026
 20
40.8623437154
 30
0.0
 10
24.5128798401
 20
40.8681396397
 30
0.0
 10
24.4895428921
 20
40.8765960885
 30
0.0
 10
24.4650468214
 20
40.8792521472
 30
0.0
 10
24.4522081759
 20
40.8792521045
 30
0.0
  0
SPLINE
  5
628
100
AcDbEntity
  8
0
100
AcDbSpline
 62
7
  6
CONTINUOUS
 70
0
 71
3
 72
9
 73
5
 74
0
 42
0.0000001
 43
0.0000001
 44
0.0000000001
 40
0.0
 40
0.0
 40
0.0
 40
0.0
 40
0.5255137545
 40
1.0
 40
1.0
 40
1.0
 40
1.0
 10
24.4522081759
 20
40.8792521045
 30
0.0
 10
24.4393695504
 20
40.8792520619
 30
0.0
 10
24.414873561
 20
40.8765958613
 30
0.0
 10
24.3915367713
 20
40.8681392009
 30
0.0
 10
24.3814977968
 20
40.8623432309
 30
0.0
  0
SPLINE
  5
629
100
AcDbEntity
  8
0
100
AcDbSpline
 62
7
  6
CONTINUOUS
 70
0
 71
3
 72
11
 73
7
 74
0
 42
0.0000001
 43
0.0000001
 44
0.0000000001
 40
0.0
 40
0.0
 40
0.0
 40
0.0
 40
0.2372196254
 40
0.500001618
 40
0.76278273
 40
1.0
 40
1.0
 40
1.0
 40
1.0
 10
8.9031327133
 20
36.3012820624
 30
0.0
 10
8.9031327133
 20
36.3128730205
 30
0.0
 10
8.907480103
 20
36.3373197344
 30
0.0
 10
8.9226342057
 20
36.3716727163
 30
0.0
 10
8.9448074828
 20
36.4019730677
 30
0.0
 10
8.9638051175
 20
36.417961324
 30
0.0
 10
8.973843097
 20
36.4237567195
 30
0.0
  0
SPLINE
  5
62A
100
AcDbEntity
  8
0
100
AcDbSpline
 62
7
  6
CONTINUOUS
 70
0
 71
3
 72
9
 73
5
 74
0
 42
0.0000001
 43
0.0000001
 44
0.0000000001
 40
0.0
 40
0.0
 40
0.0
 40
0.0
 40
0.4744377155
 40
1.0
 40
1.0
 40
1.0
 40
1.0
 10
13.3513693665
 20
42.7071626376
 30
0.0
 10
13.3513693665
 20
42.7187535957
 30
0.0
 10
13.3557123447
 20
42.7431926682
 30
0.0
 10
13.3656599955
 20
42.765735508
 30
0.0
 10
13.3720799584
 20
42.7768552716
 30
0.0
  0
SPLINE
  5
62B
100
AcDbEntity
  8
0
100
AcDbSpline
 62
7
  6
CONTINUOUS
 70
0
 71
3
 72
9
 73
5
 74
0
 42
0.0000001
 43
0.0000001
 44
0.0000000001
 40
0.0
 40
0.0
 40
0.0
 40
0.0
 40
0.255502651
 40
1.0
 40
1.0
 40
1.0
 40
1.0
 10
13.3720799584
 20
42.7768552716
 30
0.0
 10
13.3739753858
 20
42.7801382664
 30
0.0
 10
13.3818161114
 20
42.7927347803
 30
0.0
 10
13.3912868441
 20
42.804349605
 30
0.0
 10
13.3992130134
 20
42.8120431668
 30
0.0
  0
SPLINE
  5
62C
100
AcDbEntity
  8
0
100
AcDbSpline
 62
7
  6
CONTINUOUS
 70
0
 71
3
 72
9
 73
5
 74
0
 42
0.0000001
 43
0.0000001
 44
0.0000000001
 40
0.0
 40
0.0
 40
0.0
 40
0.0
 40
0.2629554435
 40
1.0
 40
1.0
 40
1.0
 40
1.0
 10
13.3992130134
 20
42.8120431668
 30
0.0
 10
13.4010301248
 20
42.8138069519
 30
0.0
 10
13.4081189588
 20
42.8203232941
 30
0.0
 10
13.4159326857
 20
42.8260883065
 30
0.0
 10
13.4220797502
 20
42.8296372947
 30
0.0
  0
SPLINE
  5
62D
100
AcDbEntity
  8
0
100
AcDbSpline
 62
7
  6
CONTINUOUS
 70
0
 71
3
 72
11
 73
7
 74
0
 42
0.0000001
 43
0.0000001
 44
0.0000000001
 40
0.0
 40
0.0
 40
0.0
 40
0.0
 40
0.23721727
 40
0.499998382
 40
0.7627803746
 40
1.0
 40
1.0
 40
1.0
 40
1.0
 10
13.7049236403
 20
42.6663409929
 30
0.0
 10
13.6948856608
 20
42.6605455973
 30
0.0
 10
13.6758880262
 20
42.6445573411
 30
0.0
 10
13.653714749
 20
42.6142569897
 30
0.0
 10
13.6385606463
 20
42.5799040077
 30
0.0
 10
13.6342132566
 20
42.5554572939
 30
0.0
 10
13.6342132566
 20
42.5438663358
 30
0.0
  0
SPLINE
  5
62E
100
AcDbEntity
  8
0
100
AcDbSpline
 62
7
  6
CONTINUOUS
 70
0
 71
3
 72
11
 73
7
 74
0
 42
0.0000001
 43
0.0000001
 44
0.0000000001
 40
0.0
 40
0.0
 40
0.0
 40
0.0
 40
0.2372193634
 40
0.5000010919
 40
0.762782226
 40
1.0
 40
1.0
 40
1.0
 40
1.0
 10
13.7756346128
 20
42.5438666757
 30
0.0
 10
13.7756346128
 20
42.5554576276
 30
0.0
 10
13.7712871873
 20
42.5799043305
 30
0.0
 10
13.7561329481
 20
42.6142572542
 30
0.0
 10
13.733959472
 20
42.6445575089
 30
0.0
 10
13.7149616886
 20
42.6605456541
 30
0.0
 10
13.7049236403
 20
42.6663409929
 30
0.0
  0
ENDSEC
  0
SECTION
  2
OBJECTS
  0
DICTIONARY
  5
C
100
AcDbDictionary
280
0
281
1
  3
ACAD_GROUP
350
D
  3
ACAD_MLINESTYLE
350
17
  3
ACAD_LAYOUT
350
1A
  3
ACAD_PLOTSETTINGS
350
19
  3
ACAD_PLOTSTYLENAME
350
E
  0
DICTIONARY
  5
D
102
{ACAD_REACTORS
330
C
102
}
100
AcDbDictionary
280
0
281
1
  0
ACDBDICTIONARYWDFLT
  5
E
102
{ACAD_REACTORS
330
C
102
}
100
AcDbDictionary
281
1
  3
Normal
350
F
100
AcDbDictionaryWithDefault
340
F
  0
DICTIONARY
  5
17
102
{ACAD_REACTORS
330
C
102
}
100
AcDbDictionary
280
0
281
1
  3
Standard
350
18
  0
DICTIONARY
  5
19
102
{ACAD_REACTORS
330
C
102
}
100
AcDbDictionary
281
1
  0
DICTIONARY
  5
1A
102
{ACAD_REACTORS
330
C
102
}
100
AcDbDictionary
281
1
  3
Model
350
62F
  3
Layout1
350
630
  0
ACDBPLACEHOLDER
  5
F
102
{ACAD_REACTORS
330
E
102
}
  0
MLINESTYLE
  5
18
102
{ACAD_REACTORS
330
17
102
}
100
AcDbMlineStyle
  2
STANDARD
 70
0
  3

 62
256
 51
90.0
 52
90.0
 71
2
 49
0.5
 62
256
  6
BYLAYER
 49
-0.5
 62
256
  6
BYLAYER
  0
LAYOUT
  5
62F
102
{ACAD_REACTORS
330
1A
102
}
100
AcDbPlotSettings
  1

  2
none_device
  4

  6

 40
0.0
 41
0.0
 42
0.0
 43
0.0
 44
210.0
 45
297.0
 46
0.0
 47
0.0
 48
0.0
 49
0.0
140
0.0
141
0.0
142
1.0
143
1.0
 70
1024
 72
1
 73
0
 74
0
  7

 75
0
147
1.0
148
0.0
149
0.0
100
AcDbLayout
  1
Model
 70
0
 71
0
 10
0.0
 20
0.0
 11
210.0
 21
297.0
 12
0.0
 22
0.0
 32
0.0
 14
0.0
 24
0.0
 34
0.0
 15
0.0
 25
0.0
 35
0.0
146
0.0
 13
0.0
 23
0.0
 33
0.0
 16
1.0
 26
0.0
 36
0.0
 17
0.0
 27
1.0
 37
0.0
 76
0
330
210
345
0
346
0
  0
LAYOUT
  5
630
102
{ACAD_REACTORS
330
1A
102
}
100
AcDbPlotSettings
  1

  2
none_device
  4

  6

 40
0.0
 41
0.0
 42
0.0
 43
0.0
 44
210.0
 45
297.0
 46
0.0
 47
0.0
 48
0.0
 49
0.0
140
0.0
141
0.0
142
1.0
143
1.0
 70
0
 72
1
 73
0
 74
0
  7

 75
0
147
1.0
148
0.0
149
0.0
100
AcDbLayout
  1
Layout1
 70
0
 71
1
 10
0.0
 20
0.0
 11
210.0
 21
297.0
 12
0.0
 22
0.0
 32
0.0
 14
0.0
 24
0.0
 34
0.0
 15
0.0
 25
0.0
 35
0.0
146
0.0
 13
0.0
 23
0.0
 33
0.0
 16
1.0
 26
0.0
 36
0.0
 17
0.0
 27
1.0
 37
0.0
 76
0
330
211
345
0
346
0
  0
ENDSEC
  0
EOF
