  0
SECTION
  2
HEADER
  9
$ACADVER
  1
AC1009
  9
$DWGCODEPAGE
  3
ansi_1250
  9
$INSBASE
 10
0.0
 20
0.0
 30
0.0
  9
$EXTMIN
 10
-1.36554
 20
-0.401575
 30
0.0
  9
$EXTMAX
 10
1.36554
 20
2.329506
 30
0.0
  9
$LIMMIN
 10
0.0
 20
0.0
  9
$LIMMAX
 10
0.0
 20
0.0
  9
$ORTHOMODE
 70
     0
  9
$REGENMODE
 70
     1
  9
$FILLMODE
 70
     1
  9
$QTEXTMODE
 70
     0
  9
$MIRRTEXT
 70
     1
  9
$DRAGMODE
 70
     2
  9
$LTSCALE
 40
1.0
  9
$OSMODE
 70
     0
  9
$ATTMODE
 70
     1
  9
$TEXTSIZE
 40
0.2
  9
$TRACEWID
 40
0.05
  9
$TEXTSTYLE
  7
STANDARD
  9
$CLAYER
  8
0
  9
$CELTYPE
  6
CONTINUOUS
  9
$CECOLOR
 62
   256
  9
$DIMSCALE
 40
1.0
  9
$DIMASZ
 40
0.18
  9
$DIMEXO
 40
0.0625
  9
$DIMDLI
 40
0.38
  9
$DIMRND
 40
0.0
  9
$DIMDLE
 40
0.0
  9
$DIMEXE
 40
0.18
  9
$DIMTP
 40
0.0
  9
$DIMTM
 40
0.0
  9
$DIMTXT
 40
0.18
  9
$DIMCEN
 40
0.09
  9
$DIMTSZ
 40
0.0
  9
$DIMTOL
 70
     0
  9
$DIMLIM
 70
     0
  9
$DIMTIH
 70
     1
  9
$DIMTOH
 70
     1
  9
$DIMSE1
 70
     0
  9
$DIMSE2
 70
     0
  9
$DIMTAD
 70
     0
  9
$DIMZIN
 70
     0
  9
$DIMBLK
  1

  9
$DIMASO
 70
     1
  9
$DIMSHO
 70
     1
  9
$DIMPOST
  1

  9
$DIMAPOST
  1

  9
$DIMALT
 70
     0
  9
$DIMALTD
 70
     2
  9
$DIMALTF
 40
25.4
  9
$DIMLFAC
 40
1.0
  9
$DIMTOFL
 70
     0
  9
$DIMTVP
 40
0.0
  9
$DIMTIX
 70
     0
  9
$DIMSOXD
 70
     0
  9
$DIMSAH
 70
     0
  9
$DIMBLK1
  1

  9
$DIMBLK2
  1

  9
$DIMSTYLE
  2
STANDARD
  9
$DIMCLRD
 70
     0
  9
$DIMCLRE
 70
     0
  9
$DIMCLRT
 70
     0
  9
$DIMTFAC
 40
1.0
  9
$DIMGAP
 40
0.09
  9
$LUNITS
 70
     2
  9
$LUPREC
 70
     4
  9
$AXISMODE
 70
     0
  9
$AXISUNIT
 10
0.0
 20
0.0
  9
$SKETCHINC
 40
0.1
  9
$FILLETRAD
 40
0.0
  9
$AUNITS
 70
     0
  9
$AUPREC
 70
     0
  9
$MENU
  1
acad
  9
$ELEVATION
 40
0.0
  9
$PELEVATION
 40
0.0
  9
$THICKNESS
 40
0.0
  9
$LIMCHECK
 70
     0
  9
$BLIPMODE
 70
     1
  9
$CHAMFERA
 40
0.0
  9
$CHAMFERB
 40
0.0
  9
$SKPOLY
 70
     0
  9
$TDCREATE
 40
0.000000000
  9
$TDUPDATE
 40
0.000000000
  9
$TDINDWG
 40
0.0000000000
  9
$TDUSRTIMER
 40
0.0000000000
  9
$USRTIMER
 70
     1
  9
$ANGBASE
 50
0.0
  9
$ANGDIR
 70
     0
  9
$PDMODE
 70
     0
  9
$PDSIZE
 40
0.0
  9
$PLINEWID
 40
0.0
  9
$COORDS
 70
     0
  9
$SPLFRAME
 70
     0
  9
$SPLINETYPE
 70
     6
  9
$SPLINESEGS
 70
     8
  9
$ATTDIA
 70
     0
  9
$ATTREQ
 70
     1
  9
$HANDLING
 70
     1
  9
$HANDSEED
  5
2C4
  9
$SURFTAB1
 70
     6
  9
$SURFTAB2
 70
     6
  9
$SURFTYPE
 70
     6
  9
$SURFU
 70
     6
  9
$SURFV
 70
     6
  9
$UCSNAME
  2

  9
$UCSORG
 10
0.0
 20
0.0
 30
0.0
  9
$UCSXDIR
 10
1.0
 20
0.0
 30
0.0
  9
$UCSYDIR
 10
0.0
 20
1.0
 30
0.0
  9
$PUCSNAME
  2

  9
$PUCSORG
 10
0.0
 20
0.0
 30
0.0
  9
$PUCSXDIR
 10
1.0
 20
0.0
 30
0.0
  9
$PUCSYDIR
 10
0.0
 20
1.0
 30
0.0
  9
$USERI1
 70
     0
  9
$USERI2
 70
     0
  9
$USERI3
 70
     0
  9
$USERI4
 70
     0
  9
$USERI5
 70
     0
  9
$USERR1
 40
0.0
  9
$USERR2
 40
0.0
  9
$USERR3
 40
0.0
  9
$USERR4
 40
0.0
  9
$USERR5
 40
0.0
  9
$WORLDVIEW
 70
     1
  9
$SHADEDGE
 70
     3
  9
$SHADEDIF
 70
    70
  9
$TILEMODE
 70
     1
  9
$MAXACTVP
 70
    16
  9
$PINSBASE
 10
0.0
 20
0.0
 30
0.0
  9
$PLIMCHECK
 70
     0
  9
$PEXTMIN
 10
1.000000E+20
 20
1.000000E+20
 30
1.000000E+20
  9
$PEXTMAX
 10
-1.000000E+20
 20
-1.000000E+20
 30
-1.000000E+20
  9
$PLIMMIN
 10
0.0
 20
0.0
  9
$PLIMMAX
 10
12.0
 20
9.0
  9
$UNITMODE
 70
     0
  9
$VISRETAIN
 70
     0
  9
$PLINEGEN
 70
     1
  9
$PSLTSCALE
 70
     0
  9
$TREEDEPTH
 70
  3020
  0
ENDSEC
  0
SECTION
  2
TABLES
  0
TABLE
  2
VPORT
 70
     1
  0
VPORT
  2
*ACTIVE
 70
     0
 10
0.0
 20
0.0
 11
1.0
 21
1.0
 12
6.591288
 22
4.579184
 13
0.0
 23
0.0
 14
1.0
 24
1.0
 15
0.0
 25
0.0
 16
0.0
 26
0.0
 36
1.0
 17
0.0
 27
0.0
 37
0.0
 40
9.158369
 41
0.688564
 42
50.0
 43
0.0
 44
0.0
 50
0.0
 51
0.0
 71
     0
 72
   100
 73
     1
 74
     1
 75
     0
 76
     0
 77
     0
 78
     0
  0
ENDTAB
  0
TABLE
  2
LTYPE
 70
     5
  0
LTYPE
  2
CONTINUOUS
 70
    64
  3
Solid line
 72
    65
 73
     0
 40
0.0
  0
LTYPE
  2
CENTER
 70
    64
  3
Center ____ _ ____ _ ____ _ ____ _ ____ _ ____
 72
    65
 73
     4
 40
50.8
 49
31.75
 49
-6.35
 49
6.35
 49
-6.35
  0
LTYPE
  2
HIDDEN
 70
    64
  3
Hidden __ __ __ __ __ __ __ __ __ __ __ __ __ __
 72
    65
 73
     2
 40
9.525
 49
6.35
 49
-3.175
  0
LTYPE
  2
CENTER2
 70
    64
  3
Center (.5x) ___ _ ___ _ ___ _ ___ _ ___ _ ___
 72
    65
 73
     4
 40
28.575
 49
19.05
 49
-3.175
 49
3.175
 49
-3.175
  0
LTYPE
  2
HIDDEN2
 70
    64
  3
Hidden (.5x) _ _ _ _ _ _ _ _ _ _ _ _ _ _ _ _ _
 72
    65
 73
     2
 40
4.7625
 49
3.175
 49
-1.5875
  0
ENDTAB
  0
TABLE
  2
LAYER
 70
     1
  0
LAYER
  2
0
 70
     0
 62
     7
  6
CONTINUOUS
  0
ENDTAB
  0
TABLE
  2
STYLE
 70
     1
  0
STYLE
  2
STANDARD
 70
     0
 40
0.0
 41
1.0
 50
0.0
 71
     0
 42
0.0
  3
txt
  4

  0
ENDTAB
  0
TABLE
  2
VIEW
 70
     0
  0
ENDTAB
  0
TABLE
  2
UCS
 70
     0
  0
ENDTAB
  0
TABLE
  2
APPID
 70
     1
  0
APPID
  2
ACAD
 70
     0
  0
ENDTAB
  0
TABLE
  2
DIMSTYLE
 70
     1
  0
DIMSTYLE
  2
STANDARD
 70
     0
  3

  4

  5

  6

  7

 40
1.0
 41
0.18
 42
0.0625
 43
0.38
 44
0.18
 45
0.0
 46
0.0
 47
0.0
 48
0.0
 71
     0
 72
     0
 73
     1
 74
     1
 75
     0
 76
     0
 77
     0
 78
     0
140
0.18
141
0.09
142
0.0
143
25.4
144
1.0
145
0.0
146
1.0
147
0.09
170
     0
171
     2
172
     0
173
     0
174
     0
175
     0
176
     0
177
     0
178
     0
  0
ENDTAB
  0
ENDSEC
  0
SECTION
  2
BLOCKS
  0
ENDSEC
  0
SECTION
  2
ENTITIES
  0
LINE
  8
0
  6
CONTINUOUS
 62
     7
  5
1A5
 10
-0.344488
 20
0.0
 30
0.0
 11
0.344488
 21
0.0
 31
0.0
  0
LINE
  8
0
  6
CONTINUOUS
 62
     7
  5
1A6
 10
-0.183869
 20
-0.389139
 30
0.0
 11
0.0
 21
-0.389139
 31
0.0
  0
LINE
  8
0
  6
CONTINUOUS
 62
     7
  5
1A7
 10
0.0
 20
-0.389139
 30
0.0
 11
0.183869
 21
-0.389139
 31
0.0
  0
LINE
  8
0
  6
CONTINUOUS
 62
     7
  5
1A8
 10
-0.23228
 20
-0.366142
 30
0.0
 11
0.23228
 21
-0.366142
 31
0.0
  0
LINE
  8
0
  6
CONTINUOUS
 62
     7
  5
1A9
 10
-0.352362
 20
-0.401575
 30
0.0
 11
-0.352265
 21
-0.401555
 31
0.0
  0
LINE
  8
0
  6
CONTINUOUS
 62
     7
  5
1AA
 10
-0.352265
 20
-0.401555
 30
0.0
 11
-0.351969
 21
-0.401495
 31
0.0
  0
LINE
  8
0
  6
CONTINUOUS
 62
     7
  5
1AB
 10
-0.351969
 20
-0.401495
 30
0.0
 11
-0.351471
 21
-0.401394
 31
0.0
  0
LINE
  8
0
  6
CONTINUOUS
 62
     7
  5
1AC
 10
-0.351471
 20
-0.401394
 30
0.0
 11
-0.350767
 21
-0.401252
 31
0.0
  0
LINE
  8
0
  6
CONTINUOUS
 62
     7
  5
1AD
 10
-0.350767
 20
-0.401252
 30
0.0
 11
-0.349855
 21
-0.401067
 31
0.0
  0
LINE
  8
0
  6
CONTINUOUS
 62
     7
  5
1AE
 10
-0.349855
 20
-0.401067
 30
0.0
 11
-0.348733
 21
-0.400841
 31
0.0
  0
LINE
  8
0
  6
CONTINUOUS
 62
     7
  5
1AF
 10
-0.348733
 20
-0.400841
 30
0.0
 11
-0.347398
 21
-0.400574
 31
0.0
  0
LINE
  8
0
  6
CONTINUOUS
 62
     7
  5
1B0
 10
-0.347398
 20
-0.400574
 30
0.0
 11
-0.34585
 21
-0.400264
 31
0.0
  0
LINE
  8
0
  6
CONTINUOUS
 62
     7
  5
1B1
 10
-0.34585
 20
-0.400264
 30
0.0
 11
-0.344088
 21
-0.399914
 31
0.0
  0
LINE
  8
0
  6
CONTINUOUS
 62
     7
  5
1B2
 10
-0.344088
 20
-0.399914
 30
0.0
 11
-0.342113
 21
-0.399524
 31
0.0
  0
LINE
  8
0
  6
CONTINUOUS
 62
     7
  5
1B3
 10
-0.342113
 20
-0.399524
 30
0.0
 11
-0.339924
 21
-0.399094
 31
0.0
  0
LINE
  8
0
  6
CONTINUOUS
 62
     7
  5
1B4
 10
-0.339924
 20
-0.399094
 30
0.0
 11
-0.337523
 21
-0.398626
 31
0.0
  0
LINE
  8
0
  6
CONTINUOUS
 62
     7
  5
1B5
 10
-0.337523
 20
-0.398626
 30
0.0
 11
-0.334912
 21
-0.398121
 31
0.0
  0
LINE
  8
0
  6
CONTINUOUS
 62
     7
  5
1B6
 10
-0.334912
 20
-0.398121
 30
0.0
 11
-0.332092
 21
-0.397579
 31
0.0
  0
LINE
  8
0
  6
CONTINUOUS
 62
     7
  5
1B7
 10
-0.332092
 20
-0.397579
 30
0.0
 11
-0.329066
 21
-0.397004
 31
0.0
  0
LINE
  8
0
  6
CONTINUOUS
 62
     7
  5
1B8
 10
-0.329066
 20
-0.397004
 30
0.0
 11
-0.325837
 21
-0.396396
 31
0.0
  0
LINE
  8
0
  6
CONTINUOUS
 62
     7
  5
1B9
 10
-0.325837
 20
-0.396396
 30
0.0
 11
-0.322407
 21
-0.395757
 31
0.0
  0
LINE
  8
0
  6
CONTINUOUS
 62
     7
  5
1BA
 10
-0.322407
 20
-0.395757
 30
0.0
 11
-0.31878
 21
-0.395089
 31
0.0
  0
LINE
  8
0
  6
CONTINUOUS
 62
     7
  5
1BB
 10
-0.31878
 20
-0.395089
 30
0.0
 11
-0.31496
 21
-0.394394
 31
0.0
  0
LINE
  8
0
  6
CONTINUOUS
 62
     7
  5
1BC
 10
-0.31496
 20
-0.394394
 30
0.0
 11
-0.310952
 21
-0.393674
 31
0.0
  0
LINE
  8
0
  6
CONTINUOUS
 62
     7
  5
1BD
 10
-0.310952
 20
-0.393674
 30
0.0
 11
-0.306759
 21
-0.392931
 31
0.0
  0
LINE
  8
0
  6
CONTINUOUS
 62
     7
  5
1BE
 10
-0.306759
 20
-0.392931
 30
0.0
 11
-0.302388
 21
-0.392167
 31
0.0
  0
LINE
  8
0
  6
CONTINUOUS
 62
     7
  5
1BF
 10
-0.302388
 20
-0.392167
 30
0.0
 11
-0.297845
 21
-0.391385
 31
0.0
  0
LINE
  8
0
  6
CONTINUOUS
 62
     7
  5
1C0
 10
-0.297845
 20
-0.391385
 30
0.0
 11
-0.293136
 21
-0.390588
 31
0.0
  0
LINE
  8
0
  6
CONTINUOUS
 62
     7
  5
1C1
 10
-0.293136
 20
-0.390588
 30
0.0
 11
-0.288268
 21
-0.389777
 31
0.0
  0
LINE
  8
0
  6
CONTINUOUS
 62
     7
  5
1C2
 10
-0.288268
 20
-0.389777
 30
0.0
 11
-0.283249
 21
-0.388956
 31
0.0
  0
LINE
  8
0
  6
CONTINUOUS
 62
     7
  5
1C3
 10
-0.283249
 20
-0.388956
 30
0.0
 11
-0.278086
 21
-0.388127
 31
0.0
  0
LINE
  8
0
  6
CONTINUOUS
 62
     7
  5
1C4
 10
-0.278086
 20
-0.388127
 30
0.0
 11
-0.272788
 21
-0.387292
 31
0.0
  0
LINE
  8
0
  6
CONTINUOUS
 62
     7
  5
1C5
 10
-0.272788
 20
-0.387292
 30
0.0
 11
-0.267364
 21
-0.386454
 31
0.0
  0
LINE
  8
0
  6
CONTINUOUS
 62
     7
  5
1C6
 10
-0.267364
 20
-0.386454
 30
0.0
 11
-0.261823
 21
-0.385616
 31
0.0
  0
LINE
  8
0
  6
CONTINUOUS
 62
     7
  5
1C7
 10
-0.261823
 20
-0.385616
 30
0.0
 11
-0.256173
 21
-0.384781
 31
0.0
  0
LINE
  8
0
  6
CONTINUOUS
 62
     7
  5
1C8
 10
-0.256173
 20
-0.384781
 30
0.0
 11
-0.250424
 21
-0.383949
 31
0.0
  0
LINE
  8
0
  6
CONTINUOUS
 62
     7
  5
1C9
 10
-0.250424
 20
-0.383949
 30
0.0
 11
-0.244556
 21
-0.383121
 31
0.0
  0
LINE
  8
0
  6
CONTINUOUS
 62
     7
  5
1CA
 10
-0.244556
 20
-0.383121
 30
0.0
 11
-0.238509
 21
-0.382287
 31
0.0
  0
LINE
  8
0
  6
CONTINUOUS
 62
     7
  5
1CB
 10
-0.238509
 20
-0.382287
 30
0.0
 11
-0.232283
 21
-0.381452
 31
0.0
  0
LINE
  8
0
  6
CONTINUOUS
 62
     7
  5
1CC
 10
-0.232283
 20
-0.381452
 30
0.0
 11
-0.232283
 21
-0.318898
 31
0.0
  0
LINE
  8
0
  6
CONTINUOUS
 62
     7
  5
1CD
 10
0.0
 20
-0.275591
 30
0.0
 11
0.007098
 21
-0.27563
 31
0.0
  0
LINE
  8
0
  6
CONTINUOUS
 62
     7
  5
1CE
 10
0.007098
 20
-0.27563
 30
0.0
 11
0.014229
 21
-0.275748
 31
0.0
  0
LINE
  8
0
  6
CONTINUOUS
 62
     7
  5
1CF
 10
0.014229
 20
-0.275748
 30
0.0
 11
0.021389
 21
-0.275946
 31
0.0
  0
LINE
  8
0
  6
CONTINUOUS
 62
     7
  5
1D0
 10
0.021389
 20
-0.275946
 30
0.0
 11
0.028571
 21
-0.276224
 31
0.0
  0
LINE
  8
0
  6
CONTINUOUS
 62
     7
  5
1D1
 10
0.028571
 20
-0.276224
 30
0.0
 11
0.03577
 21
-0.276584
 31
0.0
  0
LINE
  8
0
  6
CONTINUOUS
 62
     7
  5
1D2
 10
0.03577
 20
-0.276584
 30
0.0
 11
0.04298
 21
-0.277025
 31
0.0
  0
LINE
  8
0
  6
CONTINUOUS
 62
     7
  5
1D3
 10
0.04298
 20
-0.277025
 30
0.0
 11
0.050195
 21
-0.277548
 31
0.0
  0
LINE
  8
0
  6
CONTINUOUS
 62
     7
  5
1D4
 10
0.050195
 20
-0.277548
 30
0.0
 11
0.057408
 21
-0.278152
 31
0.0
  0
LINE
  8
0
  6
CONTINUOUS
 62
     7
  5
1D5
 10
0.057408
 20
-0.278152
 30
0.0
 11
0.064614
 21
-0.278837
 31
0.0
  0
LINE
  8
0
  6
CONTINUOUS
 62
     7
  5
1D6
 10
0.064614
 20
-0.278837
 30
0.0
 11
0.071806
 21
-0.279602
 31
0.0
  0
LINE
  8
0
  6
CONTINUOUS
 62
     7
  5
1D7
 10
0.071806
 20
-0.279602
 30
0.0
 11
0.078978
 21
-0.280447
 31
0.0
  0
LINE
  8
0
  6
CONTINUOUS
 62
     7
  5
1D8
 10
0.078978
 20
-0.280447
 30
0.0
 11
0.086124
 21
-0.28137
 31
0.0
  0
LINE
  8
0
  6
CONTINUOUS
 62
     7
  5
1D9
 10
0.086124
 20
-0.28137
 30
0.0
 11
0.093238
 21
-0.282369
 31
0.0
  0
LINE
  8
0
  6
CONTINUOUS
 62
     7
  5
1DA
 10
0.093238
 20
-0.282369
 30
0.0
 11
0.100316
 21
-0.283444
 31
0.0
  0
LINE
  8
0
  6
CONTINUOUS
 62
     7
  5
1DB
 10
0.100316
 20
-0.283444
 30
0.0
 11
0.10735
 21
-0.284592
 31
0.0
  0
LINE
  8
0
  6
CONTINUOUS
 62
     7
  5
1DC
 10
0.10735
 20
-0.284592
 30
0.0
 11
0.114337
 21
-0.285812
 31
0.0
  0
LINE
  8
0
  6
CONTINUOUS
 62
     7
  5
1DD
 10
0.114337
 20
-0.285812
 30
0.0
 11
0.12127
 21
-0.287101
 31
0.0
  0
LINE
  8
0
  6
CONTINUOUS
 62
     7
  5
1DE
 10
0.12127
 20
-0.287101
 30
0.0
 11
0.128146
 21
-0.288457
 31
0.0
  0
LINE
  8
0
  6
CONTINUOUS
 62
     7
  5
1DF
 10
0.128146
 20
-0.288457
 30
0.0
 11
0.13496
 21
-0.289877
 31
0.0
  0
LINE
  8
0
  6
CONTINUOUS
 62
     7
  5
1E0
 10
0.13496
 20
-0.289877
 30
0.0
 11
0.141709
 21
-0.29136
 31
0.0
  0
LINE
  8
0
  6
CONTINUOUS
 62
     7
  5
1E1
 10
0.141709
 20
-0.29136
 30
0.0
 11
0.148387
 21
-0.292903
 31
0.0
  0
LINE
  8
0
  6
CONTINUOUS
 62
     7
  5
1E2
 10
0.148387
 20
-0.292903
 30
0.0
 11
0.154992
 21
-0.294502
 31
0.0
  0
LINE
  8
0
  6
CONTINUOUS
 62
     7
  5
1E3
 10
0.154992
 20
-0.294502
 30
0.0
 11
0.161519
 21
-0.296155
 31
0.0
  0
LINE
  8
0
  6
CONTINUOUS
 62
     7
  5
1E4
 10
0.161519
 20
-0.296155
 30
0.0
 11
0.167963
 21
-0.297858
 31
0.0
  0
LINE
  8
0
  6
CONTINUOUS
 62
     7
  5
1E5
 10
0.167963
 20
-0.297858
 30
0.0
 11
0.174321
 21
-0.299609
 31
0.0
  0
LINE
  8
0
  6
CONTINUOUS
 62
     7
  5
1E6
 10
0.174321
 20
-0.299609
 30
0.0
 11
0.180587
 21
-0.301404
 31
0.0
  0
LINE
  8
0
  6
CONTINUOUS
 62
     7
  5
1E7
 10
0.180587
 20
-0.301404
 30
0.0
 11
0.186759
 21
-0.303238
 31
0.0
  0
LINE
  8
0
  6
CONTINUOUS
 62
     7
  5
1E8
 10
0.186759
 20
-0.303238
 30
0.0
 11
0.192832
 21
-0.305109
 31
0.0
  0
LINE
  8
0
  6
CONTINUOUS
 62
     7
  5
1E9
 10
0.192832
 20
-0.305109
 30
0.0
 11
0.198802
 21
-0.307013
 31
0.0
  0
LINE
  8
0
  6
CONTINUOUS
 62
     7
  5
1EA
 10
0.198802
 20
-0.307013
 30
0.0
 11
0.204666
 21
-0.308945
 31
0.0
  0
LINE
  8
0
  6
CONTINUOUS
 62
     7
  5
1EB
 10
0.204666
 20
-0.308945
 30
0.0
 11
0.210421
 21
-0.310902
 31
0.0
  0
LINE
  8
0
  6
CONTINUOUS
 62
     7
  5
1EC
 10
0.210421
 20
-0.310902
 30
0.0
 11
0.216062
 21
-0.31288
 31
0.0
  0
LINE
  8
0
  6
CONTINUOUS
 62
     7
  5
1ED
 10
0.216062
 20
-0.31288
 30
0.0
 11
0.221589
 21
-0.314875
 31
0.0
  0
LINE
  8
0
  6
CONTINUOUS
 62
     7
  5
1EE
 10
0.221589
 20
-0.314875
 30
0.0
 11
0.226996
 21
-0.316882
 31
0.0
  0
LINE
  8
0
  6
CONTINUOUS
 62
     7
  5
1EF
 10
0.226996
 20
-0.316882
 30
0.0
 11
0.232283
 21
-0.318898
 31
0.0
  0
LINE
  8
0
  6
CONTINUOUS
 62
     7
  5
1F0
 10
-0.232283
 20
-0.318898
 30
0.0
 11
-0.226996
 21
-0.316882
 31
0.0
  0
LINE
  8
0
  6
CONTINUOUS
 62
     7
  5
1F1
 10
-0.226996
 20
-0.316882
 30
0.0
 11
-0.221589
 21
-0.314875
 31
0.0
  0
LINE
  8
0
  6
CONTINUOUS
 62
     7
  5
1F2
 10
-0.221589
 20
-0.314875
 30
0.0
 11
-0.216062
 21
-0.31288
 31
0.0
  0
LINE
  8
0
  6
CONTINUOUS
 62
     7
  5
1F3
 10
-0.216062
 20
-0.31288
 30
0.0
 11
-0.210421
 21
-0.310902
 31
0.0
  0
LINE
  8
0
  6
CONTINUOUS
 62
     7
  5
1F4
 10
-0.210421
 20
-0.310902
 30
0.0
 11
-0.204666
 21
-0.308945
 31
0.0
  0
LINE
  8
0
  6
CONTINUOUS
 62
     7
  5
1F5
 10
-0.204666
 20
-0.308945
 30
0.0
 11
-0.198802
 21
-0.307013
 31
0.0
  0
LINE
  8
0
  6
CONTINUOUS
 62
     7
  5
1F6
 10
-0.198802
 20
-0.307013
 30
0.0
 11
-0.192832
 21
-0.305109
 31
0.0
  0
LINE
  8
0
  6
CONTINUOUS
 62
     7
  5
1F7
 10
-0.192832
 20
-0.305109
 30
0.0
 11
-0.186759
 21
-0.303238
 31
0.0
  0
LINE
  8
0
  6
CONTINUOUS
 62
     7
  5
1F8
 10
-0.186759
 20
-0.303238
 30
0.0
 11
-0.180587
 21
-0.301404
 31
0.0
  0
LINE
  8
0
  6
CONTINUOUS
 62
     7
  5
1F9
 10
-0.180587
 20
-0.301404
 30
0.0
 11
-0.174321
 21
-0.299609
 31
0.0
  0
LINE
  8
0
  6
CONTINUOUS
 62
     7
  5
1FA
 10
-0.174321
 20
-0.299609
 30
0.0
 11
-0.167963
 21
-0.297858
 31
0.0
  0
LINE
  8
0
  6
CONTINUOUS
 62
     7
  5
1FB
 10
-0.167963
 20
-0.297858
 30
0.0
 11
-0.161519
 21
-0.296155
 31
0.0
  0
LINE
  8
0
  6
CONTINUOUS
 62
     7
  5
1FC
 10
-0.161519
 20
-0.296155
 30
0.0
 11
-0.154992
 21
-0.294502
 31
0.0
  0
LINE
  8
0
  6
CONTINUOUS
 62
     7
  5
1FD
 10
-0.154992
 20
-0.294502
 30
0.0
 11
-0.148387
 21
-0.292903
 31
0.0
  0
LINE
  8
0
  6
CONTINUOUS
 62
     7
  5
1FE
 10
-0.148387
 20
-0.292903
 30
0.0
 11
-0.141709
 21
-0.29136
 31
0.0
  0
LINE
  8
0
  6
CONTINUOUS
 62
     7
  5
1FF
 10
-0.141709
 20
-0.29136
 30
0.0
 11
-0.13496
 21
-0.289877
 31
0.0
  0
LINE
  8
0
  6
CONTINUOUS
 62
     7
  5
200
 10
-0.13496
 20
-0.289877
 30
0.0
 11
-0.128146
 21
-0.288457
 31
0.0
  0
LINE
  8
0
  6
CONTINUOUS
 62
     7
  5
201
 10
-0.128146
 20
-0.288457
 30
0.0
 11
-0.12127
 21
-0.287101
 31
0.0
  0
LINE
  8
0
  6
CONTINUOUS
 62
     7
  5
202
 10
-0.12127
 20
-0.287101
 30
0.0
 11
-0.114337
 21
-0.285812
 31
0.0
  0
LINE
  8
0
  6
CONTINUOUS
 62
     7
  5
203
 10
-0.114337
 20
-0.285812
 30
0.0
 11
-0.10735
 21
-0.284592
 31
0.0
  0
LINE
  8
0
  6
CONTINUOUS
 62
     7
  5
204
 10
-0.10735
 20
-0.284592
 30
0.0
 11
-0.100316
 21
-0.283444
 31
0.0
  0
LINE
  8
0
  6
CONTINUOUS
 62
     7
  5
205
 10
-0.100316
 20
-0.283444
 30
0.0
 11
-0.093238
 21
-0.282369
 31
0.0
  0
LINE
  8
0
  6
CONTINUOUS
 62
     7
  5
206
 10
-0.093238
 20
-0.282369
 30
0.0
 11
-0.086124
 21
-0.28137
 31
0.0
  0
LINE
  8
0
  6
CONTINUOUS
 62
     7
  5
207
 10
-0.086124
 20
-0.28137
 30
0.0
 11
-0.078978
 21
-0.280447
 31
0.0
  0
LINE
  8
0
  6
CONTINUOUS
 62
     7
  5
208
 10
-0.078978
 20
-0.280447
 30
0.0
 11
-0.071806
 21
-0.279602
 31
0.0
  0
LINE
  8
0
  6
CONTINUOUS
 62
     7
  5
209
 10
-0.071806
 20
-0.279602
 30
0.0
 11
-0.064614
 21
-0.278837
 31
0.0
  0
LINE
  8
0
  6
CONTINUOUS
 62
     7
  5
20A
 10
-0.064614
 20
-0.278837
 30
0.0
 11
-0.057408
 21
-0.278152
 31
0.0
  0
LINE
  8
0
  6
CONTINUOUS
 62
     7
  5
20B
 10
-0.057408
 20
-0.278152
 30
0.0
 11
-0.050195
 21
-0.277548
 31
0.0
  0
LINE
  8
0
  6
CONTINUOUS
 62
     7
  5
20C
 10
-0.050195
 20
-0.277548
 30
0.0
 11
-0.04298
 21
-0.277025
 31
0.0
  0
LINE
  8
0
  6
CONTINUOUS
 62
     7
  5
20D
 10
-0.04298
 20
-0.277025
 30
0.0
 11
-0.03577
 21
-0.276584
 31
0.0
  0
LINE
  8
0
  6
CONTINUOUS
 62
     7
  5
20E
 10
-0.03577
 20
-0.276584
 30
0.0
 11
-0.028571
 21
-0.276224
 31
0.0
  0
LINE
  8
0
  6
CONTINUOUS
 62
     7
  5
20F
 10
-0.028571
 20
-0.276224
 30
0.0
 11
-0.021389
 21
-0.275946
 31
0.0
  0
LINE
  8
0
  6
CONTINUOUS
 62
     7
  5
210
 10
-0.021389
 20
-0.275946
 30
0.0
 11
-0.014229
 21
-0.275748
 31
0.0
  0
LINE
  8
0
  6
CONTINUOUS
 62
     7
  5
211
 10
-0.014229
 20
-0.275748
 30
0.0
 11
-0.007098
 21
-0.27563
 31
0.0
  0
LINE
  8
0
  6
CONTINUOUS
 62
     7
  5
212
 10
-0.007098
 20
-0.27563
 30
0.0
 11
0.0
 21
-0.275591
 31
0.0
  0
LINE
  8
0
  6
CONTINUOUS
 62
     7
  5
213
 10
0.232283
 20
-0.318898
 30
0.0
 11
0.232283
 21
-0.381452
 31
0.0
  0
LINE
  8
0
  6
CONTINUOUS
 62
     7
  5
214
 10
0.232283
 20
-0.381452
 30
0.0
 11
0.238509
 21
-0.382287
 31
0.0
  0
LINE
  8
0
  6
CONTINUOUS
 62
     7
  5
215
 10
0.238509
 20
-0.382287
 30
0.0
 11
0.244556
 21
-0.383121
 31
0.0
  0
LINE
  8
0
  6
CONTINUOUS
 62
     7
  5
216
 10
0.244556
 20
-0.383121
 30
0.0
 11
0.250424
 21
-0.383949
 31
0.0
  0
LINE
  8
0
  6
CONTINUOUS
 62
     7
  5
217
 10
0.250424
 20
-0.383949
 30
0.0
 11
0.256173
 21
-0.384781
 31
0.0
  0
LINE
  8
0
  6
CONTINUOUS
 62
     7
  5
218
 10
0.256173
 20
-0.384781
 30
0.0
 11
0.261823
 21
-0.385616
 31
0.0
  0
LINE
  8
0
  6
CONTINUOUS
 62
     7
  5
219
 10
0.261823
 20
-0.385616
 30
0.0
 11
0.267364
 21
-0.386454
 31
0.0
  0
LINE
  8
0
  6
CONTINUOUS
 62
     7
  5
21A
 10
0.267364
 20
-0.386454
 30
0.0
 11
0.272788
 21
-0.387292
 31
0.0
  0
LINE
  8
0
  6
CONTINUOUS
 62
     7
  5
21B
 10
0.272788
 20
-0.387292
 30
0.0
 11
0.278086
 21
-0.388127
 31
0.0
  0
LINE
  8
0
  6
CONTINUOUS
 62
     7
  5
21C
 10
0.278086
 20
-0.388127
 30
0.0
 11
0.283249
 21
-0.388956
 31
0.0
  0
LINE
  8
0
  6
CONTINUOUS
 62
     7
  5
21D
 10
0.283249
 20
-0.388956
 30
0.0
 11
0.288268
 21
-0.389777
 31
0.0
  0
LINE
  8
0
  6
CONTINUOUS
 62
     7
  5
21E
 10
0.288268
 20
-0.389777
 30
0.0
 11
0.293136
 21
-0.390588
 31
0.0
  0
LINE
  8
0
  6
CONTINUOUS
 62
     7
  5
21F
 10
0.293136
 20
-0.390588
 30
0.0
 11
0.297845
 21
-0.391385
 31
0.0
  0
LINE
  8
0
  6
CONTINUOUS
 62
     7
  5
220
 10
0.297845
 20
-0.391385
 30
0.0
 11
0.302388
 21
-0.392167
 31
0.0
  0
LINE
  8
0
  6
CONTINUOUS
 62
     7
  5
221
 10
0.302388
 20
-0.392167
 30
0.0
 11
0.306759
 21
-0.392931
 31
0.0
  0
LINE
  8
0
  6
CONTINUOUS
 62
     7
  5
222
 10
0.306759
 20
-0.392931
 30
0.0
 11
0.310952
 21
-0.393674
 31
0.0
  0
LINE
  8
0
  6
CONTINUOUS
 62
     7
  5
223
 10
0.310952
 20
-0.393674
 30
0.0
 11
0.31496
 21
-0.394394
 31
0.0
  0
LINE
  8
0
  6
CONTINUOUS
 62
     7
  5
224
 10
0.31496
 20
-0.394394
 30
0.0
 11
0.31878
 21
-0.395089
 31
0.0
  0
LINE
  8
0
  6
CONTINUOUS
 62
     7
  5
225
 10
0.31878
 20
-0.395089
 30
0.0
 11
0.322407
 21
-0.395757
 31
0.0
  0
LINE
  8
0
  6
CONTINUOUS
 62
     7
  5
226
 10
0.322407
 20
-0.395757
 30
0.0
 11
0.325837
 21
-0.396396
 31
0.0
  0
LINE
  8
0
  6
CONTINUOUS
 62
     7
  5
227
 10
0.325837
 20
-0.396396
 30
0.0
 11
0.329066
 21
-0.397004
 31
0.0
  0
LINE
  8
0
  6
CONTINUOUS
 62
     7
  5
228
 10
0.329066
 20
-0.397004
 30
0.0
 11
0.332092
 21
-0.397579
 31
0.0
  0
LINE
  8
0
  6
CONTINUOUS
 62
     7
  5
229
 10
0.332092
 20
-0.397579
 30
0.0
 11
0.334912
 21
-0.398121
 31
0.0
  0
LINE
  8
0
  6
CONTINUOUS
 62
     7
  5
22A
 10
0.334912
 20
-0.398121
 30
0.0
 11
0.337523
 21
-0.398626
 31
0.0
  0
LINE
  8
0
  6
CONTINUOUS
 62
     7
  5
22B
 10
0.337523
 20
-0.398626
 30
0.0
 11
0.339924
 21
-0.399094
 31
0.0
  0
LINE
  8
0
  6
CONTINUOUS
 62
     7
  5
22C
 10
0.339924
 20
-0.399094
 30
0.0
 11
0.342113
 21
-0.399524
 31
0.0
  0
LINE
  8
0
  6
CONTINUOUS
 62
     7
  5
22D
 10
0.342113
 20
-0.399524
 30
0.0
 11
0.344088
 21
-0.399914
 31
0.0
  0
LINE
  8
0
  6
CONTINUOUS
 62
     7
  5
22E
 10
0.344088
 20
-0.399914
 30
0.0
 11
0.34585
 21
-0.400264
 31
0.0
  0
LINE
  8
0
  6
CONTINUOUS
 62
     7
  5
22F
 10
0.34585
 20
-0.400264
 30
0.0
 11
0.347398
 21
-0.400574
 31
0.0
  0
LINE
  8
0
  6
CONTINUOUS
 62
     7
  5
230
 10
0.347398
 20
-0.400574
 30
0.0
 11
0.348733
 21
-0.400841
 31
0.0
  0
LINE
  8
0
  6
CONTINUOUS
 62
     7
  5
231
 10
0.348733
 20
-0.400841
 30
0.0
 11
0.349855
 21
-0.401067
 31
0.0
  0
LINE
  8
0
  6
CONTINUOUS
 62
     7
  5
232
 10
0.349855
 20
-0.401067
 30
0.0
 11
0.350767
 21
-0.401252
 31
0.0
  0
LINE
  8
0
  6
CONTINUOUS
 62
     7
  5
233
 10
0.350767
 20
-0.401252
 30
0.0
 11
0.351471
 21
-0.401394
 31
0.0
  0
LINE
  8
0
  6
CONTINUOUS
 62
     7
  5
234
 10
0.351471
 20
-0.401394
 30
0.0
 11
0.351969
 21
-0.401495
 31
0.0
  0
LINE
  8
0
  6
CONTINUOUS
 62
     7
  5
235
 10
0.351969
 20
-0.401495
 30
0.0
 11
0.352265
 21
-0.401555
 31
0.0
  0
LINE
  8
0
  6
CONTINUOUS
 62
     7
  5
236
 10
0.352265
 20
-0.401555
 30
0.0
 11
0.352362
 21
-0.401575
 31
0.0
  0
LINE
  8
0
  6
CONTINUOUS
 62
     7
  5
237
 10
-0.352362
 20
-0.023622
 30
0.0
 11
0.352362
 21
-0.023622
 31
0.0
  0
LINE
  8
0
  6
CONTINUOUS
 62
     7
  5
238
 10
-0.03937
 20
0.0
 30
0.0
 11
-0.03937
 21
0.125984
 31
0.0
  0
LINE
  8
0
  6
CONTINUOUS
 62
     7
  5
239
 10
-0.03937
 20
0.437008
 30
0.0
 11
-0.03937
 21
0.446864
 31
0.0
  0
LINE
  8
0
  6
CONTINUOUS
 62
     7
  5
23A
 10
-0.03937
 20
0.275591
 30
0.0
 11
-0.03937
 21
0.437008
 31
0.0
  0
LINE
  8
0
  6
CONTINUOUS
 62
     7
  5
23B
 10
-0.291339
 20
0.114481
 30
0.0
 11
-0.291339
 21
0.0
 31
0.0
  0
LINE
  8
0
  6
CONTINUOUS
 62
     7
  5
23C
 10
0.03937
 20
0.437008
 30
0.0
 11
0.03937
 21
0.275591
 31
0.0
  0
LINE
  8
0
  6
CONTINUOUS
 62
     7
  5
23D
 10
0.03937
 20
0.446864
 30
0.0
 11
0.03937
 21
0.437008
 31
0.0
  0
LINE
  8
0
  6
CONTINUOUS
 62
     7
  5
23E
 10
0.03937
 20
0.125984
 30
0.0
 11
0.03937
 21
0.0
 31
0.0
  0
LINE
  8
0
  6
CONTINUOUS
 62
     7
  5
23F
 10
0.291339
 20
0.0
 30
0.0
 11
0.291339
 21
0.114481
 31
0.0
  0
LINE
  8
0
  6
CONTINUOUS
 62
     7
  5
240
 10
0.291339
 20
0.322835
 30
0.0
 11
0.291339
 21
0.437008
 31
0.0
  0
LINE
  8
0
  6
CONTINUOUS
 62
     7
  5
241
 10
0.291339
 20
0.437008
 30
0.0
 11
0.03937
 21
0.437008
 31
0.0
  0
LINE
  8
0
  6
CONTINUOUS
 62
     7
  5
242
 10
0.291339
 20
0.437008
 30
0.0
 11
0.291339
 21
0.448819
 31
0.0
  0
LINE
  8
0
  6
CONTINUOUS
 62
     7
  5
243
 10
0.291339
 20
0.448819
 30
0.0
 11
-0.291339
 21
0.448819
 31
0.0
  0
LINE
  8
0
  6
CONTINUOUS
 62
     7
  5
244
 10
-0.03937
 20
0.446864
 30
0.0
 11
-0.037102
 21
0.447033
 31
0.0
  0
LINE
  8
0
  6
CONTINUOUS
 62
     7
  5
245
 10
-0.037102
 20
0.447033
 30
0.0
 11
-0.034837
 21
0.447191
 31
0.0
  0
LINE
  8
0
  6
CONTINUOUS
 62
     7
  5
246
 10
-0.034837
 20
0.447191
 30
0.0
 11
-0.032576
 21
0.447339
 31
0.0
  0
LINE
  8
0
  6
CONTINUOUS
 62
     7
  5
247
 10
-0.032576
 20
0.447339
 30
0.0
 11
-0.030317
 21
0.447477
 31
0.0
  0
LINE
  8
0
  6
CONTINUOUS
 62
     7
  5
248
 10
-0.030317
 20
0.447477
 30
0.0
 11
-0.028061
 21
0.447605
 31
0.0
  0
LINE
  8
0
  6
CONTINUOUS
 62
     7
  5
249
 10
-0.028061
 20
0.447605
 30
0.0
 11
-0.025807
 21
0.447723
 31
0.0
  0
LINE
  8
0
  6
CONTINUOUS
 62
     7
  5
24A
 10
-0.025807
 20
0.447723
 30
0.0
 11
-0.023555
 21
0.447831
 31
0.0
  0
LINE
  8
0
  6
CONTINUOUS
 62
     7
  5
24B
 10
-0.023555
 20
0.447831
 30
0.0
 11
-0.021306
 21
0.44793
 31
0.0
  0
LINE
  8
0
  6
CONTINUOUS
 62
     7
  5
24C
 10
-0.021306
 20
0.44793
 30
0.0
 11
-0.019058
 21
0.448018
 31
0.0
  0
LINE
  8
0
  6
CONTINUOUS
 62
     7
  5
24D
 10
-0.019058
 20
0.448018
 30
0.0
 11
-0.016812
 21
0.448097
 31
0.0
  0
LINE
  8
0
  6
CONTINUOUS
 62
     7
  5
24E
 10
-0.016812
 20
0.448097
 30
0.0
 11
-0.014568
 21
0.448166
 31
0.0
  0
LINE
  8
0
  6
CONTINUOUS
 62
     7
  5
24F
 10
-0.014568
 20
0.448166
 30
0.0
 11
-0.012324
 21
0.448225
 31
0.0
  0
LINE
  8
0
  6
CONTINUOUS
 62
     7
  5
250
 10
-0.012324
 20
0.448225
 30
0.0
 11
-0.010082
 21
0.448274
 31
0.0
  0
LINE
  8
0
  6
CONTINUOUS
 62
     7
  5
251
 10
-0.010082
 20
0.448274
 30
0.0
 11
-0.007841
 21
0.448313
 31
0.0
  0
LINE
  8
0
  6
CONTINUOUS
 62
     7
  5
252
 10
-0.007841
 20
0.448313
 30
0.0
 11
-0.0056
 21
0.448342
 31
0.0
  0
LINE
  8
0
  6
CONTINUOUS
 62
     7
  5
253
 10
-0.0056
 20
0.448342
 30
0.0
 11
-0.00336
 21
0.448362
 31
0.0
  0
LINE
  8
0
  6
CONTINUOUS
 62
     7
  5
254
 10
-0.00336
 20
0.448362
 30
0.0
 11
-0.00112
 21
0.448372
 31
0.0
  0
LINE
  8
0
  6
CONTINUOUS
 62
     7
  5
255
 10
-0.00112
 20
0.448372
 30
0.0
 11
0.00112
 21
0.448372
 31
0.0
  0
LINE
  8
0
  6
CONTINUOUS
 62
     7
  5
256
 10
0.00112
 20
0.448372
 30
0.0
 11
0.00336
 21
0.448362
 31
0.0
  0
LINE
  8
0
  6
CONTINUOUS
 62
     7
  5
257
 10
0.00336
 20
0.448362
 30
0.0
 11
0.0056
 21
0.448342
 31
0.0
  0
LINE
  8
0
  6
CONTINUOUS
 62
     7
  5
258
 10
0.0056
 20
0.448342
 30
0.0
 11
0.007841
 21
0.448313
 31
0.0
  0
LINE
  8
0
  6
CONTINUOUS
 62
     7
  5
259
 10
0.007841
 20
0.448313
 30
0.0
 11
0.010082
 21
0.448274
 31
0.0
  0
LINE
  8
0
  6
CONTINUOUS
 62
     7
  5
25A
 10
0.010082
 20
0.448274
 30
0.0
 11
0.012324
 21
0.448225
 31
0.0
  0
LINE
  8
0
  6
CONTINUOUS
 62
     7
  5
25B
 10
0.012324
 20
0.448225
 30
0.0
 11
0.014568
 21
0.448166
 31
0.0
  0
LINE
  8
0
  6
CONTINUOUS
 62
     7
  5
25C
 10
0.014568
 20
0.448166
 30
0.0
 11
0.016812
 21
0.448097
 31
0.0
  0
LINE
  8
0
  6
CONTINUOUS
 62
     7
  5
25D
 10
0.016812
 20
0.448097
 30
0.0
 11
0.019058
 21
0.448018
 31
0.0
  0
LINE
  8
0
  6
CONTINUOUS
 62
     7
  5
25E
 10
0.019058
 20
0.448018
 30
0.0
 11
0.021306
 21
0.44793
 31
0.0
  0
LINE
  8
0
  6
CONTINUOUS
 62
     7
  5
25F
 10
0.021306
 20
0.44793
 30
0.0
 11
0.023555
 21
0.447831
 31
0.0
  0
LINE
  8
0
  6
CONTINUOUS
 62
     7
  5
260
 10
0.023555
 20
0.447831
 30
0.0
 11
0.025807
 21
0.447723
 31
0.0
  0
LINE
  8
0
  6
CONTINUOUS
 62
     7
  5
261
 10
0.025807
 20
0.447723
 30
0.0
 11
0.028061
 21
0.447605
 31
0.0
  0
LINE
  8
0
  6
CONTINUOUS
 62
     7
  5
262
 10
0.028061
 20
0.447605
 30
0.0
 11
0.030317
 21
0.447477
 31
0.0
  0
LINE
  8
0
  6
CONTINUOUS
 62
     7
  5
263
 10
0.030317
 20
0.447477
 30
0.0
 11
0.032576
 21
0.447339
 31
0.0
  0
LINE
  8
0
  6
CONTINUOUS
 62
     7
  5
264
 10
0.032576
 20
0.447339
 30
0.0
 11
0.034837
 21
0.447191
 31
0.0
  0
LINE
  8
0
  6
CONTINUOUS
 62
     7
  5
265
 10
0.034837
 20
0.447191
 30
0.0
 11
0.037102
 21
0.447033
 31
0.0
  0
LINE
  8
0
  6
CONTINUOUS
 62
     7
  5
266
 10
0.037102
 20
0.447033
 30
0.0
 11
0.03937
 21
0.446864
 31
0.0
  0
LINE
  8
0
  6
CONTINUOUS
 62
     7
  5
267
 10
-0.03937
 20
0.437008
 30
0.0
 11
-0.291339
 21
0.437008
 31
0.0
  0
LINE
  8
0
  6
CONTINUOUS
 62
     7
  5
268
 10
-0.291339
 20
0.437008
 30
0.0
 11
-0.291339
 21
0.322835
 31
0.0
  0
LINE
  8
0
  6
CONTINUOUS
 62
     7
  5
269
 10
-0.291339
 20
0.448819
 30
0.0
 11
-0.291339
 21
0.437008
 31
0.0
  0
LINE
  8
0
  6
CONTINUOUS
 62
     7
  5
26A
 10
-0.11811
 20
0.275591
 30
0.0
 11
-0.11811
 21
0.322835
 31
0.0
  0
LINE
  8
0
  6
CONTINUOUS
 62
     7
  5
26B
 10
-0.331978
 20
0.322835
 30
0.0
 11
-0.331978
 21
0.275591
 31
0.0
  0
LINE
  8
0
  6
CONTINUOUS
 62
     7
  5
26C
 10
-0.331978
 20
0.275591
 30
0.0
 11
-0.352362
 21
0.275591
 31
0.0
  0
LINE
  8
0
  6
CONTINUOUS
 62
     7
  5
26D
 10
0.11811
 20
0.275591
 30
0.0
 11
-0.11811
 21
0.275591
 31
0.0
  0
LINE
  8
0
  6
CONTINUOUS
 62
     7
  5
26E
 10
0.11811
 20
0.322835
 30
0.0
 11
0.11811
 21
0.275591
 31
0.0
  0
LINE
  8
0
  6
CONTINUOUS
 62
     7
  5
26F
 10
0.11811
 20
0.322835
 30
0.0
 11
0.331978
 21
0.322835
 31
0.0
  0
LINE
  8
0
  6
CONTINUOUS
 62
     7
  5
270
 10
-0.331978
 20
0.322835
 30
0.0
 11
-0.11811
 21
0.322835
 31
0.0
  0
LINE
  8
0
  6
CONTINUOUS
 62
     7
  5
271
 10
0.352362
 20
0.275591
 30
0.0
 11
0.331978
 21
0.275591
 31
0.0
  0
LINE
  8
0
  6
CONTINUOUS
 62
     7
  5
272
 10
0.331978
 20
0.275591
 30
0.0
 11
0.331978
 21
0.322835
 31
0.0
  0
LINE
  8
0
  6
CONTINUOUS
 62
     7
  5
273
 10
-0.350929
 20
0.165354
 30
0.0
 11
-0.350929
 21
0.244094
 31
0.0
  0
LINE
  8
0
  6
CONTINUOUS
 62
     7
  5
274
 10
-0.350929
 20
0.244094
 30
0.0
 11
-0.343563
 21
0.244094
 31
0.0
  0
LINE
  8
0
  6
CONTINUOUS
 62
     7
  5
275
 10
-0.343563
 20
0.244094
 30
0.0
 11
-0.343563
 21
0.165354
 31
0.0
  0
LINE
  8
0
  6
CONTINUOUS
 62
     7
  5
276
 10
-0.323944
 20
0.165354
 30
0.0
 11
-0.323944
 21
0.244094
 31
0.0
  0
LINE
  8
0
  6
CONTINUOUS
 62
     7
  5
277
 10
-0.323944
 20
0.244094
 30
0.0
 11
-0.302567
 21
0.244094
 31
0.0
  0
LINE
  8
0
  6
CONTINUOUS
 62
     7
  5
278
 10
-0.302567
 20
0.244094
 30
0.0
 11
-0.302567
 21
0.165354
 31
0.0
  0
LINE
  8
0
  6
CONTINUOUS
 62
     7
  5
279
 10
-0.265248
 20
0.165354
 30
0.0
 11
-0.265248
 21
0.244094
 31
0.0
  0
LINE
  8
0
  6
CONTINUOUS
 62
     7
  5
27A
 10
-0.265248
 20
0.244094
 30
0.0
 11
-0.231953
 21
0.244094
 31
0.0
  0
LINE
  8
0
  6
CONTINUOUS
 62
     7
  5
27B
 10
-0.231953
 20
0.244094
 30
0.0
 11
-0.231953
 21
0.165354
 31
0.0
  0
LINE
  8
0
  6
CONTINUOUS
 62
     7
  5
27C
 10
-0.180589
 20
0.165354
 30
0.0
 11
-0.180589
 21
0.244094
 31
0.0
  0
LINE
  8
0
  6
CONTINUOUS
 62
     7
  5
27D
 10
-0.180589
 20
0.244094
 30
0.0
 11
-0.138634
 21
0.244094
 31
0.0
  0
LINE
  8
0
  6
CONTINUOUS
 62
     7
  5
27E
 10
-0.138634
 20
0.244094
 30
0.0
 11
-0.138634
 21
0.165354
 31
0.0
  0
LINE
  8
0
  6
CONTINUOUS
 62
     7
  5
27F
 10
-0.078252
 20
0.165354
 30
0.0
 11
-0.078252
 21
0.244094
 31
0.0
  0
LINE
  8
0
  6
CONTINUOUS
 62
     7
  5
280
 10
-0.078252
 20
0.244094
 30
0.0
 11
-0.031745
 21
0.244094
 31
0.0
  0
LINE
  8
0
  6
CONTINUOUS
 62
     7
  5
281
 10
-0.031745
 20
0.244094
 30
0.0
 11
-0.031745
 21
0.165354
 31
0.0
  0
LINE
  8
0
  6
CONTINUOUS
 62
     7
  5
282
 10
0.031745
 20
0.165354
 30
0.0
 11
0.031745
 21
0.244094
 31
0.0
  0
LINE
  8
0
  6
CONTINUOUS
 62
     7
  5
283
 10
0.031745
 20
0.244094
 30
0.0
 11
0.078252
 21
0.244094
 31
0.0
  0
LINE
  8
0
  6
CONTINUOUS
 62
     7
  5
284
 10
0.078252
 20
0.244094
 30
0.0
 11
0.078252
 21
0.165354
 31
0.0
  0
LINE
  8
0
  6
CONTINUOUS
 62
     7
  5
285
 10
0.138634
 20
0.165354
 30
0.0
 11
0.138634
 21
0.244094
 31
0.0
  0
LINE
  8
0
  6
CONTINUOUS
 62
     7
  5
286
 10
0.138634
 20
0.244094
 30
0.0
 11
0.180589
 21
0.244094
 31
0.0
  0
LINE
  8
0
  6
CONTINUOUS
 62
     7
  5
287
 10
0.180589
 20
0.244094
 30
0.0
 11
0.180589
 21
0.165354
 31
0.0
  0
LINE
  8
0
  6
CONTINUOUS
 62
     7
  5
288
 10
0.231953
 20
0.165354
 30
0.0
 11
0.231953
 21
0.244094
 31
0.0
  0
LINE
  8
0
  6
CONTINUOUS
 62
     7
  5
289
 10
0.231953
 20
0.244094
 30
0.0
 11
0.265248
 21
0.244094
 31
0.0
  0
LINE
  8
0
  6
CONTINUOUS
 62
     7
  5
28A
 10
0.265248
 20
0.244094
 30
0.0
 11
0.265248
 21
0.165354
 31
0.0
  0
LINE
  8
0
  6
CONTINUOUS
 62
     7
  5
28B
 10
0.302567
 20
0.165354
 30
0.0
 11
0.302567
 21
0.244094
 31
0.0
  0
LINE
  8
0
  6
CONTINUOUS
 62
     7
  5
28C
 10
0.302567
 20
0.244094
 30
0.0
 11
0.323944
 21
0.244094
 31
0.0
  0
LINE
  8
0
  6
CONTINUOUS
 62
     7
  5
28D
 10
0.323944
 20
0.244094
 30
0.0
 11
0.323944
 21
0.165354
 31
0.0
  0
LINE
  8
0
  6
CONTINUOUS
 62
     7
  5
28E
 10
0.343563
 20
0.165354
 30
0.0
 11
0.343563
 21
0.244094
 31
0.0
  0
LINE
  8
0
  6
CONTINUOUS
 62
     7
  5
28F
 10
0.343563
 20
0.244094
 30
0.0
 11
0.350929
 21
0.244094
 31
0.0
  0
LINE
  8
0
  6
CONTINUOUS
 62
     7
  5
290
 10
0.350929
 20
0.244094
 30
0.0
 11
0.350929
 21
0.165354
 31
0.0
  0
LINE
  8
0
  6
CONTINUOUS
 62
     7
  5
291
 10
-0.244094
 20
0.125984
 30
0.0
 11
0.244094
 21
0.125984
 31
0.0
  0
LINE
  8
0
  6
CONTINUOUS
 62
     7
  5
292
 10
0.354331
 20
0.165354
 30
0.0
 11
0.354331
 21
0.138514
 31
0.0
  0
LINE
  8
0
  6
CONTINUOUS
 62
     7
  5
293
 10
0.354331
 20
0.099144
 30
0.0
 11
0.354331
 21
0.138514
 31
0.0
  0
LINE
  8
0
  6
CONTINUOUS
 62
     7
  5
294
 10
-0.354331
 20
0.099144
 30
0.0
 11
-0.354331
 21
0.138514
 31
0.0
  0
LINE
  8
0
  6
CONTINUOUS
 62
     7
  5
295
 10
-0.354331
 20
0.138514
 30
0.0
 11
-0.354331
 21
0.165354
 31
0.0
  0
LINE
  8
0
  6
CONTINUOUS
 62
     7
  5
296
 10
-0.354331
 20
0.099144
 30
0.0
 11
-0.244094
 21
0.125984
 31
0.0
  0
LINE
  8
0
  6
CONTINUOUS
 62
     7
  5
297
 10
0.244094
 20
0.125984
 30
0.0
 11
0.354331
 21
0.099144
 31
0.0
  0
LINE
  8
0
  6
CONTINUOUS
 62
     7
  5
298
 10
0.354331
 20
0.138514
 30
0.0
 11
0.244094
 21
0.165354
 31
0.0
  0
LINE
  8
0
  6
CONTINUOUS
 62
     7
  5
299
 10
-0.244094
 20
0.165354
 30
0.0
 11
0.244094
 21
0.165354
 31
0.0
  0
LINE
  8
0
  6
CONTINUOUS
 62
     7
  5
29A
 10
-0.244094
 20
0.165354
 30
0.0
 11
-0.354331
 21
0.138514
 31
0.0
  0
LINE
  8
0
  6
CONTINUOUS
 62
     7
  5
29B
 10
-0.354331
 20
0.165354
 30
0.0
 11
-0.244094
 21
0.165354
 31
0.0
  0
LINE
  8
0
  6
CONTINUOUS
 62
     7
  5
29C
 10
0.244094
 20
0.165354
 30
0.0
 11
0.354331
 21
0.165354
 31
0.0
  0
LINE
  8
0
  6
CONTINUOUS
 62
     7
  5
29D
 10
0.07874
 20
0.88189
 30
0.0
 11
0.05315
 21
0.88189
 31
0.0
  0
LINE
  8
0
  6
CONTINUOUS
 62
     7
  5
29E
 10
0.088583
 20
0.88189
 30
0.0
 11
0.07874
 21
0.88189
 31
0.0
  0
LINE
  8
0
  6
CONTINUOUS
 62
     7
  5
29F
 10
0.137795
 20
0.88189
 30
0.0
 11
0.108268
 21
0.88189
 31
0.0
  0
LINE
  8
0
  6
CONTINUOUS
 62
     7
  5
2A0
 10
0.163386
 20
0.88189
 30
0.0
 11
0.137795
 21
0.88189
 31
0.0
  0
LINE
  8
0
  6
CONTINUOUS
 62
     7
  5
2A1
 10
0.088583
 20
1.137795
 30
0.0
 11
0.088583
 21
0.854331
 31
0.0
  0
LINE
  8
0
  6
CONTINUOUS
 62
     7
  5
2A2
 10
0.108268
 20
1.137795
 30
0.0
 11
0.104441
 21
1.15748
 31
0.0
  0
LINE
  8
0
  6
CONTINUOUS
 62
     7
  5
2A3
 10
0.092409
 20
1.15748
 30
0.0
 11
0.088583
 21
1.137795
 31
0.0
  0
LINE
  8
0
  6
CONTINUOUS
 62
     7
  5
2A4
 10
0.088583
 20
1.137795
 30
0.0
 11
0.108268
 21
1.137795
 31
0.0
  0
LINE
  8
0
  6
CONTINUOUS
 62
     7
  5
2A5
 10
0.088583
 20
0.854331
 30
0.0
 11
0.108268
 21
0.854331
 31
0.0
  0
LINE
  8
0
  6
CONTINUOUS
 62
     7
  5
2A6
 10
0.108268
 20
0.854331
 30
0.0
 11
0.108268
 21
1.137795
 31
0.0
  0
LINE
  8
0
  6
CONTINUOUS
 62
     7
  5
2A7
 10
0.07874
 20
0.84252
 30
0.0
 11
0.07874
 21
0.88189
 31
0.0
  0
LINE
  8
0
  6
CONTINUOUS
 62
     7
  5
2A8
 10
0.137795
 20
0.84252
 30
0.0
 11
0.137795
 21
0.88189
 31
0.0
  0
LINE
  8
0
  6
CONTINUOUS
 62
     7
  5
2A9
 10
0.05315
 20
0.84252
 30
0.0
 11
0.05315
 21
0.88189
 31
0.0
  0
LINE
  8
0
  6
CONTINUOUS
 62
     7
  5
2AA
 10
0.163386
 20
0.84252
 30
0.0
 11
0.163386
 21
0.88189
 31
0.0
  0
LINE
  8
0
  6
CONTINUOUS
 62
     7
  5
2AB
 10
-0.290839
 20
0.84252
 30
0.0
 11
-0.274209
 21
0.84252
 31
0.0
  0
LINE
  8
0
  6
CONTINUOUS
 62
     7
  5
2AC
 10
0.274209
 20
0.84252
 30
0.0
 11
0.290839
 21
0.84252
 31
0.0
  0
LINE
  8
0
  6
CONTINUOUS
 62
     7
  5
2AD
 10
-0.274209
 20
0.645669
 30
0.0
 11
-0.291339
 21
0.645669
 31
0.0
  0
LINE
  8
0
  6
CONTINUOUS
 62
     7
  5
2AE
 10
0.291339
 20
0.645669
 30
0.0
 11
0.274209
 21
0.645669
 31
0.0
  0
LINE
  8
0
  6
CONTINUOUS
 62
     7
  5
2AF
 10
-0.274209
 20
0.84252
 30
0.0
 11
-0.274209
 21
0.645669
 31
0.0
  0
LINE
  8
0
  6
CONTINUOUS
 62
     7
  5
2B0
 10
0.274209
 20
0.645669
 30
0.0
 11
0.274209
 21
0.84252
 31
0.0
  0
LINE
  8
0
  6
CONTINUOUS
 62
     7
  5
2B1
 10
-0.274209
 20
0.84252
 30
0.0
 11
0.274209
 21
0.84252
 31
0.0
  0
ARC
  8
0
  6
CONTINUOUS
 62
     7
  5
2B2
 10
0.0
 20
0.963965
 30
0.0
 40
1.36554
 50
277.738341
 51
279.82476
  0
ARC
  8
0
  6
CONTINUOUS
 62
     7
  5
2B3
 10
0.0
 20
0.963965
 30
0.0
 40
1.36554
 50
260.17524
 51
262.261659
  0
LINE
  8
0
  6
CONTINUOUS
 62
     7
  5
2B4
 10
-0.352362
 20
-0.023622
 30
0.0
 11
-0.352362
 21
-0.401575
 31
0.0
  0
LINE
  8
0
  6
CONTINUOUS
 62
     7
  5
2B5
 10
0.352362
 20
-0.401575
 30
0.0
 11
0.352362
 21
-0.023622
 31
0.0
  0
LINE
  8
0
  6
CONTINUOUS
 62
     7
  5
2B6
 10
-0.344488
 20
0.0
 30
0.0
 11
-0.344488
 21
-0.023622
 31
0.0
  0
LINE
  8
0
  6
CONTINUOUS
 62
     7
  5
2B7
 10
0.344488
 20
-0.023622
 30
0.0
 11
0.344488
 21
0.0
 31
0.0
  0
LINE
  8
0
  6
CONTINUOUS
 62
     7
  5
2B8
 10
-0.352362
 20
0.275591
 30
0.0
 11
-0.352362
 21
0.165354
 31
0.0
  0
LINE
  8
0
  6
CONTINUOUS
 62
     7
  5
2B9
 10
0.352362
 20
0.165354
 30
0.0
 11
0.352362
 21
0.275591
 31
0.0
  0
LINE
  8
0
  6
CONTINUOUS
 62
     7
  5
2BA
 10
0.104441
 20
1.15748
 30
0.0
 11
0.092409
 21
1.15748
 31
0.0
  0
LINE
  8
0
  6
CONTINUOUS
 62
     7
  5
2BB
 10
-0.290839
 20
0.84252
 30
0.0
 11
-0.290839
 21
0.645669
 31
0.0
  0
LINE
  8
0
  6
CONTINUOUS
 62
     7
  5
2BC
 10
0.290839
 20
0.645669
 30
0.0
 11
0.290839
 21
0.84252
 31
0.0
  0
LINE
  8
0
  6
CONTINUOUS
 62
     7
  5
2BD
 10
-0.291339
 20
0.645669
 30
0.0
 11
-0.291339
 21
0.448819
 31
0.0
  0
LINE
  8
0
  6
CONTINUOUS
 62
     7
  5
2BE
 10
0.291339
 20
0.448819
 30
0.0
 11
0.291339
 21
0.645669
 31
0.0
  0
LINE
  8
0
  6
CONTINUOUS
 62
     3
  5
2BF
 10
0.0
 20
-0.401575
 30
0.0
 11
0.0
 21
0.84252
 31
0.0
  0
LINE
  8
0
  6
CONTINUOUS
 62
     3
  5
2C0
 10
0.088583
 20
1.094488
 30
0.0
 11
0.108268
 21
1.094488
 31
0.0
  0
LINE
  8
0
  6
CONTINUOUS
 62
     3
  5
2C1
 10
0.088583
 20
1.03937
 30
0.0
 11
0.108268
 21
1.03937
 31
0.0
  0
ENDSEC
  0
EOF
