999
DXF file: C:\Users\sesa63760\Dev\_Creo\CAD\MCADID0002203_3D-CAD\drw0001_1.dxf
999
Pro/ENGINEER 2019471 by Parametric Technology Corporation
  0
SECTION
  2
HEADER
  9
$ACADVER
  1
AC1024
  9
$DWGCODEPAGE
  3
ANSI_1252
  9
$EXTMAX
 10
57.9447215123
 20
81.9503918531
 30
0.0
  9
$EXTMIN
 10
0.0
 20
0.0
 30
0.0
  9
$LIMMIN
 10
0.0
 20
0.0
  9
$LIMMAX
 10
57.9447215123
 20
81.9503918531
  9
$VIEWCTR
 10
28.9723607562
 20
40.9751959266
  9
$VIEWSIZE
 40
81.9503918531
  9
$CLAYER
  8
0
  9
$LTSCALE
 40
5.3419514689
  9
$CELTYPE
  6
BYLAYER
  9
$DIMSCALE
 40
1.0
  9
$DIMASZ
 40
0.6898181132
  9
$DIMEXO
 40
1.0
  9
$DIMDLI
 40
3.6908028331
  9
$DIMEXE
 40
1.0
  9
$DIMCEN
 40
0.8741375131
  9
$DIMLFAC
 40
1.0
  9
$DIMBLK
  1
_FILLED
  9
$DIMALT
 70
0
  9
$DIMALTF
 40
0.0393700787
  9
$DIMTXT
 40
0.9657453585
  9
$DIMTOL
 70
1
  9
$DIMLIM
 70
0
  9
$DIMTFAC
 40
1.0
  9
$DIMTP
 40
0.01
  9
$DIMTM
 40
0.01
  9
$DIMGAP
 40
0.625
  9
$DIMDSEP
 70
46
  9
$AUNITS
 70
0
  9
$PDMODE
 70
3
  9
$PDSIZE
 40
0.3125
  9
$HANDSEED
  5
37B
  9
$TILEMODE
 70
1
  9
$MEASUREMENT
 70
1
  9
$INSUNITS
 70
4
  0
ENDSEC
  0
SECTION
  2
CLASSES
  0
CLASS
  1
ACDBDICTIONARYWDFLT
  2
AcDbDictionaryWithDefault
  3
AutoCAD 2000
 90
0
 91
1
280
0
281
0
  0
CLASS
  1
ACDBPLACEHOLDER
  2
AcDbPlaceHolder
  3
AutoCAD 2000
 90
0
 91
1
280
0
281
0
  0
CLASS
  1
LAYOUT
  2
AcDbLayout
  3
AutoCAD 2000
 90
0
 91
0
280
0
281
0
  0
ENDSEC
  0
SECTION
  2
TABLES
  0
TABLE
  2
VPORT
  5
8
100
AcDbSymbolTable
 70
2
  0
VPORT
  5
1F4
100
AcDbSymbolTableRecord
100
AcDbViewportTableRecord
  2
*ACTIVE
 70
0
 10
0.0
 20
0.0
 11
1.0
 21
1.0
 12
28.9723607562
 22
40.9751959266
 13
0.0
 23
0.0
 14
1.0
 24
1.0
 15
0.0
 25
0.0
 16
0.0
 26
0.0
 36
1.0
 17
0.0
 27
0.0
 37
0.0
 40
81.9503918531
 41
0.7070707071
 42
50.0
 43
0.0
 44
0.0
 50
0.0
 51
0.0
 71
0
 72
100
 73
1
 74
1
 75
0
 76
0
 77
0
 78
0
  0
ENDTAB
  0
TABLE
  2
LTYPE
  5
5
100
AcDbSymbolTable
 70
6
  0
LTYPE
  5
14
100
AcDbSymbolTableRecord
100
AcDbLinetypeTableRecord
  2
BYBLOCK
 70
0
  3

 72
65
 73
0
 40
0.0
  0
LTYPE
  5
15
100
AcDbSymbolTableRecord
100
AcDbLinetypeTableRecord
  2
BYLAYER
 70
0
  3

 72
65
 73
0
 40
0.0
  0
LTYPE
  5
16
100
AcDbSymbolTableRecord
100
AcDbLinetypeTableRecord
  2
CONTINUOUS
 70
64
  3
Solid line
 72
65
 73
0
 40
0.0
  0
LTYPE
  5
1F5
100
AcDbSymbolTableRecord
100
AcDbLinetypeTableRecord
  2
CENTER
 70
64
  3
____ _ ____ _ ____ _ ____ _ ____ _ ____ _ ____
 72
65
 73
4
 40
0.6
 49
0.375
 74
0
 49
-0.075
 74
0
 49
0.075
 74
0
 49
-0.075
 74
0
  0
LTYPE
  5
1F6
100
AcDbSymbolTableRecord
100
AcDbLinetypeTableRecord
  2
HIDDEN
 70
64
  3
- - - - - - - - - - - - - - - - - - - -
 72
65
 73
2
 40
0.2
 49
0.1
 74
0
 49
-0.1
 74
0
  0
LTYPE
  5
1F7
100
AcDbSymbolTableRecord
100
AcDbLinetypeTableRecord
  2
PHANTOM
 70
64
  3
_____ _ _ _____ _ _ _____ _ _ _____
 72
65
 73
6
 40
0.8
 49
0.45
 74
0
 49
-0.05
 74
0
 49
0.1
 74
0
 49
-0.05
 74
0
 49
0.1
 74
0
 49
-0.05
 74
0
  0
LTYPE
  5
1F8
100
AcDbSymbolTableRecord
100
AcDbLinetypeTableRecord
  2
DOT
 70
64
  3
. . . . . . . . . . . . . . . . . . . .
 72
65
 73
2
 40
0.2
 49
0.1
 74
0
 49
-0.1
 74
0
  0
LTYPE
  5
1F9
100
AcDbSymbolTableRecord
100
AcDbLinetypeTableRecord
  2
DASHED
 70
64
  3
- - - - - - - - - - - - - - - - - - - -
 72
65
 73
2
 40
0.2
 49
0.1
 74
0
 49
-0.1
 74
0
  0
ENDTAB
  0
TABLE
  2
LAYER
  5
2
100
AcDbSymbolTable
 70
36
  0
LAYER
  5
10
100
AcDbSymbolTableRecord
100
AcDbLayerTableRecord
  2
0
 70
0
 62
7
  6
CONTINUOUS
370
-3
390
F
  0
LAYER
  5
1FA
100
AcDbSymbolTableRecord
100
AcDbLayerTableRecord
  2
DEFAULT_1
 70
0
 62
7
  6
CENTER
370
-3
390
F
  0
LAYER
  5
1FB
100
AcDbSymbolTableRecord
100
AcDbLayerTableRecord
  2
DEFAULT_2
 70
0
 62
8
  6
HIDDEN
370
-3
390
F
  0
LAYER
  5
1FC
100
AcDbSymbolTableRecord
100
AcDbLayerTableRecord
  2
DEFAULT_3
 70
0
 62
7
  6
PHANTOM
370
-3
390
F
  0
LAYER
  5
1FD
100
AcDbSymbolTableRecord
100
AcDbLayerTableRecord
  2
00_COMPONENTS
 70
0
 62
7
  6
CONTINUOUS
370
-3
390
F
  0
LAYER
  5
1FE
100
AcDbSymbolTableRecord
100
AcDbLayerTableRecord
  2
01_1_DEFAULT_DATUMS
 70
0
 62
7
  6
CONTINUOUS
370
-3
390
F
  0
LAYER
  5
1FF
100
AcDbSymbolTableRecord
100
AcDbLayerTableRecord
  2
01_PLANES
 70
0
 62
7
  6
CONTINUOUS
370
-3
390
F
  0
LAYER
  5
200
100
AcDbSymbolTableRecord
100
AcDbLayerTableRecord
  2
02_COORD_SYS
 70
0
 62
7
  6
CONTINUOUS
370
-3
390
F
  0
LAYER
  5
201
100
AcDbSymbolTableRecord
100
AcDbLayerTableRecord
  2
03_AXES
 70
0
 62
7
  6
CONTINUOUS
370
-3
390
F
  0
LAYER
  5
202
100
AcDbSymbolTableRecord
100
AcDbLayerTableRecord
  2
04_POINTS
 70
0
 62
7
  6
CONTINUOUS
370
-3
390
F
  0
LAYER
  5
203
100
AcDbSymbolTableRecord
100
AcDbLayerTableRecord
  2
05_CURVES
 70
0
 62
7
  6
CONTINUOUS
370
-3
390
F
  0
LAYER
  5
204
100
AcDbSymbolTableRecord
100
AcDbLayerTableRecord
  2
06_SURFS
 70
0
 62
7
  6
CONTINUOUS
370
-3
390
F
  0
LAYER
  5
205
100
AcDbSymbolTableRecord
100
AcDbLayerTableRecord
  2
07_COSMETICS
 70
0
 62
7
  6
CONTINUOUS
370
-3
390
F
  0
LAYER
  5
206
100
AcDbSymbolTableRecord
100
AcDbLayerTableRecord
  2
10_NOTES
 70
0
 62
7
  6
CONTINUOUS
370
-3
390
F
  0
LAYER
  5
207
100
AcDbSymbolTableRecord
100
AcDbLayerTableRecord
  2
11_NOTES_PUB
 70
0
 62
7
  6
CONTINUOUS
370
-3
390
F
  0
LAYER
  5
208
100
AcDbSymbolTableRecord
100
AcDbLayerTableRecord
  2
13_REF_GTOL
 70
0
 62
7
  6
CONTINUOUS
370
-3
390
F
  0
LAYER
  5
209
100
AcDbSymbolTableRecord
100
AcDbLayerTableRecord
  2
16_MISC
 70
0
 62
7
  6
CONTINUOUS
370
-3
390
F
  0
LAYER
  5
20A
100
AcDbSymbolTableRecord
100
AcDbLayerTableRecord
  2
17_NO_PRINT
 70
0
 62
7
  6
CONTINUOUS
370
-3
390
F
  0
LAYER
  5
20B
100
AcDbSymbolTableRecord
100
AcDbLayerTableRecord
  2
18_DATUM_CAMS_JOINTS
 70
0
 62
7
  6
CONTINUOUS
370
-3
390
F
  0
LAYER
  5
20C
100
AcDbSymbolTableRecord
100
AcDbLayerTableRecord
  2
19_DATUM_FUNCTIONAL
 70
0
 62
7
  6
CONTINUOUS
370
-3
390
F
  0
LAYER
  5
20D
100
AcDbSymbolTableRecord
100
AcDbLayerTableRecord
  2
20_DATUM_KINEMATIC_SCHEME
 70
0
 62
7
  6
CONTINUOUS
370
-3
390
F
  0
ENDTAB
  0
TABLE
  2
STYLE
  5
3
100
AcDbSymbolTable
 70
1
  0
STYLE
  5
11
100
AcDbSymbolTableRecord
100
AcDbTextStyleTableRecord
  2
STANDARD
 70
0
 40
0.0
 41
0.8
 50
0.0
 71
0
 42
0.2
  3
txt
  4

  0
STYLE
  5
20E
100
AcDbSymbolTableRecord
100
AcDbTextStyleTableRecord
  2
TEXTSTYLE_1
 70
0
 40
0.0
 41
0.8
 50
0.0
 71
0
 42
0.2
  3
gdt
  4

  0
ENDTAB
  0
TABLE
  2
VIEW
  5
6
100
AcDbSymbolTable
 70
0
  0
ENDTAB
  0
TABLE
  2
UCS
  5
7
100
AcDbSymbolTable
 70
0
  0
ENDTAB
  0
TABLE
  2
APPID
  5
9
100
AcDbSymbolTable
 70
1
  0
APPID
  5
20F
100
AcDbSymbolTableRecord
100
AcDbRegAppTableRecord
  2
ACAD
 70
0
  0
ENDTAB
  0
TABLE
  2
BLOCK_RECORD
  5
1
100
AcDbSymbolTable
 70
0
  0
BLOCK_RECORD
  5
210
100
AcDbSymbolTableRecord
100
AcDbBlockTableRecord
  2
*Model_Space
  0
BLOCK_RECORD
  5
211
100
AcDbSymbolTableRecord
100
AcDbBlockTableRecord
  2
*Paper_Space
  0
BLOCK_RECORD
  5
212
100
AcDbSymbolTableRecord
100
AcDbBlockTableRecord
  2
_FILLED
  0
ENDTAB
  0
TABLE
  2
DIMSTYLE
  5
A
100
AcDbSymbolTable
 70
1
100
AcDbDimStyleTable
 71
0
  0
DIMSTYLE
105
213
100
AcDbSymbolTableRecord
100
AcDbDimStyleTableRecord
  2
STANDARD
 70
0
  3

  4

 40
1.0
 41
0.6898181132
 42
1.0
 43
0.38
 44
1.0
 45
0.0
 46
0.0
 47
0.01
 48
0.01
140
0.9657453585
141
0.09
142
0.0
143
25.4
144
1.0
145
0.0
146
1.0
147
0.625
 71
1
 72
0
 73
0
 74
0
 75
0
 76
0
 77
1
 78
8
 79
2
170
0
171
1
172
0
173
0
174
0
175
0
176
0
177
0
178
0
270
2
179
2
271
2
272
2
273
2
274
2
275
0
280
0
281
0
282
0
283
1
284
8
285
0
286
0
287
3
288
0
340
11
278
46
341
212
342
212
343
212
344
212
  0
ENDTAB
  0
ENDSEC
  0
SECTION
  2
BLOCKS
  0
BLOCK
  5
20
100
AcDbEntity
  8
0
100
AcDbBlockBegin
  2
*Model_Space
 70
0
 10
0.0
 20
0.0
 30
0.0
  3
*Model_Space
  1

  0
ENDBLK
  5
21
100
AcDbEntity
  8
0
100
AcDbBlockEnd
  0
BLOCK
  5
1C
100
AcDbEntity
  8
0
100
AcDbBlockBegin
  2
*Paper_Space
 70
0
 10
0.0
 20
0.0
 30
0.0
  3
*Paper_Space
  1

  0
ENDBLK
  5
1D
100
AcDbEntity
  8
0
100
AcDbBlockEnd
  0
BLOCK
  5
214
100
AcDbEntity
  8
0
100
AcDbBlockBegin
  2
_FILLED
 70
64
 10
0.0
 20
0.0
  3
_FILLED
  1

  0
SOLID
  5
215
100
AcDbEntity
  8
0
  6
BYBLOCK
 62
0
100
AcDbTrace
 10
0.0
 20
0.0
 11
-1.0
 21
0.25
 12
-1.0
 22
-0.25
 13
-1.0
 23
-0.25
  0
ENDBLK
  5
216
100
AcDbEntity
  8
0
  6
BYBLOCK
 62
0
100
AcDbBlockEnd
  0
ENDSEC
  0
SECTION
  2
ENTITIES
  0
LINE
  5
217
100
AcDbEntity
  8
0
100
AcDbLine
 62
7
  6
CONTINUOUS
 10
11.4137388867
 20
32.4522444743
 11
10.7066291616
 21
33.6769876459
  0
LINE
  5
218
100
AcDbEntity
  8
0
100
AcDbLine
 62
7
  6
CONTINUOUS
 10
10.7066291616
 20
41.7195364547
 11
10.7066291616
 21
33.6769876459
  0
LINE
  5
219
100
AcDbEntity
  8
0
100
AcDbLine
 62
7
  6
CONTINUOUS
 10
11.6258641499
 20
33.8811075809
 11
11.6258641499
 21
34.207705046
  0
LINE
  5
21A
100
AcDbEntity
  8
0
100
AcDbLine
 62
7
  6
CONTINUOUS
 10
11.7428156767
 20
36.9133914738
 11
11.7428156767
 21
33.6785447586
  0
LINE
  5
21B
100
AcDbEntity
  8
0
100
AcDbLine
 62
7
  6
CONTINUOUS
 10
11.7428155446
 20
36.9174740925
 11
11.7428155446
 21
41.9378099178
  0
LWPOLYLINE
  5
21C
100
AcDbEntity
  8
0
100
AcDbPolyline
 62
7
  6
CONTINUOUS
 90
3
 70
0
 10
16.0287034878
 20
25.9210220402
 10
18.2716699493
 20
25.0362837765
 10
20.2950792259
 20
25.0585693203
  0
LINE
  5
21D
100
AcDbEntity
  8
0
100
AcDbLine
 62
7
  6
CONTINUOUS
 10
11.6258653275
 20
33.8811075809
 11
12.1915530087
 21
32.9013129864
  0
LINE
  5
21E
100
AcDbEntity
  8
0
100
AcDbLine
 62
7
  6
CONTINUOUS
 10
13.741313713
 20
35.900598018
 11
13.7381393464
 21
36.1087607613
  0
LINE
  5
21F
100
AcDbEntity
  8
0
100
AcDbLine
 62
7
  6
CONTINUOUS
 10
11.8892637599
 20
33.424890414
 11
11.8892637599
 21
36.7092693958
  0
LINE
  5
220
100
AcDbEntity
  8
0
100
AcDbLine
 62
7
  6
CONTINUOUS
 10
11.889263626
 20
36.7133520156
 11
11.889263626
 21
41.8532599913
  0
LINE
  5
221
100
AcDbEntity
  8
0
100
AcDbLine
 62
7
  6
CONTINUOUS
 10
12.1013960977
 20
36.5867973945
 11
12.1013960977
 21
35.6886447356
  0
LINE
  5
222
100
AcDbEntity
  8
0
100
AcDbLine
 62
7
  6
CONTINUOUS
 10
12.1013965436
 20
39.1179547702
 11
12.1013965436
 21
36.5908797892
  0
LINE
  5
223
100
AcDbEntity
  8
0
100
AcDbLine
 62
7
  6
CONTINUOUS
 10
12.4195954741
 20
35.504936396
 11
12.4195954741
 21
35.3416359126
  0
LINE
  5
224
100
AcDbEntity
  8
0
100
AcDbLine
 62
7
  6
CONTINUOUS
 10
12.4195959199
 20
39.0975469141
 11
12.4195959199
 21
38.9342464307
  0
LINE
  5
225
100
AcDbEntity
  8
0
100
AcDbLine
 62
7
  6
CONTINUOUS
 10
12.6481344895
 20
39.0661924478
 11
12.6481344895
 21
36.6754606432
  0
LINE
  5
226
100
AcDbEntity
  8
0
100
AcDbLine
 62
7
  6
CONTINUOUS
 10
12.6481340436
 20
36.6713782484
 11
12.6481340436
 21
35.7732255896
  0
LINE
  5
227
100
AcDbEntity
  8
0
100
AcDbLine
 62
7
  6
CONTINUOUS
 10
12.8722773729
 20
35.8479396829
 11
12.8722773729
 21
36.7460923418
  0
LINE
  5
228
100
AcDbEntity
  8
0
100
AcDbLine
 62
7
  6
CONTINUOUS
 10
12.8722778187
 20
36.7501747365
 11
12.8722778187
 21
39.1956008868
  0
LINE
  5
229
100
AcDbEntity
  8
0
100
AcDbLine
 62
7
  6
CONTINUOUS
 10
12.9145727275
 20
39.6691059239
 11
12.9145727275
 21
39.2200295945
  0
LINE
  5
22A
100
AcDbEntity
  8
0
100
AcDbLine
 62
7
  6
CONTINUOUS
 10
12.9145722817
 20
34.6476161759
 11
12.9145722817
 21
34.1985398465
  0
LINE
  5
22B
100
AcDbEntity
  8
0
100
AcDbLine
 62
7
  6
CONTINUOUS
 10
12.985277955
 20
35.91318021
 11
12.985277955
 21
36.8113328689
  0
LINE
  5
22C
100
AcDbEntity
  8
0
100
AcDbLine
 62
7
  6
CONTINUOUS
 10
12.9852784009
 20
36.8154152636
 11
12.9852784009
 21
39.2608414139
  0
LINE
  5
22D
100
AcDbEntity
  8
0
100
AcDbLine
 62
7
  6
CONTINUOUS
 10
13.5509616136
 20
35.9948265588
 11
13.5509616136
 21
36.0538338486
  0
LWPOLYLINE
  5
22E
100
AcDbEntity
  8
0
100
AcDbPolyline
 62
7
  6
CONTINUOUS
 90
3
 70
0
 10
14.0794028353
 20
49.9195020431
 10
12.4588785142
 20
48.4215802332
 10
12.0757433352
 20
47.5190576515
  0
LINE
  5
22F
100
AcDbEntity
  8
0
100
AcDbLine
 62
7
  6
CONTINUOUS
 10
11.4137388867
 20
32.4522444743
 11
21.2036730314
 21
26.8001512279
  0
LINE
  5
230
100
AcDbEntity
  8
0
100
AcDbLine
 62
7
  6
CONTINUOUS
 10
21.9107827565
 20
27.2900401334
 11
12.1915531077
 21
32.9013130435
  0
LINE
  5
231
100
AcDbEntity
  8
0
100
AcDbLine
 62
7
  6
CONTINUOUS
 10
14.055188019
 20
36.1809041084
 11
14.1173227715
 21
36.0435751689
  0
LINE
  5
232
100
AcDbEntity
  8
0
100
AcDbLine
 62
7
  6
CONTINUOUS
 10
13.8341766768
 20
39.1381843473
 11
13.8343508819
 21
36.1372131913
  0
LINE
  5
233
100
AcDbEntity
  8
0
100
AcDbLine
 62
7
  6
CONTINUOUS
 10
13.8510686088
 20
36.1348037843
 11
13.8510687025
 21
36.146865104
  0
LINE
  5
234
100
AcDbEntity
  8
0
100
AcDbLine
 62
7
  6
CONTINUOUS
 10
14.0459384212
 20
35.0926277012
 11
14.0459384212
 21
35.3008068221
  0
LINE
  5
235
100
AcDbEntity
  8
0
100
AcDbLine
 62
7
  6
CONTINUOUS
 10
14.1173227715
 20
36.0435751689
 11
14.1173224546
 21
36.002750103
  0
LINE
  5
236
100
AcDbEntity
  8
0
100
AcDbLine
 62
7
  6
CONTINUOUS
 10
14.3648391954
 20
35.3699440773
 11
14.3648422259
 21
35.6148930491
  0
LINE
  5
237
100
AcDbEntity
  8
0
100
AcDbLine
 62
7
  6
CONTINUOUS
 10
14.4207089055
 20
35.7711650272
 11
14.4207089055
 21
36.6512710595
  0
LINE
  5
238
100
AcDbEntity
  8
0
100
AcDbLine
 62
7
  6
CONTINUOUS
 10
14.647068691
 20
37.4501389686
 11
14.6470207612
 21
38.6688992131
  0
LINE
  5
239
100
AcDbEntity
  8
0
100
AcDbLine
 62
7
  6
CONTINUOUS
 10
15.8137226006
 20
39.5875238038
 11
15.8137226006
 21
38.6892243849
  0
LINE
  5
23A
100
AcDbEntity
  8
0
100
AcDbLine
 62
7
  6
CONTINUOUS
 10
16.0230168466
 20
46.9014981513
 11
16.1127572346
 21
47.0525312667
  0
LINE
  5
23B
100
AcDbEntity
  8
0
100
AcDbLine
 62
7
  6
CONTINUOUS
 10
15.9530008293
 20
51.0017422669
 11
14.0791756606
 21
49.9198952592
  0
LINE
  5
23C
100
AcDbEntity
  8
0
100
AcDbLine
 62
7
  6
CONTINUOUS
 10
10.1115514062
 20
46.9941156531
 11
9.5838840075
 21
46.6894685569
  0
LWPOLYLINE
  5
23D
100
AcDbEntity
  8
0
100
AcDbPolyline
 62
7
  6
CONTINUOUS
 90
3
 70
0
 10
26.7896350528
 20
27.2034165602
 10
27.8084067139
 20
27.2163976553
 10
29.1171333628
 20
27.9740057459
  0
LINE
  5
23E
100
AcDbEntity
  8
0
100
AcDbLine
 62
7
  6
CONTINUOUS
 10
12.9145722817
 20
34.1985398465
 11
21.2584670384
 21
29.3812989432
  0
LINE
  5
23F
100
AcDbEntity
  8
0
100
AcDbLine
 62
7
  6
CONTINUOUS
 10
12.7731503367
 20
34.7292643268
 11
12.9145722817
 21
34.6476161759
  0
LINE
  5
240
100
AcDbEntity
  8
0
100
AcDbLine
 62
7
  6
CONTINUOUS
 10
21.2584670384
 20
29.8303752726
 11
21.3998889834
 21
29.7487271217
  0
LINE
  5
241
100
AcDbEntity
  8
0
100
AcDbLine
 62
7
  6
CONTINUOUS
 10
13.2611891937
 20
34.6297385746
 11
21.4162913731
 21
29.9214946508
  0
LINE
  5
242
100
AcDbEntity
  8
0
100
AcDbLine
 62
7
  6
CONTINUOUS
 10
14.3648422259
 20
35.6148930491
 11
14.4527045668
 21
35.4924160914
  0
LINE
  5
243
100
AcDbEntity
  8
0
100
AcDbLine
 62
7
  6
CONTINUOUS
 10
17.2286344872
 20
33.0142449081
 11
17.2286309518
 21
32.7284824626
  0
LINE
  5
244
100
AcDbEntity
  8
0
100
AcDbLine
 62
7
  6
CONTINUOUS
 10
17.6175472556
 20
33.6961070941
 11
17.617543215
 21
33.36950846
  0
LINE
  5
245
100
AcDbEntity
  8
0
100
AcDbLine
 62
7
  6
CONTINUOUS
 10
17.7943206463
 20
33.2674453554
 11
17.7943246869
 21
33.5940439894
  0
LINE
  5
246
100
AcDbEntity
  8
0
100
AcDbLine
 62
7
  6
CONTINUOUS
 10
14.4207089055
 20
36.6512710595
 11
14.6179524446
 21
37.3874020289
  0
LINE
  5
247
100
AcDbEntity
  8
0
100
AcDbLine
 62
7
  6
CONTINUOUS
 10
14.6795239291
 20
37.5200704526
 11
14.6179524446
 21
37.3874020289
  0
LWPOLYLINE
  5
248
100
AcDbEntity
  8
0
100
AcDbPolyline
 62
7
  6
CONTINUOUS
 90
3
 70
0
 10
17.1057767036
 20
48.8102192525
 10
15.7800574204
 20
48.0447929834
 10
15.3079667147
 20
47.2487191368
  0
LINE
  5
249
100
AcDbEntity
  8
0
100
AcDbLine
 62
7
  6
CONTINUOUS
 10
22.6970853753
 20
51.8003752916
 11
21.4454866019
 21
51.0777687162
  0
LINE
  5
24A
100
AcDbEntity
  8
0
100
AcDbLine
 62
7
  6
CONTINUOUS
 10
18.0919001052
 20
48.1951831151
 11
15.9296699867
 21
46.9468264258
  0
LINE
  5
24B
100
AcDbEntity
  8
0
100
AcDbLine
 62
7
  6
CONTINUOUS
 10
18.4501507155
 20
48.3603102074
 11
18.1099634483
 21
48.1638973816
  0
LINE
  5
24C
100
AcDbEntity
  8
0
100
AcDbLine
 62
7
  6
CONTINUOUS
 10
21.6404355209
 20
30.0509035624
 11
13.437965153
 21
34.7864949039
  0
LINE
  5
24D
100
AcDbEntity
  8
0
100
AcDbLine
 62
7
  6
CONTINUOUS
 10
12.1013960977
 20
35.6886447356
 11
12.4195954741
 21
35.504936396
  0
LINE
  5
24E
100
AcDbEntity
  8
0
100
AcDbLine
 62
7
  6
CONTINUOUS
 10
13.5509657352
 20
34.851735431
 11
21.9107827565
 21
30.0253208291
  0
LINE
  5
24F
100
AcDbEntity
  8
0
100
AcDbLine
 62
7
  6
CONTINUOUS
 10
17.2300552009
 20
33.0150651526
 11
18.7902593434
 21
32.1143038656
  0
LINE
  5
250
100
AcDbEntity
  8
0
100
AcDbLine
 62
7
  6
CONTINUOUS
 10
14.0459384212
 20
35.3008068221
 11
13.9045164762
 21
35.382454973
  0
LINE
  5
251
100
AcDbEntity
  8
0
100
AcDbLine
 62
7
  6
CONTINUOUS
 10
14.101039743
 20
35.2917893361
 11
14.0955460112
 21
35.2949610719
  0
LINE
  5
252
100
AcDbEntity
  8
0
100
AcDbLine
 62
7
  6
CONTINUOUS
 10
19.1111535197
 20
32.5071670186
 11
17.7943206463
 21
33.2674453554
  0
LINE
  5
253
100
AcDbEntity
  8
0
100
AcDbLine
 62
7
  6
CONTINUOUS
 10
11.8892642219
 20
36.7092690283
 11
12.1013961172
 21
36.5867973975
  0
LINE
  5
254
100
AcDbEntity
  8
0
100
AcDbLine
 62
7
  6
CONTINUOUS
 10
12.1013965436
 20
36.5908797892
 11
11.889263626
 21
36.7133520156
  0
LINE
  5
255
100
AcDbEntity
  8
0
100
AcDbLine
 62
7
  6
CONTINUOUS
 10
21.9107827565
 20
30.9316190656
 11
19.1378352253
 21
32.5325905933
  0
LINE
  5
256
100
AcDbEntity
  8
0
100
AcDbLine
 62
7
  6
CONTINUOUS
 10
17.3700609126
 20
33.5532216402
 11
14.2941336085
 21
35.3291196619
  0
LINE
  5
257
100
AcDbEntity
  8
0
100
AcDbLine
 62
7
  6
CONTINUOUS
 10
19.2085441371
 20
32.7775391518
 11
17.7943246869
 21
33.5940439894
  0
LINE
  5
258
100
AcDbEntity
  8
0
100
AcDbLine
 62
7
  6
CONTINUOUS
 10
21.3314589749
 20
31.592691066
 11
19.9833134519
 21
32.3710478769
  0
LINE
  5
259
100
AcDbEntity
  8
0
100
AcDbLine
 62
7
  6
CONTINUOUS
 10
14.3648422259
 20
35.6148930491
 11
14.3294867396
 21
35.6353056701
  0
LINE
  5
25A
100
AcDbEntity
  8
0
100
AcDbLine
 62
7
  6
CONTINUOUS
 10
15.7406551015
 20
34.8205623896
 11
17.0888006244
 21
34.0422055786
  0
LINE
  5
25B
100
AcDbEntity
  8
0
100
AcDbLine
 62
7
  6
CONTINUOUS
 10
21.5625171295
 20
31.6479334065
 11
14.4207089055
 21
35.7711650272
  0
LINE
  5
25C
100
AcDbEntity
  8
0
100
AcDbLine
 62
7
  6
CONTINUOUS
 10
13.8458459589
 20
36.1378191006
 11
13.8510686088
 21
36.1348037843
  0
LINE
  5
25D
100
AcDbEntity
  8
0
100
AcDbLine
 62
7
  6
CONTINUOUS
 10
14.1173227715
 20
36.0435751687
 11
13.9051915753
 21
36.1660499008
  0
LINE
  5
25E
100
AcDbEntity
  8
0
100
AcDbLine
 62
7
  6
CONTINUOUS
 10
18.3593176111
 20
37.2195576686
 11
18.3593176111
 21
38.1178570875
  0
LINE
  5
25F
100
AcDbEntity
  8
0
100
AcDbLine
 62
7
  6
CONTINUOUS
 10
19.2085416116
 20
32.5734127008
 11
19.2085441371
 21
32.7775391518
  0
LINE
  5
260
100
AcDbEntity
  8
0
100
AcDbLine
 62
7
  6
CONTINUOUS
 10
11.1529592634
 20
43.0631755336
 11
11.154807632
 21
43.0642434707
  0
LWPOLYLINE
  5
261
100
AcDbEntity
  8
0
100
AcDbPolyline
 62
7
  6
CONTINUOUS
 90
3
 70
0
 10
11.7623277497
 20
43.5460629506
 10
10.156541056
 20
42.6189350635
 10
10.0692242035
 20
42.4714658966
  0
LINE
  5
262
100
AcDbEntity
  8
0
100
AcDbLine
 62
7
  6
CONTINUOUS
 10
40.9840739896
 20
60.2081833657
 11
24.5591763413
 21
50.7253208921
  0
LINE
  5
263
100
AcDbEntity
  8
0
100
AcDbLine
 62
7
  6
CONTINUOUS
 10
24.7056217709
 20
50.6407724966
 11
41.2340728704
 21
60.1834212262
  0
LINE
  5
264
100
AcDbEntity
  8
0
100
AcDbLine
 62
7
  6
CONTINUOUS
 10
10.7066291616
 20
41.7195364547
 11
11.4137388867
 21
42.1277981173
  0
LWPOLYLINE
  5
265
100
AcDbEntity
  8
0
100
AcDbPolyline
 62
7
  6
CONTINUOUS
 90
7
 70
0
 10
11.1529592634
 20
43.0631755336
 10
11.3958531939
 20
43.1901203969
 10
13.3334390333
 20
43.4983920853
 10
15.5681556044
 20
42.8256674058
 10
16.7277695014
 20
42.1409186404
 10
18.9762920933
 20
40.1591975784
 10
20.9228309007
 20
37.5449751477
  0
LWPOLYLINE
  5
266
100
AcDbEntity
  8
0
100
AcDbPolyline
 62
7
  6
CONTINUOUS
 90
3
 70
0
 10
18.0297133274
 20
48.3474640596
 10
18.0499668968
 20
48.3557349843
 10
19.6839825234
 20
48.3744163644
  0
LINE
  5
267
100
AcDbEntity
  8
0
100
AcDbLine
 62
7
  6
CONTINUOUS
 10
12.2962917976
 20
47.5147305513
 11
12.5624403837
 21
47.5979039736
  0
LINE
  5
268
100
AcDbEntity
  8
0
100
AcDbLine
 62
7
  6
CONTINUOUS
 10
21.5625171295
 20
31.6479334065
 11
21.9107827565
 21
31.5546148237
  0
LINE
  5
269
100
AcDbEntity
  8
0
100
AcDbLine
 62
7
  6
CONTINUOUS
 10
21.5625171295
 20
32.5280394388
 11
14.4207089055
 21
36.6512710595
  0
LINE
  5
26A
100
AcDbEntity
  8
0
100
AcDbLine
 62
7
  6
CONTINUOUS
 10
14.5049295719
 20
36.9655903073
 11
14.4231122325
 21
37.012827851
  0
LINE
  5
26B
100
AcDbEntity
  8
0
100
AcDbLine
 62
7
  6
CONTINUOUS
 10
21.9107827565
 20
33.1769797376
 11
14.6179524446
 21
37.3874020289
  0
LINE
  5
26C
100
AcDbEntity
  8
0
100
AcDbLine
 62
7
  6
CONTINUOUS
 10
21.9107827565
 20
33.4546311211
 11
21.7534442918
 21
33.5454684711
  0
LINE
  5
26D
100
AcDbEntity
  8
0
100
AcDbLine
 62
7
  6
CONTINUOUS
 10
12.4195959199
 20
38.9342464307
 11
12.1013965436
 21
39.1179547702
  0
LINE
  5
26E
100
AcDbEntity
  8
0
100
AcDbLine
 62
7
  6
CONTINUOUS
 10
21.3998894292
 20
34.3211405403
 11
21.2584674842
 21
34.4027886912
  0
LINE
  5
26F
100
AcDbEntity
  8
0
100
AcDbLine
 62
7
  6
CONTINUOUS
 10
12.9145727275
 20
39.2200295945
 11
12.7731507825
 21
39.3016777454
  0
LINE
  5
270
100
AcDbEntity
  8
0
100
AcDbLine
 62
7
  6
CONTINUOUS
 10
21.2584670384
 20
29.3812989432
 11
21.2584670384
 21
29.8303752726
  0
LINE
  5
271
100
AcDbEntity
  8
0
100
AcDbLine
 62
7
  6
CONTINUOUS
 10
21.2584674842
 20
34.4027886912
 11
21.2584674842
 21
34.8518650206
  0
LINE
  5
272
100
AcDbEntity
  8
0
100
AcDbLine
 62
7
  6
CONTINUOUS
 10
21.5625171295
 20
32.5280394388
 11
21.5625171295
 21
31.6479334065
  0
LINE
  5
273
100
AcDbEntity
  8
0
100
AcDbLine
 62
7
  6
CONTINUOUS
 10
21.753443846
 20
29.952857953
 11
21.753443846
 21
30.1161584364
  0
LINE
  5
274
100
AcDbEntity
  8
0
100
AcDbLine
 62
7
  6
CONTINUOUS
 10
21.7534442918
 20
33.5454684711
 11
21.7534442918
 21
33.7087689545
  0
LINE
  5
275
100
AcDbEntity
  8
0
100
AcDbLine
 62
7
  6
CONTINUOUS
 10
14.4527045668
 20
35.4924160914
 11
14.3648439923
 21
35.3699440773
  0
LINE
  5
276
100
AcDbEntity
  8
0
100
AcDbLine
 62
7
  6
CONTINUOUS
 10
15.8137226006
 20
38.6892243849
 11
16.3069256399
 21
39.302779338
  0
LINE
  5
277
100
AcDbEntity
  8
0
100
AcDbLine
 62
7
  6
CONTINUOUS
 10
12.9145722817
 20
34.1985398465
 11
13.2611891937
 21
34.6297385746
  0
LINE
  5
278
100
AcDbEntity
  8
0
100
AcDbLine
 62
7
  6
CONTINUOUS
 10
13.2541081217
 20
39.4160493991
 11
13.268957106
 21
39.4074762829
  0
LINE
  5
279
100
AcDbEntity
  8
0
100
AcDbLine
 62
7
  6
CONTINUOUS
 10
21.2584674842
 20
34.8518650206
 11
12.9145727275
 21
39.6691059239
  0
LINE
  5
27A
100
AcDbEntity
  8
0
100
AcDbLine
 62
7
  6
CONTINUOUS
 10
15.8137226006
 20
38.6892243849
 11
18.3593176111
 21
37.2195576686
  0
LINE
  5
27B
100
AcDbEntity
  8
0
100
AcDbLine
 62
7
  6
CONTINUOUS
 10
21.2036730314
 20
36.4757048704
 11
11.4137388867
 21
42.1277981167
  0
LWPOLYLINE
  5
27C
100
AcDbEntity
  8
0
100
AcDbPolyline
 62
7
  6
CONTINUOUS
 90
3
 70
0
 10
20.2950792259
 20
38.6197880361
 10
18.2716699493
 20
40.978452505
 10
16.0287034878
 20
42.6836102307
  0
LINE
  5
27D
100
AcDbEntity
  8
0
100
AcDbLine
 62
7
  6
CONTINUOUS
 10
21.2036730314
 20
36.4757048709
 11
21.9107827565
 21
35.2509616993
  0
LINE
  5
27E
100
AcDbEntity
  8
0
100
AcDbLine
 62
7
  6
CONTINUOUS
 10
21.9008659197
 20
35.838499336
 11
20.2950792259
 21
38.6197880361
  0
LINE
  5
27F
100
AcDbEntity
  8
0
100
AcDbLine
 62
7
  6
CONTINUOUS
 10
20.9228309007
 20
37.5449751477
 11
22.0249357101
 21
35.2583250277
  0
LINE
  5
280
100
AcDbEntity
  8
0
100
AcDbLine
 62
7
  6
CONTINUOUS
 10
22.9318444409
 20
32.906838321
 11
21.9008659197
 21
35.838499336
  0
LINE
  5
281
100
AcDbEntity
  8
0
100
AcDbLine
 62
7
  6
CONTINUOUS
 10
23.1722090043
 20
30.9126837306
 11
23.1725302042
 21
30.9081003645
  0
LINE
  5
282
100
AcDbEntity
  8
0
100
AcDbLine
 62
7
  6
CONTINUOUS
 10
23.1484316418
 20
30.9246045165
 11
23.1487440547
 21
30.9200407203
  0
LINE
  5
283
100
AcDbEntity
  8
0
100
AcDbLine
 62
7
  6
CONTINUOUS
 10
21.9107827565
 20
27.2084128906
 11
21.9107827565
 21
35.2509616993
  0
LINE
  5
284
100
AcDbEntity
  8
0
100
AcDbLine
 62
7
  6
CONTINUOUS
 10
12.4195959199
 20
39.0975469141
 11
12.7731538372
 21
39.3016724544
  0
LINE
  5
285
100
AcDbEntity
  8
0
100
AcDbLine
 62
7
  6
CONTINUOUS
 10
45.158531845
 20
57.9176850386
 11
42.0826301531
 21
56.1418229693
  0
LINE
  5
286
100
AcDbEntity
  8
0
100
AcDbLine
 62
7
  6
CONTINUOUS
 10
12.4195959199
 20
38.9342464307
 11
13.3034897969
 21
39.4445696289
  0
LINE
  5
287
100
AcDbEntity
  8
0
100
AcDbLine
 62
7
  6
CONTINUOUS
 10
29.3656820662
 20
47.9503462962
 11
27.3216771751
 21
46.7702465664
  0
LWPOLYLINE
  5
288
100
AcDbEntity
  8
0
100
AcDbPolyline
 62
7
  6
CONTINUOUS
 90
3
 70
0
 10
25.741159615
 20
33.4684192758
 10
24.2709797746
 20
37.2575772564
 10
22.1155436067
 20
40.8113438696
  0
LINE
  5
289
100
AcDbEntity
  8
0
100
AcDbLine
 62
7
  6
CONTINUOUS
 10
23.2736272361
 20
30.217742132
 11
22.9318444409
 21
32.906838321
  0
LINE
  5
28A
100
AcDbEntity
  8
0
100
AcDbLine
 62
7
  6
CONTINUOUS
 10
14.4230545169
 20
37.0134406656
 11
14.5388155323
 21
37.0920558176
  0
LINE
  5
28B
100
AcDbEntity
  8
0
100
AcDbLine
 62
7
  6
CONTINUOUS
 10
12.8722778187
 20
36.7501747365
 11
12.9852784009
 21
36.8154152636
  0
LINE
  5
28C
100
AcDbEntity
  8
0
100
AcDbLine
 62
7
  6
CONTINUOUS
 10
12.985277955
 20
36.8113328689
 11
12.8722773729
 21
36.7460923418
  0
LINE
  5
28D
100
AcDbEntity
  8
0
100
AcDbLine
 62
7
  6
CONTINUOUS
 10
14.6795239291
 20
37.5200704526
 11
15.658201595
 21
38.0851068936
  0
LINE
  5
28E
100
AcDbEntity
  8
0
100
AcDbLine
 62
7
  6
CONTINUOUS
 10
44.6282251636
 20
54.672156253
 11
47.7041268555
 21
56.4480183223
  0
LINE
  5
28F
100
AcDbEntity
  8
0
100
AcDbLine
 62
7
  6
CONTINUOUS
 10
14.4085460508
 20
37.0615015263
 11
14.5529708386
 21
37.1448847187
  0
LINE
  5
290
100
AcDbEntity
  8
0
100
AcDbLine
 62
7
  6
CONTINUOUS
 10
12.985277955
 20
35.91318021
 11
12.8722773729
 21
35.8479396829
  0
LWPOLYLINE
  5
291
100
AcDbEntity
  8
0
100
AcDbPolyline
 62
7
  6
CONTINUOUS
 90
3
 70
0
 10
22.1155436067
 20
40.8113438696
 10
19.4663710739
 20
43.8139513563
 10
16.5588527813
 20
45.9986048647
  0
LWPOLYLINE
  5
292
100
AcDbEntity
  8
0
100
AcDbPolyline
 62
7
  6
CONTINUOUS
 90
7
 70
0
 10
24.7995641387
 20
37.5603588292
 10
26.2682923204
 20
33.774929432
 10
26.9227907084
 20
30.0903264631
 10
26.9234938155
 20
28.3885046301
 10
26.2716230865
 20
25.4570858255
 10
24.805622417
 20
23.3649595806
 10
24.0614483892
 20
22.8320410692
  0
LINE
  5
293
100
AcDbEntity
  8
0
100
AcDbLine
 62
7
  6
CONTINUOUS
 10
15.7406551015
 20
34.8205623896
 11
15.8896589504
 21
34.9230855094
  0
LINE
  5
294
100
AcDbEntity
  8
0
100
AcDbLine
 62
7
  6
CONTINUOUS
 10
16.1477570901
 20
34.7740758501
 11
15.9987498766
 21
34.6715504152
  0
LINE
  5
295
100
AcDbEntity
  8
0
100
AcDbLine
 62
7
  6
CONTINUOUS
 10
13.3463683159
 20
36.0400057518
 11
12.4195954741
 21
35.504936396
  0
LINE
  5
296
100
AcDbEntity
  8
0
100
AcDbLine
 62
7
  6
CONTINUOUS
 10
13.5509616136
 20
35.9948265588
 11
12.4195954741
 21
35.3416359126
  0
LINE
  5
297
100
AcDbEntity
  8
0
100
AcDbLine
 62
7
  6
CONTINUOUS
 10
13.8510687025
 20
36.146865104
 11
13.8335782123
 21
36.1367670961
  0
LINE
  5
298
100
AcDbEntity
  8
0
100
AcDbLine
 62
7
  6
CONTINUOUS
 10
13.8510686088
 20
36.1348037843
 11
13.9051927761
 21
36.1660519806
  0
LINE
  5
299
100
AcDbEntity
  8
0
100
AcDbLine
 62
7
  6
CONTINUOUS
 10
13.741313713
 20
35.900598018
 11
13.5943456151
 21
35.8157464536
  0
LINE
  5
29A
100
AcDbEntity
  8
0
100
AcDbLine
 62
7
  6
CONTINUOUS
 10
14.1173224546
 20
36.002750103
 11
14.4207089055
 21
36.1779102094
  0
LINE
  5
29B
100
AcDbEntity
  8
0
100
AcDbLine
 62
7
  6
CONTINUOUS
 10
13.7894361254
 20
35.7117421369
 11
13.9255312246
 21
35.7903162063
  0
LINE
  5
29C
100
AcDbEntity
  8
0
100
AcDbLine
 62
7
  6
CONTINUOUS
 10
13.8430738954
 20
35.5719439585
 11
13.9956696959
 21
35.6600446631
  0
LINE
  5
29D
100
AcDbEntity
  8
0
100
AcDbLine
 62
7
  6
CONTINUOUS
 10
11.6258641499
 20
34.207705046
 11
10.7066291616
 21
33.6769876459
  0
LINE
  5
29E
100
AcDbEntity
  8
0
100
AcDbLine
 62
7
  6
CONTINUOUS
 10
14.3294867396
 20
35.6353056701
 11
14.4927567794
 21
35.7295691088
  0
LINE
  5
29F
100
AcDbEntity
  8
0
100
AcDbLine
 62
7
  6
CONTINUOUS
 10
12.7731503367
 20
34.7292643268
 11
13.9045164762
 21
35.382454973
  0
LINE
  5
2A0
100
AcDbEntity
  8
0
100
AcDbLine
 62
7
  6
CONTINUOUS
 10
12.9145722817
 20
34.6476161759
 11
14.0459384212
 21
35.3008068221
  0
LINE
  5
2A1
100
AcDbEntity
  8
0
100
AcDbLine
 62
7
  6
CONTINUOUS
 10
14.0459384212
 20
35.259976763
 11
14.101039743
 21
35.2917893361
  0
LINE
  5
2A2
100
AcDbEntity
  8
0
100
AcDbLine
 62
7
  6
CONTINUOUS
 10
14.3648439923
 20
35.3699440773
 11
14.2941336085
 21
35.3291196619
  0
LINE
  5
2A3
100
AcDbEntity
  8
0
100
AcDbLine
 62
7
  6
CONTINUOUS
 10
13.437965153
 20
34.7864949039
 11
13.5509657352
 21
34.851735431
  0
LINE
  5
2A4
100
AcDbEntity
  8
0
100
AcDbLine
 62
7
  6
CONTINUOUS
 10
31.7127343709
 20
45.0305994652
 11
29.6247695752
 21
43.8251196241
  0
LINE
  5
2A5
100
AcDbEntity
  8
0
100
AcDbLine
 62
7
  6
CONTINUOUS
 10
12.6481340436
 20
35.7732255896
 11
12.1013960977
 21
35.6886447356
  0
LINE
  5
2A6
100
AcDbEntity
  8
0
100
AcDbLine
 62
7
  6
CONTINUOUS
 10
12.1013961172
 20
36.5867973975
 11
12.6481340436
 21
36.6713782484
  0
LINE
  5
2A7
100
AcDbEntity
  8
0
100
AcDbLine
 62
7
  6
CONTINUOUS
 10
12.6481344895
 20
36.6754606432
 11
12.1013965436
 21
36.5908797892
  0
LINE
  5
2A8
100
AcDbEntity
  8
0
100
AcDbLine
 62
7
  6
CONTINUOUS
 10
13.9051927761
 20
36.1660519806
 11
14.055188019
 21
36.1809041084
  0
LWPOLYLINE
  5
2A9
100
AcDbEntity
  8
0
100
AcDbPolyline
 62
7
  6
CONTINUOUS
 90
4
 70
0
 10
17.08652018
 20
46.3032519608
 10
19.996591793
 20
44.1162134362
 10
22.6426403215
 20
41.1167662125
 10
24.7995641387
 20
37.5603588292
  0
LINE
  5
2AA
100
AcDbEntity
  8
0
100
AcDbLine
 62
7
  6
CONTINUOUS
 10
11.4137388867
 20
32.4522444743
 11
12.1915531077
 21
32.9013130435
  0
LINE
  5
2AB
100
AcDbEntity
  8
0
100
AcDbLine
 62
7
  6
CONTINUOUS
 10
51.6285858301
 20
54.1822821347
 11
32.4566017226
 21
43.1133980217
  0
LWPOLYLINE
  5
2AC
100
AcDbEntity
  8
0
100
AcDbPolyline
 62
7
  6
CONTINUOUS
 90
6
 70
0
 10
15.2433334514
 20
47.2801043842
 10
18.1193186616
 20
45.8835555629
 10
19.551331206
 20
44.8154465969
 10
22.2422644044
 20
42.0596205155
 10
24.5063724343
 20
38.689398579
 10
25.9555624699
 20
35.4264770396
  0
LINE
  5
2AD
100
AcDbEntity
  8
0
100
AcDbLine
 62
7
  6
CONTINUOUS
 10
30.0903630055
 20
38.3831009376
 11
30.0726536269
 21
38.4192384016
  0
LWPOLYLINE
  5
2AE
100
AcDbEntity
  8
0
100
AcDbPolyline
 62
7
  6
CONTINUOUS
 90
5
 70
0
 10
30.0032480177
 20
38.5608663356
 10
28.3426306256
 20
41.9494946202
 10
25.8276433606
 20
45.4042674706
 10
22.9103058477
 20
48.1473015189
 10
19.8432704925
 20
49.934660817
  0
LINE
  5
2AF
100
AcDbEntity
  8
0
100
AcDbLine
 62
7
  6
CONTINUOUS
 10
30.117712424
 20
38.3862879238
 11
30.1030220331
 21
38.4229099191
  0
LWPOLYLINE
  5
2B0
100
AcDbEntity
  8
0
100
AcDbPolyline
 62
7
  6
CONTINUOUS
 90
3
 70
0
 10
31.3356943548
 20
34.1659737352
 10
30.2338224562
 20
38.0903599638
 10
30.1765043305
 20
38.2073223796
  0
LWPOLYLINE
  5
2B1
100
AcDbEntity
  8
0
100
AcDbPolyline
 62
7
  6
CONTINUOUS
 90
3
 70
0
 10
21.9008659197
 20
25.9856972074
 10
22.9318444409
 20
27.7269137004
 10
23.2870954285
 20
30.1117763973
  0
LINE
  5
2B2
100
AcDbEntity
  8
0
100
AcDbLine
 62
7
  6
CONTINUOUS
 10
19.9833134519
 20
32.3710478769
 11
20.1323726084
 21
32.4736090515
  0
LINE
  5
2B3
100
AcDbEntity
  8
0
100
AcDbLine
 62
7
  6
CONTINUOUS
 10
20.3904707481
 20
32.3245993921
 11
20.2414082271
 21
32.2220359026
  0
LINE
  5
2B4
100
AcDbEntity
  8
0
100
AcDbLine
 62
7
  6
CONTINUOUS
 10
32.715421246
 20
42.4463312888
 11
51.9821406926
 21
53.5699105489
  0
LINE
  5
2B5
100
AcDbEntity
  8
0
100
AcDbLine
 62
7
  6
CONTINUOUS
 10
17.3700609126
 20
33.5532216402
 11
17.6175472556
 21
33.6961070941
  0
LINE
  5
2B6
100
AcDbEntity
  8
0
100
AcDbLine
 62
7
  6
CONTINUOUS
 10
17.617543215
 20
33.36950846
 11
17.370056872
 21
33.2266230062
  0
LINE
  5
2B7
100
AcDbEntity
  8
0
100
AcDbLine
 62
7
  6
CONTINUOUS
 10
33.1547707464
 20
41.3139768517
 11
35.6218116786
 21
42.7383150958
  0
LINE
  5
2B8
100
AcDbEntity
  8
0
100
AcDbLine
 62
7
  6
CONTINUOUS
 10
17.2663981551
 20
34.1282427408
 11
17.0888006244
 21
34.0422055786
  0
LINE
  5
2B9
100
AcDbEntity
  8
0
100
AcDbLine
 62
7
  6
CONTINUOUS
 10
36.3017271493
 20
42.8434986331
 11
35.6218116786
 21
42.7383150958
  0
LINE
  5
2BA
100
AcDbEntity
  8
0
100
AcDbLine
 62
7
  6
CONTINUOUS
 10
19.1378352253
 20
32.5325905933
 11
19.3853215683
 21
32.6754760471
  0
LINE
  5
2BB
100
AcDbEntity
  8
0
100
AcDbLine
 62
7
  6
CONTINUOUS
 10
36.9561921747
 20
42.4656516226
 11
33.4854098309
 21
40.4618064634
  0
LINE
  5
2BC
100
AcDbEntity
  8
0
100
AcDbLine
 62
7
  6
CONTINUOUS
 10
41.4250642073
 20
44.6170575211
 11
38.6178781693
 21
42.9963375808
  0
LINE
  5
2BD
100
AcDbEntity
  8
0
100
AcDbLine
 62
7
  6
CONTINUOUS
 10
21.9107827565
 20
32.7291120357
 11
21.5625171295
 21
32.5280394388
  0
LINE
  5
2BE
100
AcDbEntity
  8
0
100
AcDbLine
 62
7
  6
CONTINUOUS
 10
26.1842622112
 20
34.833157528
 11
29.5050139389
 21
36.7503829876
  0
LINE
  5
2BF
100
AcDbEntity
  8
0
100
AcDbLine
 62
7
  6
CONTINUOUS
 10
11.9919529686
 20
43.5485920103
 11
11.7623277497
 21
43.5460629506
  0
LINE
  5
2C0
100
AcDbEntity
  8
0
100
AcDbLine
 62
7
  6
CONTINUOUS
 10
31.7127343709
 20
45.0305994652
 11
35.0470327164
 21
36.4369683744
  0
LINE
  5
2C1
100
AcDbEntity
  8
0
100
AcDbLine
 62
7
  6
CONTINUOUS
 10
35.0470327164
 20
36.4369683744
 11
35.0470327164
 21
33.307555962
  0
LWPOLYLINE
  5
2C2
100
AcDbEntity
  8
0
100
AcDbPolyline
 62
7
  6
CONTINUOUS
 90
3
 70
0
 10
30.0453049207
 20
30.4353615485
 10
29.2048452704
 20
29.020867561
 10
29.193086927
 20
29.0117687654
  0
LWPOLYLINE
  5
2C3
100
AcDbEntity
  8
0
100
AcDbPolyline
 62
7
  6
CONTINUOUS
 90
5
 70
0
 10
24.3707087224
 20
23.1961005604
 10
25.741159615
 20
25.1457982335
 10
26.3954511973
 20
28.0781705157
 10
26.3954511973
 20
29.7805532428
 10
25.741159615
 20
33.4684192758
  0
LINE
  5
2C4
100
AcDbEntity
  8
0
100
AcDbLine
 62
7
  6
CONTINUOUS
 10
40.9004964269
 20
42.7220089146
 11
40.866463703
 21
42.7023602314
  0
LINE
  5
2C5
100
AcDbEntity
  8
0
100
AcDbLine
 62
7
  6
CONTINUOUS
 10
40.8945442567
 20
42.0661681597
 11
40.866463703
 21
42.0499559412
  0
LINE
  5
2C6
100
AcDbEntity
  8
0
100
AcDbLine
 62
7
  6
CONTINUOUS
 10
40.866463703
 20
41.7225573308
 11
40.9027217196
 21
41.7434907797
  0
LINE
  5
2C7
100
AcDbEntity
  8
0
100
AcDbLine
 62
7
  6
CONTINUOUS
 10
40.9051370825
 20
41.2141587105
 11
38.6178781693
 21
39.8936171593
  0
LINE
  5
2C8
100
AcDbEntity
  8
0
100
AcDbLine
 62
7
  6
CONTINUOUS
 10
21.2584670384
 20
29.8303752726
 11
21.9107827565
 21
30.2069975565
  0
LINE
  5
2C9
100
AcDbEntity
  8
0
100
AcDbLine
 62
7
  6
CONTINUOUS
 10
46.3252392845
 20
44.1842308771
 11
41.4250642073
 21
41.3551303647
  0
LINE
  5
2CA
100
AcDbEntity
  8
0
100
AcDbLine
 62
7
  6
CONTINUOUS
 10
36.9561921747
 20
38.7709587759
 11
38.6178781569
 21
39.7303279194
  0
LINE
  5
2CB
100
AcDbEntity
  8
0
100
AcDbLine
 62
7
  6
CONTINUOUS
 10
49.8608997562
 20
46.2214508613
 11
51.9821405644
 21
47.4461425293
  0
LINE
  5
2CC
100
AcDbEntity
  8
0
100
AcDbLine
 62
7
  6
CONTINUOUS
 10
21.7534470457
 20
29.9528527456
 11
21.3998889834
 21
29.7487271217
  0
LINE
  5
2CD
100
AcDbEntity
  8
0
100
AcDbLine
 62
7
  6
CONTINUOUS
 10
41.085640362
 20
41.0734252775
 11
41.0556614164
 21
41.0561170285
  0
LINE
  5
2CE
100
AcDbEntity
  8
0
100
AcDbLine
 62
7
  6
CONTINUOUS
 10
38.6178781693
 20
39.240426462
 11
41.425080403
 21
40.8611557529
  0
LINE
  5
2CF
100
AcDbEntity
  8
0
100
AcDbLine
 62
7
  6
CONTINUOUS
 10
21.5091224187
 20
31.6787601598
 11
21.3314589749
 21
31.592691066
  0
LINE
  5
2D0
100
AcDbEntity
  8
0
100
AcDbLine
 62
7
  6
CONTINUOUS
 10
12.5624403837
 20
47.5979039736
 11
15.2433334514
 21
47.2801043842
  0
LINE
  5
2D1
100
AcDbEntity
  8
0
100
AcDbLine
 62
7
  6
CONTINUOUS
 10
36.3017271493
 20
42.8434986331
 11
36.9561921747
 21
42.4656516226
  0
LINE
  5
2D2
100
AcDbEntity
  8
0
100
AcDbLine
 62
7
  6
CONTINUOUS
 10
22.6970853753
 20
51.8003752916
 11
29.3656820662
 21
47.9503462962
  0
LINE
  5
2D3
100
AcDbEntity
  8
0
100
AcDbLine
 62
7
  6
CONTINUOUS
 10
29.3656820662
 20
47.9503462962
 11
31.7127343709
 21
45.0305994652
  0
LINE
  5
2D4
100
AcDbEntity
  8
0
100
AcDbLine
 62
7
  6
CONTINUOUS
 10
36.9561921747
 20
35.2804303518
 11
36.9561921747
 21
42.4656516226
  0
LINE
  5
2D5
100
AcDbEntity
  8
0
100
AcDbLine
 62
7
  6
CONTINUOUS
 10
35.0470327164
 20
36.4369683744
 11
33.0930541007
 21
35.3088450287
  0
LINE
  5
2D6
100
AcDbEntity
  8
0
100
AcDbLine
 62
7
  6
CONTINUOUS
 10
38.6178781693
 20
42.9963375808
 11
38.6178781693
 21
39.240426462
  0
LINE
  5
2D7
100
AcDbEntity
  8
0
100
AcDbLine
 62
7
  6
CONTINUOUS
 10
35.0470327164
 20
33.307555962
 11
33.2428279821
 21
30.7407702484
  0
LINE
  5
2D8
100
AcDbEntity
  8
0
100
AcDbLine
 62
7
  6
CONTINUOUS
 10
29.0735437321
 20
29.1742371544
 11
29.4125006153
 21
29.3703516043
  0
LINE
  5
2D9
100
AcDbEntity
  8
0
100
AcDbLine
 62
7
  6
CONTINUOUS
 10
21.9107827565
 20
27.2084128906
 11
21.2036730314
 21
26.8001512279
  0
LINE
  5
2DA
100
AcDbEntity
  8
0
100
AcDbLine
 62
7
  6
CONTINUOUS
 10
36.9561921747
 20
35.2804303518
 11
35.0470327164
 21
34.1781832042
  0
LINE
  5
2DB
100
AcDbEntity
  8
0
100
AcDbLine
 62
7
  6
CONTINUOUS
 10
51.9821407228
 20
43.7310564399
 11
35.0470327164
 21
33.953625637
  0
LINE
  5
2DC
100
AcDbEntity
  8
0
100
AcDbLine
 62
7
  6
CONTINUOUS
 10
51.8785845828
 20
43.5021635607
 11
35.0470327164
 21
33.7845203538
  0
LINE
  5
2DD
100
AcDbEntity
  8
0
100
AcDbLine
 62
7
  6
CONTINUOUS
 10
30.1560914967
 20
30.9306733337
 11
27.0205258307
 21
29.1203644585
  0
LINE
  5
2DE
100
AcDbEntity
  8
0
100
AcDbLine
 62
7
  6
CONTINUOUS
 10
20.2950792259
 20
25.0585693203
 11
21.9008659197
 21
25.9856972074
  0
LINE
  5
2DF
100
AcDbEntity
  8
0
100
AcDbLine
 62
7
  6
CONTINUOUS
 10
33.356192224
 20
32.3313545757
 11
35.0470327164
 21
33.307555962
  0
LINE
  5
2E0
100
AcDbEntity
  8
0
100
AcDbLine
 62
7
  6
CONTINUOUS
 10
29.0918508595
 20
29.1425957999
 11
27.0307522748
 21
27.9526270803
  0
LINE
  5
2E1
100
AcDbEntity
  8
0
100
AcDbLine
 62
7
  6
CONTINUOUS
 10
41.0556614164
 20
41.0561170285
 11
40.9192349819
 21
41.192540201
  0
LINE
  5
2E2
100
AcDbEntity
  8
0
100
AcDbLine
 62
7
  6
CONTINUOUS
 10
41.2363044374
 20
40.8755038727
 11
41.1017175634
 21
41.0100875286
  0
LINE
  5
2E3
100
AcDbEntity
  8
0
100
AcDbLine
 62
7
  6
CONTINUOUS
 10
41.1017175634
 20
41.4999889789
 11
41.2363044374
 21
41.365405323
  0
LINE
  5
2E4
100
AcDbEntity
  8
0
100
AcDbLine
 62
7
  6
CONTINUOUS
 10
41.2362882417
 20
41.3694784845
 11
41.0556614164
 21
41.5501009909
  0
LINE
  5
2E5
100
AcDbEntity
  8
0
100
AcDbLine
 62
7
  6
CONTINUOUS
 10
40.88789062
 20
42.7147309927
 11
40.8976544037
 21
41.7630067738
  0
LINE
  5
2E6
100
AcDbEntity
  8
0
100
AcDbLine
 62
7
  6
CONTINUOUS
 10
40.9003689102
 20
43.0315093938
 11
40.9192349819
 21
41.192540201
  0
LINE
  5
2E7
100
AcDbEntity
  8
0
100
AcDbLine
 62
7
  6
CONTINUOUS
 10
40.866463703
 20
42.7023602314
 11
40.866463703
 21
41.7225573308
  0
LINE
  5
2E8
100
AcDbEntity
  8
0
100
AcDbLine
 62
7
  6
CONTINUOUS
 10
40.9003689102
 20
43.0315093938
 11
40.9003689102
 21
44.3141263583
  0
LINE
  5
2E9
100
AcDbEntity
  8
0
100
AcDbLine
 62
7
  6
CONTINUOUS
 10
41.0556614164
 20
41.0561170285
 11
41.0556614164
 21
41.5501009909
  0
LINE
  5
2EA
100
AcDbEntity
  8
0
100
AcDbLine
 62
7
  6
CONTINUOUS
 10
41.085640362
 20
41.520122762
 11
41.085640362
 21
41.0447282993
  0
LINE
  5
2EB
100
AcDbEntity
  8
0
100
AcDbLine
 62
7
  6
CONTINUOUS
 10
41.1017175634
 20
41.0100875286
 11
41.1017175634
 21
41.4999889789
  0
LINE
  5
2EC
100
AcDbEntity
  8
0
100
AcDbLine
 62
7
  6
CONTINUOUS
 10
41.2362882417
 20
44.5080683171
 11
41.2362882417
 21
41.3694784845
  0
LINE
  5
2ED
100
AcDbEntity
  8
0
100
AcDbLine
 62
7
  6
CONTINUOUS
 10
41.2363044374
 20
41.365405323
 11
41.2363044374
 21
40.8755038727
  0
LINE
  5
2EE
100
AcDbEntity
  8
0
100
AcDbLine
 62
7
  6
CONTINUOUS
 10
41.425080403
 20
40.8611557529
 11
41.4250642073
 21
44.6170575211
  0
LWPOLYLINE
  5
2EF
100
AcDbEntity
  8
0
100
AcDbPolyline
 62
7
  6
CONTINUOUS
 90
5
 70
0
 10
28.579003387
 20
24.8053069496
 10
30.1881709828
 20
26.2875970899
 10
31.3153792713
 20
28.9135842569
 10
31.5569435912
 20
32.2885522809
 10
31.3356943548
 20
34.1659737352
  0
LINE
  5
2F0
100
AcDbEntity
  8
0
100
AcDbLine
 62
7
  6
CONTINUOUS
 10
40.9027217196
 20
41.7434907797
 11
40.8976738914
 21
41.7630068743
  0
LINE
  5
2F1
100
AcDbEntity
  8
0
100
AcDbLine
 62
7
  6
CONTINUOUS
 10
24.0614889537
 20
22.8319708307
 11
23.5338215551
 21
22.5273237345
  0
LINE
  5
2F2
100
AcDbEntity
  8
0
100
AcDbLine
 62
7
  6
CONTINUOUS
 10
30.4529359145
 20
25.8869680788
 11
28.5791107459
 21
24.805121071
  0
LINE
  5
2F3
100
AcDbEntity
  8
0
100
AcDbLine
 62
7
  6
CONTINUOUS
 10
45.5120837636
 20
55.8354788475
 11
45.5120837636
 21
57.713555907
  0
LINE
  5
2F4
100
AcDbEntity
  8
0
100
AcDbLine
 62
7
  6
CONTINUOUS
 10
42.0826301531
 20
56.1418229693
 11
45.5120837636
 21
55.8354788475
  0
LINE
  5
2F5
100
AcDbEntity
  8
0
100
AcDbLine
 62
7
  6
CONTINUOUS
 10
42.0826301531
 20
56.1418229693
 11
44.6282251636
 21
54.672156253
  0
LINE
  5
2F6
100
AcDbEntity
  8
0
100
AcDbLine
 62
7
  6
CONTINUOUS
 10
46.0776321061
 20
55.5089667463
 11
45.5120837636
 21
55.8354788475
  0
LINE
  5
2F7
100
AcDbEntity
  8
0
100
AcDbLine
 62
7
  6
CONTINUOUS
 10
51.9821406926
 20
53.5699105489
 11
51.9821407228
 21
43.7310564399
  0
LINE
  5
2F8
100
AcDbEntity
  8
0
100
AcDbLine
 62
7
  6
CONTINUOUS
 10
52.128585698
 20
43.9351769064
 11
52.128585698
 21
47.6502629044
  0
LINE
  5
2F9
100
AcDbEntity
  8
0
100
AcDbLine
 62
7
  6
CONTINUOUS
 10
52.1285858301
 20
47.6543453098
 11
52.1285858301
 21
53.7740309262
  0
LINE
  5
2FA
100
AcDbEntity
  8
0
100
AcDbLine
 62
7
  6
CONTINUOUS
 10
41.2340728704
 20
60.1834212262
 11
45.158531845
 21
57.9176850386
  0
LINE
  5
2FB
100
AcDbEntity
  8
0
100
AcDbLine
 62
7
  6
CONTINUOUS
 10
47.7041268555
 20
56.4480183223
 11
51.6285858301
 21
54.1822821347
  0
LINE
  5
2FC
100
AcDbEntity
  8
0
100
AcDbLine
 62
7
  6
CONTINUOUS
 10
51.8785815883
 20
54.207046077
 11
47.9541226137
 21
56.4727822646
  0
LINE
  5
2FD
100
AcDbEntity
  8
0
100
AcDbLine
 62
7
  6
CONTINUOUS
 10
45.4085276032
 20
57.9424489809
 11
41.4840686286
 21
60.2081851685
  0
ARC
  5
2FE
100
AcDbEntity
  8
0
100
AcDbCircle
 62
7
  6
CONTINUOUS
 10
8.0660621435
 20
29.5616908173
 40
23.751816881
100
AcDbArc
 50
21.9054120046
 51
22.2794842329
  0
ARC
  5
2FF
100
AcDbEntity
  8
0
100
AcDbCircle
 62
7
  6
CONTINUOUS
 10
8.2008055359
 20
29.6158118691
 40
23.6066104676
100
AcDbArc
 50
21.5834012566
 51
21.8097774539
  0
ARC
  5
300
100
AcDbEntity
  8
0
100
AcDbCircle
 62
7
  6
CONTINUOUS
 10
8.2836373493
 20
29.6485751278
 40
23.5175344303
100
AcDbArc
 50
21.3446614418
 51
21.5834112726
  0
ARC
  5
301
100
AcDbEntity
  8
0
100
AcDbCircle
 62
7
  6
CONTINUOUS
 10
6.6881687282
 20
28.8294903175
 40
16.6857318751
100
AcDbArc
 50
22.5485388018
 51
22.6940364141
  0
ARC
  5
302
100
AcDbEntity
  8
0
100
AcDbCircle
 62
7
  6
CONTINUOUS
 10
6.7622719461
 20
28.86015455
 40
16.6055347878
100
AcDbArc
 50
22.0016631415
 51
22.5488698918
  0
ARC
  5
303
100
AcDbEntity
  8
0
100
AcDbCircle
 62
7
  6
CONTINUOUS
 10
6.8914119392
 20
28.9123114349
 40
16.4662599589
100
AcDbArc
 50
21.4242348785
 51
22.0017386976
  0
ARC
  5
304
100
AcDbEntity
  8
0
100
AcDbCircle
 62
7
  6
CONTINUOUS
 10
7.3822539
 20
29.1017630282
 40
15.9401336696
100
AcDbArc
 50
17.5100502152
 51
21.4347643056
  0
ARC
  5
305
100
AcDbEntity
  8
0
100
AcDbCircle
 62
7
  6
CONTINUOUS
 10
12.4478825331
 20
30.1587777349
 40
10.7507931108
100
AcDbArc
 50
4.0212022484
 51
4.3015261373
  0
ARC
  5
306
100
AcDbEntity
  8
0
100
AcDbCircle
 62
7
  6
CONTINUOUS
 10
12.9793995081
 20
30.1930719771
 40
10.2181788486
100
AcDbArc
 50
0.4902532689
 51
4.0126149464
  0
ARC
  5
307
100
AcDbEntity
  8
0
100
AcDbCircle
 62
7
  6
CONTINUOUS
 10
13.5557414262
 20
30.1116185727
 40
9.7313540036
100
AcDbArc
 50
0.0009292319
 51
0.5818011518
  0
ARC
  5
308
100
AcDbEntity
  8
0
100
AcDbCircle
 62
7
  6
CONTINUOUS
 10
13.7303784637
 20
30.2079742768
 40
9.4671036679
100
AcDbArc
 50
0.000543781
 51
0.4389553953
  0
ARC
  5
309
100
AcDbEntity
  8
0
100
AcDbCircle
 62
7
  6
CONTINUOUS
 10
20.4234614416
 20
28.3677262281
 40
6.5484357228
100
AcDbArc
 50
332.7952548513
 51
335.6725390494
  0
ARC
  5
30A
100
AcDbEntity
  8
0
100
AcDbCircle
 62
7
  6
CONTINUOUS
 10
11.9728970383
 20
42.5124186104
 40
4.8132056147
100
AcDbArc
 50
107.3455109379
 51
112.6503800088
  0
ARC
  5
30B
100
AcDbEntity
  8
0
100
AcDbCircle
 62
7
  6
CONTINUOUS
 10
21.129520627
 20
26.663027065
 40
4.7846073653
100
AcDbArc
 50
307.4305784654
 51
313.0021345421
  0
ARC
  5
30C
100
AcDbEntity
  8
0
100
AcDbCircle
 62
7
  6
CONTINUOUS
 10
11.920762505
 20
42.6402660909
 40
4.6751415244
100
AcDbArc
 50
112.6641238993
 51
119.9901333066
  0
ARC
  5
30D
100
AcDbEntity
  8
0
100
AcDbCircle
 62
7
  6
CONTINUOUS
 10
21.1979106389
 20
26.5722559848
 40
4.6709595751
100
AcDbArc
 50
300.0060359084
 51
307.4411617675
  0
ARC
  5
30E
100
AcDbEntity
  8
0
100
AcDbCircle
 62
7
  6
CONTINUOUS
 10
12.4391686244
 20
42.9628640422
 40
4.6549597974
100
AcDbArc
 50
114.5930895131
 51
120.0018441391
  0
ARC
  5
30F
100
AcDbEntity
  8
0
100
AcDbCircle
 62
7
  6
CONTINUOUS
 10
26.3697632298
 20
32.1335524762
 40
4.2671198239
100
AcDbArc
 50
279.2619249035
 51
280.3592523611
  0
ARC
  5
310
100
AcDbEntity
  8
0
100
AcDbCircle
 62
7
  6
CONTINUOUS
 10
27.1098866596
 20
32.3711032511
 40
4.0932725241
100
AcDbArc
 50
280.3616916095
 51
287.8089121326
  0
ARC
  5
311
100
AcDbEntity
  8
0
100
AcDbCircle
 62
7
  6
CONTINUOUS
 10
19.8608972208
 20
44.8993308133
 40
4.0432993304
100
AcDbArc
 50
132.1446625021
 51
139.6846782651
  0
ARC
  5
312
100
AcDbEntity
  8
0
100
AcDbCircle
 62
7
  6
CONTINUOUS
 10
27.1712348646
 20
32.1673594846
 40
3.8805308072
100
AcDbArc
 50
287.8665717944
 51
293.7703750069
  0
ARC
  5
313
100
AcDbEntity
  8
0
100
AcDbCircle
 62
7
  6
CONTINUOUS
 10
19.7381059084
 20
45.03543372
 40
3.8599918716
100
AcDbArc
 50
126.2343970949
 51
132.1488441229
  0
ARC
  5
314
100
AcDbEntity
  8
0
100
AcDbCircle
 62
7
  6
CONTINUOUS
 10
27.2472637775
 20
32.3357916769
 40
3.6876700423
100
AcDbArc
 50
300.0133825663
 51
306.3551795084
  0
ARC
  5
315
100
AcDbEntity
  8
0
100
AcDbCircle
 62
7
  6
CONTINUOUS
 10
19.9292154243
 20
45.0129773503
 40
3.6745163443
100
AcDbArc
 50
112.9186614575
 51
120.0009176831
  0
ARC
  5
316
100
AcDbEntity
  8
0
100
AcDbCircle
 62
7
  6
CONTINUOUS
 10
19.6468480419
 20
28.6828090348
 40
3.3492758956
100
AcDbArc
 50
297.3927558804
 51
298.6180588598
  0
ARC
  5
317
100
AcDbEntity
  8
0
100
AcDbCircle
 62
7
  6
CONTINUOUS
 10
12.9693574683
 20
40.2477885712
 40
3.3463802162
100
AcDbArc
 50
121.4832960944
 51
124.1441700263
  0
ARC
  5
318
100
AcDbEntity
  8
0
100
AcDbCircle
 62
7
  6
CONTINUOUS
 10
12.9672864384
 20
40.2510801953
 40
3.342491549
100
AcDbArc
 50
119.9961050564
 51
121.4824885845
  0
ARC
  5
319
100
AcDbEntity
  8
0
100
AcDbCircle
 62
7
  6
CONTINUOUS
 10
14.5640661285
 20
35.9711645664
 40
0.8270704133
100
AcDbArc
 50
215.3360300505
 51
221.680053029
  0
ARC
  5
31A
100
AcDbEntity
  8
0
100
AcDbCircle
 62
7
  6
CONTINUOUS
 10
14.3591415567
 20
35.7370342611
 40
0.5146914231
100
AcDbArc
 50
235.3044264083
 51
239.2253496524
  0
ARC
  5
31B
100
AcDbEntity
  8
0
100
AcDbCircle
 62
7
  6
CONTINUOUS
 10
41.2340728704
 20
59.7751700176
 40
0.5
100
AcDbArc
 50
60.0005612632
 51
119.9998519061
  0
ARC
  5
31C
100
AcDbEntity
  8
0
100
AcDbCircle
 62
7
  6
CONTINUOUS
 10
51.628585698
 20
43.9351769064
 40
0.5
100
AcDbArc
 50
299.9998524444
 51
360.0
  0
ARC
  5
31D
100
AcDbEntity
  8
0
100
AcDbCircle
 62
7
  6
CONTINUOUS
 10
51.6285858301
 20
53.7740309262
 40
0.5
100
AcDbArc
 50
0.0
 51
60.0005612632
  0
ARC
  5
31E
100
AcDbEntity
  8
0
100
AcDbCircle
 62
7
  6
CONTINUOUS
 10
14.8474886276
 20
37.0890122642
 40
0.3938620921
100
AcDbArc
 50
123.9922698683
 51
126.9446386048
  0
SPLINE
  5
31F
100
AcDbEntity
  8
0
100
AcDbSpline
 62
7
  6
CONTINUOUS
 70
0
 71
3
 72
9
 73
5
 74
0
 42
0.0000001
 43
0.0000001
 44
0.0000000001
 40
0.0
 40
0.0
 40
0.0
 40
0.0
 40
0.2636892824
 40
1.0
 40
1.0
 40
1.0
 40
1.0
 10
27.0252096329
 20
27.962227275
 30
0.0
 10
26.996808529
 20
27.7547160526
 30
0.0
 10
26.8650671812
 20
26.9715849433
 30
0.0
 10
26.6314298248
 20
26.2029737184
 30
0.0
 10
26.3904349681
 20
25.6700907171
 30
0.0
  0
SPLINE
  5
320
100
AcDbEntity
  8
0
100
AcDbSpline
 62
7
  6
CONTINUOUS
 70
0
 71
3
 72
9
 73
5
 74
0
 42
0.0000001
 43
0.0000001
 44
0.0000000001
 40
0.0
 40
0.0
 40
0.0
 40
0.0
 40
0.5029130591
 40
1.0
 40
1.0
 40
1.0
 40
1.0
 10
29.1942125512
 20
29.0101688712
 30
0.0
 10
29.0742379473
 20
28.8899007213
 30
0.0
 10
28.8202203402
 20
28.6656280927
 30
0.0
 10
28.538737188
 20
28.4768533616
 30
0.0
 10
28.3933231024
 20
28.3928991039
 30
0.0
  0
SPLINE
  5
321
100
AcDbEntity
  8
0
100
AcDbSpline
 62
7
  6
CONTINUOUS
 70
0
 71
3
 72
12
 73
8
 74
0
 42
0.0000001
 43
0.0000001
 44
0.0000000001
 40
0.0
 40
0.0
 40
0.0
 40
0.0
 40
0.2633110918
 40
0.5154967038
 40
0.759724056
 40
0.8801247583
 40
1.0
 40
1.0
 40
1.0
 40
1.0
 10
25.4144188104
 20
24.1450173427
 30
0.0
 10
25.7014911403
 20
24.1232794481
 30
0.0
 10
26.2670739097
 20
24.1159156187
 30
0.0
 10
27.0937165812
 20
24.2222552984
 30
0.0
 10
27.7446360885
 20
24.4101134456
 30
0.0
 10
28.2326135783
 20
24.6174420593
 30
0.0
 10
28.4655974468
 20
24.739597885
 30
0.0
 10
28.5791019074
 20
24.8051363123
 30
0.0
  0
SPLINE
  5
322
100
AcDbEntity
  8
0
100
AcDbSpline
 62
7
  6
CONTINUOUS
 70
0
 71
3
 72
28
 73
24
 74
0
 42
0.0000001
 43
0.0000001
 44
0.0000000001
 40
0.0
 40
0.0
 40
0.0
 40
0.0
 40
0.0623747672
 40
0.1287048862
 40
0.1982883289
 40
0.2702550173
 40
0.3436233831
 40
0.4173464693
 40
0.4903621752
 40
0.5616401984
 40
0.6302283484
 40
0.6953068443
 40
0.7263379223
 40
0.756275945
 40
0.7850829184
 40
0.8127435399
 40
0.8646379242
 40
0.8890216621
 40
0.912468309
 40
0.9351101379
 40
0.9571128045
 40
0.9786705461
 40
1.0
 40
1.0
 40
1.0
 40
1.0
 10
21.3291432033
 20
47.7116763022
 30
0.0
 10
21.7845340011
 20
47.4487622504
 30
0.0
 10
22.6892014828
 20
46.8442044393
 30
0.0
 10
23.9703288138
 20
45.7660695128
 30
0.0
 10
25.1949639389
 20
44.5087206263
 30
0.0
 10
26.3369224913
 20
43.0990435091
 30
0.0
 10
27.3720257007
 20
41.5669658515
 30
0.0
 10
28.2781852467
 20
39.9451679852
 30
0.0
 10
29.0360650239
 20
38.2682659564
 30
0.0
 10
29.6295184683
 20
36.5719442424
 30
0.0
 10
30.0458569984
 20
34.8924233226
 30
0.0
 10
30.2409194444
 20
33.5146472639
 30
0.0
 10
30.2968300466
 20
32.4529250976
 30
0.0
 10
30.2896504206
 20
31.6956098983
 30
0.0
 10
30.2339788617
 20
30.9686425002
 30
0.0
 10
30.0984801087
 20
30.0647605529
 30
0.0
 10
29.8684122512
 20
29.2138875603
 30
0.0
 10
29.5354983266
 20
28.4406360535
 30
0.0
 10
29.2460460524
 20
27.9205256029
 30
0.0
 10
28.9131600172
 20
27.4513929701
 30
0.0
 10
28.5385121854
 20
27.035899708
 30
0.0
 10
28.1242014559
 20
26.6766173736
 30
0.0
 10
27.8223270094
 20
26.4755450904
 30
0.0
 10
27.6666079683
 20
26.3856316585
 30
0.0
  0
SPLINE
  5
323
100
AcDbEntity
  8
0
100
AcDbSpline
 62
7
  6
CONTINUOUS
 70
0
 71
3
 72
30
 73
26
 74
0
 42
0.0000001
 43
0.0000001
 44
0.0000000001
 40
0.0
 40
0.0
 40
0.0
 40
0.0
 40
0.0306610235
 40
0.062397518
 40
0.1287225719
 40
0.1983005278
 40
0.2702616621
 40
0.3436245258
 40
0.4173418575
 40
0.490351856
 40
0.5616241938
 40
0.6302076231
 40
0.6952820122
 40
0.7263109992
 40
0.7562467811
 40
0.7850515395
 40
0.8127098891
 40
0.8392299043
 40
0.864647885
 40
0.8890297384
 40
0.9124745691
 40
0.9351147182
 40
0.9571157486
 40
0.9786720194
 40
1.0
 40
1.0
 40
1.0
 40
1.0
 10
23.2029683719
 20
50.2836402212
 30
0.0
 10
23.4590713936
 20
50.1357824177
 30
0.0
 10
23.9706124339
 20
49.8178766722
 30
0.0
 10
24.9849469207
 20
49.1010304906
 30
0.0
 10
26.2245629184
 20
48.0577838384
 30
0.0
 10
27.6253649304
 20
46.6195489393
 30
0.0
 10
28.9317910648
 20
45.006862014
 30
0.0
 10
30.1159193018
 20
43.2542038577
 30
0.0
 10
31.1525545419
 20
41.3988936471
 30
0.0
 10
32.0195546475
 20
39.4805521793
 30
0.0
 10
32.6984588342
 20
37.5399880799
 30
0.0
 10
33.1747488137
 20
35.618636284
 30
0.0
 10
33.3978962863
 20
34.0424628081
 30
0.0
 10
33.4618641427
 20
32.8278692519
 30
0.0
 10
33.4536403419
 20
31.9614824109
 30
0.0
 10
33.3899759912
 20
31.1299450644
 30
0.0
 10
33.2711943637
 20
30.3376811251
 30
0.0
 10
33.0978174383
 20
29.5889370388
 30
0.0
 10
32.8707018305
 20
28.8877274188
 30
0.0
 10
32.5909031765
 20
28.2378555594
 30
0.0
 10
32.2597853915
 20
27.6428910851
 30
0.0
 10
31.8789724518
 20
27.1061978008
 30
0.0
 10
31.4503767616
 20
26.6308844132
 30
0.0
 10
30.9764134789
 20
26.2198636501
 30
0.0
 10
30.6310677932
 20
25.9898442593
 30
0.0
 10
30.4529267318
 20
25.8869837659
 30
0.0
  0
SPLINE
  5
324
100
AcDbEntity
  8
0
100
AcDbSpline
 62
7
  6
CONTINUOUS
 70
0
 71
3
 72
9
 73
5
 74
0
 42
0.0000001
 43
0.0000001
 44
0.0000000001
 40
0.0
 40
0.0
 40
0.0
 40
0.0
 40
0.2427849457
 40
1.0
 40
1.0
 40
1.0
 40
1.0
 10
21.7170956611
 20
51.0165078247
 30
0.0
 10
21.841286135
 20
50.9658116929
 30
0.0
 10
22.3489139887
 20
50.7475105157
 30
0.0
 10
22.8406529267
 20
50.4928184088
 30
0.0
 10
23.2029683719
 20
50.2836402212
 30
0.0
  0
SPLINE
  5
325
100
AcDbEntity
  8
0
100
AcDbSpline
 62
7
  6
CONTINUOUS
 70
0
 71
3
 72
11
 73
7
 74
0
 42
0.0000001
 43
0.0000001
 44
0.0000000001
 40
0.0
 40
0.0
 40
0.0
 40
0.0
 40
0.2176752075
 40
0.4512236443
 40
0.7112875848
 40
1.0
 40
1.0
 40
1.0
 40
1.0
 10
19.4219283095
 20
32.7265062743
 30
0.0
 10
19.4219269267
 20
32.7217482094
 30
0.0
 10
19.4201803105
 20
32.7118167776
 30
0.0
 10
19.4126256509
 20
32.6979790718
 30
0.0
 10
19.4007119555
 20
32.6855059177
 30
0.0
 10
19.3907869205
 20
32.6786314509
 30
0.0
 10
19.3853215683
 20
32.6754760471
 30
0.0
  0
SPLINE
  5
326
100
AcDbEntity
  8
0
100
AcDbSpline
 62
7
  6
CONTINUOUS
 70
0
 71
3
 72
14
 73
10
 74
0
 42
0.0000001
 43
0.0000001
 44
0.0000000001
 40
0.0
 40
0.0
 40
0.0
 40
0.0
 40
0.0898011854
 40
0.1865712514
 40
0.2949316424
 40
0.4166200521
 40
0.5508939341
 40
0.6954087754
 40
1.0
 40
1.0
 40
1.0
 40
1.0
 10
14.4733409528
 20
36.8400921057
 30
0.0
 10
14.4611988168
 20
36.8471138508
 30
0.0
 10
14.4385071335
 20
36.8665218624
 30
0.0
 10
14.4151200787
 20
36.9069944783
 30
0.0
 10
14.402044367
 20
36.9568339206
 30
0.0
 10
14.3994495094
 20
37.0140075596
 30
0.0
 10
14.4071378834
 20
37.0763432299
 30
0.0
 10
14.4310867953
 20
37.1644696202
 30
0.0
 10
14.4623490742
 20
37.22828619
 30
0.0
 10
14.4880206725
 20
37.2683403741
 30
0.0
  0
SPLINE
  5
327
100
AcDbEntity
  8
0
100
AcDbSpline
 62
7
  6
CONTINUOUS
 70
0
 71
3
 72
9
 73
5
 74
0
 42
0.0000001
 43
0.0000001
 44
0.0000000001
 40
0.0
 40
0.0
 40
0.0
 40
0.0
 40
0.2612110763
 40
1.0
 40
1.0
 40
1.0
 40
1.0
 10
14.4880206725
 20
37.2683403741
 30
0.0
 10
14.4966329526
 20
37.2817777086
 30
0.0
 10
14.5316130089
 20
37.3318546492
 30
0.0
 10
14.5746779073
 20
37.3766685463
 30
0.0
 10
14.6107605466
 20
37.4037933997
 30
0.0
  0
SPLINE
  5
328
100
AcDbEntity
  8
0
100
AcDbSpline
 62
7
  6
CONTINUOUS
 70
0
 71
3
 72
13
 73
9
 74
0
 42
0.0000001
 43
0.0000001
 44
0.0000000001
 40
0.0
 40
0.0
 40
0.0
 40
0.0
 40
0.1141759018
 40
0.2375697245
 40
0.4999990825
 40
0.762428944
 40
0.8858232992
 40
1.0
 40
1.0
 40
1.0
 40
1.0
 10
21.3998894292
 20
34.3211405403
 30
0.0
 10
21.4240757232
 20
34.3071768929
 30
0.0
 10
21.4718748578
 20
34.2736369273
 30
0.0
 10
21.5614217745
 20
34.1899065292
 30
0.0
 10
21.6559215872
 20
34.0607134184
 30
0.0
 10
21.7205568514
 20
33.914277801
 30
0.0
 10
21.7482969183
 20
33.7948624438
 30
0.0
 10
21.7534442918
 20
33.7366969187
 30
0.0
 10
21.7534442918
 20
33.7087689545
 30
0.0
  0
SPLINE
  5
329
100
AcDbEntity
  8
0
100
AcDbSpline
 62
7
  6
CONTINUOUS
 70
0
 71
3
 72
15
 73
11
 74
0
 42
0.0000001
 43
0.0000001
 44
0.0000000001
 40
0.0
 40
0.0
 40
0.0
 40
0.0
 40
0.1485786923
 40
0.2895069098
 40
0.4227215948
 40
0.5486383811
 40
0.6679990993
 40
0.7819373907
 40
0.8919865509
 40
1.0
 40
1.0
 40
1.0
 40
1.0
 10
16.5588527813
 20
23.2181874267
 30
0.0
 10
16.8734628513
 20
23.0365513273
 30
0.0
 10
17.5015581696
 20
22.7077686173
 30
0.0
 10
18.4595996343
 20
22.3156262839
 30
0.0
 10
19.4006028239
 20
22.0413049556
 30
0.0
 10
20.3156221684
 20
21.8878385806
 30
0.0
 10
21.1961761945
 20
21.8571893537
 30
0.0
 10
22.0337854886
 20
21.9505974898
 30
0.0
 10
22.8194946149
 20
22.16790948
 30
0.0
 10
23.3051088494
 20
22.3952749647
 30
0.0
 10
23.5338165578
 20
22.5273323897
 30
0.0
  0
SPLINE
  5
32A
100
AcDbEntity
  8
0
100
AcDbSpline
 62
7
  6
CONTINUOUS
 70
0
 71
3
 72
9
 73
5
 74
0
 42
0.0000001
 43
0.0000001
 44
0.0000000001
 40
0.0
 40
0.0
 40
0.0
 40
0.0
 40
0.2397472365
 40
1.0
 40
1.0
 40
1.0
 40
1.0
 10
17.7965604771
 20
33.3681652985
 30
0.0
 10
17.7947684062
 20
33.3692544231
 30
0.0
 10
17.7871689814
 20
33.3735910608
 30
0.0
 10
17.7791252623
 20
33.3771312847
 30
0.0
 10
17.7728806903
 20
33.3794175522
 30
0.0
  0
SPLINE
  5
32B
100
AcDbEntity
  8
0
100
AcDbSpline
 62
7
  6
CONTINUOUS
 70
0
 71
3
 72
11
 73
7
 74
0
 42
0.0000001
 43
0.0000001
 44
0.0000000001
 40
0.0
 40
0.0
 40
0.0
 40
0.0
 40
0.2494568039
 40
0.511872271
 40
0.7683549941
 40
1.0
 40
1.0
 40
1.0
 40
1.0
 10
17.7728806903
 20
33.3794175522
 30
0.0
 10
17.7604046373
 20
33.3839852944
 30
0.0
 10
17.7336006261
 20
33.3901902723
 30
0.0
 10
17.6924666745
 20
33.3915534258
 30
0.0
 10
17.6527614883
 20
33.3852195093
 30
0.0
 10
17.6282276389
 20
33.3756770782
 30
0.0
 10
17.617543215
 20
33.36950846
 30
0.0
  0
SPLINE
  5
32C
100
AcDbEntity
  8
0
100
AcDbSpline
 62
7
  6
CONTINUOUS
 70
0
 71
3
 72
11
 73
7
 74
0
 42
0.0000001
 43
0.0000001
 44
0.0000000001
 40
0.0
 40
0.0
 40
0.0
 40
0.0
 40
0.2176752075
 40
0.4512236442
 40
0.7112875848
 40
1.0
 40
1.0
 40
1.0
 40
1.0
 10
17.8309314281
 20
33.6450742166
 30
0.0
 10
17.8309300453
 20
33.6403161516
 30
0.0
 10
17.8291834291
 20
33.6303847199
 30
0.0
 10
17.8216287695
 20
33.6165470141
 30
0.0
 10
17.809715074
 20
33.6040738599
 30
0.0
 10
17.7997900391
 20
33.5971993931
 30
0.0
 10
17.7943246869
 20
33.5940439894
 30
0.0
  0
SPLINE
  5
32D
100
AcDbEntity
  8
0
100
AcDbSpline
 62
7
  6
CONTINUOUS
 70
0
 71
3
 72
11
 73
7
 74
0
 42
0.0000001
 43
0.0000001
 44
0.0000000001
 40
0.0
 40
0.0
 40
0.0
 40
0.0
 40
0.2177460211
 40
0.4508843679
 40
0.7104607696
 40
1.0
 40
1.0
 40
1.0
 40
1.0
 10
12.5231658897
 20
39.3264156565
 30
0.0
 10
12.5396555981
 20
39.3359359334
 30
0.0
 10
12.5775308503
 20
39.3497296567
 30
0.0
 10
12.6404965555
 20
39.3513113528
 30
0.0
 10
12.7075686438
 20
39.3350768573
 30
0.0
 10
12.7512241505
 20
39.3143368059
 30
0.0
 10
12.7731507825
 20
39.3016777454
 30
0.0
  0
SPLINE
  5
32E
100
AcDbEntity
  8
0
100
AcDbSpline
 62
7
  6
CONTINUOUS
 70
0
 71
3
 72
11
 73
7
 74
0
 42
0.0000001
 43
0.0000001
 44
0.0000000001
 40
0.0
 40
0.0
 40
0.0
 40
0.0
 40
0.2177439527
 40
0.450881254
 40
0.7104582758
 40
1.0
 40
1.0
 40
1.0
 40
1.0
 10
52.1285578513
 20
47.65434531
 30
0.0
 10
52.1285578464
 20
47.6353050991
 30
0.0
 10
52.1215659672
 20
47.5956080823
 30
0.0
 10
52.0914528487
 20
47.5402885362
 30
0.0
 10
52.0438571862
 20
47.4903207839
 30
0.0
 10
52.0040679692
 20
47.4628847589
 30
0.0
 10
51.9821415311
 20
47.4502255995
 30
0.0
  0
SPLINE
  5
32F
100
AcDbEntity
  8
0
100
AcDbSpline
 62
7
  6
CONTINUOUS
 70
0
 71
3
 72
11
 73
7
 74
0
 42
0.0000001
 43
0.0000001
 44
0.0000000001
 40
0.0
 40
0.0
 40
0.0
 40
0.0
 40
0.2895401973
 40
0.5491171505
 40
0.7822550654
 40
1.0
 40
1.0
 40
1.0
 40
1.0
 10
21.7534439909
 20
29.9528580367
 30
0.0
 10
21.7534439909
 20
29.9275387251
 30
0.0
 10
21.749577966
 20
29.8793604658
 30
0.0
 10
21.7301014313
 20
29.8131550446
 30
0.0
 10
21.6972481984
 20
29.759414451
 30
0.0
 10
21.6663640873
 20
29.7335097778
 30
0.0
 10
21.6498740206
 20
29.723989294
 30
0.0
  0
SPLINE
  5
330
100
AcDbEntity
  8
0
100
AcDbSpline
 62
7
  6
CONTINUOUS
 70
0
 71
3
 72
30
 73
26
 74
0
 42
0.0000001
 43
0.0000001
 44
0.0000000001
 40
0.0
 40
0.0
 40
0.0
 40
0.0
 40
0.0213279179
 40
0.0428841239
 40
0.064885232
 40
0.0875254607
 40
0.1109704458
 40
0.135352419
 40
0.1607706149
 40
0.1872907786
 40
0.2149493603
 40
0.2437542636
 40
0.273690257
 40
0.3047193583
 40
0.3697939515
 40
0.4383773798
 40
0.5096494452
 40
0.5826589038
 40
0.6563754033
 40
0.7297374426
 40
0.8016991996
 40
0.8712771978
 40
0.9376022454
 40
0.9693388539
 40
1.0
 40
1.0
 40
1.0
 40
1.0
 10
9.5838890048
 20
46.6894599017
 30
0.0
 10
9.4125052089
 20
46.5905017034
 30
0.0
 10
9.0802628297
 20
46.3692032613
 30
0.0
 10
8.6242739431
 20
45.9737774757
 30
0.0
 10
8.2119386397
 20
45.5164888093
 30
0.0
 10
7.8455617218
 20
45.0001551464
 30
0.0
 10
7.5270080179
 20
44.4277516462
 30
0.0
 10
7.2578146977
 20
43.8025282986
 30
0.0
 10
7.0393194536
 20
43.1279093697
 30
0.0
 10
6.8725120125
 20
42.4075616352
 30
0.0
 10
6.7582430701
 20
41.6453427025
 30
0.0
 10
6.6969885602
 20
40.8453411253
 30
0.0
 10
6.6890843612
 20
40.0118123819
 30
0.0
 10
6.7506230344
 20
38.8432842837
 30
0.0
 10
6.9653136665
 20
37.3268938366
 30
0.0
 10
7.4235408379
 20
35.4784219491
 30
0.0
 10
8.0766952541
 20
33.6114732371
 30
0.0
 10
8.9108061931
 20
31.765911167
 30
0.0
 10
9.9081122143
 20
29.9809925479
 30
0.0
 10
11.047320873
 20
28.2948224007
 30
0.0
 10
12.3041908632
 20
26.7433056202
 30
0.0
 10
13.6518641508
 20
25.3596199257
 30
0.0
 10
14.8444614239
 20
24.3559431083
 30
0.0
 10
15.8203232282
 20
23.6662861229
 30
0.0
 10
16.3124629381
 20
23.3604374509
 30
0.0
 10
16.5588527813
 20
23.2181874267
 30
0.0
  0
SPLINE
  5
331
100
AcDbEntity
  8
0
100
AcDbSpline
 62
7
  6
CONTINUOUS
 70
0
 71
3
 72
15
 73
11
 74
0
 42
0.0000001
 43
0.0000001
 44
0.0000000001
 40
0.0
 40
0.0
 40
0.0
 40
0.0
 40
0.1077158286
 40
0.2181665602
 40
0.3328296734
 40
0.4528987263
 40
0.5792296149
 40
0.7123886635
 40
0.8526816329
 40
1.0
 40
1.0
 40
1.0
 40
1.0
 10
10.501908766
 20
47.1955552612
 30
0.0
 10
10.7270656983
 20
47.2986360881
 30
0.0
 10
11.2004845852
 20
47.4713834817
 30
0.0
 10
11.9534224292
 20
47.6217442303
 30
0.0
 10
12.7483297575
 20
47.6649270203
 30
0.0
 10
13.5780697821
 20
47.6009485488
 30
0.0
 10
14.4358350423
 20
47.4311145786
 30
0.0
 10
15.3147474406
 20
47.157033561
 30
0.0
 10
16.2074942805
 20
46.7812543116
 30
0.0
 10
16.7932174281
 20
46.4725865527
 30
0.0
 10
17.08652018
 20
46.3032519608
 30
0.0
  0
SPLINE
  5
332
100
AcDbEntity
  8
0
100
AcDbSpline
 62
7
  6
CONTINUOUS
 70
0
 71
3
 72
15
 73
11
 74
0
 42
0.0000001
 43
0.0000001
 44
0.0000000001
 40
0.0
 40
0.0
 40
0.0
 40
0.0
 40
0.1507149484
 40
0.2932479897
 40
0.4274460738
 40
0.5536531958
 40
0.6726085662
 40
0.7854649434
 40
0.8939074135
 40
1.0
 40
1.0
 40
1.0
 40
1.0
 10
23.1974821312
 20
30.2080641269
 30
0.0
 10
23.1974821312
 20
29.9485710978
 30
0.0
 10
23.1766641173
 20
29.4433270903
 30
0.0
 10
23.0778147457
 20
28.7128817428
 30
0.0
 10
22.9131924747
 20
28.0374710106
 30
0.0
 10
22.6847749437
 20
27.4237694565
 30
0.0
 10
22.3951808051
 20
26.8773922509
 30
0.0
 10
22.0470987226
 20
26.4033184789
 30
0.0
 10
21.6441476261
 20
26.0057110972
 30
0.0
 10
21.3396820424
 20
25.7928616082
 30
0.0
 10
21.181546415
 20
25.7014314077
 30
0.0
  0
SPLINE
  5
333
100
AcDbEntity
  8
0
100
AcDbSpline
 62
7
  6
CONTINUOUS
 70
0
 71
3
 72
9
 73
5
 74
0
 42
0.0000001
 43
0.0000001
 44
0.0000000001
 40
0.0
 40
0.0
 40
0.0
 40
0.0
 40
0.514793897
 40
1.0
 40
1.0
 40
1.0
 40
1.0
 10
22.583788556
 20
33.8977202326
 30
0.0
 10
22.7381403436
 20
33.4074808509
 30
0.0
 10
22.9904683497
 20
32.4393694069
 30
0.0
 10
23.1320594311
 20
31.4482036626
 30
0.0
 10
23.1683921221
 20
30.9651440678
 30
0.0
  0
SPLINE
  5
334
100
AcDbEntity
  8
0
100
AcDbSpline
 62
7
  6
CONTINUOUS
 70
0
 71
3
 72
15
 73
11
 74
0
 42
0.0000001
 43
0.0000001
 44
0.0000000001
 40
0.0
 40
0.0
 40
0.0
 40
0.0
 40
0.1123533051
 40
0.226122804
 40
0.3426422629
 40
0.4630784446
 40
0.588392096
 40
0.7193492535
 40
0.8564922409
 40
1.0
 40
1.0
 40
1.0
 40
1.0
 10
15.953010012
 20
51.0017265799
 30
0.0
 10
16.1465826274
 20
51.1134974123
 30
0.0
 10
16.5524141101
 20
51.3115246367
 30
0.0
 10
17.2021234037
 20
51.524278738
 30
0.0
 10
17.8900215613
 20
51.6523352731
 30
0.0
 10
18.6112081263
 20
51.6951774841
 30
0.0
 10
19.3609978569
 20
51.652795504
 30
0.0
 10
20.1346864758
 20
51.5257897255
 30
0.0
 10
20.9271654453
 20
51.3150974472
 30
0.0
 10
21.4527658619
 20
51.1244106126
 30
0.0
 10
21.7170956611
 20
51.0165078247
 30
0.0
  0
SPLINE
  5
335
100
AcDbEntity
  8
0
100
AcDbSpline
 62
7
  6
CONTINUOUS
 70
0
 71
3
 72
15
 73
11
 74
0
 42
0.0000001
 43
0.0000001
 44
0.0000000001
 40
0.0
 40
0.0
 40
0.0
 40
0.0
 40
0.1080130607
 40
0.2180617119
 40
0.3319992357
 40
0.4513598762
 40
0.5772770123
 40
0.7104923397
 40
0.8514212559
 40
1.0
 40
1.0
 40
1.0
 40
1.0
 10
14.9916784382
 20
48.3393846717
 30
0.0
 10
15.1994818319
 20
48.4593720295
 30
0.0
 10
15.6407100099
 20
48.6659558437
 30
0.0
 10
16.3546025832
 20
48.8634064184
 30
0.0
 10
17.1156526143
 20
48.9482805322
 30
0.0
 10
17.9157244889
 20
48.9204319754
 30
0.0
 10
18.7471153246
 20
48.780995832
 30
0.0
 10
19.6021164628
 20
48.5317464419
 30
0.0
 10
20.4725975851
 20
48.1754442235
 30
0.0
 10
21.043287821
 20
47.8767112505
 30
0.0
 10
21.3291432033
 20
47.7116763022
 30
0.0
  0
SPLINE
  5
336
100
AcDbEntity
  8
0
100
AcDbSpline
 62
7
  6
CONTINUOUS
 70
0
 71
3
 72
9
 73
5
 74
0
 42
0.0000001
 43
0.0000001
 44
0.0000000001
 40
0.0
 40
0.0
 40
0.0
 40
0.0
 40
0.4970876223
 40
1.0
 40
1.0
 40
1.0
 40
1.0
 10
17.093378653
 20
47.9650938418
 30
0.0
 10
17.2388087547
 20
48.0490573464
 30
0.0
 10
17.5430700673
 20
48.1984523908
 30
0.0
 10
17.8643418027
 20
48.3063066896
 30
0.0
 10
18.0285027938
 20
48.3500754274
 30
0.0
  0
SPLINE
  5
337
100
AcDbEntity
  8
0
100
AcDbSpline
 62
7
  6
CONTINUOUS
 70
0
 71
3
 72
14
 73
10
 74
0
 42
0.0000001
 43
0.0000001
 44
0.0000000001
 40
0.0
 40
0.0
 40
0.0
 40
0.0
 40
0.2720250075
 40
0.4035456635
 40
0.5314340902
 40
0.6552943717
 40
0.7748295853
 40
0.8898091732
 40
1.0
 40
1.0
 40
1.0
 40
1.0
 10
25.9944724858
 20
35.4278920478
 30
0.0
 10
26.2301679164
 20
34.7797408287
 30
0.0
 10
26.5346072011
 20
33.8005412945
 30
0.0
 10
26.8315770297
 20
32.4858187926
 30
0.0
 10
26.9931794449
 20
31.5270694633
 30
0.0
 10
27.095045843
 20
30.5907012474
 30
0.0
 10
27.1365841705
 20
29.6823914878
 30
0.0
 10
27.117361303
 20
28.8079862172
 30
0.0
 10
27.0630926935
 20
28.2390179319
 30
0.0
 10
27.0252096329
 20
27.962227275
 30
0.0
  0
SPLINE
  5
338
100
AcDbEntity
  8
0
100
AcDbSpline
 62
7
  6
CONTINUOUS
 70
0
 71
3
 72
11
 73
7
 74
0
 42
0.0000001
 43
0.0000001
 44
0.0000000001
 40
0.0
 40
0.0
 40
0.0
 40
0.0
 40
0.2895421522
 40
0.5491196247
 40
0.782256727
 40
1.0
 40
1.0
 40
1.0
 40
1.0
 10
11.889263626
 20
36.7133520156
 30
0.0
 10
11.8673366925
 20
36.7260112501
 30
0.0
 10
11.827546547
 20
36.7534474986
 30
0.0
 10
11.7799496056
 20
36.8034157342
 30
0.0
 10
11.7498356281
 20
36.858736002
 30
0.0
 10
11.7428435169
 20
36.8984336181
 30
0.0
 10
11.7428435211
 20
36.9174740923
 30
0.0
  0
SPLINE
  5
339
100
AcDbEntity
  8
0
100
AcDbSpline
 62
7
  6
CONTINUOUS
 70
0
 71
3
 72
9
 73
5
 74
0
 42
0.0000001
 43
0.0000001
 44
0.0000000001
 40
0.0
 40
0.0
 40
0.0
 40
0.0
 40
0.4773840406
 40
1.0
 40
1.0
 40
1.0
 40
1.0
 10
12.8722778187
 20
36.7501747365
 30
0.0
 10
12.8395825271
 20
36.7312982138
 30
0.0
 10
12.766361751
 20
36.6998054026
 30
0.0
 10
12.6889789412
 20
36.6817793168
 30
0.0
 10
12.6481344895
 20
36.6754606432
 30
0.0
  0
SPLINE
  5
33A
100
AcDbEntity
  8
0
100
AcDbSpline
 62
7
  6
CONTINUOUS
 70
0
 71
3
 72
12
 73
8
 74
0
 42
0.0000001
 43
0.0000001
 44
0.0000000001
 40
0.0
 40
0.0
 40
0.0
 40
0.0
 40
0.2441070182
 40
0.506686752
 40
0.7655705438
 40
0.887113351
 40
1.0
 40
1.0
 40
1.0
 40
1.0
 10
18.7164840885
 20
31.8565641658
 30
0.0
 10
18.722898099
 20
31.9231072473
 30
0.0
 10
18.7563556796
 20
32.0595191003
 30
0.0
 10
18.8491823996
 20
32.2488689892
 30
0.0
 10
18.9577380271
 20
32.3895336297
 30
0.0
 10
19.058043837
 20
32.4804468076
 30
0.0
 10
19.1110617552
 20
32.5171330154
 30
0.0
 10
19.1378352253
 20
32.5325905933
 30
0.0
  0
SPLINE
  5
33B
100
AcDbEntity
  8
0
100
AcDbSpline
 62
7
  6
CONTINUOUS
 70
0
 71
3
 72
11
 73
7
 74
0
 42
0.0000001
 43
0.0000001
 44
0.0000000001
 40
0.0
 40
0.0
 40
0.0
 40
0.0
 40
0.2485151822
 40
0.5107497688
 40
0.7676882817
 40
1.0
 40
1.0
 40
1.0
 40
1.0
 10
17.2292901911
 20
33.0101108919
 30
0.0
 10
17.2327593071
 20
33.0318089605
 30
0.0
 10
17.2458597422
 20
33.0754486357
 30
0.0
 10
17.2766498802
 20
33.1363435017
 30
0.0
 10
17.3182203575
 20
33.1887494561
 30
0.0
 10
17.3522678727
 20
33.2163525839
 30
0.0
 10
17.370056872
 20
33.2266230062
 30
0.0
  0
SPLINE
  5
33C
100
AcDbEntity
  8
0
100
AcDbSpline
 62
7
  6
CONTINUOUS
 70
0
 71
3
 72
12
 73
8
 74
0
 42
0.0000001
 43
0.0000001
 44
0.0000000001
 40
0.0
 40
0.0
 40
0.0
 40
0.0
 40
0.2440997609
 40
0.5066795928
 40
0.7655672593
 40
0.8871120247
 40
1.0
 40
1.0
 40
1.0
 40
1.0
 10
13.8727759788
 20
34.6530258368
 30
0.0
 10
13.8791836094
 20
34.7195730342
 30
0.0
 10
13.9126338943
 20
34.8559970447
 30
0.0
 10
14.0054594068
 20
35.045365964
 30
0.0
 10
14.1140209416
 20
35.1860467858
 30
0.0
 10
14.2143348629
 20
35.2769704962
 30
0.0
 10
14.2673576321
 20
35.3136606369
 30
0.0
 10
14.2941336085
 20
35.3291196619
 30
0.0
  0
SPLINE
  5
33D
100
AcDbEntity
  8
0
100
AcDbSpline
 62
7
  6
CONTINUOUS
 70
0
 71
3
 72
11
 73
7
 74
0
 42
0.0000001
 43
0.0000001
 44
0.0000000001
 40
0.0
 40
0.0
 40
0.0
 40
0.0
 40
0.234261622
 40
0.4898381788
 40
0.7508155181
 40
1.0
 40
1.0
 40
1.0
 40
1.0
 10
13.8351361594
 20
36.1366181586
 30
0.0
 10
13.8380283233
 20
36.0704282365
 30
0.0
 10
13.862837693
 20
35.9326663698
 30
0.0
 10
13.9416879509
 20
35.7342978711
 30
0.0
 10
14.0568034781
 20
35.5495716459
 30
0.0
 10
14.1550582359
 20
35.4423229567
 30
0.0
 10
14.2082691814
 20
35.3961156949
 30
0.0
  0
SPLINE
  5
33E
100
AcDbEntity
  8
0
100
AcDbSpline
 62
7
  6
CONTINUOUS
 70
0
 71
3
 72
9
 73
5
 74
0
 42
0.0000001
 43
0.0000001
 44
0.0000000001
 40
0.0
 40
0.0
 40
0.0
 40
0.0
 40
0.2574607339
 40
1.0
 40
1.0
 40
1.0
 40
1.0
 10
14.2082691814
 20
35.3961156949
 30
0.0
 10
14.2157441741
 20
35.389624569
 30
0.0
 10
14.2451856088
 20
35.3648896296
 30
0.0
 10
14.2762750981
 20
35.3420885104
 30
0.0
 10
14.3002553849
 20
35.3265904125
 30
0.0
  0
SPLINE
  5
33F
100
AcDbEntity
  8
0
100
AcDbSpline
 62
7
  6
CONTINUOUS
 70
0
 71
3
 72
13
 73
9
 74
0
 42
0.0000001
 43
0.0000001
 44
0.0000000001
 40
0.0
 40
0.0
 40
0.0
 40
0.0
 40
0.1141767831
 40
0.2375713001
 40
0.500001251
 40
0.7624305195
 40
0.8858241805
 40
1.0
 40
1.0
 40
1.0
 40
1.0
 10
13.5509616136
 20
35.9948265588
 30
0.0
 10
13.5509616136
 20
35.9668985745
 30
0.0
 10
13.5561090195
 20
35.908732992
 30
0.0
 10
13.5838490894
 20
35.789317553
 30
0.0
 10
13.6484844226
 20
35.642881914
 30
0.0
 10
13.7429842511
 20
35.5136888738
 30
0.0
 10
13.8325310985
 20
35.4299585193
 30
0.0
 10
13.8803301996
 20
35.3964186104
 30
0.0
 10
13.9045164762
 20
35.382454973
 30
0.0
  0
SPLINE
  5
340
100
AcDbEntity
  8
0
100
AcDbSpline
 62
7
  6
CONTINUOUS
 70
0
 71
3
 72
9
 73
5
 74
0
 42
0.0000001
 43
0.0000001
 44
0.0000000001
 40
0.0
 40
0.0
 40
0.0
 40
0.0
 40
0.2384470837
 40
1.0
 40
1.0
 40
1.0
 40
1.0
 10
14.0661709601
 20
35.3138611398
 30
0.0
 10
14.0556363778
 20
35.321136541
 30
0.0
 10
14.0125111355
 20
35.3531659716
 30
0.0
 10
13.9735562905
 20
35.3906606364
 30
0.0
 10
13.9463522718
 20
35.4211872398
 30
0.0
  0
SPLINE
  5
341
100
AcDbEntity
  8
0
100
AcDbSpline
 62
7
  6
CONTINUOUS
 70
0
 71
3
 72
11
 73
7
 74
0
 42
0.0000001
 43
0.0000001
 44
0.0000000001
 40
0.0
 40
0.0
 40
0.0
 40
0.0
 40
0.2647452881
 40
0.5255127215
 40
0.7733013125
 40
1.0
 40
1.0
 40
1.0
 40
1.0
 10
13.8893635504
 20
35.4928112456
 30
0.0
 10
13.8668949745
 20
35.5244351427
 30
0.0
 10
13.8264437443
 20
35.5902627309
 30
0.0
 10
13.7800811572
 20
35.6940246318
 30
0.0
 10
13.7502098094
 20
35.7979102217
 30
0.0
 10
13.7418201086
 20
35.8673836481
 30
0.0
 10
13.7413136087
 20
35.9005979568
 30
0.0
  0
SPLINE
  5
342
100
AcDbEntity
  8
0
100
AcDbSpline
 62
7
  6
CONTINUOUS
 70
0
 71
3
 72
11
 73
7
 74
0
 42
0.0000001
 43
0.0000001
 44
0.0000000001
 40
0.0
 40
0.0
 40
0.0
 40
0.0
 40
0.2465801615
 40
0.5188902602
 40
0.7805366172
 40
1.0
 40
1.0
 40
1.0
 40
1.0
 10
41.4250642073
 20
41.3551303647
 30
0.0
 10
41.4108668085
 20
41.3469335416
 30
0.0
 10
41.3774176591
 20
41.3358789861
 30
0.0
 10
41.3250924249
 20
41.333160332
 30
0.0
 10
41.2755152758
 20
41.343070787
 30
0.0
 10
41.2466056741
 20
41.3591612988
 30
0.0
 10
41.2362882417
 20
41.3694784845
 30
0.0
  0
SPLINE
  5
343
100
AcDbEntity
  8
0
100
AcDbSpline
 62
7
  6
CONTINUOUS
 70
0
 71
3
 72
9
 73
5
 74
0
 42
0.0000001
 43
0.0000001
 44
0.0000000001
 40
0.0
 40
0.0
 40
0.0
 40
0.0
 40
0.525323064
 40
1.0
 40
1.0
 40
1.0
 40
1.0
 10
13.4218752885
 20
39.3738482666
 30
0.0
 10
13.3942246253
 20
39.3729285624
 30
0.0
 10
13.3412392766
 20
39.3773441343
 30
0.0
 10
13.2906065778
 20
39.3949768802
 30
0.0
 10
13.268957106
 20
39.4074762829
 30
0.0
  0
SPLINE
  5
344
100
AcDbEntity
  8
0
100
AcDbSpline
 62
7
  6
CONTINUOUS
 70
0
 71
3
 72
13
 73
9
 74
0
 42
0.0000001
 43
0.0000001
 44
0.0000000001
 40
0.0
 40
0.0
 40
0.0
 40
0.0
 40
0.114203077
 40
0.2376399622
 40
0.5000969456
 40
0.7624754216
 40
0.8858418186
 40
1.0
 40
1.0
 40
1.0
 40
1.0
 10
13.8335782123
 20
36.1367670961
 30
0.0
 10
13.804580355
 20
36.120035642
 30
0.0
 10
13.7410820988
 20
36.0905618629
 30
0.0
 10
13.600445724
 20
36.0479344143
 30
0.0
 10
13.4097103899
 20
36.0274304706
 30
0.0
 10
13.2190213428
 20
36.0481767438
 30
0.0
 10
13.0784970599
 20
36.0909762159
 30
0.0
 10
13.0150590177
 20
36.1204901553
 30
0.0
 10
12.9860771325
 20
36.1372229541
 30
0.0
  0
SPLINE
  5
345
100
AcDbEntity
  8
0
100
AcDbSpline
 62
7
  6
CONTINUOUS
 70
0
 71
3
 72
11
 73
7
 74
0
 42
0.0000001
 43
0.0000001
 44
0.0000000001
 40
0.0
 40
0.0
 40
0.0
 40
0.0
 40
0.2895411595
 40
0.5491183966
 40
0.7822559144
 40
1.0
 40
1.0
 40
1.0
 40
1.0
 10
45.5120837636
 20
57.713555907
 30
0.0
 10
45.5120837636
 20
57.7388753329
 30
0.0
 10
45.5082177428
 20
57.7870537591
 30
0.0
 10
45.4887411888
 20
57.8532593407
 30
0.0
 10
45.4558879065
 20
57.9069999092
 30
0.0
 10
45.4250037057
 20
57.9329044125
 30
0.0
 10
45.4085136154
 20
57.9424247523
 30
0.0
  0
SPLINE
  5
346
100
AcDbEntity
  8
0
100
AcDbSpline
 62
7
  6
CONTINUOUS
 70
0
 71
3
 72
11
 73
7
 74
0
 42
0.0000001
 43
0.0000001
 44
0.0000000001
 40
0.0
 40
0.0
 40
0.0
 40
0.0
 40
0.2895396729
 40
0.5491163863
 40
0.7822545095
 40
1.0
 40
1.0
 40
1.0
 40
1.0
 10
47.7041268555
 20
56.4480183223
 30
0.0
 10
47.7260531731
 20
56.4606774121
 30
0.0
 10
47.7697080769
 20
56.481417556
 30
0.0
 10
47.8367792809
 20
56.4976524699
 30
0.0
 10
47.899744223
 20
56.4960712985
 30
0.0
 10
47.9376190872
 20
56.4822780691
 30
0.0
 10
47.9541086256
 20
56.4727580362
 30
0.0
  0
SPLINE
  5
347
100
AcDbEntity
  8
0
100
AcDbSpline
 62
7
  6
CONTINUOUS
 70
0
 71
3
 72
11
 73
7
 74
0
 42
0.0000001
 43
0.0000001
 44
0.0000000001
 40
0.0
 40
0.0
 40
0.0
 40
0.0
 40
0.2177433616
 40
0.4508804999
 40
0.710457822
 40
1.0
 40
1.0
 40
1.0
 40
1.0
 10
11.7428436542
 20
36.913391474
 30
0.0
 10
11.7428436592
 20
36.8943509488
 30
0.0
 10
11.7498357879
 20
36.8546532271
 30
0.0
 10
11.7799499229
 20
36.7993328815
 30
0.0
 10
11.8275469833
 20
36.7493645599
 30
0.0
 10
11.8673372365
 20
36.7219282927
 30
0.0
 10
11.8892642219
 20
36.7092690283
 30
0.0
  0
SPLINE
  5
348
100
AcDbEntity
  8
0
100
AcDbSpline
 62
7
  6
CONTINUOUS
 70
0
 71
3
 72
9
 73
5
 74
0
 42
0.0000001
 43
0.0000001
 44
0.0000000001
 40
0.0
 40
0.0
 40
0.0
 40
0.0
 40
0.522615844
 40
1.0
 40
1.0
 40
1.0
 40
1.0
 10
13.2611891937
 20
34.6297385746
 30
0.0
 10
13.287083454
 20
34.6619515789
 30
0.0
 10
13.3413858284
 20
34.7199539903
 30
0.0
 10
13.4052698896
 20
34.7676183974
 30
0.0
 10
13.437965153
 20
34.7864949039
 30
0.0
  0
SPLINE
  5
349
100
AcDbEntity
  8
0
100
AcDbSpline
 62
7
  6
CONTINUOUS
 70
0
 71
3
 72
9
 73
5
 74
0
 42
0.0000001
 43
0.0000001
 44
0.0000000001
 40
0.0
 40
0.0
 40
0.0
 40
0.0
 40
0.4773840406
 40
1.0
 40
1.0
 40
1.0
 40
1.0
 10
12.8722773729
 20
35.8479396829
 30
0.0
 10
12.8395820813
 20
35.8290631602
 30
0.0
 10
12.7663613052
 20
35.797570349
 30
0.0
 10
12.6889784954
 20
35.7795442632
 30
0.0
 10
12.6481340436
 20
35.7732255896
 30
0.0
  0
SPLINE
  5
34A
100
AcDbEntity
  8
0
100
AcDbSpline
 62
7
  6
CONTINUOUS
 70
0
 71
3
 72
15
 73
11
 74
0
 42
0.0000001
 43
0.0000001
 44
0.0000000001
 40
0.0
 40
0.0
 40
0.0
 40
0.0
 40
0.1479762667
 40
0.2886338828
 40
0.4218464795
 40
0.5479732978
 40
0.6676834916
 40
0.7819645073
 40
0.8921803564
 40
1.0
 40
1.0
 40
1.0
 40
1.0
 10
16.308705959
 20
26.2785379409
 30
0.0
 10
16.527402487
 20
26.152276298
 30
0.0
 10
16.9641275323
 20
25.9229514365
 30
0.0
 10
17.6300157989
 20
25.6466293313
 30
0.0
 10
18.2848411909
 20
25.4493228329
 30
0.0
 10
18.9226961832
 20
25.3330060273
 30
0.0
 10
19.5380838449
 20
25.2989428666
 30
0.0
 10
20.1255235935
 20
25.348102296
 30
0.0
 10
20.6792619191
 20
25.4803348671
 30
0.0
 10
21.0244408284
 20
25.6244195648
 30
0.0
 10
21.1878081203
 20
25.7090755125
 30
0.0
  0
SPLINE
  5
34B
100
AcDbEntity
  8
0
100
AcDbSpline
 62
7
  6
CONTINUOUS
 70
0
 71
3
 72
9
 73
5
 74
0
 42
0.0000001
 43
0.0000001
 44
0.0000000001
 40
0.0
 40
0.0
 40
0.0
 40
0.0
 40
0.5226159594
 40
1.0
 40
1.0
 40
1.0
 40
1.0
 10
12.6481340436
 20
36.6713782484
 30
0.0
 10
12.6889784954
 20
36.677696922
 30
0.0
 10
12.7663613052
 20
36.6957230079
 30
0.0
 10
12.8395820813
 20
36.7272158191
 30
0.0
 10
12.8722773729
 20
36.7460923418
 30
0.0
  0
SPLINE
  5
34C
100
AcDbEntity
  8
0
100
AcDbSpline
 62
7
  6
CONTINUOUS
 70
0
 71
3
 72
14
 73
10
 74
0
 42
0.0000001
 43
0.0000001
 44
0.0000000001
 40
0.0
 40
0.0
 40
0.0
 40
0.0
 40
0.1435354029
 40
0.2816028426
 40
0.5406965007
 40
0.6622881344
 40
0.7789823786
 40
0.8913143948
 40
1.0
 40
1.0
 40
1.0
 40
1.0
 10
16.0287034878
 20
42.6836102307
 30
0.0
 10
15.8527984264
 20
42.7851667677
 30
0.0
 10
15.501225152
 20
42.9736175806
 30
0.0
 10
14.8032618916
 20
43.2878936397
 30
0.0
 10
14.1011022833
 20
43.5152819786
 30
0.0
 10
13.4074264443
 20
43.6395592276
 30
0.0
 10
12.9119980452
 20
43.6795211244
 30
0.0
 10
12.4333604701
 20
43.6677567152
 30
0.0
 10
12.1227193664
 20
43.6247466832
 30
0.0
 10
11.9719314796
 20
43.5944537629
 30
0.0
  0
SPLINE
  5
34D
100
AcDbEntity
  8
0
100
AcDbSpline
 62
7
  6
CONTINUOUS
 70
0
 71
3
 72
14
 73
10
 74
0
 42
0.0000001
 43
0.0000001
 44
0.0000000001
 40
0.0
 40
0.0
 40
0.0
 40
0.0
 40
0.1085590477
 40
0.2207402727
 40
0.3373011111
 40
0.4588082837
 40
0.7179542818
 40
0.8561939641
 40
1.0
 40
1.0
 40
1.0
 40
1.0
 10
10.0464857878
 20
42.5026342952
 30
0.0
 10
9.9419783837
 20
42.3873413824
 30
0.0
 10
9.7438538844
 20
42.1394972664
 30
0.0
 10
9.4869909539
 20
41.7287759916
 30
0.0
 10
9.2675586966
 20
41.2761866848
 30
0.0
 10
9.0211159017
 20
40.606448953
 30
0.0
 10
8.8623555564
 20
39.8755237907
 30
0.0
 10
8.7832622563
 20
39.1034867136
 30
0.0
 10
8.7703115471
 20
38.6989884495
 30
0.0
 10
8.7703115471
 20
38.4928558736
 30
0.0
  0
SPLINE
  5
34E
100
AcDbEntity
  8
0
100
AcDbSpline
 62
7
  6
CONTINUOUS
 70
0
 71
3
 72
11
 73
7
 74
0
 42
0.0000001
 43
0.0000001
 44
0.0000000001
 40
0.0
 40
0.0
 40
0.0
 40
0.0
 40
0.2486888888
 40
0.5022170486
 40
0.7518337718
 40
1.0
 40
1.0
 40
1.0
 40
1.0
 10
14.4010079573
 20
37.0002065645
 30
0.0
 10
14.4028541571
 20
37.001272462
 30
0.0
 10
14.4065948907
 20
37.0034068553
 30
0.0
 10
14.4119759519
 20
37.0069589555
 30
0.0
 10
14.4174933714
 20
37.0102792838
 30
0.0
 10
14.4212973335
 20
37.0122415763
 30
0.0
 10
14.4230545169
 20
37.0134406656
 30
0.0
  0
SPLINE
  5
34F
100
AcDbEntity
  8
0
100
AcDbSpline
 62
7
  6
CONTINUOUS
 70
0
 71
3
 72
11
 73
7
 74
0
 42
0.0000001
 43
0.0000001
 44
0.0000000001
 40
0.0
 40
0.0
 40
0.0
 40
0.0
 40
0.2177460213
 40
0.4508843683
 40
0.71046077
 40
1.0
 40
1.0
 40
1.0
 40
1.0
 10
21.6498740206
 20
29.723989294
 30
0.0
 10
21.6333843121
 20
29.7144690171
 30
0.0
 10
21.5955090597
 20
29.7006752937
 30
0.0
 10
21.5325433543
 20
29.6990935974
 30
0.0
 10
21.4654712656
 20
29.7153280926
 30
0.0
 10
21.4218157586
 20
29.7360681439
 30
0.0
 10
21.3998891265
 20
29.7487272043
 30
0.0
  0
SPLINE
  5
350
100
AcDbEntity
  8
0
100
AcDbSpline
 62
7
  6
CONTINUOUS
 70
0
 71
3
 72
15
 73
11
 74
0
 42
0.0000001
 43
0.0000001
 44
0.0000000001
 40
0.0
 40
0.0
 40
0.0
 40
0.0
 40
0.1485645585
 40
0.2894968259
 40
0.4227131772
 40
0.548630239
 40
0.6679971588
 40
0.7819396972
 40
0.8919901294
 40
1.0
 40
1.0
 40
1.0
 40
1.0
 10
9.078510197
 20
38.4749394059
 30
0.0
 10
9.078510197
 20
38.7358817306
 30
0.0
 10
9.0995623752
 20
39.2447096592
 30
0.0
 10
9.1996401917
 20
39.9815745055
 30
0.0
 10
9.3668804391
 20
40.6655596402
 30
0.0
 10
9.5999554916
 20
41.2899898568
 30
0.0
 10
9.8969871054
 20
41.848928052
 30
0.0
 10
10.2557942193
 20
42.3366137264
 30
0.0
 10
10.6729865207
 20
42.7475863753
 30
0.0
 10
10.9887251324
 20
42.9682152578
 30
0.0
 10
11.152959264
 20
43.0631755325
 30
0.0
  0
SPLINE
  5
351
100
AcDbEntity
  8
0
100
AcDbSpline
 62
7
  6
CONTINUOUS
 70
0
 71
3
 72
19
 73
15
 74
0
 42
0.0000001
 43
0.0000001
 44
0.0000000001
 40
0.0
 40
0.0
 40
0.0
 40
0.0
 40
0.0558398063
 40
0.1142083142
 40
0.1748227683
 40
0.2374052757
 40
0.3670158662
 40
0.4999989199
 40
0.6329821241
 40
0.7625931541
 40
0.8251759788
 40
0.8857908067
 40
0.944159736
 40
1.0
 40
1.0
 40
1.0
 40
1.0
 10
16.1672851916
 20
26.1968891101
 30
0.0
 10
15.9298312431
 20
26.3339801098
 30
0.0
 10
15.4561874053
 20
26.6355931067
 30
0.0
 10
14.7691673453
 20
27.1514735562
 30
0.0
 10
14.095568381
 20
27.7366242516
 30
0.0
 10
13.2139589953
 20
28.6115776685
 30
0.0
 10
12.1891487465
 20
29.8414936554
 30
0.0
 10
11.1230051031
 20
31.4699273871
 30
0.0
 10
10.2458027354
 20
33.2074494909
 30
0.0
 10
9.6930599607
 20
34.7099204253
 30
0.0
 10
9.3761239738
 20
35.9108966646
 30
0.0
 10
9.2061610156
 20
36.7868300063
 30
0.0
 10
9.1028980468
 20
37.6397523386
 30
0.0
 10
9.078510197
 20
38.2007505071
 30
0.0
 10
9.078510197
 20
38.4749394059
 30
0.0
  0
SPLINE
  5
352
100
AcDbEntity
  8
0
100
AcDbSpline
 62
7
  6
CONTINUOUS
 70
0
 71
3
 72
19
 73
15
 74
0
 42
0.0000001
 43
0.0000001
 44
0.0000000001
 40
0.0
 40
0.0
 40
0.0
 40
0.0
 40
0.055840264
 40
0.1142091933
 40
0.1748240212
 40
0.2374068459
 40
0.3670178759
 40
0.5000010801
 40
0.6329841338
 40
0.7625947243
 40
0.8251772317
 40
0.8857916858
 40
0.9441601937
 40
1.0
 40
1.0
 40
1.0
 40
1.0
 10
8.7703115471
 20
38.4928558736
 30
0.0
 10
8.7703115471
 20
38.212106309
 30
0.0
 10
8.7952829382
 20
37.6376848345
 30
0.0
 10
8.9010167358
 20
36.7643541691
 30
0.0
 10
9.0750464894
 20
35.8674618975
 30
0.0
 10
9.3995659748
 20
34.6377492514
 30
0.0
 10
9.9655345242
 20
33.0993278839
 30
0.0
 10
10.8637261866
 20
31.3202311507
 30
0.0
 10
11.9553800245
 20
29.652833006
 30
0.0
 10
13.0047114613
 20
28.3934881553
 30
0.0
 10
13.9074155907
 20
27.4975992557
 30
0.0
 10
14.597132121
 20
26.8984473436
 30
0.0
 10
15.3005908809
 20
26.3702231441
 30
0.0
 10
15.7855678506
 20
26.0613932902
 30
0.0
 10
16.0287034878
 20
25.9210220402
 30
0.0
  0
SPLINE
  5
353
100
AcDbEntity
  8
0
100
AcDbSpline
 62
7
  6
CONTINUOUS
 70
0
 71
3
 72
14
 73
10
 74
0
 42
0.0000001
 43
0.0000001
 44
0.0000000001
 40
0.0
 40
0.0
 40
0.0
 40
0.0
 40
0.1454010187
 40
0.2846164411
 40
0.5439519257
 40
0.6649147226
 40
0.7806714671
 40
0.8920237588
 40
1.0
 40
1.0
 40
1.0
 40
1.0
 10
16.5588527813
 20
45.9986048647
 30
0.0
 10
16.2947397432
 20
46.1510871487
 30
0.0
 10
15.7670155021
 20
46.4317436611
 30
0.0
 10
14.7209729574
 20
46.8886270241
 30
0.0
 10
13.668973925
 20
47.2006098144
 30
0.0
 10
12.635862937
 20
47.3379400802
 30
0.0
 10
11.9042156348
 20
47.3526127598
 30
0.0
 10
11.2032845114
 20
47.2809431734
 30
0.0
 10
10.7540861058
 20
47.1742891301
 30
0.0
 10
10.5379208305
 20
47.1067402766
 30
0.0
  0
SPLINE
  5
354
100
AcDbEntity
  8
0
100
AcDbSpline
 62
7
  6
CONTINUOUS
 70
0
 71
3
 72
11
 73
7
 74
0
 42
0.0000001
 43
0.0000001
 44
0.0000000001
 40
0.0
 40
0.0
 40
0.0
 40
0.0
 40
0.2194633828
 40
0.4811097398
 40
0.7534198385
 40
1.0
 40
1.0
 40
1.0
 40
1.0
 10
41.2363044374
 20
41.365405323
 30
0.0
 10
41.2466218698
 20
41.3550881372
 30
0.0
 10
41.2755314715
 20
41.3389976254
 30
0.0
 10
41.3251086206
 20
41.3290871704
 30
0.0
 10
41.3774338548
 20
41.3318058246
 30
0.0
 10
41.4108830042
 20
41.34286038
 30
0.0
 10
41.425080403
 20
41.3510572031
 30
0.0
  0
SPLINE
  5
355
100
AcDbEntity
  8
0
100
AcDbSpline
 62
7
  6
CONTINUOUS
 70
0
 71
3
 72
9
 73
5
 74
0
 42
0.0000001
 43
0.0000001
 44
0.0000000001
 40
0.0
 40
0.0
 40
0.0
 40
0.0
 40
0.5268753408
 40
1.0
 40
1.0
 40
1.0
 40
1.0
 10
41.1017175634
 20
41.0100875286
 30
0.0
 10
41.0968809348
 20
41.0149240415
 30
0.0
 10
41.0888821033
 20
41.0255137433
 30
0.0
 10
41.0856390795
 20
41.0385860848
 30
0.0
 10
41.0856357049
 20
41.0447282316
 30
0.0
  0
SPLINE
  5
356
100
AcDbEntity
  8
0
100
AcDbSpline
 62
7
  6
CONTINUOUS
 70
0
 71
3
 72
11
 73
7
 74
0
 42
0.0000001
 43
0.0000001
 44
0.0000000001
 40
0.0
 40
0.0
 40
0.0
 40
0.0
 40
0.2465801615
 40
0.5188902602
 40
0.7805366172
 40
1.0
 40
1.0
 40
1.0
 40
1.0
 10
41.425080403
 20
40.8611557529
 30
0.0
 10
41.4108830042
 20
40.8529589298
 30
0.0
 10
41.3774338548
 20
40.8419043743
 30
0.0
 10
41.3251086206
 20
40.8391857201
 30
0.0
 10
41.2755314715
 20
40.8490961752
 30
0.0
 10
41.2466218698
 20
40.8651866869
 30
0.0
 10
41.2363044374
 20
40.8755038727
 30
0.0
  0
SPLINE
  5
357
100
AcDbEntity
  8
0
100
AcDbSpline
 62
7
  6
CONTINUOUS
 70
0
 71
3
 72
9
 73
5
 74
0
 42
0.0000001
 43
0.0000001
 44
0.0000000001
 40
0.0
 40
0.0
 40
0.0
 40
0.0
 40
0.4794564663
 40
1.0
 40
1.0
 40
1.0
 40
1.0
 10
40.9051370825
 20
41.2141587105
 30
0.0
 10
40.9064361111
 20
41.2102176313
 30
0.0
 10
40.9105616762
 20
41.2024809193
 30
0.0
 10
40.916049249
 20
41.1957258577
 30
0.0
 10
40.9192349819
 20
41.192540201
 30
0.0
  0
SPLINE
  5
358
100
AcDbEntity
  8
0
100
AcDbSpline
 62
7
  6
CONTINUOUS
 70
0
 71
3
 72
11
 73
7
 74
0
 42
0.0000001
 43
0.0000001
 44
0.0000000001
 40
0.0
 40
0.0
 40
0.0
 40
0.0
 40
0.2895359077
 40
0.5491073512
 40
0.7822501136
 40
1.0
 40
1.0
 40
1.0
 40
1.0
 10
51.9821405644
 20
43.7310565314
 30
0.0
 10
51.9821405644
 20
43.7057373126
 30
0.0
 10
51.9782761395
 20
43.6575592298
 30
0.0
 10
51.9587999116
 20
43.5913534678
 30
0.0
 10
51.925948586
 20
43.5376104772
 30
0.0
 10
51.8950635913
 20
43.5117044886
 30
0.0
 10
51.8785729684
 20
43.5021836776
 30
0.0
  0
SPLINE
  5
359
100
AcDbEntity
  8
0
100
AcDbSpline
 62
7
  6
CONTINUOUS
 70
0
 71
3
 72
9
 73
5
 74
0
 42
0.0000001
 43
0.0000001
 44
0.0000000001
 40
0.0
 40
0.0
 40
0.0
 40
0.0
 40
0.504965727
 40
1.0
 40
1.0
 40
1.0
 40
1.0
 10
16.0714414566
 20
47.1078210529
 30
0.0
 10
16.2174966501
 20
47.2794378606
 30
0.0
 10
16.5346675409
 20
47.5967227219
 30
0.0
 10
16.902054347
 20
47.8546334966
 30
0.0
 10
17.093378653
 20
47.9650938418
 30
0.0
  0
SPLINE
  5
35A
100
AcDbEntity
  8
0
100
AcDbSpline
 62
7
  6
CONTINUOUS
 70
0
 71
3
 72
12
 73
8
 74
0
 42
0.0000001
 43
0.0000001
 44
0.0000000001
 40
0.0
 40
0.0
 40
0.0
 40
0.0
 40
0.1119053926
 40
0.2319250967
 40
0.4877029876
 40
0.7501242267
 40
1.0
 40
1.0
 40
1.0
 40
1.0
 10
12.9861155712
 20
39.2441786214
 30
0.0
 10
13.0107467586
 20
39.2299577141
 30
0.0
 10
13.06406425
 20
39.2043210999
 30
0.0
 10
13.1817059358
 20
39.1645648328
 30
0.0
 10
13.3431347125
 20
39.1386578797
 30
0.0
 10
13.5392398098
 20
39.1444066526
 30
0.0
 10
13.6674038045
 20
39.1734638098
 30
0.0
 10
13.7271615896
 20
39.1949643761
 30
0.0
  0
SPLINE
  5
35B
100
AcDbEntity
  8
0
100
AcDbSpline
 62
7
  6
CONTINUOUS
 70
0
 71
3
 72
9
 73
5
 74
0
 42
0.0000001
 43
0.0000001
 44
0.0000000001
 40
0.0
 40
0.0
 40
0.0
 40
0.0
 40
0.2476558813
 40
1.0
 40
1.0
 40
1.0
 40
1.0
 10
40.9840856041
 20
60.2081632488
 30
0.0
 10
40.988093935
 20
60.2104774464
 30
0.0
 10
41.0046589138
 20
60.219154093
 30
0.0
 10
41.022670539
 20
60.2250163138
 30
0.0
 10
41.0364551149
 20
60.2277880666
 30
0.0
  0
SPLINE
  5
35C
100
AcDbEntity
  8
0
100
AcDbSpline
 62
7
  6
CONTINUOUS
 70
0
 71
3
 72
10
 73
6
 74
0
 42
0.0000001
 43
0.0000001
 44
0.0000000001
 40
0.0
 40
0.0
 40
0.0
 40
0.0
 40
0.4577288483
 40
0.7180633212
 40
1.0
 40
1.0
 40
1.0
 40
1.0
 10
41.0364551149
 20
60.2277880666
 30
0.0
 10
41.0672855394
 20
60.2339873373
 30
0.0
 10
41.1184155882
 20
60.2310905673
 30
0.0
 10
41.1837680756
 20
60.2097511853
 30
0.0
 10
41.2172978646
 20
60.1931060612
 30
0.0
 10
41.2340728704
 20
60.1834212262
 30
0.0
  0
SPLINE
  5
35D
100
AcDbEntity
  8
0
100
AcDbSpline
 62
7
  6
CONTINUOUS
 70
0
 71
3
 72
11
 73
7
 74
0
 42
0.0000001
 43
0.0000001
 44
0.0000000001
 40
0.0
 40
0.0
 40
0.0
 40
0.0
 40
0.2177504419
 40
0.4508934119
 40
0.7104646156
 40
1.0
 40
1.0
 40
1.0
 40
1.0
 10
51.878569974
 20
54.20702596
 30
0.0
 10
51.8620798742
 20
54.2165463111
 30
0.0
 10
51.8242034292
 20
54.2303396482
 30
0.0
 10
51.7612373648
 20
54.2319179696
 30
0.0
 10
51.6941660187
 20
54.2156826195
 30
0.0
 10
51.6505120675
 20
54.1949411783
 30
0.0
 10
51.6285858301
 20
54.1822821347
 30
0.0
  0
SPLINE
  5
35E
100
AcDbEntity
  8
0
100
AcDbSpline
 62
7
  6
CONTINUOUS
 70
0
 71
3
 72
13
 73
9
 74
0
 42
0.0000001
 43
0.0000001
 44
0.0000000001
 40
0.0
 40
0.0
 40
0.0
 40
0.0
 40
0.114175902
 40
0.2375697249
 40
0.4999990828
 40
0.7624289442
 40
0.8858232992
 40
1.0
 40
1.0
 40
1.0
 40
1.0
 10
12.7731504361
 20
34.7292643842
 30
0.0
 10
12.748964142
 20
34.7432280316
 30
0.0
 10
12.7011650072
 20
34.7767679971
 30
0.0
 10
12.61161809
 20
34.8604983949
 30
0.0
 10
12.5171182768
 20
34.9896915053
 30
0.0
 10
12.4524830123
 20
35.1361271226
 30
0.0
 10
12.4247429453
 20
35.2555424797
 30
0.0
 10
12.4195955718
 20
35.3137080048
 30
0.0
 10
12.4195955718
 20
35.341635969
 30
0.0
  0
SPLINE
  5
35F
100
AcDbEntity
  8
0
100
AcDbSpline
 62
7
  6
CONTINUOUS
 70
0
 71
3
 72
15
 73
11
 74
0
 42
0.0000001
 43
0.0000001
 44
0.0000000001
 40
0.0
 40
0.0
 40
0.0
 40
0.0
 40
0.1287129791
 40
0.2707129336
 40
0.4179696276
 40
0.5624280741
 40
0.6962358146
 40
0.8136572163
 40
0.913096277
 40
1.0
 40
1.0
 40
1.0
 40
1.0
 10
17.6175472556
 20
33.6961070941
 30
0.0
 10
17.6267913141
 20
33.7014441218
 30
0.0
 10
17.6477627723
 20
33.7100606108
 30
0.0
 10
17.6819003102
 20
33.7169372567
 30
0.0
 10
17.7180311422
 20
33.7179201796
 30
0.0
 10
17.7531453871
 20
33.7129732487
 30
0.0
 10
17.7844753228
 20
33.7025069138
 30
0.0
 10
17.8095879525
 20
33.6872241989
 30
0.0
 10
17.8265551156
 20
33.6678670811
 30
0.0
 10
17.8309335226
 20
33.6522810988
 30
0.0
 10
17.8309314281
 20
33.6450742166
 30
0.0
  0
SPLINE
  5
360
100
AcDbEntity
  8
0
100
AcDbSpline
 62
7
  6
CONTINUOUS
 70
0
 71
3
 72
15
 73
11
 74
0
 42
0.0000001
 43
0.0000001
 44
0.0000000001
 40
0.0
 40
0.0
 40
0.0
 40
0.0
 40
0.1287129791
 40
0.2707129336
 40
0.4179696276
 40
0.5624280741
 40
0.6962358146
 40
0.8136572163
 40
0.913096277
 40
1.0
 40
1.0
 40
1.0
 40
1.0
 10
19.2085441371
 20
32.7775391518
 30
0.0
 10
19.2177881955
 20
32.7828761796
 30
0.0
 10
19.2387596538
 20
32.7914926686
 30
0.0
 10
19.2728971916
 20
32.7983693144
 30
0.0
 10
19.3090280236
 20
32.7993522374
 30
0.0
 10
19.3441422685
 20
32.7944053065
 30
0.0
 10
19.3754722043
 20
32.7839389715
 30
0.0
 10
19.4005848339
 20
32.7686562567
 30
0.0
 10
19.417551997
 20
32.7492991388
 30
0.0
 10
19.421930404
 20
32.7337131565
 30
0.0
 10
19.4219283095
 20
32.7265062743
 30
0.0
  0
SPLINE
  5
361
100
AcDbEntity
  8
0
100
AcDbSpline
 62
7
  6
CONTINUOUS
 70
0
 71
3
 72
10
 73
6
 74
0
 42
0.0000001
 43
0.0000001
 44
0.0000000001
 40
0.0
 40
0.0
 40
0.0
 40
0.0
 40
0.281831836
 40
0.5421451911
 40
1.0
 40
1.0
 40
1.0
 40
1.0
 10
41.2340728704
 20
60.1834212262
 30
0.0
 10
41.2507951727
 20
60.1930757943
 30
0.0
 10
41.2842198504
 20
60.2096773642
 30
0.0
 10
41.349375931
 20
60.2310047797
 30
0.0
 10
41.4003490735
 20
60.2339895655
 30
0.0
 10
41.431121879
 20
60.2279021222
 30
0.0
  0
SPLINE
  5
362
100
AcDbEntity
  8
0
100
AcDbSpline
 62
7
  6
CONTINUOUS
 70
0
 71
3
 72
9
 73
5
 74
0
 42
0.0000001
 43
0.0000001
 44
0.0000000001
 40
0.0
 40
0.0
 40
0.0
 40
0.0
 40
0.2543476562
 40
1.0
 40
1.0
 40
1.0
 40
1.0
 10
41.431121879
 20
60.2279021222
 30
0.0
 10
41.4358325327
 20
60.2269702657
 30
0.0
 10
41.4542035274
 20
60.2225924343
 30
0.0
 10
41.4718654817
 20
60.2152036791
 30
0.0
 10
41.4840570143
 20
60.2081650514
 30
0.0
  0
SPLINE
  5
363
100
AcDbEntity
  8
0
100
AcDbSpline
 62
7
  6
CONTINUOUS
 70
0
 71
3
 72
9
 73
5
 74
0
 42
0.0000001
 43
0.0000001
 44
0.0000000001
 40
0.0
 40
0.0
 40
0.0
 40
0.0
 40
0.5117920969
 40
1.0
 40
1.0
 40
1.0
 40
1.0
 10
21.9071218228
 20
30.4282883111
 30
0.0
 10
21.882272282
 20
30.3839386184
 30
0.0
 10
21.8399509467
 20
30.2936350044
 30
0.0
 10
21.8118948881
 20
30.1978006054
 30
0.0
 10
21.8026090936
 20
30.1502036425
 30
0.0
  0
SPLINE
  5
364
100
AcDbEntity
  8
0
100
AcDbSpline
 62
7
  6
CONTINUOUS
 70
0
 71
3
 72
9
 73
5
 74
0
 42
0.0000001
 43
0.0000001
 44
0.0000000001
 40
0.0
 40
0.0
 40
0.0
 40
0.0
 40
0.2404842709
 40
1.0
 40
1.0
 40
1.0
 40
1.0
 10
41.086087199
 20
41.528675064
 30
0.0
 10
41.0863532093
 20
41.5269207063
 30
0.0
 10
41.0879396288
 20
41.5196985519
 30
0.0
 10
41.0913801962
 20
41.512950834
 30
0.0
 10
41.094613554
 20
41.5083735981
 30
0.0
  0
SPLINE
  5
365
100
AcDbEntity
  8
0
100
AcDbSpline
 62
7
  6
CONTINUOUS
 70
0
 71
3
 72
9
 73
5
 74
0
 42
0.0000001
 43
0.0000001
 44
0.0000000001
 40
0.0
 40
0.0
 40
0.0
 40
0.0
 40
0.2435810785
 40
1.0
 40
1.0
 40
1.0
 40
1.0
 10
41.094613554
 20
41.5083735981
 30
0.0
 10
41.0951287217
 20
41.5076443116
 30
0.0
 10
41.097311812
 20
41.5046987113
 30
0.0
 10
41.0997568771
 20
41.5019496183
 30
0.0
 10
41.1017175634
 20
41.4999889789
 30
0.0
  0
SPLINE
  5
366
100
AcDbEntity
  8
0
100
AcDbSpline
 62
7
  6
CONTINUOUS
 70
0
 71
3
 72
9
 73
5
 74
0
 42
0.0000001
 43
0.0000001
 44
0.0000000001
 40
0.0
 40
0.0
 40
0.0
 40
0.0
 40
0.5092192614
 40
1.0
 40
1.0
 40
1.0
 40
1.0
 10
26.5954758733
 20
26.4077799035
 30
0.0
 10
26.8721143871
 20
26.4178128606
 30
0.0
 10
27.4149958668
 20
26.4798137047
 30
0.0
 10
27.9393135376
 20
26.635667003
 30
0.0
 10
28.1868629618
 20
26.735165056
 30
0.0
  0
SPLINE
  5
367
100
AcDbEntity
  8
0
100
AcDbSpline
 62
7
  6
CONTINUOUS
 70
0
 71
3
 72
15
 73
11
 74
0
 42
0.0000001
 43
0.0000001
 44
0.0000000001
 40
0.0
 40
0.0
 40
0.0
 40
0.0
 40
0.1435070349
 40
0.2806481597
 40
0.4116044104
 40
0.5369182813
 40
0.6573550381
 40
0.7738751174
 40
0.887645551
 40
1.0
 40
1.0
 40
1.0
 40
1.0
 10
19.8432704925
 20
49.934660817
 30
0.0
 10
19.5789420209
 20
50.0425630629
 30
0.0
 10
19.0533470503
 20
50.2332499246
 30
0.0
 10
18.2608745305
 20
50.4439394105
 30
0.0
 10
17.4871913157
 20
50.5709466771
 30
0.0
 10
16.7374019276
 20
50.6133297588
 30
0.0
 10
16.016212214
 20
50.5704917628
 30
0.0
 10
15.3283098525
 20
50.4424342448
 30
0.0
 10
14.6785947116
 20
50.2296807757
 30
0.0
 10
14.272759495
 20
50.0316514721
 30
0.0
 10
14.0791850268
 20
49.9198792864
 30
0.0
  0
SPLINE
  5
368
100
AcDbEntity
  8
0
100
AcDbSpline
 62
7
  6
CONTINUOUS
 70
0
 71
3
 72
15
 73
11
 74
0
 42
0.0000001
 43
0.0000001
 44
0.0000000001
 40
0.0
 40
0.0
 40
0.0
 40
0.0
 40
0.108013789
 40
0.218062666
 40
0.3320007663
 40
0.4513627927
 40
0.5772765293
 40
0.7104924459
 40
0.8514280195
 40
1.0
 40
1.0
 40
1.0
 40
1.0
 10
21.1797627512
 20
25.700408213
 30
0.0
 10
21.0153999382
 20
25.6055138719
 30
0.0
 10
20.6664203638
 20
25.4421182556
 30
0.0
 10
20.1017770668
 20
25.2859643975
 30
0.0
 10
19.4998406781
 20
25.2188104165
 30
0.0
 10
18.867044665
 20
25.240863226
 30
0.0
 10
18.2094766863
 20
25.3511320036
 30
0.0
 10
17.5332255232
 20
25.5482732454
 30
0.0
 10
16.8447439247
 20
25.8300967628
 30
0.0
 10
16.3933656774
 20
26.0663644337
 30
0.0
 10
16.1672851916
 20
26.1968891101
 30
0.0
  0
SPLINE
  5
369
100
AcDbEntity
  8
0
100
AcDbSpline
 62
7
  6
CONTINUOUS
 70
0
 71
3
 72
25
 73
21
 74
0
 42
0.0000001
 43
0.0000001
 44
0.0000000001
 40
0.0
 40
0.0
 40
0.0
 40
0.0
 40
0.0213095786
 40
0.0429604259
 40
0.0651502456
 40
0.0880514315
 40
0.1364729366
 40
0.1890593281
 40
0.2461038614
 40
0.3075064714
 40
0.3728596409
 40
0.4415235428
 40
0.5126887461
 40
0.5854294695
 40
0.6587517391
 40
0.7316343862
 40
0.8030792386
 40
0.8721451924
 40
0.9380132434
 40
1.0
 40
1.0
 40
1.0
 40
1.0
 10
11.0911105843
 20
43.0173461521
 30
0.0
 10
10.9749484989
 20
42.9385690418
 30
0.0
 10
10.7505421314
 20
42.7648047025
 30
0.0
 10
10.4451753884
 20
42.4619426474
 30
0.0
 10
10.1709476571
 20
42.1171032103
 30
0.0
 10
9.8426838646
 20
41.5946834397
 30
0.0
 10
9.5204321721
 20
40.8387695571
 30
0.0
 10
9.2851691735
 20
39.8203152371
 30
0.0
 10
9.1961587734
 20
38.6937595615
 30
0.0
 10
9.2543144772
 20
37.4817729245
 30
0.0
 10
9.4578908209
 20
36.2084854778
 30
0.0
 10
9.8025784461
 20
34.8996748654
 30
0.0
 10
10.2812608296
 20
33.5820347562
 30
0.0
 10
10.8840905423
 20
32.2825911667
 30
0.0
 10
11.5986628365
 20
31.0280949447
 30
0.0
 10
12.4102433252
 20
29.8443550734
 30
0.0
 10
13.3021468291
 20
28.7557965289
 30
0.0
 10
14.2561173717
 20
27.7846241789
 30
0.0
 10
15.2525141321
 20
26.9510243838
 30
0.0
 10
15.9551286918
 20
26.4826712532
 30
0.0
 10
16.308705959
 20
26.2785379409
 30
0.0
  0
SPLINE
  5
36A
100
AcDbEntity
  8
0
100
AcDbSpline
 62
7
  6
CONTINUOUS
 70
0
 71
3
 72
9
 73
5
 74
0
 42
0.0000001
 43
0.0000001
 44
0.0000000001
 40
0.0
 40
0.0
 40
0.0
 40
0.0
 40
0.5035985493
 40
1.0
 40
1.0
 40
1.0
 40
1.0
 10
14.0017806207
 20
47.5525235622
 30
0.0
 10
14.147688534
 20
47.7074847404
 30
0.0
 10
14.4593013116
 20
47.9954353903
 30
0.0
 10
14.8099899413
 20
48.2344762662
 30
0.0
 10
14.9916784382
 20
48.3393846717
 30
0.0
  0
SPLINE
  5
36B
100
AcDbEntity
  8
0
100
AcDbSpline
 62
7
  6
CONTINUOUS
 70
0
 71
3
 72
12
 73
8
 74
0
 42
0.0000001
 43
0.0000001
 44
0.0000000001
 40
0.0
 40
0.0
 40
0.0
 40
0.0
 40
0.1128871802
 40
0.2344308218
 40
0.4933160636
 40
0.7558957822
 40
1.0
 40
1.0
 40
1.0
 40
1.0
 10
17.3700609126
 20
33.5532216402
 30
0.0
 10
17.3432865579
 20
33.5377635516
 30
0.0
 10
17.2902669255
 20
33.5010759224
 30
0.0
 10
17.189958229
 20
33.4101590502
 30
0.0
 10
17.081400553
 20
33.269488727
 30
0.0
 10
16.9885743431
 20
33.0801322821
 30
0.0
 10
16.9551192996
 20
32.9437163144
 30
0.0
 10
16.9487075186
 20
32.8771718853
 30
0.0
  0
SPLINE
  5
36C
100
AcDbEntity
  8
0
100
AcDbSpline
 62
7
  6
CONTINUOUS
 70
0
 71
3
 72
13
 73
9
 74
0
 42
0.0000001
 43
0.0000001
 44
0.0000000001
 40
0.0
 40
0.0
 40
0.0
 40
0.0
 40
0.1140684173
 40
0.2375738328
 40
0.500031153
 40
0.7624609269
 40
0.8859443988
 40
1.0
 40
1.0
 40
1.0
 40
1.0
 10
14.3294867396
 20
35.6353056701
 30
0.0
 10
14.3149815063
 20
35.6436800809
 30
0.0
 10
14.2863044723
 20
35.6638376413
 30
0.0
 10
14.2325220916
 20
35.714075264
 30
0.0
 10
14.1758006802
 20
35.7916650381
 30
0.0
 10
14.1370144052
 20
35.8795986841
 30
0.0
 10
14.1204302727
 20
35.9512920457
 30
0.0
 10
14.1173208749
 20
35.9862009992
 30
0.0
 10
14.1173224561
 20
36.0029482231
 30
0.0
  0
SPLINE
  5
36D
100
AcDbEntity
  8
0
100
AcDbSpline
 62
7
  6
CONTINUOUS
 70
0
 71
3
 72
11
 73
7
 74
0
 42
0.0000001
 43
0.0000001
 44
0.0000000001
 40
0.0
 40
0.0
 40
0.0
 40
0.0
 40
0.2177456295
 40
0.4508837762
 40
0.7104602913
 40
1.0
 40
1.0
 40
1.0
 40
1.0
 10
45.4085136154
 20
57.9424247523
 30
0.0
 10
45.3920240611
 20
57.9519447827
 30
0.0
 10
45.3541491883
 20
57.9657380316
 30
0.0
 10
45.2911842466
 20
57.9673191716
 30
0.0
 10
45.224113047
 20
57.9510842959
 30
0.0
 10
45.1804581656
 20
57.9303441302
 30
0.0
 10
45.158531845
 20
57.9176850386
 30
0.0
  0
SPLINE
  5
36E
100
AcDbEntity
  8
0
100
AcDbSpline
 62
7
  6
CONTINUOUS
 70
0
 71
3
 72
11
 73
7
 74
0
 42
0.0000001
 43
0.0000001
 44
0.0000000001
 40
0.0
 40
0.0
 40
0.0
 40
0.0
 40
0.2895401978
 40
0.5491171512
 40
0.782255066
 40
1.0
 40
1.0
 40
1.0
 40
1.0
 10
12.4195959199
 20
39.0975469141
 30
0.0
 10
12.4195959199
 20
39.1228662257
 30
0.0
 10
12.4234619448
 20
39.1710444849
 30
0.0
 10
12.4429384794
 20
39.237249906
 30
0.0
 10
12.4757917121
 20
39.2909904996
 30
0.0
 10
12.5066758231
 20
39.3168951728
 30
0.0
 10
12.5231658897
 20
39.3264156565
 30
0.0
  0
SPLINE
  5
36F
100
AcDbEntity
  8
0
100
AcDbSpline
 62
7
  6
CONTINUOUS
 70
0
 71
3
 72
9
 73
5
 74
0
 42
0.0000001
 43
0.0000001
 44
0.0000000001
 40
0.0
 40
0.0
 40
0.0
 40
0.0
 40
0.4957926891
 40
1.0
 40
1.0
 40
1.0
 40
1.0
 10
27.6666079683
 20
26.3856316585
 30
0.0
 10
27.4696703857
 20
26.2719183078
 30
0.0
 10
27.0531250757
 20
26.0745659696
 30
0.0
 10
26.6106967735
 20
25.9459527238
 30
0.0
 10
26.3844287642
 20
25.8981171033
 30
0.0
  0
SPLINE
  5
370
100
AcDbEntity
  8
0
100
AcDbSpline
 62
7
  6
CONTINUOUS
 70
0
 71
3
 72
11
 73
7
 74
0
 42
0.0000001
 43
0.0000001
 44
0.0000000001
 40
0.0
 40
0.0
 40
0.0
 40
0.0
 40
0.2177486817
 40
0.4508908281
 40
0.7104626204
 40
1.0
 40
1.0
 40
1.0
 40
1.0
 10
52.128562469
 20
43.9351769064
 30
0.0
 10
52.1285624698
 20
43.9161359925
 30
0.0
 10
52.121569821
 20
43.8764374118
 30
0.0
 10
52.0914534666
 20
43.8211181331
 30
0.0
 10
52.0438570427
 20
43.7711503634
 30
0.0
 10
52.0040670069
 20
43.7437156935
 30
0.0
 10
51.9821405644
 20
43.7310565314
 30
0.0
  0
SPLINE
  5
371
100
AcDbEntity
  8
0
100
AcDbSpline
 62
7
  6
CONTINUOUS
 70
0
 71
3
 72
11
 73
7
 74
0
 42
0.0000001
 43
0.0000001
 44
0.0000000001
 40
0.0
 40
0.0
 40
0.0
 40
0.0
 40
0.2895416679
 40
0.5491189685
 40
0.7822562674
 40
1.0
 40
1.0
 40
1.0
 40
1.0
 10
51.9821405644
 20
47.4461425293
 30
0.0
 10
52.004067087
 20
47.4588017378
 30
0.0
 10
52.0438564754
 20
47.4862378813
 30
0.0
 10
52.0914524506
 20
47.5362057459
 30
0.0
 10
52.121565775
 20
47.5915254778
 30
0.0
 10
52.1285577283
 20
47.6312226354
 30
0.0
 10
52.1285577228
 20
47.6502629042
 30
0.0
  0
SPLINE
  5
372
100
AcDbEntity
  8
0
100
AcDbSpline
 62
7
  6
CONTINUOUS
 70
0
 71
3
 72
9
 73
5
 74
0
 42
0.0000001
 43
0.0000001
 44
0.0000000001
 40
0.0
 40
0.0
 40
0.0
 40
0.0
 40
0.4912919665
 40
1.0
 40
1.0
 40
1.0
 40
1.0
 10
15.4947267224
 20
48.5674242869
 30
0.0
 10
15.3015472163
 20
48.4103307371
 30
0.0
 10
14.9354733713
 20
48.0559361431
 30
0.0
 10
14.6319181206
 20
47.6472695906
 30
0.0
 10
14.4936004303
 20
47.4296958368
 30
0.0
  0
SPLINE
  5
373
100
AcDbEntity
  8
0
100
AcDbSpline
 62
7
  6
CONTINUOUS
 70
0
 71
3
 72
9
 73
5
 74
0
 42
0.0000001
 43
0.0000001
 44
0.0000000001
 40
0.0
 40
0.0
 40
0.0
 40
0.0
 40
0.4950176017
 40
1.0
 40
1.0
 40
1.0
 40
1.0
 10
28.3933231024
 20
28.3928991039
 30
0.0
 10
28.2015913873
 20
28.2822035426
 30
0.0
 10
27.7936119969
 20
28.0926614508
 30
0.0
 10
27.3592416774
 20
27.9766054032
 30
0.0
 10
27.1370750218
 20
27.9359883962
 30
0.0
  0
SPLINE
  5
374
100
AcDbEntity
  8
0
100
AcDbSpline
 62
7
  6
CONTINUOUS
 70
0
 71
3
 72
11
 73
7
 74
0
 42
0.0000001
 43
0.0000001
 44
0.0000000001
 40
0.0
 40
0.0
 40
0.0
 40
0.0
 40
0.2895373801
 40
0.5491091728
 40
0.7822513189
 40
1.0
 40
1.0
 40
1.0
 40
1.0
 10
51.9821406926
 20
53.5699105489
 30
0.0
 10
52.0040671356
 20
53.5825697111
 30
0.0
 10
52.0438571724
 20
53.6100043812
 30
0.0
 10
52.0914535977
 20
53.6599721513
 30
0.0
 10
52.1215699529
 20
53.7152914307
 30
0.0
 10
52.1285626019
 20
53.754990012
 30
0.0
 10
52.128562601
 20
53.7740309262
 30
0.0
  0
SPLINE
  5
375
100
AcDbEntity
  8
0
100
AcDbSpline
 62
7
  6
CONTINUOUS
 70
0
 71
3
 72
13
 73
9
 74
0
 42
0.0000001
 43
0.0000001
 44
0.0000000001
 40
0.0
 40
0.0
 40
0.0
 40
0.0
 40
0.1141732089
 40
0.2375638708
 40
0.4999989157
 40
0.7624345537
 40
0.8858259098
 40
1.0
 40
1.0
 40
1.0
 40
1.0
 10
51.6285858301
 20
54.1822821347
 30
0.0
 10
51.6527716015
 20
54.168318789
 30
0.0
 10
51.7005705125
 20
54.1347808575
 30
0.0
 10
51.7901179733
 20
54.0510506908
 30
0.0
 10
51.8846213473
 20
53.9218570729
 30
0.0
 10
51.9492553391
 20
53.7754180961
 30
0.0
 10
51.9769949366
 20
53.6560023016
 30
0.0
 10
51.9821406926
 20
53.5978379298
 30
0.0
 10
51.9821406926
 20
53.5699105489
 30
0.0
  0
ELLIPSE
  5
376
100
AcDbEntity
  8
0
100
AcDbEllipse
 62
7
  6
CONTINUOUS
 10
40.9882146442
 20
44.6332610639
 30
0.0
 11
0.0234290375
 21
6.0068625954
 31
0.0
 40
0.0140945068
 41
-4.2104499074
 42
-4.106817735
  0
ELLIPSE
  5
377
100
AcDbEntity
  8
0
100
AcDbEllipse
 62
7
  6
CONTINUOUS
 10
40.9882146442
 20
44.6332610639
 30
0.0
 11
0.0234290375
 21
6.0068625954
 31
0.0
 40
0.0140945068
 41
1.8407705618
 42
1.8946583973
  0
ELLIPSE
  5
378
100
AcDbEntity
  8
0
100
AcDbEllipse
 62
7
  6
CONTINUOUS
 10
11.767286095
 20
33.9627564116
 30
0.0
 11
-0.141422556
 21
0.2449482816
 31
0.0
 40
0.5773470039
 41
-0.0000043201
 42
1.5707920067
  0
ENDSEC
  0
SECTION
  2
OBJECTS
  0
DICTIONARY
  5
C
100
AcDbDictionary
280
0
281
1
  3
ACAD_GROUP
350
D
  3
ACAD_MLINESTYLE
350
17
  3
ACAD_LAYOUT
350
1A
  3
ACAD_PLOTSETTINGS
350
19
  3
ACAD_PLOTSTYLENAME
350
E
  0
DICTIONARY
  5
D
102
{ACAD_REACTORS
330
C
102
}
100
AcDbDictionary
280
0
281
1
  0
ACDBDICTIONARYWDFLT
  5
E
102
{ACAD_REACTORS
330
C
102
}
100
AcDbDictionary
281
1
  3
Normal
350
F
100
AcDbDictionaryWithDefault
340
F
  0
DICTIONARY
  5
17
102
{ACAD_REACTORS
330
C
102
}
100
AcDbDictionary
280
0
281
1
  3
Standard
350
18
  0
DICTIONARY
  5
19
102
{ACAD_REACTORS
330
C
102
}
100
AcDbDictionary
281
1
  0
DICTIONARY
  5
1A
102
{ACAD_REACTORS
330
C
102
}
100
AcDbDictionary
281
1
  3
Model
350
379
  3
Layout1
350
37A
  0
ACDBPLACEHOLDER
  5
F
102
{ACAD_REACTORS
330
E
102
}
  0
MLINESTYLE
  5
18
102
{ACAD_REACTORS
330
17
102
}
100
AcDbMlineStyle
  2
STANDARD
 70
0
  3

 62
256
 51
90.0
 52
90.0
 71
2
 49
0.5
 62
256
  6
BYLAYER
 49
-0.5
 62
256
  6
BYLAYER
  0
LAYOUT
  5
379
102
{ACAD_REACTORS
330
1A
102
}
100
AcDbPlotSettings
  1

  2
none_device
  4

  6

 40
0.0
 41
0.0
 42
0.0
 43
0.0
 44
210.0
 45
297.0
 46
0.0
 47
0.0
 48
0.0
 49
0.0
140
0.0
141
0.0
142
1.0
143
1.0
 70
1024
 72
1
 73
0
 74
0
  7

 75
0
147
1.0
148
0.0
149
0.0
100
AcDbLayout
  1
Model
 70
0
 71
0
 10
0.0
 20
0.0
 11
210.0
 21
297.0
 12
0.0
 22
0.0
 32
0.0
 14
0.0
 24
0.0
 34
0.0
 15
0.0
 25
0.0
 35
0.0
146
0.0
 13
0.0
 23
0.0
 33
0.0
 16
1.0
 26
0.0
 36
0.0
 17
0.0
 27
1.0
 37
0.0
 76
0
330
210
345
0
346
0
  0
LAYOUT
  5
37A
102
{ACAD_REACTORS
330
1A
102
}
100
AcDbPlotSettings
  1

  2
none_device
  4

  6

 40
0.0
 41
0.0
 42
0.0
 43
0.0
 44
210.0
 45
297.0
 46
0.0
 47
0.0
 48
0.0
 49
0.0
140
0.0
141
0.0
142
1.0
143
1.0
 70
0
 72
1
 73
0
 74
0
  7

 75
0
147
1.0
148
0.0
149
0.0
100
AcDbLayout
  1
Layout1
 70
0
 71
1
 10
0.0
 20
0.0
 11
210.0
 21
297.0
 12
0.0
 22
0.0
 32
0.0
 14
0.0
 24
0.0
 34
0.0
 15
0.0
 25
0.0
 35
0.0
146
0.0
 13
0.0
 23
0.0
 33
0.0
 16
1.0
 26
0.0
 36
0.0
 17
0.0
 27
1.0
 37
0.0
 76
0
330
211
345
0
346
0
  0
ENDSEC
  0
EOF
