999
DXF file: Y:\001_SCHNEIDER_PARIS\maxime fuentes - génération CAD 2D\TRAVAIL\XB5FW31B5_2D-Views\xb5fw31b5_2d-views_3.dxf
999
Pro/ENGINEER 2018260 by Parametric Technology Corporation
  0
SECTION
  2
HEADER
  9
$ACADVER
  1
AC1027
  9
$DWGCODEPAGE
  3
ANSI_1252
  9
$EXTMAX
 10
558.8
 20
431.8
 30
0.0
  9
$EXTMIN
 10
0.0
 20
0.0
 30
0.0
  9
$LIMMIN
 10
0.0
 20
0.0
  9
$LIMMAX
 10
558.8
 20
431.8
  9
$VIEWCTR
 10
279.4
 20
215.9
  9
$VIEWSIZE
 40
431.8
  9
$CLAYER
  8
0
  9
$LTSCALE
 40
30.734
  9
$CELTYPE
  6
BYLAYER
  9
$DIMSCALE
 40
1.0
  9
$DIMASZ
 40
0.1875
  9
$DIMEXO
 40
0.0625
  9
$DIMDLI
 40
21.2344
  9
$DIMEXE
 40
0.125
  9
$DIMCEN
 40
5.0292
  9
$DIMLFAC
 40
1.0
  9
$DIMBLK
  1
_CLOSED
  9
$DIMALT
 70
0
  9
$DIMALTF
 40
0.0393700787
  9
$DIMTXT
 40
0.15625
  9
$DIMTOL
 70
0
  9
$DIMLIM
 70
0
  9
$DIMTFAC
 40
1.0
  9
$DIMGAP
 40
0.625
  9
$DIMDSEP
 70
46
  9
$AUNITS
 70
0
  9
$PDMODE
 70
3
  9
$PDSIZE
 40
0.3125
  9
$HANDSEED
  5
819
  9
$TILEMODE
 70
1
  9
$MEASUREMENT
 70
1
  9
$INSUNITS
 70
4
  0
ENDSEC
  0
SECTION
  2
CLASSES
  0
CLASS
  1
ACDBDICTIONARYWDFLT
  2
AcDbDictionaryWithDefault
  3
AutoCAD 2000
 90
0
 91
1
280
0
281
0
  0
CLASS
  1
ACDBPLACEHOLDER
  2
AcDbPlaceHolder
  3
AutoCAD 2000
 90
0
 91
1
280
0
281
0
  0
CLASS
  1
LAYOUT
  2
AcDbLayout
  3
AutoCAD 2000
 90
0
 91
0
280
0
281
0
  0
ENDSEC
  0
SECTION
  2
TABLES
  0
TABLE
  2
VPORT
  5
8
100
AcDbSymbolTable
 70
2
  0
VPORT
  5
1F4
100
AcDbSymbolTableRecord
100
AcDbViewportTableRecord
  2
*ACTIVE
 70
0
 10
0.0
 20
0.0
 11
1.0
 21
1.0
 12
279.4
 22
215.9
 13
0.0
 23
0.0
 14
1.0
 24
1.0
 15
0.0
 25
0.0
 16
0.0
 26
0.0
 36
1.0
 17
0.0
 27
0.0
 37
0.0
 40
431.8
 41
1.2941176471
 42
50.0
 43
0.0
 44
0.0
 50
0.0
 51
0.0
 71
0
 72
100
 73
1
 74
1
 75
0
 76
0
 77
0
 78
0
  0
ENDTAB
  0
TABLE
  2
LTYPE
  5
5
100
AcDbSymbolTable
 70
6
  0
LTYPE
  5
14
100
AcDbSymbolTableRecord
100
AcDbLinetypeTableRecord
  2
BYBLOCK
 70
0
  3

 72
65
 73
0
 40
0.0
  0
LTYPE
  5
15
100
AcDbSymbolTableRecord
100
AcDbLinetypeTableRecord
  2
BYLAYER
 70
0
  3

 72
65
 73
0
 40
0.0
  0
LTYPE
  5
16
100
AcDbSymbolTableRecord
100
AcDbLinetypeTableRecord
  2
CONTINUOUS
 70
64
  3
Solid line
 72
65
 73
0
 40
0.0
  0
LTYPE
  5
1F5
100
AcDbSymbolTableRecord
100
AcDbLinetypeTableRecord
  2
CENTER
 70
64
  3
____ _ ____ _ ____ _ ____ _ ____ _ ____ _ ____
 72
65
 73
4
 40
0.6
 49
0.375
 74
0
 49
-0.075
 74
0
 49
0.075
 74
0
 49
-0.075
 74
0
  0
LTYPE
  5
1F6
100
AcDbSymbolTableRecord
100
AcDbLinetypeTableRecord
  2
HIDDEN
 70
64
  3
- - - - - - - - - - - - - - - - - - - -
 72
65
 73
2
 40
0.2
 49
0.1
 74
0
 49
-0.1
 74
0
  0
LTYPE
  5
1F7
100
AcDbSymbolTableRecord
100
AcDbLinetypeTableRecord
  2
PHANTOM
 70
64
  3
_____ _ _ _____ _ _ _____ _ _ _____
 72
65
 73
6
 40
0.8
 49
0.45
 74
0
 49
-0.05
 74
0
 49
0.1
 74
0
 49
-0.05
 74
0
 49
0.1
 74
0
 49
-0.05
 74
0
  0
LTYPE
  5
1F8
100
AcDbSymbolTableRecord
100
AcDbLinetypeTableRecord
  2
DOT
 70
64
  3
. . . . . . . . . . . . . . . . . . . .
 72
65
 73
2
 40
0.2
 49
0.1
 74
0
 49
-0.1
 74
0
  0
LTYPE
  5
1F9
100
AcDbSymbolTableRecord
100
AcDbLinetypeTableRecord
  2
DASHED
 70
64
  3
- - - - - - - - - - - - - - - - - - - -
 72
65
 73
2
 40
0.2
 49
0.1
 74
0
 49
-0.1
 74
0
  0
ENDTAB
  0
TABLE
  2
LAYER
  5
2
100
AcDbSymbolTable
 70
36
  0
LAYER
  5
10
100
AcDbSymbolTableRecord
100
AcDbLayerTableRecord
  2
0
 70
0
 62
7
  6
CONTINUOUS
370
-3
390
F
  0
LAYER
  5
1FA
100
AcDbSymbolTableRecord
100
AcDbLayerTableRecord
  2
DEFAULT_1
 70
0
 62
7
  6
CENTER
370
-3
390
F
  0
LAYER
  5
1FB
100
AcDbSymbolTableRecord
100
AcDbLayerTableRecord
  2
DEFAULT_2
 70
0
 62
8
  6
HIDDEN
370
-3
390
F
  0
LAYER
  5
1FC
100
AcDbSymbolTableRecord
100
AcDbLayerTableRecord
  2
DEFAULT_3
 70
0
 62
7
  6
PHANTOM
370
-3
390
F
  0
LAYER
  5
1FD
100
AcDbSymbolTableRecord
100
AcDbLayerTableRecord
  2
00_COMPONENTS
 70
0
 62
7
  6
CONTINUOUS
370
-3
390
F
  0
LAYER
  5
1FE
100
AcDbSymbolTableRecord
100
AcDbLayerTableRecord
  2
00_COMPONENTS_103_1
 70
0
 62
7
  6
CONTINUOUS
370
-3
390
F
  0
LAYER
  5
1FF
100
AcDbSymbolTableRecord
100
AcDbLayerTableRecord
  2
00_COMPONENTS_108_1
 70
0
 62
7
  6
CONTINUOUS
370
-3
390
F
  0
LAYER
  5
200
100
AcDbSymbolTableRecord
100
AcDbLayerTableRecord
  2
00_COMPONENTS_10_1
 70
0
 62
7
  6
CONTINUOUS
370
-3
390
F
  0
LAYER
  5
201
100
AcDbSymbolTableRecord
100
AcDbLayerTableRecord
  2
00_COMPONENTS_10_1_1
 70
0
 62
7
  6
CONTINUOUS
370
-3
390
F
  0
LAYER
  5
202
100
AcDbSymbolTableRecord
100
AcDbLayerTableRecord
  2
00_COMPONENTS_10_1_2
 70
0
 62
7
  6
CONTINUOUS
370
-3
390
F
  0
LAYER
  5
203
100
AcDbSymbolTableRecord
100
AcDbLayerTableRecord
  2
00_COMPONENTS_10_4
 70
0
 62
7
  6
CONTINUOUS
370
-3
390
F
  0
LAYER
  5
204
100
AcDbSymbolTableRecord
100
AcDbLayerTableRecord
  2
00_COMPONENTS_10_4_1
 70
0
 62
7
  6
CONTINUOUS
370
-3
390
F
  0
LAYER
  5
205
100
AcDbSymbolTableRecord
100
AcDbLayerTableRecord
  2
00_COMPONENTS_11
 70
0
 62
7
  6
CONTINUOUS
370
-3
390
F
  0
LAYER
  5
206
100
AcDbSymbolTableRecord
100
AcDbLayerTableRecord
  2
00_COMPONENTS_11_1
 70
0
 62
7
  6
CONTINUOUS
370
-3
390
F
  0
LAYER
  5
207
100
AcDbSymbolTableRecord
100
AcDbLayerTableRecord
  2
00_COMPONENTS_11_1_1
 70
0
 62
7
  6
CONTINUOUS
370
-3
390
F
  0
LAYER
  5
208
100
AcDbSymbolTableRecord
100
AcDbLayerTableRecord
  2
00_COMPONENTS_11_1_1_1
 70
0
 62
7
  6
CONTINUOUS
370
-3
390
F
  0
LAYER
  5
209
100
AcDbSymbolTableRecord
100
AcDbLayerTableRecord
  2
00_COMPONENTS_11_1_1_1_1
 70
0
 62
7
  6
CONTINUOUS
370
-3
390
F
  0
LAYER
  5
20A
100
AcDbSymbolTableRecord
100
AcDbLayerTableRecord
  2
00_COMPONENTS_11_1_1_3
 70
0
 62
7
  6
CONTINUOUS
370
-3
390
F
  0
LAYER
  5
20B
100
AcDbSymbolTableRecord
100
AcDbLayerTableRecord
  2
00_COMPONENTS_11_1_1_3_1
 70
0
 62
7
  6
CONTINUOUS
370
-3
390
F
  0
LAYER
  5
20C
100
AcDbSymbolTableRecord
100
AcDbLayerTableRecord
  2
00_COMPONENTS_11_1_1_5
 70
0
 62
7
  6
CONTINUOUS
370
-3
390
F
  0
LAYER
  5
20D
100
AcDbSymbolTableRecord
100
AcDbLayerTableRecord
  2
00_COMPONENTS_11_1_1_5_1
 70
0
 62
7
  6
CONTINUOUS
370
-3
390
F
  0
LAYER
  5
20E
100
AcDbSymbolTableRecord
100
AcDbLayerTableRecord
  2
00_COMPONENTS_11_1_1_6
 70
0
 62
7
  6
CONTINUOUS
370
-3
390
F
  0
LAYER
  5
20F
100
AcDbSymbolTableRecord
100
AcDbLayerTableRecord
  2
00_COMPONENTS_11_1_1_6_1
 70
0
 62
7
  6
CONTINUOUS
370
-3
390
F
  0
LAYER
  5
210
100
AcDbSymbolTableRecord
100
AcDbLayerTableRecord
  2
00_COMPONENTS_11_1_1_7
 70
0
 62
7
  6
CONTINUOUS
370
-3
390
F
  0
LAYER
  5
211
100
AcDbSymbolTableRecord
100
AcDbLayerTableRecord
  2
00_COMPONENTS_11_1_1_7_1
 70
0
 62
7
  6
CONTINUOUS
370
-3
390
F
  0
LAYER
  5
212
100
AcDbSymbolTableRecord
100
AcDbLayerTableRecord
  2
00_COMPONENTS_11_1_1_8
 70
0
 62
7
  6
CONTINUOUS
370
-3
390
F
  0
LAYER
  5
213
100
AcDbSymbolTableRecord
100
AcDbLayerTableRecord
  2
00_COMPONENTS_11_1_1_8_1
 70
0
 62
7
  6
CONTINUOUS
370
-3
390
F
  0
LAYER
  5
214
100
AcDbSymbolTableRecord
100
AcDbLayerTableRecord
  2
00_COMPONENTS_11_1_2
 70
0
 62
7
  6
CONTINUOUS
370
-3
390
F
  0
LAYER
  5
215
100
AcDbSymbolTableRecord
100
AcDbLayerTableRecord
  2
00_COMPONENTS_11_1_2_1
 70
0
 62
7
  6
CONTINUOUS
370
-3
390
F
  0
LAYER
  5
216
100
AcDbSymbolTableRecord
100
AcDbLayerTableRecord
  2
00_COMPONENTS_11_1_2_1_1
 70
0
 62
7
  6
CONTINUOUS
370
-3
390
F
  0
LAYER
  5
217
100
AcDbSymbolTableRecord
100
AcDbLayerTableRecord
  2
00_COMPONENTS_11_1_2_1_2
 70
0
 62
7
  6
CONTINUOUS
370
-3
390
F
  0
LAYER
  5
218
100
AcDbSymbolTableRecord
100
AcDbLayerTableRecord
  2
00_COMPONENTS_11_1_2_2
 70
0
 62
7
  6
CONTINUOUS
370
-3
390
F
  0
LAYER
  5
219
100
AcDbSymbolTableRecord
100
AcDbLayerTableRecord
  2
00_COMPONENTS_11_1_2_2_1
 70
0
 62
7
  6
CONTINUOUS
370
-3
390
F
  0
LAYER
  5
21A
100
AcDbSymbolTableRecord
100
AcDbLayerTableRecord
  2
00_COMPONENTS_11_1_2_3
 70
0
 62
7
  6
CONTINUOUS
370
-3
390
F
  0
LAYER
  5
21B
100
AcDbSymbolTableRecord
100
AcDbLayerTableRecord
  2
00_COMPONENTS_11_1_2_3_1
 70
0
 62
7
  6
CONTINUOUS
370
-3
390
F
  0
LAYER
  5
21C
100
AcDbSymbolTableRecord
100
AcDbLayerTableRecord
  2
00_COMPONENTS_11_1_2_5
 70
0
 62
7
  6
CONTINUOUS
370
-3
390
F
  0
LAYER
  5
21D
100
AcDbSymbolTableRecord
100
AcDbLayerTableRecord
  2
00_COMPONENTS_11_1_2_5_1
 70
0
 62
7
  6
CONTINUOUS
370
-3
390
F
  0
LAYER
  5
21E
100
AcDbSymbolTableRecord
100
AcDbLayerTableRecord
  2
00_COMPONENTS_11_1_2_7
 70
0
 62
7
  6
CONTINUOUS
370
-3
390
F
  0
LAYER
  5
21F
100
AcDbSymbolTableRecord
100
AcDbLayerTableRecord
  2
00_COMPONENTS_11_1_2_7_1
 70
0
 62
7
  6
CONTINUOUS
370
-3
390
F
  0
LAYER
  5
220
100
AcDbSymbolTableRecord
100
AcDbLayerTableRecord
  2
00_COMPONENTS_11_1_2_8
 70
0
 62
7
  6
CONTINUOUS
370
-3
390
F
  0
LAYER
  5
221
100
AcDbSymbolTableRecord
100
AcDbLayerTableRecord
  2
00_COMPONENTS_11_1_2_8_1
 70
0
 62
7
  6
CONTINUOUS
370
-3
390
F
  0
LAYER
  5
222
100
AcDbSymbolTableRecord
100
AcDbLayerTableRecord
  2
00_COMPONENTS_11_1_3
 70
0
 62
7
  6
CONTINUOUS
370
-3
390
F
  0
LAYER
  5
223
100
AcDbSymbolTableRecord
100
AcDbLayerTableRecord
  2
00_COMPONENTS_11_1_3_1
 70
0
 62
7
  6
CONTINUOUS
370
-3
390
F
  0
LAYER
  5
224
100
AcDbSymbolTableRecord
100
AcDbLayerTableRecord
  2
00_COMPONENTS_11_1_3_1_1
 70
0
 62
7
  6
CONTINUOUS
370
-3
390
F
  0
LAYER
  5
225
100
AcDbSymbolTableRecord
100
AcDbLayerTableRecord
  2
00_COMPONENTS_11_1_3_1_2
 70
0
 62
7
  6
CONTINUOUS
370
-3
390
F
  0
LAYER
  5
226
100
AcDbSymbolTableRecord
100
AcDbLayerTableRecord
  2
00_COMPONENTS_11_1_3_2
 70
0
 62
7
  6
CONTINUOUS
370
-3
390
F
  0
LAYER
  5
227
100
AcDbSymbolTableRecord
100
AcDbLayerTableRecord
  2
00_COMPONENTS_11_1_3_2_1
 70
0
 62
7
  6
CONTINUOUS
370
-3
390
F
  0
LAYER
  5
228
100
AcDbSymbolTableRecord
100
AcDbLayerTableRecord
  2
00_COMPONENTS_11_1_3_3
 70
0
 62
7
  6
CONTINUOUS
370
-3
390
F
  0
LAYER
  5
229
100
AcDbSymbolTableRecord
100
AcDbLayerTableRecord
  2
00_COMPONENTS_11_1_3_3_1
 70
0
 62
7
  6
CONTINUOUS
370
-3
390
F
  0
LAYER
  5
22A
100
AcDbSymbolTableRecord
100
AcDbLayerTableRecord
  2
00_COMPONENTS_11_1_3_5
 70
0
 62
7
  6
CONTINUOUS
370
-3
390
F
  0
LAYER
  5
22B
100
AcDbSymbolTableRecord
100
AcDbLayerTableRecord
  2
00_COMPONENTS_11_1_3_5_1
 70
0
 62
7
  6
CONTINUOUS
370
-3
390
F
  0
LAYER
  5
22C
100
AcDbSymbolTableRecord
100
AcDbLayerTableRecord
  2
00_COMPONENTS_11_1_3_6
 70
0
 62
7
  6
CONTINUOUS
370
-3
390
F
  0
LAYER
  5
22D
100
AcDbSymbolTableRecord
100
AcDbLayerTableRecord
  2
00_COMPONENTS_11_1_3_6_1
 70
0
 62
7
  6
CONTINUOUS
370
-3
390
F
  0
LAYER
  5
22E
100
AcDbSymbolTableRecord
100
AcDbLayerTableRecord
  2
00_COMPONENTS_11_1_3_8
 70
0
 62
7
  6
CONTINUOUS
370
-3
390
F
  0
LAYER
  5
22F
100
AcDbSymbolTableRecord
100
AcDbLayerTableRecord
  2
00_COMPONENTS_11_1_3_8_1
 70
0
 62
7
  6
CONTINUOUS
370
-3
390
F
  0
LAYER
  5
230
100
AcDbSymbolTableRecord
100
AcDbLayerTableRecord
  2
00_COMPONENTS_11_1_4
 70
0
 62
7
  6
CONTINUOUS
370
-3
390
F
  0
LAYER
  5
231
100
AcDbSymbolTableRecord
100
AcDbLayerTableRecord
  2
00_COMPONENTS_11_1_4_1
 70
0
 62
7
  6
CONTINUOUS
370
-3
390
F
  0
LAYER
  5
232
100
AcDbSymbolTableRecord
100
AcDbLayerTableRecord
  2
00_COMPONENTS_11_1_4_2
 70
0
 62
7
  6
CONTINUOUS
370
-3
390
F
  0
LAYER
  5
233
100
AcDbSymbolTableRecord
100
AcDbLayerTableRecord
  2
00_COMPONENTS_11_1_4_2_1
 70
0
 62
7
  6
CONTINUOUS
370
-3
390
F
  0
LAYER
  5
234
100
AcDbSymbolTableRecord
100
AcDbLayerTableRecord
  2
00_COMPONENTS_11_1_4_4
 70
0
 62
7
  6
CONTINUOUS
370
-3
390
F
  0
LAYER
  5
235
100
AcDbSymbolTableRecord
100
AcDbLayerTableRecord
  2
00_COMPONENTS_11_1_4_4_1
 70
0
 62
7
  6
CONTINUOUS
370
-3
390
F
  0
LAYER
  5
236
100
AcDbSymbolTableRecord
100
AcDbLayerTableRecord
  2
00_COMPONENTS_11_1_4_5
 70
0
 62
7
  6
CONTINUOUS
370
-3
390
F
  0
LAYER
  5
237
100
AcDbSymbolTableRecord
100
AcDbLayerTableRecord
  2
00_COMPONENTS_11_1_4_5_1
 70
0
 62
7
  6
CONTINUOUS
370
-3
390
F
  0
LAYER
  5
238
100
AcDbSymbolTableRecord
100
AcDbLayerTableRecord
  2
00_COMPONENTS_11_1_4_6
 70
0
 62
7
  6
CONTINUOUS
370
-3
390
F
  0
LAYER
  5
239
100
AcDbSymbolTableRecord
100
AcDbLayerTableRecord
  2
00_COMPONENTS_11_1_4_6_1
 70
0
 62
7
  6
CONTINUOUS
370
-3
390
F
  0
LAYER
  5
23A
100
AcDbSymbolTableRecord
100
AcDbLayerTableRecord
  2
00_COMPONENTS_11_1_4_7
 70
0
 62
7
  6
CONTINUOUS
370
-3
390
F
  0
LAYER
  5
23B
100
AcDbSymbolTableRecord
100
AcDbLayerTableRecord
  2
00_COMPONENTS_11_1_4_7_1
 70
0
 62
7
  6
CONTINUOUS
370
-3
390
F
  0
LAYER
  5
23C
100
AcDbSymbolTableRecord
100
AcDbLayerTableRecord
  2
00_COMPONENTS_11_1_4_8
 70
0
 62
7
  6
CONTINUOUS
370
-3
390
F
  0
LAYER
  5
23D
100
AcDbSymbolTableRecord
100
AcDbLayerTableRecord
  2
00_COMPONENTS_11_1_4_8_1
 70
0
 62
7
  6
CONTINUOUS
370
-3
390
F
  0
LAYER
  5
23E
100
AcDbSymbolTableRecord
100
AcDbLayerTableRecord
  2
00_COMPONENTS_11_1_5
 70
0
 62
7
  6
CONTINUOUS
370
-3
390
F
  0
LAYER
  5
23F
100
AcDbSymbolTableRecord
100
AcDbLayerTableRecord
  2
00_COMPONENTS_11_1_5_1
 70
0
 62
7
  6
CONTINUOUS
370
-3
390
F
  0
LAYER
  5
240
100
AcDbSymbolTableRecord
100
AcDbLayerTableRecord
  2
00_COMPONENTS_11_1_7
 70
0
 62
7
  6
CONTINUOUS
370
-3
390
F
  0
LAYER
  5
241
100
AcDbSymbolTableRecord
100
AcDbLayerTableRecord
  2
00_COMPONENTS_11_1_7_1
 70
0
 62
7
  6
CONTINUOUS
370
-3
390
F
  0
LAYER
  5
242
100
AcDbSymbolTableRecord
100
AcDbLayerTableRecord
  2
00_COMPONENTS_11_1_8
 70
0
 62
7
  6
CONTINUOUS
370
-3
390
F
  0
LAYER
  5
243
100
AcDbSymbolTableRecord
100
AcDbLayerTableRecord
  2
00_COMPONENTS_11_1_8_1
 70
0
 62
7
  6
CONTINUOUS
370
-3
390
F
  0
LAYER
  5
244
100
AcDbSymbolTableRecord
100
AcDbLayerTableRecord
  2
00_COMPONENTS_11_2
 70
0
 62
7
  6
CONTINUOUS
370
-3
390
F
  0
LAYER
  5
245
100
AcDbSymbolTableRecord
100
AcDbLayerTableRecord
  2
00_COMPONENTS_11_2_1
 70
0
 62
7
  6
CONTINUOUS
370
-3
390
F
  0
LAYER
  5
246
100
AcDbSymbolTableRecord
100
AcDbLayerTableRecord
  2
00_COMPONENTS_11_2_1_1
 70
0
 62
7
  6
CONTINUOUS
370
-3
390
F
  0
LAYER
  5
247
100
AcDbSymbolTableRecord
100
AcDbLayerTableRecord
  2
00_COMPONENTS_11_2_1_1_1
 70
0
 62
7
  6
CONTINUOUS
370
-3
390
F
  0
LAYER
  5
248
100
AcDbSymbolTableRecord
100
AcDbLayerTableRecord
  2
00_COMPONENTS_11_2_1_3
 70
0
 62
7
  6
CONTINUOUS
370
-3
390
F
  0
LAYER
  5
249
100
AcDbSymbolTableRecord
100
AcDbLayerTableRecord
  2
00_COMPONENTS_11_2_1_3_1
 70
0
 62
7
  6
CONTINUOUS
370
-3
390
F
  0
LAYER
  5
24A
100
AcDbSymbolTableRecord
100
AcDbLayerTableRecord
  2
00_COMPONENTS_11_2_1_4
 70
0
 62
7
  6
CONTINUOUS
370
-3
390
F
  0
LAYER
  5
24B
100
AcDbSymbolTableRecord
100
AcDbLayerTableRecord
  2
00_COMPONENTS_11_2_1_4_1
 70
0
 62
7
  6
CONTINUOUS
370
-3
390
F
  0
LAYER
  5
24C
100
AcDbSymbolTableRecord
100
AcDbLayerTableRecord
  2
00_COMPONENTS_11_2_1_5
 70
0
 62
7
  6
CONTINUOUS
370
-3
390
F
  0
LAYER
  5
24D
100
AcDbSymbolTableRecord
100
AcDbLayerTableRecord
  2
00_COMPONENTS_11_2_1_5_1
 70
0
 62
7
  6
CONTINUOUS
370
-3
390
F
  0
LAYER
  5
24E
100
AcDbSymbolTableRecord
100
AcDbLayerTableRecord
  2
00_COMPONENTS_11_2_1_6
 70
0
 62
7
  6
CONTINUOUS
370
-3
390
F
  0
LAYER
  5
24F
100
AcDbSymbolTableRecord
100
AcDbLayerTableRecord
  2
00_COMPONENTS_11_2_1_6_1
 70
0
 62
7
  6
CONTINUOUS
370
-3
390
F
  0
LAYER
  5
250
100
AcDbSymbolTableRecord
100
AcDbLayerTableRecord
  2
00_COMPONENTS_11_2_1_6_2
 70
0
 62
7
  6
CONTINUOUS
370
-3
390
F
  0
LAYER
  5
251
100
AcDbSymbolTableRecord
100
AcDbLayerTableRecord
  2
00_COMPONENTS_11_2_1_7
 70
0
 62
7
  6
CONTINUOUS
370
-3
390
F
  0
LAYER
  5
252
100
AcDbSymbolTableRecord
100
AcDbLayerTableRecord
  2
00_COMPONENTS_11_2_1_7_1
 70
0
 62
7
  6
CONTINUOUS
370
-3
390
F
  0
LAYER
  5
253
100
AcDbSymbolTableRecord
100
AcDbLayerTableRecord
  2
00_COMPONENTS_11_2_1_8
 70
0
 62
7
  6
CONTINUOUS
370
-3
390
F
  0
LAYER
  5
254
100
AcDbSymbolTableRecord
100
AcDbLayerTableRecord
  2
00_COMPONENTS_11_2_1_8_1
 70
0
 62
7
  6
CONTINUOUS
370
-3
390
F
  0
LAYER
  5
255
100
AcDbSymbolTableRecord
100
AcDbLayerTableRecord
  2
00_COMPONENTS_11_2_2
 70
0
 62
7
  6
CONTINUOUS
370
-3
390
F
  0
LAYER
  5
256
100
AcDbSymbolTableRecord
100
AcDbLayerTableRecord
  2
00_COMPONENTS_11_2_2_1
 70
0
 62
7
  6
CONTINUOUS
370
-3
390
F
  0
LAYER
  5
257
100
AcDbSymbolTableRecord
100
AcDbLayerTableRecord
  2
00_COMPONENTS_11_2_2_1_1
 70
0
 62
7
  6
CONTINUOUS
370
-3
390
F
  0
LAYER
  5
258
100
AcDbSymbolTableRecord
100
AcDbLayerTableRecord
  2
00_COMPONENTS_11_2_2_1_2
 70
0
 62
7
  6
CONTINUOUS
370
-3
390
F
  0
LAYER
  5
259
100
AcDbSymbolTableRecord
100
AcDbLayerTableRecord
  2
00_COMPONENTS_11_2_2_2
 70
0
 62
7
  6
CONTINUOUS
370
-3
390
F
  0
LAYER
  5
25A
100
AcDbSymbolTableRecord
100
AcDbLayerTableRecord
  2
00_COMPONENTS_11_2_2_2_1
 70
0
 62
7
  6
CONTINUOUS
370
-3
390
F
  0
LAYER
  5
25B
100
AcDbSymbolTableRecord
100
AcDbLayerTableRecord
  2
00_COMPONENTS_11_2_2_3
 70
0
 62
7
  6
CONTINUOUS
370
-3
390
F
  0
LAYER
  5
25C
100
AcDbSymbolTableRecord
100
AcDbLayerTableRecord
  2
00_COMPONENTS_11_2_2_3_1
 70
0
 62
7
  6
CONTINUOUS
370
-3
390
F
  0
LAYER
  5
25D
100
AcDbSymbolTableRecord
100
AcDbLayerTableRecord
  2
00_COMPONENTS_11_2_2_4
 70
0
 62
7
  6
CONTINUOUS
370
-3
390
F
  0
LAYER
  5
25E
100
AcDbSymbolTableRecord
100
AcDbLayerTableRecord
  2
00_COMPONENTS_11_2_2_4_1
 70
0
 62
7
  6
CONTINUOUS
370
-3
390
F
  0
LAYER
  5
25F
100
AcDbSymbolTableRecord
100
AcDbLayerTableRecord
  2
00_COMPONENTS_11_2_2_5
 70
0
 62
7
  6
CONTINUOUS
370
-3
390
F
  0
LAYER
  5
260
100
AcDbSymbolTableRecord
100
AcDbLayerTableRecord
  2
00_COMPONENTS_11_2_2_5_1
 70
0
 62
7
  6
CONTINUOUS
370
-3
390
F
  0
LAYER
  5
261
100
AcDbSymbolTableRecord
100
AcDbLayerTableRecord
  2
00_COMPONENTS_11_2_2_7
 70
0
 62
7
  6
CONTINUOUS
370
-3
390
F
  0
LAYER
  5
262
100
AcDbSymbolTableRecord
100
AcDbLayerTableRecord
  2
00_COMPONENTS_11_2_2_7_1
 70
0
 62
7
  6
CONTINUOUS
370
-3
390
F
  0
LAYER
  5
263
100
AcDbSymbolTableRecord
100
AcDbLayerTableRecord
  2
00_COMPONENTS_11_2_3
 70
0
 62
7
  6
CONTINUOUS
370
-3
390
F
  0
LAYER
  5
264
100
AcDbSymbolTableRecord
100
AcDbLayerTableRecord
  2
00_COMPONENTS_11_2_3_1
 70
0
 62
7
  6
CONTINUOUS
370
-3
390
F
  0
LAYER
  5
265
100
AcDbSymbolTableRecord
100
AcDbLayerTableRecord
  2
00_COMPONENTS_11_2_3_2
 70
0
 62
7
  6
CONTINUOUS
370
-3
390
F
  0
LAYER
  5
266
100
AcDbSymbolTableRecord
100
AcDbLayerTableRecord
  2
00_COMPONENTS_11_2_3_2_1
 70
0
 62
7
  6
CONTINUOUS
370
-3
390
F
  0
LAYER
  5
267
100
AcDbSymbolTableRecord
100
AcDbLayerTableRecord
  2
00_COMPONENTS_11_2_3_3
 70
0
 62
7
  6
CONTINUOUS
370
-3
390
F
  0
LAYER
  5
268
100
AcDbSymbolTableRecord
100
AcDbLayerTableRecord
  2
00_COMPONENTS_11_2_3_3_1
 70
0
 62
7
  6
CONTINUOUS
370
-3
390
F
  0
LAYER
  5
269
100
AcDbSymbolTableRecord
100
AcDbLayerTableRecord
  2
00_COMPONENTS_11_2_3_4
 70
0
 62
7
  6
CONTINUOUS
370
-3
390
F
  0
LAYER
  5
26A
100
AcDbSymbolTableRecord
100
AcDbLayerTableRecord
  2
00_COMPONENTS_11_2_3_4_1
 70
0
 62
7
  6
CONTINUOUS
370
-3
390
F
  0
LAYER
  5
26B
100
AcDbSymbolTableRecord
100
AcDbLayerTableRecord
  2
00_COMPONENTS_11_2_3_5
 70
0
 62
7
  6
CONTINUOUS
370
-3
390
F
  0
LAYER
  5
26C
100
AcDbSymbolTableRecord
100
AcDbLayerTableRecord
  2
00_COMPONENTS_11_2_3_5_1
 70
0
 62
7
  6
CONTINUOUS
370
-3
390
F
  0
LAYER
  5
26D
100
AcDbSymbolTableRecord
100
AcDbLayerTableRecord
  2
00_COMPONENTS_11_2_3_6
 70
0
 62
7
  6
CONTINUOUS
370
-3
390
F
  0
LAYER
  5
26E
100
AcDbSymbolTableRecord
100
AcDbLayerTableRecord
  2
00_COMPONENTS_11_2_3_6_1
 70
0
 62
7
  6
CONTINUOUS
370
-3
390
F
  0
LAYER
  5
26F
100
AcDbSymbolTableRecord
100
AcDbLayerTableRecord
  2
00_COMPONENTS_11_2_3_7
 70
0
 62
7
  6
CONTINUOUS
370
-3
390
F
  0
LAYER
  5
270
100
AcDbSymbolTableRecord
100
AcDbLayerTableRecord
  2
00_COMPONENTS_11_2_3_7_1
 70
0
 62
7
  6
CONTINUOUS
370
-3
390
F
  0
LAYER
  5
271
100
AcDbSymbolTableRecord
100
AcDbLayerTableRecord
  2
00_COMPONENTS_11_2_4
 70
0
 62
7
  6
CONTINUOUS
370
-3
390
F
  0
LAYER
  5
272
100
AcDbSymbolTableRecord
100
AcDbLayerTableRecord
  2
00_COMPONENTS_11_2_4_1
 70
0
 62
7
  6
CONTINUOUS
370
-3
390
F
  0
LAYER
  5
273
100
AcDbSymbolTableRecord
100
AcDbLayerTableRecord
  2
00_COMPONENTS_11_2_4_1_1
 70
0
 62
7
  6
CONTINUOUS
370
-3
390
F
  0
LAYER
  5
274
100
AcDbSymbolTableRecord
100
AcDbLayerTableRecord
  2
00_COMPONENTS_11_2_4_1_2
 70
0
 62
7
  6
CONTINUOUS
370
-3
390
F
  0
LAYER
  5
275
100
AcDbSymbolTableRecord
100
AcDbLayerTableRecord
  2
00_COMPONENTS_11_2_4_3
 70
0
 62
7
  6
CONTINUOUS
370
-3
390
F
  0
LAYER
  5
276
100
AcDbSymbolTableRecord
100
AcDbLayerTableRecord
  2
00_COMPONENTS_11_2_4_3_1
 70
0
 62
7
  6
CONTINUOUS
370
-3
390
F
  0
LAYER
  5
277
100
AcDbSymbolTableRecord
100
AcDbLayerTableRecord
  2
00_COMPONENTS_11_2_4_4
 70
0
 62
7
  6
CONTINUOUS
370
-3
390
F
  0
LAYER
  5
278
100
AcDbSymbolTableRecord
100
AcDbLayerTableRecord
  2
00_COMPONENTS_11_2_4_4_1
 70
0
 62
7
  6
CONTINUOUS
370
-3
390
F
  0
LAYER
  5
279
100
AcDbSymbolTableRecord
100
AcDbLayerTableRecord
  2
00_COMPONENTS_11_2_4_5
 70
0
 62
7
  6
CONTINUOUS
370
-3
390
F
  0
LAYER
  5
27A
100
AcDbSymbolTableRecord
100
AcDbLayerTableRecord
  2
00_COMPONENTS_11_2_4_5_1
 70
0
 62
7
  6
CONTINUOUS
370
-3
390
F
  0
LAYER
  5
27B
100
AcDbSymbolTableRecord
100
AcDbLayerTableRecord
  2
00_COMPONENTS_11_2_4_6
 70
0
 62
7
  6
CONTINUOUS
370
-3
390
F
  0
LAYER
  5
27C
100
AcDbSymbolTableRecord
100
AcDbLayerTableRecord
  2
00_COMPONENTS_11_2_4_6_1
 70
0
 62
7
  6
CONTINUOUS
370
-3
390
F
  0
LAYER
  5
27D
100
AcDbSymbolTableRecord
100
AcDbLayerTableRecord
  2
00_COMPONENTS_11_2_4_7
 70
0
 62
7
  6
CONTINUOUS
370
-3
390
F
  0
LAYER
  5
27E
100
AcDbSymbolTableRecord
100
AcDbLayerTableRecord
  2
00_COMPONENTS_11_2_4_7_1
 70
0
 62
7
  6
CONTINUOUS
370
-3
390
F
  0
LAYER
  5
27F
100
AcDbSymbolTableRecord
100
AcDbLayerTableRecord
  2
00_COMPONENTS_11_2_5
 70
0
 62
7
  6
CONTINUOUS
370
-3
390
F
  0
LAYER
  5
280
100
AcDbSymbolTableRecord
100
AcDbLayerTableRecord
  2
00_COMPONENTS_11_2_5_1
 70
0
 62
7
  6
CONTINUOUS
370
-3
390
F
  0
LAYER
  5
281
100
AcDbSymbolTableRecord
100
AcDbLayerTableRecord
  2
00_COMPONENTS_11_2_5_11
 70
0
 62
7
  6
CONTINUOUS
370
-3
390
F
  0
LAYER
  5
282
100
AcDbSymbolTableRecord
100
AcDbLayerTableRecord
  2
00_COMPONENTS_11_2_5_11_1
 70
0
 62
7
  6
CONTINUOUS
370
-3
390
F
  0
LAYER
  5
283
100
AcDbSymbolTableRecord
100
AcDbLayerTableRecord
  2
00_COMPONENTS_11_2_5_1_1
 70
0
 62
7
  6
CONTINUOUS
370
-3
390
F
  0
LAYER
  5
284
100
AcDbSymbolTableRecord
100
AcDbLayerTableRecord
  2
00_COMPONENTS_11_2_5_1_2
 70
0
 62
7
  6
CONTINUOUS
370
-3
390
F
  0
LAYER
  5
285
100
AcDbSymbolTableRecord
100
AcDbLayerTableRecord
  2
00_COMPONENTS_11_2_5_2
 70
0
 62
7
  6
CONTINUOUS
370
-3
390
F
  0
LAYER
  5
286
100
AcDbSymbolTableRecord
100
AcDbLayerTableRecord
  2
00_COMPONENTS_11_2_5_2_1
 70
0
 62
7
  6
CONTINUOUS
370
-3
390
F
  0
LAYER
  5
287
100
AcDbSymbolTableRecord
100
AcDbLayerTableRecord
  2
00_COMPONENTS_11_2_5_2_2
 70
0
 62
7
  6
CONTINUOUS
370
-3
390
F
  0
LAYER
  5
288
100
AcDbSymbolTableRecord
100
AcDbLayerTableRecord
  2
00_COMPONENTS_11_2_5_3
 70
0
 62
7
  6
CONTINUOUS
370
-3
390
F
  0
LAYER
  5
289
100
AcDbSymbolTableRecord
100
AcDbLayerTableRecord
  2
00_COMPONENTS_11_2_5_3_1
 70
0
 62
7
  6
CONTINUOUS
370
-3
390
F
  0
LAYER
  5
28A
100
AcDbSymbolTableRecord
100
AcDbLayerTableRecord
  2
00_COMPONENTS_11_2_5_5
 70
0
 62
7
  6
CONTINUOUS
370
-3
390
F
  0
LAYER
  5
28B
100
AcDbSymbolTableRecord
100
AcDbLayerTableRecord
  2
00_COMPONENTS_11_2_5_5_1
 70
0
 62
7
  6
CONTINUOUS
370
-3
390
F
  0
LAYER
  5
28C
100
AcDbSymbolTableRecord
100
AcDbLayerTableRecord
  2
00_COMPONENTS_11_2_5_6
 70
0
 62
7
  6
CONTINUOUS
370
-3
390
F
  0
LAYER
  5
28D
100
AcDbSymbolTableRecord
100
AcDbLayerTableRecord
  2
00_COMPONENTS_11_2_5_6_1
 70
0
 62
7
  6
CONTINUOUS
370
-3
390
F
  0
LAYER
  5
28E
100
AcDbSymbolTableRecord
100
AcDbLayerTableRecord
  2
00_COMPONENTS_11_2_5_8
 70
0
 62
7
  6
CONTINUOUS
370
-3
390
F
  0
LAYER
  5
28F
100
AcDbSymbolTableRecord
100
AcDbLayerTableRecord
  2
00_COMPONENTS_11_2_5_8_1
 70
0
 62
7
  6
CONTINUOUS
370
-3
390
F
  0
LAYER
  5
290
100
AcDbSymbolTableRecord
100
AcDbLayerTableRecord
  2
00_COMPONENTS_11_2_5_9
 70
0
 62
7
  6
CONTINUOUS
370
-3
390
F
  0
LAYER
  5
291
100
AcDbSymbolTableRecord
100
AcDbLayerTableRecord
  2
00_COMPONENTS_11_2_5_9_1
 70
0
 62
7
  6
CONTINUOUS
370
-3
390
F
  0
LAYER
  5
292
100
AcDbSymbolTableRecord
100
AcDbLayerTableRecord
  2
00_COMPONENTS_11_2_5_9_2
 70
0
 62
7
  6
CONTINUOUS
370
-3
390
F
  0
LAYER
  5
293
100
AcDbSymbolTableRecord
100
AcDbLayerTableRecord
  2
00_COMPONENTS_11_2_6_1
 70
0
 62
7
  6
CONTINUOUS
370
-3
390
F
  0
LAYER
  5
294
100
AcDbSymbolTableRecord
100
AcDbLayerTableRecord
  2
00_COMPONENTS_11_2_6_10
 70
0
 62
7
  6
CONTINUOUS
370
-3
390
F
  0
LAYER
  5
295
100
AcDbSymbolTableRecord
100
AcDbLayerTableRecord
  2
00_COMPONENTS_11_2_6_10_1
 70
0
 62
7
  6
CONTINUOUS
370
-3
390
F
  0
LAYER
  5
296
100
AcDbSymbolTableRecord
100
AcDbLayerTableRecord
  2
00_COMPONENTS_11_2_6_10_2
 70
0
 62
7
  6
CONTINUOUS
370
-3
390
F
  0
LAYER
  5
297
100
AcDbSymbolTableRecord
100
AcDbLayerTableRecord
  2
00_COMPONENTS_11_2_6_11
 70
0
 62
7
  6
CONTINUOUS
370
-3
390
F
  0
LAYER
  5
298
100
AcDbSymbolTableRecord
100
AcDbLayerTableRecord
  2
00_COMPONENTS_11_2_6_11_1
 70
0
 62
7
  6
CONTINUOUS
370
-3
390
F
  0
LAYER
  5
299
100
AcDbSymbolTableRecord
100
AcDbLayerTableRecord
  2
00_COMPONENTS_11_2_6_1_1
 70
0
 62
7
  6
CONTINUOUS
370
-3
390
F
  0
LAYER
  5
29A
100
AcDbSymbolTableRecord
100
AcDbLayerTableRecord
  2
00_COMPONENTS_11_2_6_2
 70
0
 62
7
  6
CONTINUOUS
370
-3
390
F
  0
LAYER
  5
29B
100
AcDbSymbolTableRecord
100
AcDbLayerTableRecord
  2
00_COMPONENTS_11_2_6_2_1
 70
0
 62
7
  6
CONTINUOUS
370
-3
390
F
  0
LAYER
  5
29C
100
AcDbSymbolTableRecord
100
AcDbLayerTableRecord
  2
00_COMPONENTS_11_2_6_2_2
 70
0
 62
7
  6
CONTINUOUS
370
-3
390
F
  0
LAYER
  5
29D
100
AcDbSymbolTableRecord
100
AcDbLayerTableRecord
  2
00_COMPONENTS_11_2_6_3
 70
0
 62
7
  6
CONTINUOUS
370
-3
390
F
  0
LAYER
  5
29E
100
AcDbSymbolTableRecord
100
AcDbLayerTableRecord
  2
00_COMPONENTS_11_2_6_3_1
 70
0
 62
7
  6
CONTINUOUS
370
-3
390
F
  0
LAYER
  5
29F
100
AcDbSymbolTableRecord
100
AcDbLayerTableRecord
  2
00_COMPONENTS_11_2_6_3_2
 70
0
 62
7
  6
CONTINUOUS
370
-3
390
F
  0
LAYER
  5
2A0
100
AcDbSymbolTableRecord
100
AcDbLayerTableRecord
  2
00_COMPONENTS_11_2_6_4
 70
0
 62
7
  6
CONTINUOUS
370
-3
390
F
  0
LAYER
  5
2A1
100
AcDbSymbolTableRecord
100
AcDbLayerTableRecord
  2
00_COMPONENTS_11_2_6_4_1
 70
0
 62
7
  6
CONTINUOUS
370
-3
390
F
  0
LAYER
  5
2A2
100
AcDbSymbolTableRecord
100
AcDbLayerTableRecord
  2
00_COMPONENTS_11_2_6_5
 70
0
 62
7
  6
CONTINUOUS
370
-3
390
F
  0
LAYER
  5
2A3
100
AcDbSymbolTableRecord
100
AcDbLayerTableRecord
  2
00_COMPONENTS_11_2_6_5_1
 70
0
 62
7
  6
CONTINUOUS
370
-3
390
F
  0
LAYER
  5
2A4
100
AcDbSymbolTableRecord
100
AcDbLayerTableRecord
  2
00_COMPONENTS_11_2_6_6
 70
0
 62
7
  6
CONTINUOUS
370
-3
390
F
  0
LAYER
  5
2A5
100
AcDbSymbolTableRecord
100
AcDbLayerTableRecord
  2
00_COMPONENTS_11_2_6_6_1
 70
0
 62
7
  6
CONTINUOUS
370
-3
390
F
  0
LAYER
  5
2A6
100
AcDbSymbolTableRecord
100
AcDbLayerTableRecord
  2
00_COMPONENTS_11_2_6_7
 70
0
 62
7
  6
CONTINUOUS
370
-3
390
F
  0
LAYER
  5
2A7
100
AcDbSymbolTableRecord
100
AcDbLayerTableRecord
  2
00_COMPONENTS_11_2_6_7_1
 70
0
 62
7
  6
CONTINUOUS
370
-3
390
F
  0
LAYER
  5
2A8
100
AcDbSymbolTableRecord
100
AcDbLayerTableRecord
  2
00_COMPONENTS_11_2_7
 70
0
 62
7
  6
CONTINUOUS
370
-3
390
F
  0
LAYER
  5
2A9
100
AcDbSymbolTableRecord
100
AcDbLayerTableRecord
  2
00_COMPONENTS_11_2_7_1
 70
0
 62
7
  6
CONTINUOUS
370
-3
390
F
  0
LAYER
  5
2AA
100
AcDbSymbolTableRecord
100
AcDbLayerTableRecord
  2
00_COMPONENTS_11_2_8
 70
0
 62
7
  6
CONTINUOUS
370
-3
390
F
  0
LAYER
  5
2AB
100
AcDbSymbolTableRecord
100
AcDbLayerTableRecord
  2
00_COMPONENTS_11_2_8_1
 70
0
 62
7
  6
CONTINUOUS
370
-3
390
F
  0
LAYER
  5
2AC
100
AcDbSymbolTableRecord
100
AcDbLayerTableRecord
  2
00_COMPONENTS_11_3_1
 70
0
 62
7
  6
CONTINUOUS
370
-3
390
F
  0
LAYER
  5
2AD
100
AcDbSymbolTableRecord
100
AcDbLayerTableRecord
  2
00_COMPONENTS_11_3_1_1
 70
0
 62
7
  6
CONTINUOUS
370
-3
390
F
  0
LAYER
  5
2AE
100
AcDbSymbolTableRecord
100
AcDbLayerTableRecord
  2
00_COMPONENTS_11_3_2
 70
0
 62
7
  6
CONTINUOUS
370
-3
390
F
  0
LAYER
  5
2AF
100
AcDbSymbolTableRecord
100
AcDbLayerTableRecord
  2
00_COMPONENTS_11_3_2_1
 70
0
 62
7
  6
CONTINUOUS
370
-3
390
F
  0
LAYER
  5
2B0
100
AcDbSymbolTableRecord
100
AcDbLayerTableRecord
  2
00_COMPONENTS_11_3_4
 70
0
 62
7
  6
CONTINUOUS
370
-3
390
F
  0
LAYER
  5
2B1
100
AcDbSymbolTableRecord
100
AcDbLayerTableRecord
  2
00_COMPONENTS_11_3_4_1
 70
0
 62
7
  6
CONTINUOUS
370
-3
390
F
  0
LAYER
  5
2B2
100
AcDbSymbolTableRecord
100
AcDbLayerTableRecord
  2
00_COMPONENTS_11_3_5
 70
0
 62
7
  6
CONTINUOUS
370
-3
390
F
  0
LAYER
  5
2B3
100
AcDbSymbolTableRecord
100
AcDbLayerTableRecord
  2
00_COMPONENTS_11_3_5_1
 70
0
 62
7
  6
CONTINUOUS
370
-3
390
F
  0
LAYER
  5
2B4
100
AcDbSymbolTableRecord
100
AcDbLayerTableRecord
  2
00_COMPONENTS_11_3_7
 70
0
 62
7
  6
CONTINUOUS
370
-3
390
F
  0
LAYER
  5
2B5
100
AcDbSymbolTableRecord
100
AcDbLayerTableRecord
  2
00_COMPONENTS_11_3_7_1
 70
0
 62
7
  6
CONTINUOUS
370
-3
390
F
  0
LAYER
  5
2B6
100
AcDbSymbolTableRecord
100
AcDbLayerTableRecord
  2
00_COMPONENTS_11_3_8
 70
0
 62
7
  6
CONTINUOUS
370
-3
390
F
  0
LAYER
  5
2B7
100
AcDbSymbolTableRecord
100
AcDbLayerTableRecord
  2
00_COMPONENTS_11_3_8_1
 70
0
 62
7
  6
CONTINUOUS
370
-3
390
F
  0
LAYER
  5
2B8
100
AcDbSymbolTableRecord
100
AcDbLayerTableRecord
  2
00_COMPONENTS_11_4_1
 70
0
 62
7
  6
CONTINUOUS
370
-3
390
F
  0
LAYER
  5
2B9
100
AcDbSymbolTableRecord
100
AcDbLayerTableRecord
  2
00_COMPONENTS_11_4_1_1
 70
0
 62
7
  6
CONTINUOUS
370
-3
390
F
  0
LAYER
  5
2BA
100
AcDbSymbolTableRecord
100
AcDbLayerTableRecord
  2
00_COMPONENTS_11_4_2
 70
0
 62
7
  6
CONTINUOUS
370
-3
390
F
  0
LAYER
  5
2BB
100
AcDbSymbolTableRecord
100
AcDbLayerTableRecord
  2
00_COMPONENTS_11_4_2_1
 70
0
 62
7
  6
CONTINUOUS
370
-3
390
F
  0
LAYER
  5
2BC
100
AcDbSymbolTableRecord
100
AcDbLayerTableRecord
  2
00_COMPONENTS_11_4_3
 70
0
 62
7
  6
CONTINUOUS
370
-3
390
F
  0
LAYER
  5
2BD
100
AcDbSymbolTableRecord
100
AcDbLayerTableRecord
  2
00_COMPONENTS_11_4_3_1
 70
0
 62
7
  6
CONTINUOUS
370
-3
390
F
  0
LAYER
  5
2BE
100
AcDbSymbolTableRecord
100
AcDbLayerTableRecord
  2
00_COMPONENTS_11_4_4
 70
0
 62
7
  6
CONTINUOUS
370
-3
390
F
  0
LAYER
  5
2BF
100
AcDbSymbolTableRecord
100
AcDbLayerTableRecord
  2
00_COMPONENTS_11_4_4_1
 70
0
 62
7
  6
CONTINUOUS
370
-3
390
F
  0
LAYER
  5
2C0
100
AcDbSymbolTableRecord
100
AcDbLayerTableRecord
  2
00_COMPONENTS_11_4_5
 70
0
 62
7
  6
CONTINUOUS
370
-3
390
F
  0
LAYER
  5
2C1
100
AcDbSymbolTableRecord
100
AcDbLayerTableRecord
  2
00_COMPONENTS_11_4_5_1
 70
0
 62
7
  6
CONTINUOUS
370
-3
390
F
  0
LAYER
  5
2C2
100
AcDbSymbolTableRecord
100
AcDbLayerTableRecord
  2
00_COMPONENTS_11_4_8
 70
0
 62
7
  6
CONTINUOUS
370
-3
390
F
  0
LAYER
  5
2C3
100
AcDbSymbolTableRecord
100
AcDbLayerTableRecord
  2
00_COMPONENTS_11_4_8_1
 70
0
 62
7
  6
CONTINUOUS
370
-3
390
F
  0
LAYER
  5
2C4
100
AcDbSymbolTableRecord
100
AcDbLayerTableRecord
  2
00_COMPONENTS_12
 70
0
 62
7
  6
CONTINUOUS
370
-3
390
F
  0
LAYER
  5
2C5
100
AcDbSymbolTableRecord
100
AcDbLayerTableRecord
  2
00_COMPONENTS_12_1
 70
0
 62
7
  6
CONTINUOUS
370
-3
390
F
  0
LAYER
  5
2C6
100
AcDbSymbolTableRecord
100
AcDbLayerTableRecord
  2
00_COMPONENTS_12_1_1
 70
0
 62
7
  6
CONTINUOUS
370
-3
390
F
  0
LAYER
  5
2C7
100
AcDbSymbolTableRecord
100
AcDbLayerTableRecord
  2
00_COMPONENTS_13
 70
0
 62
7
  6
CONTINUOUS
370
-3
390
F
  0
LAYER
  5
2C8
100
AcDbSymbolTableRecord
100
AcDbLayerTableRecord
  2
00_COMPONENTS_14_1
 70
0
 62
7
  6
CONTINUOUS
370
-3
390
F
  0
LAYER
  5
2C9
100
AcDbSymbolTableRecord
100
AcDbLayerTableRecord
  2
00_COMPONENTS_14_2_1
 70
0
 62
7
  6
CONTINUOUS
370
-3
390
F
  0
LAYER
  5
2CA
100
AcDbSymbolTableRecord
100
AcDbLayerTableRecord
  2
00_COMPONENTS_14_2_1_1
 70
0
 62
7
  6
CONTINUOUS
370
-3
390
F
  0
LAYER
  5
2CB
100
AcDbSymbolTableRecord
100
AcDbLayerTableRecord
  2
00_COMPONENTS_14_2_1_1_3
 70
0
 62
7
  6
CONTINUOUS
370
-3
390
F
  0
LAYER
  5
2CC
100
AcDbSymbolTableRecord
100
AcDbLayerTableRecord
  2
00_COMPONENTS_14_2_1_1_3_1
 70
0
 62
7
  6
CONTINUOUS
370
-3
390
F
  0
LAYER
  5
2CD
100
AcDbSymbolTableRecord
100
AcDbLayerTableRecord
  2
00_COMPONENTS_14_2_1_1_4
 70
0
 62
7
  6
CONTINUOUS
370
-3
390
F
  0
LAYER
  5
2CE
100
AcDbSymbolTableRecord
100
AcDbLayerTableRecord
  2
00_COMPONENTS_14_2_1_1_4_1
 70
0
 62
7
  6
CONTINUOUS
370
-3
390
F
  0
LAYER
  5
2CF
100
AcDbSymbolTableRecord
100
AcDbLayerTableRecord
  2
00_COMPONENTS_14_2_1_1_5
 70
0
 62
7
  6
CONTINUOUS
370
-3
390
F
  0
LAYER
  5
2D0
100
AcDbSymbolTableRecord
100
AcDbLayerTableRecord
  2
00_COMPONENTS_14_2_1_1_5_1
 70
0
 62
7
  6
CONTINUOUS
370
-3
390
F
  0
LAYER
  5
2D1
100
AcDbSymbolTableRecord
100
AcDbLayerTableRecord
  2
00_COMPONENTS_14_2_1_1_6
 70
0
 62
7
  6
CONTINUOUS
370
-3
390
F
  0
LAYER
  5
2D2
100
AcDbSymbolTableRecord
100
AcDbLayerTableRecord
  2
00_COMPONENTS_14_2_1_1_6_1
 70
0
 62
7
  6
CONTINUOUS
370
-3
390
F
  0
LAYER
  5
2D3
100
AcDbSymbolTableRecord
100
AcDbLayerTableRecord
  2
00_COMPONENTS_14_2_1_2_2
 70
0
 62
7
  6
CONTINUOUS
370
-3
390
F
  0
LAYER
  5
2D4
100
AcDbSymbolTableRecord
100
AcDbLayerTableRecord
  2
00_COMPONENTS_14_2_1_2_2_1
 70
0
 62
7
  6
CONTINUOUS
370
-3
390
F
  0
LAYER
  5
2D5
100
AcDbSymbolTableRecord
100
AcDbLayerTableRecord
  2
00_COMPONENTS_14_2_1_2_4
 70
0
 62
7
  6
CONTINUOUS
370
-3
390
F
  0
LAYER
  5
2D6
100
AcDbSymbolTableRecord
100
AcDbLayerTableRecord
  2
00_COMPONENTS_14_2_1_2_4_1
 70
0
 62
7
  6
CONTINUOUS
370
-3
390
F
  0
LAYER
  5
2D7
100
AcDbSymbolTableRecord
100
AcDbLayerTableRecord
  2
00_COMPONENTS_14_2_1_2_5
 70
0
 62
7
  6
CONTINUOUS
370
-3
390
F
  0
LAYER
  5
2D8
100
AcDbSymbolTableRecord
100
AcDbLayerTableRecord
  2
00_COMPONENTS_14_2_1_2_5_1
 70
0
 62
7
  6
CONTINUOUS
370
-3
390
F
  0
LAYER
  5
2D9
100
AcDbSymbolTableRecord
100
AcDbLayerTableRecord
  2
00_COMPONENTS_14_2_1_2_6
 70
0
 62
7
  6
CONTINUOUS
370
-3
390
F
  0
LAYER
  5
2DA
100
AcDbSymbolTableRecord
100
AcDbLayerTableRecord
  2
00_COMPONENTS_14_2_1_2_6_1
 70
0
 62
7
  6
CONTINUOUS
370
-3
390
F
  0
LAYER
  5
2DB
100
AcDbSymbolTableRecord
100
AcDbLayerTableRecord
  2
00_COMPONENTS_14_2_1_3
 70
0
 62
7
  6
CONTINUOUS
370
-3
390
F
  0
LAYER
  5
2DC
100
AcDbSymbolTableRecord
100
AcDbLayerTableRecord
  2
00_COMPONENTS_14_2_1_3_1
 70
0
 62
7
  6
CONTINUOUS
370
-3
390
F
  0
LAYER
  5
2DD
100
AcDbSymbolTableRecord
100
AcDbLayerTableRecord
  2
00_COMPONENTS_14_2_1_4
 70
0
 62
7
  6
CONTINUOUS
370
-3
390
F
  0
LAYER
  5
2DE
100
AcDbSymbolTableRecord
100
AcDbLayerTableRecord
  2
00_COMPONENTS_14_2_1_4_1
 70
0
 62
7
  6
CONTINUOUS
370
-3
390
F
  0
LAYER
  5
2DF
100
AcDbSymbolTableRecord
100
AcDbLayerTableRecord
  2
00_COMPONENTS_14_2_1_5
 70
0
 62
7
  6
CONTINUOUS
370
-3
390
F
  0
LAYER
  5
2E0
100
AcDbSymbolTableRecord
100
AcDbLayerTableRecord
  2
00_COMPONENTS_14_2_1_5_1
 70
0
 62
7
  6
CONTINUOUS
370
-3
390
F
  0
LAYER
  5
2E1
100
AcDbSymbolTableRecord
100
AcDbLayerTableRecord
  2
00_COMPONENTS_14_2_1_6
 70
0
 62
7
  6
CONTINUOUS
370
-3
390
F
  0
LAYER
  5
2E2
100
AcDbSymbolTableRecord
100
AcDbLayerTableRecord
  2
00_COMPONENTS_14_2_1_6_1
 70
0
 62
7
  6
CONTINUOUS
370
-3
390
F
  0
LAYER
  5
2E3
100
AcDbSymbolTableRecord
100
AcDbLayerTableRecord
  2
00_COMPONENTS_14_2_2
 70
0
 62
7
  6
CONTINUOUS
370
-3
390
F
  0
LAYER
  5
2E4
100
AcDbSymbolTableRecord
100
AcDbLayerTableRecord
  2
00_COMPONENTS_14_2_2_1
 70
0
 62
7
  6
CONTINUOUS
370
-3
390
F
  0
LAYER
  5
2E5
100
AcDbSymbolTableRecord
100
AcDbLayerTableRecord
  2
00_COMPONENTS_14_2_4
 70
0
 62
7
  6
CONTINUOUS
370
-3
390
F
  0
LAYER
  5
2E6
100
AcDbSymbolTableRecord
100
AcDbLayerTableRecord
  2
00_COMPONENTS_14_2_4_1
 70
0
 62
7
  6
CONTINUOUS
370
-3
390
F
  0
LAYER
  5
2E7
100
AcDbSymbolTableRecord
100
AcDbLayerTableRecord
  2
00_COMPONENTS_14_2_5
 70
0
 62
7
  6
CONTINUOUS
370
-3
390
F
  0
LAYER
  5
2E8
100
AcDbSymbolTableRecord
100
AcDbLayerTableRecord
  2
00_COMPONENTS_14_2_5_1
 70
0
 62
7
  6
CONTINUOUS
370
-3
390
F
  0
LAYER
  5
2E9
100
AcDbSymbolTableRecord
100
AcDbLayerTableRecord
  2
00_COMPONENTS_15
 70
0
 62
7
  6
CONTINUOUS
370
-3
390
F
  0
LAYER
  5
2EA
100
AcDbSymbolTableRecord
100
AcDbLayerTableRecord
  2
00_COMPONENTS_15_2
 70
0
 62
7
  6
CONTINUOUS
370
-3
390
F
  0
LAYER
  5
2EB
100
AcDbSymbolTableRecord
100
AcDbLayerTableRecord
  2
00_COMPONENTS_16_2
 70
0
 62
7
  6
CONTINUOUS
370
-3
390
F
  0
LAYER
  5
2EC
100
AcDbSymbolTableRecord
100
AcDbLayerTableRecord
  2
00_COMPONENTS_18_2
 70
0
 62
7
  6
CONTINUOUS
370
-3
390
F
  0
LAYER
  5
2ED
100
AcDbSymbolTableRecord
100
AcDbLayerTableRecord
  2
00_COMPONENTS_18_3
 70
0
 62
7
  6
CONTINUOUS
370
-3
390
F
  0
LAYER
  5
2EE
100
AcDbSymbolTableRecord
100
AcDbLayerTableRecord
  2
00_COMPONENTS_18_3_1
 70
0
 62
7
  6
CONTINUOUS
370
-3
390
F
  0
LAYER
  5
2EF
100
AcDbSymbolTableRecord
100
AcDbLayerTableRecord
  2
00_COMPONENTS_18_6
 70
0
 62
7
  6
CONTINUOUS
370
-3
390
F
  0
LAYER
  5
2F0
100
AcDbSymbolTableRecord
100
AcDbLayerTableRecord
  2
00_COMPONENTS_18_6_1
 70
0
 62
7
  6
CONTINUOUS
370
-3
390
F
  0
LAYER
  5
2F1
100
AcDbSymbolTableRecord
100
AcDbLayerTableRecord
  2
00_COMPONENTS_19
 70
0
 62
7
  6
CONTINUOUS
370
-3
390
F
  0
LAYER
  5
2F2
100
AcDbSymbolTableRecord
100
AcDbLayerTableRecord
  2
00_COMPONENTS_19_1
 70
0
 62
7
  6
CONTINUOUS
370
-3
390
F
  0
LAYER
  5
2F3
100
AcDbSymbolTableRecord
100
AcDbLayerTableRecord
  2
00_COMPONENTS_19_1_1
 70
0
 62
7
  6
CONTINUOUS
370
-3
390
F
  0
LAYER
  5
2F4
100
AcDbSymbolTableRecord
100
AcDbLayerTableRecord
  2
00_COMPONENTS_19_1_1_1
 70
0
 62
7
  6
CONTINUOUS
370
-3
390
F
  0
LAYER
  5
2F5
100
AcDbSymbolTableRecord
100
AcDbLayerTableRecord
  2
00_COMPONENTS_19_1_1_2
 70
0
 62
7
  6
CONTINUOUS
370
-3
390
F
  0
LAYER
  5
2F6
100
AcDbSymbolTableRecord
100
AcDbLayerTableRecord
  2
00_COMPONENTS_19_1_3
 70
0
 62
7
  6
CONTINUOUS
370
-3
390
F
  0
LAYER
  5
2F7
100
AcDbSymbolTableRecord
100
AcDbLayerTableRecord
  2
00_COMPONENTS_19_1_3_1
 70
0
 62
7
  6
CONTINUOUS
370
-3
390
F
  0
LAYER
  5
2F8
100
AcDbSymbolTableRecord
100
AcDbLayerTableRecord
  2
00_COMPONENTS_19_1_4
 70
0
 62
7
  6
CONTINUOUS
370
-3
390
F
  0
LAYER
  5
2F9
100
AcDbSymbolTableRecord
100
AcDbLayerTableRecord
  2
00_COMPONENTS_19_1_4_1
 70
0
 62
7
  6
CONTINUOUS
370
-3
390
F
  0
LAYER
  5
2FA
100
AcDbSymbolTableRecord
100
AcDbLayerTableRecord
  2
00_COMPONENTS_19_1_6
 70
0
 62
7
  6
CONTINUOUS
370
-3
390
F
  0
LAYER
  5
2FB
100
AcDbSymbolTableRecord
100
AcDbLayerTableRecord
  2
00_COMPONENTS_19_1_6_1
 70
0
 62
7
  6
CONTINUOUS
370
-3
390
F
  0
LAYER
  5
2FC
100
AcDbSymbolTableRecord
100
AcDbLayerTableRecord
  2
00_COMPONENTS_19_3
 70
0
 62
7
  6
CONTINUOUS
370
-3
390
F
  0
LAYER
  5
2FD
100
AcDbSymbolTableRecord
100
AcDbLayerTableRecord
  2
00_COMPONENTS_19_3_1
 70
0
 62
7
  6
CONTINUOUS
370
-3
390
F
  0
LAYER
  5
2FE
100
AcDbSymbolTableRecord
100
AcDbLayerTableRecord
  2
00_COMPONENTS_19_5
 70
0
 62
7
  6
CONTINUOUS
370
-3
390
F
  0
LAYER
  5
2FF
100
AcDbSymbolTableRecord
100
AcDbLayerTableRecord
  2
00_COMPONENTS_19_5_1
 70
0
 62
7
  6
CONTINUOUS
370
-3
390
F
  0
LAYER
  5
300
100
AcDbSymbolTableRecord
100
AcDbLayerTableRecord
  2
00_COMPONENTS_19_6
 70
0
 62
7
  6
CONTINUOUS
370
-3
390
F
  0
LAYER
  5
301
100
AcDbSymbolTableRecord
100
AcDbLayerTableRecord
  2
00_COMPONENTS_19_6_1
 70
0
 62
7
  6
CONTINUOUS
370
-3
390
F
  0
LAYER
  5
302
100
AcDbSymbolTableRecord
100
AcDbLayerTableRecord
  2
00_COMPONENTS_1_1
 70
0
 62
7
  6
CONTINUOUS
370
-3
390
F
  0
LAYER
  5
303
100
AcDbSymbolTableRecord
100
AcDbLayerTableRecord
  2
00_COMPONENTS_1_1_1
 70
0
 62
7
  6
CONTINUOUS
370
-3
390
F
  0
LAYER
  5
304
100
AcDbSymbolTableRecord
100
AcDbLayerTableRecord
  2
00_COMPONENTS_1_1_1_1
 70
0
 62
7
  6
CONTINUOUS
370
-3
390
F
  0
LAYER
  5
305
100
AcDbSymbolTableRecord
100
AcDbLayerTableRecord
  2
00_COMPONENTS_1_1_1_2
 70
0
 62
7
  6
CONTINUOUS
370
-3
390
F
  0
LAYER
  5
306
100
AcDbSymbolTableRecord
100
AcDbLayerTableRecord
  2
00_COMPONENTS_1_1_2
 70
0
 62
7
  6
CONTINUOUS
370
-3
390
F
  0
LAYER
  5
307
100
AcDbSymbolTableRecord
100
AcDbLayerTableRecord
  2
00_COMPONENTS_1_1_2_1
 70
0
 62
7
  6
CONTINUOUS
370
-3
390
F
  0
LAYER
  5
308
100
AcDbSymbolTableRecord
100
AcDbLayerTableRecord
  2
00_COMPONENTS_1_2_1
 70
0
 62
7
  6
CONTINUOUS
370
-3
390
F
  0
LAYER
  5
309
100
AcDbSymbolTableRecord
100
AcDbLayerTableRecord
  2
00_COMPONENTS_1_2_1_1
 70
0
 62
7
  6
CONTINUOUS
370
-3
390
F
  0
LAYER
  5
30A
100
AcDbSymbolTableRecord
100
AcDbLayerTableRecord
  2
00_COMPONENTS_1_2_1_1_1
 70
0
 62
7
  6
CONTINUOUS
370
-3
390
F
  0
LAYER
  5
30B
100
AcDbSymbolTableRecord
100
AcDbLayerTableRecord
  2
00_COMPONENTS_1_2_1_1_2
 70
0
 62
7
  6
CONTINUOUS
370
-3
390
F
  0
LAYER
  5
30C
100
AcDbSymbolTableRecord
100
AcDbLayerTableRecord
  2
00_COMPONENTS_1_2_1_2
 70
0
 62
7
  6
CONTINUOUS
370
-3
390
F
  0
LAYER
  5
30D
100
AcDbSymbolTableRecord
100
AcDbLayerTableRecord
  2
00_COMPONENTS_1_2_1_2_1
 70
0
 62
7
  6
CONTINUOUS
370
-3
390
F
  0
LAYER
  5
30E
100
AcDbSymbolTableRecord
100
AcDbLayerTableRecord
  2
00_COMPONENTS_1_2_1_3
 70
0
 62
7
  6
CONTINUOUS
370
-3
390
F
  0
LAYER
  5
30F
100
AcDbSymbolTableRecord
100
AcDbLayerTableRecord
  2
00_COMPONENTS_1_2_1_3_1
 70
0
 62
7
  6
CONTINUOUS
370
-3
390
F
  0
LAYER
  5
310
100
AcDbSymbolTableRecord
100
AcDbLayerTableRecord
  2
00_COMPONENTS_1_2_1_5
 70
0
 62
7
  6
CONTINUOUS
370
-3
390
F
  0
LAYER
  5
311
100
AcDbSymbolTableRecord
100
AcDbLayerTableRecord
  2
00_COMPONENTS_1_2_1_5_1
 70
0
 62
7
  6
CONTINUOUS
370
-3
390
F
  0
LAYER
  5
312
100
AcDbSymbolTableRecord
100
AcDbLayerTableRecord
  2
00_COMPONENTS_1_2_2
 70
0
 62
7
  6
CONTINUOUS
370
-3
390
F
  0
LAYER
  5
313
100
AcDbSymbolTableRecord
100
AcDbLayerTableRecord
  2
00_COMPONENTS_1_2_2_1
 70
0
 62
7
  6
CONTINUOUS
370
-3
390
F
  0
LAYER
  5
314
100
AcDbSymbolTableRecord
100
AcDbLayerTableRecord
  2
00_COMPONENTS_1_2_2_2
 70
0
 62
7
  6
CONTINUOUS
370
-3
390
F
  0
LAYER
  5
315
100
AcDbSymbolTableRecord
100
AcDbLayerTableRecord
  2
00_COMPONENTS_1_2_2_2_1
 70
0
 62
7
  6
CONTINUOUS
370
-3
390
F
  0
LAYER
  5
316
100
AcDbSymbolTableRecord
100
AcDbLayerTableRecord
  2
00_COMPONENTS_1_2_2_3
 70
0
 62
7
  6
CONTINUOUS
370
-3
390
F
  0
LAYER
  5
317
100
AcDbSymbolTableRecord
100
AcDbLayerTableRecord
  2
00_COMPONENTS_1_2_2_3_1
 70
0
 62
7
  6
CONTINUOUS
370
-3
390
F
  0
LAYER
  5
318
100
AcDbSymbolTableRecord
100
AcDbLayerTableRecord
  2
00_COMPONENTS_1_2_2_4
 70
0
 62
7
  6
CONTINUOUS
370
-3
390
F
  0
LAYER
  5
319
100
AcDbSymbolTableRecord
100
AcDbLayerTableRecord
  2
00_COMPONENTS_1_2_2_4_1
 70
0
 62
7
  6
CONTINUOUS
370
-3
390
F
  0
LAYER
  5
31A
100
AcDbSymbolTableRecord
100
AcDbLayerTableRecord
  2
00_COMPONENTS_1_2_2_6
 70
0
 62
7
  6
CONTINUOUS
370
-3
390
F
  0
LAYER
  5
31B
100
AcDbSymbolTableRecord
100
AcDbLayerTableRecord
  2
00_COMPONENTS_1_2_2_6_1
 70
0
 62
7
  6
CONTINUOUS
370
-3
390
F
  0
LAYER
  5
31C
100
AcDbSymbolTableRecord
100
AcDbLayerTableRecord
  2
00_COMPONENTS_1_2_3
 70
0
 62
7
  6
CONTINUOUS
370
-3
390
F
  0
LAYER
  5
31D
100
AcDbSymbolTableRecord
100
AcDbLayerTableRecord
  2
00_COMPONENTS_1_2_3_1
 70
0
 62
7
  6
CONTINUOUS
370
-3
390
F
  0
LAYER
  5
31E
100
AcDbSymbolTableRecord
100
AcDbLayerTableRecord
  2
00_COMPONENTS_1_2_4
 70
0
 62
7
  6
CONTINUOUS
370
-3
390
F
  0
LAYER
  5
31F
100
AcDbSymbolTableRecord
100
AcDbLayerTableRecord
  2
00_COMPONENTS_1_2_4_1
 70
0
 62
7
  6
CONTINUOUS
370
-3
390
F
  0
LAYER
  5
320
100
AcDbSymbolTableRecord
100
AcDbLayerTableRecord
  2
00_COMPONENTS_1_2_7
 70
0
 62
7
  6
CONTINUOUS
370
-3
390
F
  0
LAYER
  5
321
100
AcDbSymbolTableRecord
100
AcDbLayerTableRecord
  2
00_COMPONENTS_1_2_7_1
 70
0
 62
7
  6
CONTINUOUS
370
-3
390
F
  0
LAYER
  5
322
100
AcDbSymbolTableRecord
100
AcDbLayerTableRecord
  2
00_COMPONENTS_1_2_8
 70
0
 62
7
  6
CONTINUOUS
370
-3
390
F
  0
LAYER
  5
323
100
AcDbSymbolTableRecord
100
AcDbLayerTableRecord
  2
00_COMPONENTS_1_2_8_1
 70
0
 62
7
  6
CONTINUOUS
370
-3
390
F
  0
LAYER
  5
324
100
AcDbSymbolTableRecord
100
AcDbLayerTableRecord
  2
00_COMPONENTS_1_3_2
 70
0
 62
7
  6
CONTINUOUS
370
-3
390
F
  0
LAYER
  5
325
100
AcDbSymbolTableRecord
100
AcDbLayerTableRecord
  2
00_COMPONENTS_1_3_2_1
 70
0
 62
7
  6
CONTINUOUS
370
-3
390
F
  0
LAYER
  5
326
100
AcDbSymbolTableRecord
100
AcDbLayerTableRecord
  2
00_COMPONENTS_1_3_3
 70
0
 62
7
  6
CONTINUOUS
370
-3
390
F
  0
LAYER
  5
327
100
AcDbSymbolTableRecord
100
AcDbLayerTableRecord
  2
00_COMPONENTS_1_3_3_1
 70
0
 62
7
  6
CONTINUOUS
370
-3
390
F
  0
LAYER
  5
328
100
AcDbSymbolTableRecord
100
AcDbLayerTableRecord
  2
00_COMPONENTS_1_3_4
 70
0
 62
7
  6
CONTINUOUS
370
-3
390
F
  0
LAYER
  5
329
100
AcDbSymbolTableRecord
100
AcDbLayerTableRecord
  2
00_COMPONENTS_1_3_4_1
 70
0
 62
7
  6
CONTINUOUS
370
-3
390
F
  0
LAYER
  5
32A
100
AcDbSymbolTableRecord
100
AcDbLayerTableRecord
  2
00_COMPONENTS_1_3_5
 70
0
 62
7
  6
CONTINUOUS
370
-3
390
F
  0
LAYER
  5
32B
100
AcDbSymbolTableRecord
100
AcDbLayerTableRecord
  2
00_COMPONENTS_1_3_5_1
 70
0
 62
7
  6
CONTINUOUS
370
-3
390
F
  0
LAYER
  5
32C
100
AcDbSymbolTableRecord
100
AcDbLayerTableRecord
  2
00_COMPONENTS_1_3_6
 70
0
 62
7
  6
CONTINUOUS
370
-3
390
F
  0
LAYER
  5
32D
100
AcDbSymbolTableRecord
100
AcDbLayerTableRecord
  2
00_COMPONENTS_1_3_6_1
 70
0
 62
7
  6
CONTINUOUS
370
-3
390
F
  0
LAYER
  5
32E
100
AcDbSymbolTableRecord
100
AcDbLayerTableRecord
  2
00_COMPONENTS_1_3_7
 70
0
 62
7
  6
CONTINUOUS
370
-3
390
F
  0
LAYER
  5
32F
100
AcDbSymbolTableRecord
100
AcDbLayerTableRecord
  2
00_COMPONENTS_1_3_7_1
 70
0
 62
7
  6
CONTINUOUS
370
-3
390
F
  0
LAYER
  5
330
100
AcDbSymbolTableRecord
100
AcDbLayerTableRecord
  2
00_COMPONENTS_1_4
 70
0
 62
7
  6
CONTINUOUS
370
-3
390
F
  0
LAYER
  5
331
100
AcDbSymbolTableRecord
100
AcDbLayerTableRecord
  2
00_COMPONENTS_1_4_1
 70
0
 62
7
  6
CONTINUOUS
370
-3
390
F
  0
LAYER
  5
332
100
AcDbSymbolTableRecord
100
AcDbLayerTableRecord
  2
00_COMPONENTS_1_4_1_1
 70
0
 62
7
  6
CONTINUOUS
370
-3
390
F
  0
LAYER
  5
333
100
AcDbSymbolTableRecord
100
AcDbLayerTableRecord
  2
00_COMPONENTS_1_4_1_2
 70
0
 62
7
  6
CONTINUOUS
370
-3
390
F
  0
LAYER
  5
334
100
AcDbSymbolTableRecord
100
AcDbLayerTableRecord
  2
00_COMPONENTS_1_4_2
 70
0
 62
7
  6
CONTINUOUS
370
-3
390
F
  0
LAYER
  5
335
100
AcDbSymbolTableRecord
100
AcDbLayerTableRecord
  2
00_COMPONENTS_1_4_2_1
 70
0
 62
7
  6
CONTINUOUS
370
-3
390
F
  0
LAYER
  5
336
100
AcDbSymbolTableRecord
100
AcDbLayerTableRecord
  2
00_COMPONENTS_1_4_4
 70
0
 62
7
  6
CONTINUOUS
370
-3
390
F
  0
LAYER
  5
337
100
AcDbSymbolTableRecord
100
AcDbLayerTableRecord
  2
00_COMPONENTS_1_4_4_1
 70
0
 62
7
  6
CONTINUOUS
370
-3
390
F
  0
LAYER
  5
338
100
AcDbSymbolTableRecord
100
AcDbLayerTableRecord
  2
00_COMPONENTS_1_4_5
 70
0
 62
7
  6
CONTINUOUS
370
-3
390
F
  0
LAYER
  5
339
100
AcDbSymbolTableRecord
100
AcDbLayerTableRecord
  2
00_COMPONENTS_1_4_5_1
 70
0
 62
7
  6
CONTINUOUS
370
-3
390
F
  0
LAYER
  5
33A
100
AcDbSymbolTableRecord
100
AcDbLayerTableRecord
  2
00_COMPONENTS_2
 70
0
 62
7
  6
CONTINUOUS
370
-3
390
F
  0
LAYER
  5
33B
100
AcDbSymbolTableRecord
100
AcDbLayerTableRecord
  2
00_COMPONENTS_20
 70
0
 62
7
  6
CONTINUOUS
370
-3
390
F
  0
LAYER
  5
33C
100
AcDbSymbolTableRecord
100
AcDbLayerTableRecord
  2
00_COMPONENTS_23
 70
0
 62
7
  6
CONTINUOUS
370
-3
390
F
  0
LAYER
  5
33D
100
AcDbSymbolTableRecord
100
AcDbLayerTableRecord
  2
00_COMPONENTS_24_1
 70
0
 62
7
  6
CONTINUOUS
370
-3
390
F
  0
LAYER
  5
33E
100
AcDbSymbolTableRecord
100
AcDbLayerTableRecord
  2
00_COMPONENTS_24_1_1
 70
0
 62
7
  6
CONTINUOUS
370
-3
390
F
  0
LAYER
  5
33F
100
AcDbSymbolTableRecord
100
AcDbLayerTableRecord
  2
00_COMPONENTS_24_1_1_1
 70
0
 62
7
  6
CONTINUOUS
370
-3
390
F
  0
LAYER
  5
340
100
AcDbSymbolTableRecord
100
AcDbLayerTableRecord
  2
00_COMPONENTS_24_1_1_1_1
 70
0
 62
7
  6
CONTINUOUS
370
-3
390
F
  0
LAYER
  5
341
100
AcDbSymbolTableRecord
100
AcDbLayerTableRecord
  2
00_COMPONENTS_24_1_1_1_1_1
 70
0
 62
7
  6
CONTINUOUS
370
-3
390
F
  0
LAYER
  5
342
100
AcDbSymbolTableRecord
100
AcDbLayerTableRecord
  2
00_COMPONENTS_24_1_1_1_1_2
 70
0
 62
7
  6
CONTINUOUS
370
-3
390
F
  0
LAYER
  5
343
100
AcDbSymbolTableRecord
100
AcDbLayerTableRecord
  2
00_COMPONENTS_24_1_1_1_2
 70
0
 62
7
  6
CONTINUOUS
370
-3
390
F
  0
LAYER
  5
344
100
AcDbSymbolTableRecord
100
AcDbLayerTableRecord
  2
00_COMPONENTS_24_1_1_1_2_1
 70
0
 62
7
  6
CONTINUOUS
370
-3
390
F
  0
LAYER
  5
345
100
AcDbSymbolTableRecord
100
AcDbLayerTableRecord
  2
00_COMPONENTS_24_1_1_1_2_2
 70
0
 62
7
  6
CONTINUOUS
370
-3
390
F
  0
LAYER
  5
346
100
AcDbSymbolTableRecord
100
AcDbLayerTableRecord
  2
00_COMPONENTS_24_1_1_2
 70
0
 62
7
  6
CONTINUOUS
370
-3
390
F
  0
LAYER
  5
347
100
AcDbSymbolTableRecord
100
AcDbLayerTableRecord
  2
00_COMPONENTS_24_1_1_2_1
 70
0
 62
7
  6
CONTINUOUS
370
-3
390
F
  0
LAYER
  5
348
100
AcDbSymbolTableRecord
100
AcDbLayerTableRecord
  2
00_COMPONENTS_24_1_1_2_1_1
 70
0
 62
7
  6
CONTINUOUS
370
-3
390
F
  0
LAYER
  5
349
100
AcDbSymbolTableRecord
100
AcDbLayerTableRecord
  2
00_COMPONENTS_24_1_1_2_1_2
 70
0
 62
7
  6
CONTINUOUS
370
-3
390
F
  0
LAYER
  5
34A
100
AcDbSymbolTableRecord
100
AcDbLayerTableRecord
  2
00_COMPONENTS_25_2
 70
0
 62
7
  6
CONTINUOUS
370
-3
390
F
  0
LAYER
  5
34B
100
AcDbSymbolTableRecord
100
AcDbLayerTableRecord
  2
00_COMPONENTS_26_2
 70
0
 62
7
  6
CONTINUOUS
370
-3
390
F
  0
LAYER
  5
34C
100
AcDbSymbolTableRecord
100
AcDbLayerTableRecord
  2
00_COMPONENTS_28
 70
0
 62
7
  6
CONTINUOUS
370
-3
390
F
  0
LAYER
  5
34D
100
AcDbSymbolTableRecord
100
AcDbLayerTableRecord
  2
00_COMPONENTS_29_1
 70
0
 62
7
  6
CONTINUOUS
370
-3
390
F
  0
LAYER
  5
34E
100
AcDbSymbolTableRecord
100
AcDbLayerTableRecord
  2
00_COMPONENTS_29_2
 70
0
 62
7
  6
CONTINUOUS
370
-3
390
F
  0
LAYER
  5
34F
100
AcDbSymbolTableRecord
100
AcDbLayerTableRecord
  2
00_COMPONENTS_29_3
 70
0
 62
7
  6
CONTINUOUS
370
-3
390
F
  0
LAYER
  5
350
100
AcDbSymbolTableRecord
100
AcDbLayerTableRecord
  2
00_COMPONENTS_29_4
 70
0
 62
7
  6
CONTINUOUS
370
-3
390
F
  0
LAYER
  5
351
100
AcDbSymbolTableRecord
100
AcDbLayerTableRecord
  2
00_COMPONENTS_29_5
 70
0
 62
7
  6
CONTINUOUS
370
-3
390
F
  0
LAYER
  5
352
100
AcDbSymbolTableRecord
100
AcDbLayerTableRecord
  2
00_COMPONENTS_2_1
 70
0
 62
7
  6
CONTINUOUS
370
-3
390
F
  0
LAYER
  5
353
100
AcDbSymbolTableRecord
100
AcDbLayerTableRecord
  2
00_COMPONENTS_2_1_1
 70
0
 62
7
  6
CONTINUOUS
370
-3
390
F
  0
LAYER
  5
354
100
AcDbSymbolTableRecord
100
AcDbLayerTableRecord
  2
00_COMPONENTS_2_1_1_10
 70
0
 62
7
  6
CONTINUOUS
370
-3
390
F
  0
LAYER
  5
355
100
AcDbSymbolTableRecord
100
AcDbLayerTableRecord
  2
00_COMPONENTS_2_1_1_10_1
 70
0
 62
7
  6
CONTINUOUS
370
-3
390
F
  0
LAYER
  5
356
100
AcDbSymbolTableRecord
100
AcDbLayerTableRecord
  2
00_COMPONENTS_2_1_1_2
 70
0
 62
7
  6
CONTINUOUS
370
-3
390
F
  0
LAYER
  5
357
100
AcDbSymbolTableRecord
100
AcDbLayerTableRecord
  2
00_COMPONENTS_2_1_1_2_1
 70
0
 62
7
  6
CONTINUOUS
370
-3
390
F
  0
LAYER
  5
358
100
AcDbSymbolTableRecord
100
AcDbLayerTableRecord
  2
00_COMPONENTS_2_1_1_3
 70
0
 62
7
  6
CONTINUOUS
370
-3
390
F
  0
LAYER
  5
359
100
AcDbSymbolTableRecord
100
AcDbLayerTableRecord
  2
00_COMPONENTS_2_1_1_3_1
 70
0
 62
7
  6
CONTINUOUS
370
-3
390
F
  0
LAYER
  5
35A
100
AcDbSymbolTableRecord
100
AcDbLayerTableRecord
  2
00_COMPONENTS_2_1_1_6
 70
0
 62
7
  6
CONTINUOUS
370
-3
390
F
  0
LAYER
  5
35B
100
AcDbSymbolTableRecord
100
AcDbLayerTableRecord
  2
00_COMPONENTS_2_1_1_6_1
 70
0
 62
7
  6
CONTINUOUS
370
-3
390
F
  0
LAYER
  5
35C
100
AcDbSymbolTableRecord
100
AcDbLayerTableRecord
  2
00_COMPONENTS_2_1_1_8
 70
0
 62
7
  6
CONTINUOUS
370
-3
390
F
  0
LAYER
  5
35D
100
AcDbSymbolTableRecord
100
AcDbLayerTableRecord
  2
00_COMPONENTS_2_1_1_8_1
 70
0
 62
7
  6
CONTINUOUS
370
-3
390
F
  0
LAYER
  5
35E
100
AcDbSymbolTableRecord
100
AcDbLayerTableRecord
  2
00_COMPONENTS_2_1_1_9
 70
0
 62
7
  6
CONTINUOUS
370
-3
390
F
  0
LAYER
  5
35F
100
AcDbSymbolTableRecord
100
AcDbLayerTableRecord
  2
00_COMPONENTS_2_1_1_9_1
 70
0
 62
7
  6
CONTINUOUS
370
-3
390
F
  0
LAYER
  5
360
100
AcDbSymbolTableRecord
100
AcDbLayerTableRecord
  2
00_COMPONENTS_2_1_2
 70
0
 62
7
  6
CONTINUOUS
370
-3
390
F
  0
LAYER
  5
361
100
AcDbSymbolTableRecord
100
AcDbLayerTableRecord
  2
00_COMPONENTS_2_1_2_1
 70
0
 62
7
  6
CONTINUOUS
370
-3
390
F
  0
LAYER
  5
362
100
AcDbSymbolTableRecord
100
AcDbLayerTableRecord
  2
00_COMPONENTS_2_1_2_2
 70
0
 62
7
  6
CONTINUOUS
370
-3
390
F
  0
LAYER
  5
363
100
AcDbSymbolTableRecord
100
AcDbLayerTableRecord
  2
00_COMPONENTS_2_1_2_2_1
 70
0
 62
7
  6
CONTINUOUS
370
-3
390
F
  0
LAYER
  5
364
100
AcDbSymbolTableRecord
100
AcDbLayerTableRecord
  2
00_COMPONENTS_2_1_2_4
 70
0
 62
7
  6
CONTINUOUS
370
-3
390
F
  0
LAYER
  5
365
100
AcDbSymbolTableRecord
100
AcDbLayerTableRecord
  2
00_COMPONENTS_2_1_2_4_1
 70
0
 62
7
  6
CONTINUOUS
370
-3
390
F
  0
LAYER
  5
366
100
AcDbSymbolTableRecord
100
AcDbLayerTableRecord
  2
00_COMPONENTS_2_1_2_5
 70
0
 62
7
  6
CONTINUOUS
370
-3
390
F
  0
LAYER
  5
367
100
AcDbSymbolTableRecord
100
AcDbLayerTableRecord
  2
00_COMPONENTS_2_1_2_5_1
 70
0
 62
7
  6
CONTINUOUS
370
-3
390
F
  0
LAYER
  5
368
100
AcDbSymbolTableRecord
100
AcDbLayerTableRecord
  2
00_COMPONENTS_2_1_2_6
 70
0
 62
7
  6
CONTINUOUS
370
-3
390
F
  0
LAYER
  5
369
100
AcDbSymbolTableRecord
100
AcDbLayerTableRecord
  2
00_COMPONENTS_2_1_2_6_1
 70
0
 62
7
  6
CONTINUOUS
370
-3
390
F
  0
LAYER
  5
36A
100
AcDbSymbolTableRecord
100
AcDbLayerTableRecord
  2
00_COMPONENTS_2_1_2_7
 70
0
 62
7
  6
CONTINUOUS
370
-3
390
F
  0
LAYER
  5
36B
100
AcDbSymbolTableRecord
100
AcDbLayerTableRecord
  2
00_COMPONENTS_2_1_2_7_1
 70
0
 62
7
  6
CONTINUOUS
370
-3
390
F
  0
LAYER
  5
36C
100
AcDbSymbolTableRecord
100
AcDbLayerTableRecord
  2
00_COMPONENTS_2_1_2_8
 70
0
 62
7
  6
CONTINUOUS
370
-3
390
F
  0
LAYER
  5
36D
100
AcDbSymbolTableRecord
100
AcDbLayerTableRecord
  2
00_COMPONENTS_2_1_2_8_1
 70
0
 62
7
  6
CONTINUOUS
370
-3
390
F
  0
LAYER
  5
36E
100
AcDbSymbolTableRecord
100
AcDbLayerTableRecord
  2
00_COMPONENTS_2_1_3
 70
0
 62
7
  6
CONTINUOUS
370
-3
390
F
  0
LAYER
  5
36F
100
AcDbSymbolTableRecord
100
AcDbLayerTableRecord
  2
00_COMPONENTS_2_1_3_1
 70
0
 62
7
  6
CONTINUOUS
370
-3
390
F
  0
LAYER
  5
370
100
AcDbSymbolTableRecord
100
AcDbLayerTableRecord
  2
00_COMPONENTS_2_1_3_1_1
 70
0
 62
7
  6
CONTINUOUS
370
-3
390
F
  0
LAYER
  5
371
100
AcDbSymbolTableRecord
100
AcDbLayerTableRecord
  2
00_COMPONENTS_2_1_3_1_2
 70
0
 62
7
  6
CONTINUOUS
370
-3
390
F
  0
LAYER
  5
372
100
AcDbSymbolTableRecord
100
AcDbLayerTableRecord
  2
00_COMPONENTS_2_1_3_2
 70
0
 62
7
  6
CONTINUOUS
370
-3
390
F
  0
LAYER
  5
373
100
AcDbSymbolTableRecord
100
AcDbLayerTableRecord
  2
00_COMPONENTS_2_1_3_2_1
 70
0
 62
7
  6
CONTINUOUS
370
-3
390
F
  0
LAYER
  5
374
100
AcDbSymbolTableRecord
100
AcDbLayerTableRecord
  2
00_COMPONENTS_2_1_3_4
 70
0
 62
7
  6
CONTINUOUS
370
-3
390
F
  0
LAYER
  5
375
100
AcDbSymbolTableRecord
100
AcDbLayerTableRecord
  2
00_COMPONENTS_2_1_3_4_1
 70
0
 62
7
  6
CONTINUOUS
370
-3
390
F
  0
LAYER
  5
376
100
AcDbSymbolTableRecord
100
AcDbLayerTableRecord
  2
00_COMPONENTS_2_1_3_5
 70
0
 62
7
  6
CONTINUOUS
370
-3
390
F
  0
LAYER
  5
377
100
AcDbSymbolTableRecord
100
AcDbLayerTableRecord
  2
00_COMPONENTS_2_1_3_5_1
 70
0
 62
7
  6
CONTINUOUS
370
-3
390
F
  0
LAYER
  5
378
100
AcDbSymbolTableRecord
100
AcDbLayerTableRecord
  2
00_COMPONENTS_2_1_3_7
 70
0
 62
7
  6
CONTINUOUS
370
-3
390
F
  0
LAYER
  5
379
100
AcDbSymbolTableRecord
100
AcDbLayerTableRecord
  2
00_COMPONENTS_2_1_3_7_1
 70
0
 62
7
  6
CONTINUOUS
370
-3
390
F
  0
LAYER
  5
37A
100
AcDbSymbolTableRecord
100
AcDbLayerTableRecord
  2
00_COMPONENTS_2_1_3_8
 70
0
 62
7
  6
CONTINUOUS
370
-3
390
F
  0
LAYER
  5
37B
100
AcDbSymbolTableRecord
100
AcDbLayerTableRecord
  2
00_COMPONENTS_2_1_3_8_1
 70
0
 62
7
  6
CONTINUOUS
370
-3
390
F
  0
LAYER
  5
37C
100
AcDbSymbolTableRecord
100
AcDbLayerTableRecord
  2
00_COMPONENTS_2_1_4_1
 70
0
 62
7
  6
CONTINUOUS
370
-3
390
F
  0
LAYER
  5
37D
100
AcDbSymbolTableRecord
100
AcDbLayerTableRecord
  2
00_COMPONENTS_2_1_4_1_1
 70
0
 62
7
  6
CONTINUOUS
370
-3
390
F
  0
LAYER
  5
37E
100
AcDbSymbolTableRecord
100
AcDbLayerTableRecord
  2
00_COMPONENTS_2_1_4_2
 70
0
 62
7
  6
CONTINUOUS
370
-3
390
F
  0
LAYER
  5
37F
100
AcDbSymbolTableRecord
100
AcDbLayerTableRecord
  2
00_COMPONENTS_2_1_4_2_1
 70
0
 62
7
  6
CONTINUOUS
370
-3
390
F
  0
LAYER
  5
380
100
AcDbSymbolTableRecord
100
AcDbLayerTableRecord
  2
00_COMPONENTS_2_1_4_4
 70
0
 62
7
  6
CONTINUOUS
370
-3
390
F
  0
LAYER
  5
381
100
AcDbSymbolTableRecord
100
AcDbLayerTableRecord
  2
00_COMPONENTS_2_1_4_4_1
 70
0
 62
7
  6
CONTINUOUS
370
-3
390
F
  0
LAYER
  5
382
100
AcDbSymbolTableRecord
100
AcDbLayerTableRecord
  2
00_COMPONENTS_2_1_4_5
 70
0
 62
7
  6
CONTINUOUS
370
-3
390
F
  0
LAYER
  5
383
100
AcDbSymbolTableRecord
100
AcDbLayerTableRecord
  2
00_COMPONENTS_2_1_4_5_1
 70
0
 62
7
  6
CONTINUOUS
370
-3
390
F
  0
LAYER
  5
384
100
AcDbSymbolTableRecord
100
AcDbLayerTableRecord
  2
00_COMPONENTS_2_2_1
 70
0
 62
7
  6
CONTINUOUS
370
-3
390
F
  0
LAYER
  5
385
100
AcDbSymbolTableRecord
100
AcDbLayerTableRecord
  2
00_COMPONENTS_2_2_1_1
 70
0
 62
7
  6
CONTINUOUS
370
-3
390
F
  0
LAYER
  5
386
100
AcDbSymbolTableRecord
100
AcDbLayerTableRecord
  2
00_COMPONENTS_2_2_2
 70
0
 62
7
  6
CONTINUOUS
370
-3
390
F
  0
LAYER
  5
387
100
AcDbSymbolTableRecord
100
AcDbLayerTableRecord
  2
00_COMPONENTS_2_2_2_1
 70
0
 62
7
  6
CONTINUOUS
370
-3
390
F
  0
LAYER
  5
388
100
AcDbSymbolTableRecord
100
AcDbLayerTableRecord
  2
00_COMPONENTS_2_2_4
 70
0
 62
7
  6
CONTINUOUS
370
-3
390
F
  0
LAYER
  5
389
100
AcDbSymbolTableRecord
100
AcDbLayerTableRecord
  2
00_COMPONENTS_2_2_4_1
 70
0
 62
7
  6
CONTINUOUS
370
-3
390
F
  0
LAYER
  5
38A
100
AcDbSymbolTableRecord
100
AcDbLayerTableRecord
  2
00_COMPONENTS_2_2_5
 70
0
 62
7
  6
CONTINUOUS
370
-3
390
F
  0
LAYER
  5
38B
100
AcDbSymbolTableRecord
100
AcDbLayerTableRecord
  2
00_COMPONENTS_2_2_5_1
 70
0
 62
7
  6
CONTINUOUS
370
-3
390
F
  0
LAYER
  5
38C
100
AcDbSymbolTableRecord
100
AcDbLayerTableRecord
  2
00_COMPONENTS_30_1
 70
0
 62
7
  6
CONTINUOUS
370
-3
390
F
  0
LAYER
  5
38D
100
AcDbSymbolTableRecord
100
AcDbLayerTableRecord
  2
00_COMPONENTS_30_1_1
 70
0
 62
7
  6
CONTINUOUS
370
-3
390
F
  0
LAYER
  5
38E
100
AcDbSymbolTableRecord
100
AcDbLayerTableRecord
  2
00_COMPONENTS_30_1_1_1
 70
0
 62
7
  6
CONTINUOUS
370
-3
390
F
  0
LAYER
  5
38F
100
AcDbSymbolTableRecord
100
AcDbLayerTableRecord
  2
00_COMPONENTS_30_1_1_1_1
 70
0
 62
7
  6
CONTINUOUS
370
-3
390
F
  0
LAYER
  5
390
100
AcDbSymbolTableRecord
100
AcDbLayerTableRecord
  2
00_COMPONENTS_30_1_1_1_1_1
 70
0
 62
7
  6
CONTINUOUS
370
-3
390
F
  0
LAYER
  5
391
100
AcDbSymbolTableRecord
100
AcDbLayerTableRecord
  2
00_COMPONENTS_30_1_1_1_1_2
 70
0
 62
7
  6
CONTINUOUS
370
-3
390
F
  0
LAYER
  5
392
100
AcDbSymbolTableRecord
100
AcDbLayerTableRecord
  2
00_COMPONENTS_30_1_1_1_2
 70
0
 62
7
  6
CONTINUOUS
370
-3
390
F
  0
LAYER
  5
393
100
AcDbSymbolTableRecord
100
AcDbLayerTableRecord
  2
00_COMPONENTS_30_1_1_1_2_1
 70
0
 62
7
  6
CONTINUOUS
370
-3
390
F
  0
LAYER
  5
394
100
AcDbSymbolTableRecord
100
AcDbLayerTableRecord
  2
00_COMPONENTS_30_1_1_1_2_2
 70
0
 62
7
  6
CONTINUOUS
370
-3
390
F
  0
LAYER
  5
395
100
AcDbSymbolTableRecord
100
AcDbLayerTableRecord
  2
00_COMPONENTS_30_1_1_2
 70
0
 62
7
  6
CONTINUOUS
370
-3
390
F
  0
LAYER
  5
396
100
AcDbSymbolTableRecord
100
AcDbLayerTableRecord
  2
00_COMPONENTS_30_1_1_2_1
 70
0
 62
7
  6
CONTINUOUS
370
-3
390
F
  0
LAYER
  5
397
100
AcDbSymbolTableRecord
100
AcDbLayerTableRecord
  2
00_COMPONENTS_30_1_1_2_1_1
 70
0
 62
7
  6
CONTINUOUS
370
-3
390
F
  0
LAYER
  5
398
100
AcDbSymbolTableRecord
100
AcDbLayerTableRecord
  2
00_COMPONENTS_30_1_1_2_1_2
 70
0
 62
7
  6
CONTINUOUS
370
-3
390
F
  0
LAYER
  5
399
100
AcDbSymbolTableRecord
100
AcDbLayerTableRecord
  2
00_COMPONENTS_30_1_1_2_2
 70
0
 62
7
  6
CONTINUOUS
370
-3
390
F
  0
LAYER
  5
39A
100
AcDbSymbolTableRecord
100
AcDbLayerTableRecord
  2
00_COMPONENTS_30_1_1_2_2_1
 70
0
 62
7
  6
CONTINUOUS
370
-3
390
F
  0
LAYER
  5
39B
100
AcDbSymbolTableRecord
100
AcDbLayerTableRecord
  2
00_COMPONENTS_30_1_1_2_2_2
 70
0
 62
7
  6
CONTINUOUS
370
-3
390
F
  0
LAYER
  5
39C
100
AcDbSymbolTableRecord
100
AcDbLayerTableRecord
  2
00_COMPONENTS_31
 70
0
 62
7
  6
CONTINUOUS
370
-3
390
F
  0
LAYER
  5
39D
100
AcDbSymbolTableRecord
100
AcDbLayerTableRecord
  2
00_COMPONENTS_31_2
 70
0
 62
7
  6
CONTINUOUS
370
-3
390
F
  0
LAYER
  5
39E
100
AcDbSymbolTableRecord
100
AcDbLayerTableRecord
  2
00_COMPONENTS_32_1
 70
0
 62
7
  6
CONTINUOUS
370
-3
390
F
  0
LAYER
  5
39F
100
AcDbSymbolTableRecord
100
AcDbLayerTableRecord
  2
00_COMPONENTS_32_2_1
 70
0
 62
7
  6
CONTINUOUS
370
-3
390
F
  0
LAYER
  5
3A0
100
AcDbSymbolTableRecord
100
AcDbLayerTableRecord
  2
00_COMPONENTS_32_2_1_1
 70
0
 62
7
  6
CONTINUOUS
370
-3
390
F
  0
LAYER
  5
3A1
100
AcDbSymbolTableRecord
100
AcDbLayerTableRecord
  2
00_COMPONENTS_32_2_1_1_1
 70
0
 62
7
  6
CONTINUOUS
370
-3
390
F
  0
LAYER
  5
3A2
100
AcDbSymbolTableRecord
100
AcDbLayerTableRecord
  2
00_COMPONENTS_32_2_1_1_1_1
 70
0
 62
7
  6
CONTINUOUS
370
-3
390
F
  0
LAYER
  5
3A3
100
AcDbSymbolTableRecord
100
AcDbLayerTableRecord
  2
00_COMPONENTS_32_2_1_1_1_2
 70
0
 62
7
  6
CONTINUOUS
370
-3
390
F
  0
LAYER
  5
3A4
100
AcDbSymbolTableRecord
100
AcDbLayerTableRecord
  2
00_COMPONENTS_32_2_1_1_2
 70
0
 62
7
  6
CONTINUOUS
370
-3
390
F
  0
LAYER
  5
3A5
100
AcDbSymbolTableRecord
100
AcDbLayerTableRecord
  2
00_COMPONENTS_32_2_1_1_4
 70
0
 62
7
  6
CONTINUOUS
370
-3
390
F
  0
LAYER
  5
3A6
100
AcDbSymbolTableRecord
100
AcDbLayerTableRecord
  2
00_COMPONENTS_32_2_1_1_4_1
 70
0
 62
7
  6
CONTINUOUS
370
-3
390
F
  0
LAYER
  5
3A7
100
AcDbSymbolTableRecord
100
AcDbLayerTableRecord
  2
00_COMPONENTS_32_2_1_1_5
 70
0
 62
7
  6
CONTINUOUS
370
-3
390
F
  0
LAYER
  5
3A8
100
AcDbSymbolTableRecord
100
AcDbLayerTableRecord
  2
00_COMPONENTS_32_2_1_1_5_1
 70
0
 62
7
  6
CONTINUOUS
370
-3
390
F
  0
LAYER
  5
3A9
100
AcDbSymbolTableRecord
100
AcDbLayerTableRecord
  2
00_COMPONENTS_32_2_1_1_6
 70
0
 62
7
  6
CONTINUOUS
370
-3
390
F
  0
LAYER
  5
3AA
100
AcDbSymbolTableRecord
100
AcDbLayerTableRecord
  2
00_COMPONENTS_32_2_1_1_6_1
 70
0
 62
7
  6
CONTINUOUS
370
-3
390
F
  0
LAYER
  5
3AB
100
AcDbSymbolTableRecord
100
AcDbLayerTableRecord
  2
00_COMPONENTS_32_2_1_2_1
 70
0
 62
7
  6
CONTINUOUS
370
-3
390
F
  0
LAYER
  5
3AC
100
AcDbSymbolTableRecord
100
AcDbLayerTableRecord
  2
00_COMPONENTS_32_2_1_2_1_1
 70
0
 62
7
  6
CONTINUOUS
370
-3
390
F
  0
LAYER
  5
3AD
100
AcDbSymbolTableRecord
100
AcDbLayerTableRecord
  2
00_COMPONENTS_32_2_1_2_2
 70
0
 62
7
  6
CONTINUOUS
370
-3
390
F
  0
LAYER
  5
3AE
100
AcDbSymbolTableRecord
100
AcDbLayerTableRecord
  2
00_COMPONENTS_32_2_1_2_2_1
 70
0
 62
7
  6
CONTINUOUS
370
-3
390
F
  0
LAYER
  5
3AF
100
AcDbSymbolTableRecord
100
AcDbLayerTableRecord
  2
00_COMPONENTS_32_2_1_2_5
 70
0
 62
7
  6
CONTINUOUS
370
-3
390
F
  0
LAYER
  5
3B0
100
AcDbSymbolTableRecord
100
AcDbLayerTableRecord
  2
00_COMPONENTS_32_2_1_2_5_1
 70
0
 62
7
  6
CONTINUOUS
370
-3
390
F
  0
LAYER
  5
3B1
100
AcDbSymbolTableRecord
100
AcDbLayerTableRecord
  2
00_COMPONENTS_32_2_1_2_6
 70
0
 62
7
  6
CONTINUOUS
370
-3
390
F
  0
LAYER
  5
3B2
100
AcDbSymbolTableRecord
100
AcDbLayerTableRecord
  2
00_COMPONENTS_32_2_1_2_6_1
 70
0
 62
7
  6
CONTINUOUS
370
-3
390
F
  0
LAYER
  5
3B3
100
AcDbSymbolTableRecord
100
AcDbLayerTableRecord
  2
00_COMPONENTS_32_2_1_3
 70
0
 62
7
  6
CONTINUOUS
370
-3
390
F
  0
LAYER
  5
3B4
100
AcDbSymbolTableRecord
100
AcDbLayerTableRecord
  2
00_COMPONENTS_32_2_1_3_1
 70
0
 62
7
  6
CONTINUOUS
370
-3
390
F
  0
LAYER
  5
3B5
100
AcDbSymbolTableRecord
100
AcDbLayerTableRecord
  2
00_COMPONENTS_32_2_1_5
 70
0
 62
7
  6
CONTINUOUS
370
-3
390
F
  0
LAYER
  5
3B6
100
AcDbSymbolTableRecord
100
AcDbLayerTableRecord
  2
00_COMPONENTS_32_2_1_5_1
 70
0
 62
7
  6
CONTINUOUS
370
-3
390
F
  0
LAYER
  5
3B7
100
AcDbSymbolTableRecord
100
AcDbLayerTableRecord
  2
00_COMPONENTS_32_2_1_6
 70
0
 62
7
  6
CONTINUOUS
370
-3
390
F
  0
LAYER
  5
3B8
100
AcDbSymbolTableRecord
100
AcDbLayerTableRecord
  2
00_COMPONENTS_32_2_1_6_1
 70
0
 62
7
  6
CONTINUOUS
370
-3
390
F
  0
LAYER
  5
3B9
100
AcDbSymbolTableRecord
100
AcDbLayerTableRecord
  2
00_COMPONENTS_32_2_2
 70
0
 62
7
  6
CONTINUOUS
370
-3
390
F
  0
LAYER
  5
3BA
100
AcDbSymbolTableRecord
100
AcDbLayerTableRecord
  2
00_COMPONENTS_32_2_2_1
 70
0
 62
7
  6
CONTINUOUS
370
-3
390
F
  0
LAYER
  5
3BB
100
AcDbSymbolTableRecord
100
AcDbLayerTableRecord
  2
00_COMPONENTS_32_2_4
 70
0
 62
7
  6
CONTINUOUS
370
-3
390
F
  0
LAYER
  5
3BC
100
AcDbSymbolTableRecord
100
AcDbLayerTableRecord
  2
00_COMPONENTS_32_2_4_1
 70
0
 62
7
  6
CONTINUOUS
370
-3
390
F
  0
LAYER
  5
3BD
100
AcDbSymbolTableRecord
100
AcDbLayerTableRecord
  2
00_COMPONENTS_32_2_5
 70
0
 62
7
  6
CONTINUOUS
370
-3
390
F
  0
LAYER
  5
3BE
100
AcDbSymbolTableRecord
100
AcDbLayerTableRecord
  2
00_COMPONENTS_32_2_5_1
 70
0
 62
7
  6
CONTINUOUS
370
-3
390
F
  0
LAYER
  5
3BF
100
AcDbSymbolTableRecord
100
AcDbLayerTableRecord
  2
00_COMPONENTS_32_3
 70
0
 62
7
  6
CONTINUOUS
370
-3
390
F
  0
LAYER
  5
3C0
100
AcDbSymbolTableRecord
100
AcDbLayerTableRecord
  2
00_COMPONENTS_32_3_1
 70
0
 62
7
  6
CONTINUOUS
370
-3
390
F
  0
LAYER
  5
3C1
100
AcDbSymbolTableRecord
100
AcDbLayerTableRecord
  2
00_COMPONENTS_32_3_1_1
 70
0
 62
7
  6
CONTINUOUS
370
-3
390
F
  0
LAYER
  5
3C2
100
AcDbSymbolTableRecord
100
AcDbLayerTableRecord
  2
00_COMPONENTS_32_3_1_1_1
 70
0
 62
7
  6
CONTINUOUS
370
-3
390
F
  0
LAYER
  5
3C3
100
AcDbSymbolTableRecord
100
AcDbLayerTableRecord
  2
00_COMPONENTS_32_3_1_1_1_1
 70
0
 62
7
  6
CONTINUOUS
370
-3
390
F
  0
LAYER
  5
3C4
100
AcDbSymbolTableRecord
100
AcDbLayerTableRecord
  2
00_COMPONENTS_32_3_1_1_1_2
 70
0
 62
7
  6
CONTINUOUS
370
-3
390
F
  0
LAYER
  5
3C5
100
AcDbSymbolTableRecord
100
AcDbLayerTableRecord
  2
00_COMPONENTS_32_3_1_1_2
 70
0
 62
7
  6
CONTINUOUS
370
-3
390
F
  0
LAYER
  5
3C6
100
AcDbSymbolTableRecord
100
AcDbLayerTableRecord
  2
00_COMPONENTS_32_3_1_1_2_1
 70
0
 62
7
  6
CONTINUOUS
370
-3
390
F
  0
LAYER
  5
3C7
100
AcDbSymbolTableRecord
100
AcDbLayerTableRecord
  2
00_COMPONENTS_32_3_1_1_2_2
 70
0
 62
7
  6
CONTINUOUS
370
-3
390
F
  0
LAYER
  5
3C8
100
AcDbSymbolTableRecord
100
AcDbLayerTableRecord
  2
00_COMPONENTS_32_3_1_1_4
 70
0
 62
7
  6
CONTINUOUS
370
-3
390
F
  0
LAYER
  5
3C9
100
AcDbSymbolTableRecord
100
AcDbLayerTableRecord
  2
00_COMPONENTS_32_3_1_1_4_1
 70
0
 62
7
  6
CONTINUOUS
370
-3
390
F
  0
LAYER
  5
3CA
100
AcDbSymbolTableRecord
100
AcDbLayerTableRecord
  2
00_COMPONENTS_32_3_1_1_6
 70
0
 62
7
  6
CONTINUOUS
370
-3
390
F
  0
LAYER
  5
3CB
100
AcDbSymbolTableRecord
100
AcDbLayerTableRecord
  2
00_COMPONENTS_32_3_1_1_6_1
 70
0
 62
7
  6
CONTINUOUS
370
-3
390
F
  0
LAYER
  5
3CC
100
AcDbSymbolTableRecord
100
AcDbLayerTableRecord
  2
00_COMPONENTS_32_3_1_2
 70
0
 62
7
  6
CONTINUOUS
370
-3
390
F
  0
LAYER
  5
3CD
100
AcDbSymbolTableRecord
100
AcDbLayerTableRecord
  2
00_COMPONENTS_32_3_1_2_1
 70
0
 62
7
  6
CONTINUOUS
370
-3
390
F
  0
LAYER
  5
3CE
100
AcDbSymbolTableRecord
100
AcDbLayerTableRecord
  2
00_COMPONENTS_32_3_1_2_1_1
 70
0
 62
7
  6
CONTINUOUS
370
-3
390
F
  0
LAYER
  5
3CF
100
AcDbSymbolTableRecord
100
AcDbLayerTableRecord
  2
00_COMPONENTS_32_3_1_2_2
 70
0
 62
7
  6
CONTINUOUS
370
-3
390
F
  0
LAYER
  5
3D0
100
AcDbSymbolTableRecord
100
AcDbLayerTableRecord
  2
00_COMPONENTS_32_3_1_2_2_1
 70
0
 62
7
  6
CONTINUOUS
370
-3
390
F
  0
LAYER
  5
3D1
100
AcDbSymbolTableRecord
100
AcDbLayerTableRecord
  2
00_COMPONENTS_32_3_1_2_4
 70
0
 62
7
  6
CONTINUOUS
370
-3
390
F
  0
LAYER
  5
3D2
100
AcDbSymbolTableRecord
100
AcDbLayerTableRecord
  2
00_COMPONENTS_32_3_1_2_4_1
 70
0
 62
7
  6
CONTINUOUS
370
-3
390
F
  0
LAYER
  5
3D3
100
AcDbSymbolTableRecord
100
AcDbLayerTableRecord
  2
00_COMPONENTS_32_3_1_2_5
 70
0
 62
7
  6
CONTINUOUS
370
-3
390
F
  0
LAYER
  5
3D4
100
AcDbSymbolTableRecord
100
AcDbLayerTableRecord
  2
00_COMPONENTS_32_3_1_2_5_1
 70
0
 62
7
  6
CONTINUOUS
370
-3
390
F
  0
LAYER
  5
3D5
100
AcDbSymbolTableRecord
100
AcDbLayerTableRecord
  2
00_COMPONENTS_32_3_1_3
 70
0
 62
7
  6
CONTINUOUS
370
-3
390
F
  0
LAYER
  5
3D6
100
AcDbSymbolTableRecord
100
AcDbLayerTableRecord
  2
00_COMPONENTS_32_3_1_3_1
 70
0
 62
7
  6
CONTINUOUS
370
-3
390
F
  0
LAYER
  5
3D7
100
AcDbSymbolTableRecord
100
AcDbLayerTableRecord
  2
00_COMPONENTS_32_3_1_4
 70
0
 62
7
  6
CONTINUOUS
370
-3
390
F
  0
LAYER
  5
3D8
100
AcDbSymbolTableRecord
100
AcDbLayerTableRecord
  2
00_COMPONENTS_32_3_1_4_1
 70
0
 62
7
  6
CONTINUOUS
370
-3
390
F
  0
LAYER
  5
3D9
100
AcDbSymbolTableRecord
100
AcDbLayerTableRecord
  2
00_COMPONENTS_32_3_1_5
 70
0
 62
7
  6
CONTINUOUS
370
-3
390
F
  0
LAYER
  5
3DA
100
AcDbSymbolTableRecord
100
AcDbLayerTableRecord
  2
00_COMPONENTS_32_3_1_5_1
 70
0
 62
7
  6
CONTINUOUS
370
-3
390
F
  0
LAYER
  5
3DB
100
AcDbSymbolTableRecord
100
AcDbLayerTableRecord
  2
00_COMPONENTS_32_3_2
 70
0
 62
7
  6
CONTINUOUS
370
-3
390
F
  0
LAYER
  5
3DC
100
AcDbSymbolTableRecord
100
AcDbLayerTableRecord
  2
00_COMPONENTS_32_3_2_1
 70
0
 62
7
  6
CONTINUOUS
370
-3
390
F
  0
LAYER
  5
3DD
100
AcDbSymbolTableRecord
100
AcDbLayerTableRecord
  2
00_COMPONENTS_32_3_3
 70
0
 62
7
  6
CONTINUOUS
370
-3
390
F
  0
LAYER
  5
3DE
100
AcDbSymbolTableRecord
100
AcDbLayerTableRecord
  2
00_COMPONENTS_32_3_3_1
 70
0
 62
7
  6
CONTINUOUS
370
-3
390
F
  0
LAYER
  5
3DF
100
AcDbSymbolTableRecord
100
AcDbLayerTableRecord
  2
00_COMPONENTS_32_6
 70
0
 62
7
  6
CONTINUOUS
370
-3
390
F
  0
LAYER
  5
3E0
100
AcDbSymbolTableRecord
100
AcDbLayerTableRecord
  2
00_COMPONENTS_32_6_1
 70
0
 62
7
  6
CONTINUOUS
370
-3
390
F
  0
LAYER
  5
3E1
100
AcDbSymbolTableRecord
100
AcDbLayerTableRecord
  2
00_COMPONENTS_32_6_1_1
 70
0
 62
7
  6
CONTINUOUS
370
-3
390
F
  0
LAYER
  5
3E2
100
AcDbSymbolTableRecord
100
AcDbLayerTableRecord
  2
00_COMPONENTS_32_6_1_1_1
 70
0
 62
7
  6
CONTINUOUS
370
-3
390
F
  0
LAYER
  5
3E3
100
AcDbSymbolTableRecord
100
AcDbLayerTableRecord
  2
00_COMPONENTS_32_6_1_1_2
 70
0
 62
7
  6
CONTINUOUS
370
-3
390
F
  0
LAYER
  5
3E4
100
AcDbSymbolTableRecord
100
AcDbLayerTableRecord
  2
00_COMPONENTS_32_6_1_1_2_1
 70
0
 62
7
  6
CONTINUOUS
370
-3
390
F
  0
LAYER
  5
3E5
100
AcDbSymbolTableRecord
100
AcDbLayerTableRecord
  2
00_COMPONENTS_32_6_1_1_2_2
 70
0
 62
7
  6
CONTINUOUS
370
-3
390
F
  0
LAYER
  5
3E6
100
AcDbSymbolTableRecord
100
AcDbLayerTableRecord
  2
00_COMPONENTS_32_6_1_1_3
 70
0
 62
7
  6
CONTINUOUS
370
-3
390
F
  0
LAYER
  5
3E7
100
AcDbSymbolTableRecord
100
AcDbLayerTableRecord
  2
00_COMPONENTS_32_6_1_1_3_1
 70
0
 62
7
  6
CONTINUOUS
370
-3
390
F
  0
LAYER
  5
3E8
100
AcDbSymbolTableRecord
100
AcDbLayerTableRecord
  2
00_COMPONENTS_32_6_1_1_5
 70
0
 62
7
  6
CONTINUOUS
370
-3
390
F
  0
LAYER
  5
3E9
100
AcDbSymbolTableRecord
100
AcDbLayerTableRecord
  2
00_COMPONENTS_32_6_1_1_5_1
 70
0
 62
7
  6
CONTINUOUS
370
-3
390
F
  0
LAYER
  5
3EA
100
AcDbSymbolTableRecord
100
AcDbLayerTableRecord
  2
00_COMPONENTS_32_6_1_2
 70
0
 62
7
  6
CONTINUOUS
370
-3
390
F
  0
LAYER
  5
3EB
100
AcDbSymbolTableRecord
100
AcDbLayerTableRecord
  2
00_COMPONENTS_32_6_1_2_1
 70
0
 62
7
  6
CONTINUOUS
370
-3
390
F
  0
LAYER
  5
3EC
100
AcDbSymbolTableRecord
100
AcDbLayerTableRecord
  2
00_COMPONENTS_32_6_1_2_1_1
 70
0
 62
7
  6
CONTINUOUS
370
-3
390
F
  0
LAYER
  5
3ED
100
AcDbSymbolTableRecord
100
AcDbLayerTableRecord
  2
00_COMPONENTS_32_6_1_2_3
 70
0
 62
7
  6
CONTINUOUS
370
-3
390
F
  0
LAYER
  5
3EE
100
AcDbSymbolTableRecord
100
AcDbLayerTableRecord
  2
00_COMPONENTS_32_6_1_2_3_1
 70
0
 62
7
  6
CONTINUOUS
370
-3
390
F
  0
LAYER
  5
3EF
100
AcDbSymbolTableRecord
100
AcDbLayerTableRecord
  2
00_COMPONENTS_32_6_1_2_4
 70
0
 62
7
  6
CONTINUOUS
370
-3
390
F
  0
LAYER
  5
3F0
100
AcDbSymbolTableRecord
100
AcDbLayerTableRecord
  2
00_COMPONENTS_32_6_1_2_4_1
 70
0
 62
7
  6
CONTINUOUS
370
-3
390
F
  0
LAYER
  5
3F1
100
AcDbSymbolTableRecord
100
AcDbLayerTableRecord
  2
00_COMPONENTS_32_6_1_2_5
 70
0
 62
7
  6
CONTINUOUS
370
-3
390
F
  0
LAYER
  5
3F2
100
AcDbSymbolTableRecord
100
AcDbLayerTableRecord
  2
00_COMPONENTS_32_6_1_2_5_1
 70
0
 62
7
  6
CONTINUOUS
370
-3
390
F
  0
LAYER
  5
3F3
100
AcDbSymbolTableRecord
100
AcDbLayerTableRecord
  2
00_COMPONENTS_32_6_2
 70
0
 62
7
  6
CONTINUOUS
370
-3
390
F
  0
LAYER
  5
3F4
100
AcDbSymbolTableRecord
100
AcDbLayerTableRecord
  2
00_COMPONENTS_32_6_2_1
 70
0
 62
7
  6
CONTINUOUS
370
-3
390
F
  0
LAYER
  5
3F5
100
AcDbSymbolTableRecord
100
AcDbLayerTableRecord
  2
00_COMPONENTS_32_6_2_11
 70
0
 62
7
  6
CONTINUOUS
370
-3
390
F
  0
LAYER
  5
3F6
100
AcDbSymbolTableRecord
100
AcDbLayerTableRecord
  2
00_COMPONENTS_32_6_2_11_1
 70
0
 62
7
  6
CONTINUOUS
370
-3
390
F
  0
LAYER
  5
3F7
100
AcDbSymbolTableRecord
100
AcDbLayerTableRecord
  2
00_COMPONENTS_32_6_2_11_2
 70
0
 62
7
  6
CONTINUOUS
370
-3
390
F
  0
LAYER
  5
3F8
100
AcDbSymbolTableRecord
100
AcDbLayerTableRecord
  2
00_COMPONENTS_32_6_2_11_3
 70
0
 62
7
  6
CONTINUOUS
370
-3
390
F
  0
LAYER
  5
3F9
100
AcDbSymbolTableRecord
100
AcDbLayerTableRecord
  2
00_COMPONENTS_32_6_2_12
 70
0
 62
7
  6
CONTINUOUS
370
-3
390
F
  0
LAYER
  5
3FA
100
AcDbSymbolTableRecord
100
AcDbLayerTableRecord
  2
00_COMPONENTS_32_6_2_12_1
 70
0
 62
7
  6
CONTINUOUS
370
-3
390
F
  0
LAYER
  5
3FB
100
AcDbSymbolTableRecord
100
AcDbLayerTableRecord
  2
00_COMPONENTS_32_6_2_1_1
 70
0
 62
7
  6
CONTINUOUS
370
-3
390
F
  0
LAYER
  5
3FC
100
AcDbSymbolTableRecord
100
AcDbLayerTableRecord
  2
00_COMPONENTS_32_6_2_1_1_1
 70
0
 62
7
  6
CONTINUOUS
370
-3
390
F
  0
LAYER
  5
3FD
100
AcDbSymbolTableRecord
100
AcDbLayerTableRecord
  2
00_COMPONENTS_32_6_2_1_1_2
 70
0
 62
7
  6
CONTINUOUS
370
-3
390
F
  0
LAYER
  5
3FE
100
AcDbSymbolTableRecord
100
AcDbLayerTableRecord
  2
00_COMPONENTS_32_6_2_1_2
 70
0
 62
7
  6
CONTINUOUS
370
-3
390
F
  0
LAYER
  5
3FF
100
AcDbSymbolTableRecord
100
AcDbLayerTableRecord
  2
00_COMPONENTS_32_6_2_1_3
 70
0
 62
7
  6
CONTINUOUS
370
-3
390
F
  0
LAYER
  5
400
100
AcDbSymbolTableRecord
100
AcDbLayerTableRecord
  2
00_COMPONENTS_32_6_2_1_3_1
 70
0
 62
7
  6
CONTINUOUS
370
-3
390
F
  0
LAYER
  5
401
100
AcDbSymbolTableRecord
100
AcDbLayerTableRecord
  2
00_COMPONENTS_32_6_2_1_4
 70
0
 62
7
  6
CONTINUOUS
370
-3
390
F
  0
LAYER
  5
402
100
AcDbSymbolTableRecord
100
AcDbLayerTableRecord
  2
00_COMPONENTS_32_6_2_1_4_1
 70
0
 62
7
  6
CONTINUOUS
370
-3
390
F
  0
LAYER
  5
403
100
AcDbSymbolTableRecord
100
AcDbLayerTableRecord
  2
00_COMPONENTS_32_6_2_1_6
 70
0
 62
7
  6
CONTINUOUS
370
-3
390
F
  0
LAYER
  5
404
100
AcDbSymbolTableRecord
100
AcDbLayerTableRecord
  2
00_COMPONENTS_32_6_2_1_6_1
 70
0
 62
7
  6
CONTINUOUS
370
-3
390
F
  0
LAYER
  5
405
100
AcDbSymbolTableRecord
100
AcDbLayerTableRecord
  2
00_COMPONENTS_32_6_2_2
 70
0
 62
7
  6
CONTINUOUS
370
-3
390
F
  0
LAYER
  5
406
100
AcDbSymbolTableRecord
100
AcDbLayerTableRecord
  2
00_COMPONENTS_32_6_2_2_1
 70
0
 62
7
  6
CONTINUOUS
370
-3
390
F
  0
LAYER
  5
407
100
AcDbSymbolTableRecord
100
AcDbLayerTableRecord
  2
00_COMPONENTS_32_6_2_2_2
 70
0
 62
7
  6
CONTINUOUS
370
-3
390
F
  0
LAYER
  5
408
100
AcDbSymbolTableRecord
100
AcDbLayerTableRecord
  2
00_COMPONENTS_32_6_2_2_2_1
 70
0
 62
7
  6
CONTINUOUS
370
-3
390
F
  0
LAYER
  5
409
100
AcDbSymbolTableRecord
100
AcDbLayerTableRecord
  2
00_COMPONENTS_32_6_2_2_3
 70
0
 62
7
  6
CONTINUOUS
370
-3
390
F
  0
LAYER
  5
40A
100
AcDbSymbolTableRecord
100
AcDbLayerTableRecord
  2
00_COMPONENTS_32_6_2_2_3_1
 70
0
 62
7
  6
CONTINUOUS
370
-3
390
F
  0
LAYER
  5
40B
100
AcDbSymbolTableRecord
100
AcDbLayerTableRecord
  2
00_COMPONENTS_32_6_2_2_4
 70
0
 62
7
  6
CONTINUOUS
370
-3
390
F
  0
LAYER
  5
40C
100
AcDbSymbolTableRecord
100
AcDbLayerTableRecord
  2
00_COMPONENTS_32_6_2_2_4_1
 70
0
 62
7
  6
CONTINUOUS
370
-3
390
F
  0
LAYER
  5
40D
100
AcDbSymbolTableRecord
100
AcDbLayerTableRecord
  2
00_COMPONENTS_32_6_2_2_6
 70
0
 62
7
  6
CONTINUOUS
370
-3
390
F
  0
LAYER
  5
40E
100
AcDbSymbolTableRecord
100
AcDbLayerTableRecord
  2
00_COMPONENTS_32_6_2_2_6_1
 70
0
 62
7
  6
CONTINUOUS
370
-3
390
F
  0
LAYER
  5
40F
100
AcDbSymbolTableRecord
100
AcDbLayerTableRecord
  2
00_COMPONENTS_32_6_2_3
 70
0
 62
7
  6
CONTINUOUS
370
-3
390
F
  0
LAYER
  5
410
100
AcDbSymbolTableRecord
100
AcDbLayerTableRecord
  2
00_COMPONENTS_32_6_2_3_1
 70
0
 62
7
  6
CONTINUOUS
370
-3
390
F
  0
LAYER
  5
411
100
AcDbSymbolTableRecord
100
AcDbLayerTableRecord
  2
00_COMPONENTS_32_6_2_3_1_1
 70
0
 62
7
  6
CONTINUOUS
370
-3
390
F
  0
LAYER
  5
412
100
AcDbSymbolTableRecord
100
AcDbLayerTableRecord
  2
00_COMPONENTS_32_6_2_3_1_2
 70
0
 62
7
  6
CONTINUOUS
370
-3
390
F
  0
LAYER
  5
413
100
AcDbSymbolTableRecord
100
AcDbLayerTableRecord
  2
00_COMPONENTS_32_6_2_3_2
 70
0
 62
7
  6
CONTINUOUS
370
-3
390
F
  0
LAYER
  5
414
100
AcDbSymbolTableRecord
100
AcDbLayerTableRecord
  2
00_COMPONENTS_32_6_2_3_2_1
 70
0
 62
7
  6
CONTINUOUS
370
-3
390
F
  0
LAYER
  5
415
100
AcDbSymbolTableRecord
100
AcDbLayerTableRecord
  2
00_COMPONENTS_32_6_2_3_3
 70
0
 62
7
  6
CONTINUOUS
370
-3
390
F
  0
LAYER
  5
416
100
AcDbSymbolTableRecord
100
AcDbLayerTableRecord
  2
00_COMPONENTS_32_6_2_3_3_1
 70
0
 62
7
  6
CONTINUOUS
370
-3
390
F
  0
LAYER
  5
417
100
AcDbSymbolTableRecord
100
AcDbLayerTableRecord
  2
00_COMPONENTS_32_6_2_3_5
 70
0
 62
7
  6
CONTINUOUS
370
-3
390
F
  0
LAYER
  5
418
100
AcDbSymbolTableRecord
100
AcDbLayerTableRecord
  2
00_COMPONENTS_32_6_2_3_5_1
 70
0
 62
7
  6
CONTINUOUS
370
-3
390
F
  0
LAYER
  5
419
100
AcDbSymbolTableRecord
100
AcDbLayerTableRecord
  2
00_COMPONENTS_32_6_2_6
 70
0
 62
7
  6
CONTINUOUS
370
-3
390
F
  0
LAYER
  5
41A
100
AcDbSymbolTableRecord
100
AcDbLayerTableRecord
  2
00_COMPONENTS_32_6_2_6_1
 70
0
 62
7
  6
CONTINUOUS
370
-3
390
F
  0
LAYER
  5
41B
100
AcDbSymbolTableRecord
100
AcDbLayerTableRecord
  2
00_COMPONENTS_32_6_2_6_2
 70
0
 62
7
  6
CONTINUOUS
370
-3
390
F
  0
LAYER
  5
41C
100
AcDbSymbolTableRecord
100
AcDbLayerTableRecord
  2
00_COMPONENTS_32_6_2_6_3
 70
0
 62
7
  6
CONTINUOUS
370
-3
390
F
  0
LAYER
  5
41D
100
AcDbSymbolTableRecord
100
AcDbLayerTableRecord
  2
00_COMPONENTS_32_6_2_7
 70
0
 62
7
  6
CONTINUOUS
370
-3
390
F
  0
LAYER
  5
41E
100
AcDbSymbolTableRecord
100
AcDbLayerTableRecord
  2
00_COMPONENTS_32_6_2_7_1
 70
0
 62
7
  6
CONTINUOUS
370
-3
390
F
  0
LAYER
  5
41F
100
AcDbSymbolTableRecord
100
AcDbLayerTableRecord
  2
00_COMPONENTS_32_6_2_9
 70
0
 62
7
  6
CONTINUOUS
370
-3
390
F
  0
LAYER
  5
420
100
AcDbSymbolTableRecord
100
AcDbLayerTableRecord
  2
00_COMPONENTS_32_6_2_9_1
 70
0
 62
7
  6
CONTINUOUS
370
-3
390
F
  0
LAYER
  5
421
100
AcDbSymbolTableRecord
100
AcDbLayerTableRecord
  2
00_COMPONENTS_32_6_3
 70
0
 62
7
  6
CONTINUOUS
370
-3
390
F
  0
LAYER
  5
422
100
AcDbSymbolTableRecord
100
AcDbLayerTableRecord
  2
00_COMPONENTS_32_6_3_1
 70
0
 62
7
  6
CONTINUOUS
370
-3
390
F
  0
LAYER
  5
423
100
AcDbSymbolTableRecord
100
AcDbLayerTableRecord
  2
00_COMPONENTS_32_6_3_1_1
 70
0
 62
7
  6
CONTINUOUS
370
-3
390
F
  0
LAYER
  5
424
100
AcDbSymbolTableRecord
100
AcDbLayerTableRecord
  2
00_COMPONENTS_32_6_3_1_2
 70
0
 62
7
  6
CONTINUOUS
370
-3
390
F
  0
LAYER
  5
425
100
AcDbSymbolTableRecord
100
AcDbLayerTableRecord
  2
00_COMPONENTS_32_6_3_1_2_1
 70
0
 62
7
  6
CONTINUOUS
370
-3
390
F
  0
LAYER
  5
426
100
AcDbSymbolTableRecord
100
AcDbLayerTableRecord
  2
00_COMPONENTS_32_6_3_1_2_2
 70
0
 62
7
  6
CONTINUOUS
370
-3
390
F
  0
LAYER
  5
427
100
AcDbSymbolTableRecord
100
AcDbLayerTableRecord
  2
00_COMPONENTS_32_6_3_1_3
 70
0
 62
7
  6
CONTINUOUS
370
-3
390
F
  0
LAYER
  5
428
100
AcDbSymbolTableRecord
100
AcDbLayerTableRecord
  2
00_COMPONENTS_32_6_3_1_3_1
 70
0
 62
7
  6
CONTINUOUS
370
-3
390
F
  0
LAYER
  5
429
100
AcDbSymbolTableRecord
100
AcDbLayerTableRecord
  2
00_COMPONENTS_32_6_3_1_4
 70
0
 62
7
  6
CONTINUOUS
370
-3
390
F
  0
LAYER
  5
42A
100
AcDbSymbolTableRecord
100
AcDbLayerTableRecord
  2
00_COMPONENTS_32_6_3_1_4_1
 70
0
 62
7
  6
CONTINUOUS
370
-3
390
F
  0
LAYER
  5
42B
100
AcDbSymbolTableRecord
100
AcDbLayerTableRecord
  2
00_COMPONENTS_32_6_3_1_6
 70
0
 62
7
  6
CONTINUOUS
370
-3
390
F
  0
LAYER
  5
42C
100
AcDbSymbolTableRecord
100
AcDbLayerTableRecord
  2
00_COMPONENTS_32_6_3_1_6_1
 70
0
 62
7
  6
CONTINUOUS
370
-3
390
F
  0
LAYER
  5
42D
100
AcDbSymbolTableRecord
100
AcDbLayerTableRecord
  2
00_COMPONENTS_32_6_3_2
 70
0
 62
7
  6
CONTINUOUS
370
-3
390
F
  0
LAYER
  5
42E
100
AcDbSymbolTableRecord
100
AcDbLayerTableRecord
  2
00_COMPONENTS_32_6_3_2_1
 70
0
 62
7
  6
CONTINUOUS
370
-3
390
F
  0
LAYER
  5
42F
100
AcDbSymbolTableRecord
100
AcDbLayerTableRecord
  2
00_COMPONENTS_32_6_3_4
 70
0
 62
7
  6
CONTINUOUS
370
-3
390
F
  0
LAYER
  5
430
100
AcDbSymbolTableRecord
100
AcDbLayerTableRecord
  2
00_COMPONENTS_32_6_3_4_1
 70
0
 62
7
  6
CONTINUOUS
370
-3
390
F
  0
LAYER
  5
431
100
AcDbSymbolTableRecord
100
AcDbLayerTableRecord
  2
00_COMPONENTS_32_6_3_6
 70
0
 62
7
  6
CONTINUOUS
370
-3
390
F
  0
LAYER
  5
432
100
AcDbSymbolTableRecord
100
AcDbLayerTableRecord
  2
00_COMPONENTS_32_6_3_6_1
 70
0
 62
7
  6
CONTINUOUS
370
-3
390
F
  0
LAYER
  5
433
100
AcDbSymbolTableRecord
100
AcDbLayerTableRecord
  2
00_COMPONENTS_32_7
 70
0
 62
7
  6
CONTINUOUS
370
-3
390
F
  0
LAYER
  5
434
100
AcDbSymbolTableRecord
100
AcDbLayerTableRecord
  2
00_COMPONENTS_32_7_1
 70
0
 62
7
  6
CONTINUOUS
370
-3
390
F
  0
LAYER
  5
435
100
AcDbSymbolTableRecord
100
AcDbLayerTableRecord
  2
00_COMPONENTS_32_7_1_1
 70
0
 62
7
  6
CONTINUOUS
370
-3
390
F
  0
LAYER
  5
436
100
AcDbSymbolTableRecord
100
AcDbLayerTableRecord
  2
00_COMPONENTS_32_7_1_1_1
 70
0
 62
7
  6
CONTINUOUS
370
-3
390
F
  0
LAYER
  5
437
100
AcDbSymbolTableRecord
100
AcDbLayerTableRecord
  2
00_COMPONENTS_32_7_1_1_1_1
 70
0
 62
7
  6
CONTINUOUS
370
-3
390
F
  0
LAYER
  5
438
100
AcDbSymbolTableRecord
100
AcDbLayerTableRecord
  2
00_COMPONENTS_32_7_1_1_1_2
 70
0
 62
7
  6
CONTINUOUS
370
-3
390
F
  0
LAYER
  5
439
100
AcDbSymbolTableRecord
100
AcDbLayerTableRecord
  2
00_COMPONENTS_32_7_1_1_3
 70
0
 62
7
  6
CONTINUOUS
370
-3
390
F
  0
LAYER
  5
43A
100
AcDbSymbolTableRecord
100
AcDbLayerTableRecord
  2
00_COMPONENTS_32_7_1_1_3_1
 70
0
 62
7
  6
CONTINUOUS
370
-3
390
F
  0
LAYER
  5
43B
100
AcDbSymbolTableRecord
100
AcDbLayerTableRecord
  2
00_COMPONENTS_32_7_1_1_5
 70
0
 62
7
  6
CONTINUOUS
370
-3
390
F
  0
LAYER
  5
43C
100
AcDbSymbolTableRecord
100
AcDbLayerTableRecord
  2
00_COMPONENTS_32_7_1_1_5_1
 70
0
 62
7
  6
CONTINUOUS
370
-3
390
F
  0
LAYER
  5
43D
100
AcDbSymbolTableRecord
100
AcDbLayerTableRecord
  2
00_COMPONENTS_32_7_1_1_6
 70
0
 62
7
  6
CONTINUOUS
370
-3
390
F
  0
LAYER
  5
43E
100
AcDbSymbolTableRecord
100
AcDbLayerTableRecord
  2
00_COMPONENTS_32_7_1_1_6_1
 70
0
 62
7
  6
CONTINUOUS
370
-3
390
F
  0
LAYER
  5
43F
100
AcDbSymbolTableRecord
100
AcDbLayerTableRecord
  2
00_COMPONENTS_32_7_1_2_2
 70
0
 62
7
  6
CONTINUOUS
370
-3
390
F
  0
LAYER
  5
440
100
AcDbSymbolTableRecord
100
AcDbLayerTableRecord
  2
00_COMPONENTS_32_7_1_2_2_1
 70
0
 62
7
  6
CONTINUOUS
370
-3
390
F
  0
LAYER
  5
441
100
AcDbSymbolTableRecord
100
AcDbLayerTableRecord
  2
00_COMPONENTS_32_7_1_2_4
 70
0
 62
7
  6
CONTINUOUS
370
-3
390
F
  0
LAYER
  5
442
100
AcDbSymbolTableRecord
100
AcDbLayerTableRecord
  2
00_COMPONENTS_32_7_1_2_4_1
 70
0
 62
7
  6
CONTINUOUS
370
-3
390
F
  0
LAYER
  5
443
100
AcDbSymbolTableRecord
100
AcDbLayerTableRecord
  2
00_COMPONENTS_32_7_1_2_5
 70
0
 62
7
  6
CONTINUOUS
370
-3
390
F
  0
LAYER
  5
444
100
AcDbSymbolTableRecord
100
AcDbLayerTableRecord
  2
00_COMPONENTS_32_7_1_2_5_1
 70
0
 62
7
  6
CONTINUOUS
370
-3
390
F
  0
LAYER
  5
445
100
AcDbSymbolTableRecord
100
AcDbLayerTableRecord
  2
00_COMPONENTS_32_7_1_2_6
 70
0
 62
7
  6
CONTINUOUS
370
-3
390
F
  0
LAYER
  5
446
100
AcDbSymbolTableRecord
100
AcDbLayerTableRecord
  2
00_COMPONENTS_32_7_1_2_6_1
 70
0
 62
7
  6
CONTINUOUS
370
-3
390
F
  0
LAYER
  5
447
100
AcDbSymbolTableRecord
100
AcDbLayerTableRecord
  2
00_COMPONENTS_32_7_1_3
 70
0
 62
7
  6
CONTINUOUS
370
-3
390
F
  0
LAYER
  5
448
100
AcDbSymbolTableRecord
100
AcDbLayerTableRecord
  2
00_COMPONENTS_32_7_1_3_1
 70
0
 62
7
  6
CONTINUOUS
370
-3
390
F
  0
LAYER
  5
449
100
AcDbSymbolTableRecord
100
AcDbLayerTableRecord
  2
00_COMPONENTS_32_7_1_4
 70
0
 62
7
  6
CONTINUOUS
370
-3
390
F
  0
LAYER
  5
44A
100
AcDbSymbolTableRecord
100
AcDbLayerTableRecord
  2
00_COMPONENTS_32_7_1_4_1
 70
0
 62
7
  6
CONTINUOUS
370
-3
390
F
  0
LAYER
  5
44B
100
AcDbSymbolTableRecord
100
AcDbLayerTableRecord
  2
00_COMPONENTS_32_7_1_5
 70
0
 62
7
  6
CONTINUOUS
370
-3
390
F
  0
LAYER
  5
44C
100
AcDbSymbolTableRecord
100
AcDbLayerTableRecord
  2
00_COMPONENTS_32_7_1_5_1
 70
0
 62
7
  6
CONTINUOUS
370
-3
390
F
  0
LAYER
  5
44D
100
AcDbSymbolTableRecord
100
AcDbLayerTableRecord
  2
00_COMPONENTS_32_7_2
 70
0
 62
7
  6
CONTINUOUS
370
-3
390
F
  0
LAYER
  5
44E
100
AcDbSymbolTableRecord
100
AcDbLayerTableRecord
  2
00_COMPONENTS_32_7_2_1
 70
0
 62
7
  6
CONTINUOUS
370
-3
390
F
  0
LAYER
  5
44F
100
AcDbSymbolTableRecord
100
AcDbLayerTableRecord
  2
00_COMPONENTS_32_7_4
 70
0
 62
7
  6
CONTINUOUS
370
-3
390
F
  0
LAYER
  5
450
100
AcDbSymbolTableRecord
100
AcDbLayerTableRecord
  2
00_COMPONENTS_32_7_4_1
 70
0
 62
7
  6
CONTINUOUS
370
-3
390
F
  0
LAYER
  5
451
100
AcDbSymbolTableRecord
100
AcDbLayerTableRecord
  2
00_COMPONENTS_32_7_5
 70
0
 62
7
  6
CONTINUOUS
370
-3
390
F
  0
LAYER
  5
452
100
AcDbSymbolTableRecord
100
AcDbLayerTableRecord
  2
00_COMPONENTS_32_7_5_1
 70
0
 62
7
  6
CONTINUOUS
370
-3
390
F
  0
LAYER
  5
453
100
AcDbSymbolTableRecord
100
AcDbLayerTableRecord
  2
00_COMPONENTS_33
 70
0
 62
7
  6
CONTINUOUS
370
-3
390
F
  0
LAYER
  5
454
100
AcDbSymbolTableRecord
100
AcDbLayerTableRecord
  2
00_COMPONENTS_33_1
 70
0
 62
7
  6
CONTINUOUS
370
-3
390
F
  0
LAYER
  5
455
100
AcDbSymbolTableRecord
100
AcDbLayerTableRecord
  2
00_COMPONENTS_37_1
 70
0
 62
7
  6
CONTINUOUS
370
-3
390
F
  0
LAYER
  5
456
100
AcDbSymbolTableRecord
100
AcDbLayerTableRecord
  2
00_COMPONENTS_3_11
 70
0
 62
7
  6
CONTINUOUS
370
-3
390
F
  0
LAYER
  5
457
100
AcDbSymbolTableRecord
100
AcDbLayerTableRecord
  2
00_COMPONENTS_3_11_1
 70
0
 62
7
  6
CONTINUOUS
370
-3
390
F
  0
LAYER
  5
458
100
AcDbSymbolTableRecord
100
AcDbLayerTableRecord
  2
00_COMPONENTS_3_1_1
 70
0
 62
7
  6
CONTINUOUS
370
-3
390
F
  0
LAYER
  5
459
100
AcDbSymbolTableRecord
100
AcDbLayerTableRecord
  2
00_COMPONENTS_3_1_2
 70
0
 62
7
  6
CONTINUOUS
370
-3
390
F
  0
LAYER
  5
45A
100
AcDbSymbolTableRecord
100
AcDbLayerTableRecord
  2
00_COMPONENTS_3_2
 70
0
 62
7
  6
CONTINUOUS
370
-3
390
F
  0
LAYER
  5
45B
100
AcDbSymbolTableRecord
100
AcDbLayerTableRecord
  2
00_COMPONENTS_3_2_1
 70
0
 62
7
  6
CONTINUOUS
370
-3
390
F
  0
LAYER
  5
45C
100
AcDbSymbolTableRecord
100
AcDbLayerTableRecord
  2
00_COMPONENTS_3_2_1_1
 70
0
 62
7
  6
CONTINUOUS
370
-3
390
F
  0
LAYER
  5
45D
100
AcDbSymbolTableRecord
100
AcDbLayerTableRecord
  2
00_COMPONENTS_3_2_1_10
 70
0
 62
7
  6
CONTINUOUS
370
-3
390
F
  0
LAYER
  5
45E
100
AcDbSymbolTableRecord
100
AcDbLayerTableRecord
  2
00_COMPONENTS_3_2_1_10_1
 70
0
 62
7
  6
CONTINUOUS
370
-3
390
F
  0
LAYER
  5
45F
100
AcDbSymbolTableRecord
100
AcDbLayerTableRecord
  2
00_COMPONENTS_3_2_1_1_1
 70
0
 62
7
  6
CONTINUOUS
370
-3
390
F
  0
LAYER
  5
460
100
AcDbSymbolTableRecord
100
AcDbLayerTableRecord
  2
00_COMPONENTS_3_2_1_1_2
 70
0
 62
7
  6
CONTINUOUS
370
-3
390
F
  0
LAYER
  5
461
100
AcDbSymbolTableRecord
100
AcDbLayerTableRecord
  2
00_COMPONENTS_3_2_1_2
 70
0
 62
7
  6
CONTINUOUS
370
-3
390
F
  0
LAYER
  5
462
100
AcDbSymbolTableRecord
100
AcDbLayerTableRecord
  2
00_COMPONENTS_3_2_1_2_1
 70
0
 62
7
  6
CONTINUOUS
370
-3
390
F
  0
LAYER
  5
463
100
AcDbSymbolTableRecord
100
AcDbLayerTableRecord
  2
00_COMPONENTS_3_2_1_2_2
 70
0
 62
7
  6
CONTINUOUS
370
-3
390
F
  0
LAYER
  5
464
100
AcDbSymbolTableRecord
100
AcDbLayerTableRecord
  2
00_COMPONENTS_3_2_1_3
 70
0
 62
7
  6
CONTINUOUS
370
-3
390
F
  0
LAYER
  5
465
100
AcDbSymbolTableRecord
100
AcDbLayerTableRecord
  2
00_COMPONENTS_3_2_1_3_1
 70
0
 62
7
  6
CONTINUOUS
370
-3
390
F
  0
LAYER
  5
466
100
AcDbSymbolTableRecord
100
AcDbLayerTableRecord
  2
00_COMPONENTS_3_2_1_8
 70
0
 62
7
  6
CONTINUOUS
370
-3
390
F
  0
LAYER
  5
467
100
AcDbSymbolTableRecord
100
AcDbLayerTableRecord
  2
00_COMPONENTS_3_2_1_8_1
 70
0
 62
7
  6
CONTINUOUS
370
-3
390
F
  0
LAYER
  5
468
100
AcDbSymbolTableRecord
100
AcDbLayerTableRecord
  2
00_COMPONENTS_3_2_1_9
 70
0
 62
7
  6
CONTINUOUS
370
-3
390
F
  0
LAYER
  5
469
100
AcDbSymbolTableRecord
100
AcDbLayerTableRecord
  2
00_COMPONENTS_3_2_1_9_1
 70
0
 62
7
  6
CONTINUOUS
370
-3
390
F
  0
LAYER
  5
46A
100
AcDbSymbolTableRecord
100
AcDbLayerTableRecord
  2
00_COMPONENTS_3_2_2
 70
0
 62
7
  6
CONTINUOUS
370
-3
390
F
  0
LAYER
  5
46B
100
AcDbSymbolTableRecord
100
AcDbLayerTableRecord
  2
00_COMPONENTS_3_2_2_1
 70
0
 62
7
  6
CONTINUOUS
370
-3
390
F
  0
LAYER
  5
46C
100
AcDbSymbolTableRecord
100
AcDbLayerTableRecord
  2
00_COMPONENTS_3_2_2_1_1
 70
0
 62
7
  6
CONTINUOUS
370
-3
390
F
  0
LAYER
  5
46D
100
AcDbSymbolTableRecord
100
AcDbLayerTableRecord
  2
00_COMPONENTS_3_2_2_2
 70
0
 62
7
  6
CONTINUOUS
370
-3
390
F
  0
LAYER
  5
46E
100
AcDbSymbolTableRecord
100
AcDbLayerTableRecord
  2
00_COMPONENTS_3_2_2_2_1
 70
0
 62
7
  6
CONTINUOUS
370
-3
390
F
  0
LAYER
  5
46F
100
AcDbSymbolTableRecord
100
AcDbLayerTableRecord
  2
00_COMPONENTS_3_2_2_3
 70
0
 62
7
  6
CONTINUOUS
370
-3
390
F
  0
LAYER
  5
470
100
AcDbSymbolTableRecord
100
AcDbLayerTableRecord
  2
00_COMPONENTS_3_2_2_3_1
 70
0
 62
7
  6
CONTINUOUS
370
-3
390
F
  0
LAYER
  5
471
100
AcDbSymbolTableRecord
100
AcDbLayerTableRecord
  2
00_COMPONENTS_3_2_2_4
 70
0
 62
7
  6
CONTINUOUS
370
-3
390
F
  0
LAYER
  5
472
100
AcDbSymbolTableRecord
100
AcDbLayerTableRecord
  2
00_COMPONENTS_3_2_2_4_1
 70
0
 62
7
  6
CONTINUOUS
370
-3
390
F
  0
LAYER
  5
473
100
AcDbSymbolTableRecord
100
AcDbLayerTableRecord
  2
00_COMPONENTS_3_2_2_7
 70
0
 62
7
  6
CONTINUOUS
370
-3
390
F
  0
LAYER
  5
474
100
AcDbSymbolTableRecord
100
AcDbLayerTableRecord
  2
00_COMPONENTS_3_2_2_7_1
 70
0
 62
7
  6
CONTINUOUS
370
-3
390
F
  0
LAYER
  5
475
100
AcDbSymbolTableRecord
100
AcDbLayerTableRecord
  2
00_COMPONENTS_3_2_2_8
 70
0
 62
7
  6
CONTINUOUS
370
-3
390
F
  0
LAYER
  5
476
100
AcDbSymbolTableRecord
100
AcDbLayerTableRecord
  2
00_COMPONENTS_3_2_2_8_1
 70
0
 62
7
  6
CONTINUOUS
370
-3
390
F
  0
LAYER
  5
477
100
AcDbSymbolTableRecord
100
AcDbLayerTableRecord
  2
00_COMPONENTS_3_2_3
 70
0
 62
7
  6
CONTINUOUS
370
-3
390
F
  0
LAYER
  5
478
100
AcDbSymbolTableRecord
100
AcDbLayerTableRecord
  2
00_COMPONENTS_3_2_3_1
 70
0
 62
7
  6
CONTINUOUS
370
-3
390
F
  0
LAYER
  5
479
100
AcDbSymbolTableRecord
100
AcDbLayerTableRecord
  2
00_COMPONENTS_3_2_3_2
 70
0
 62
7
  6
CONTINUOUS
370
-3
390
F
  0
LAYER
  5
47A
100
AcDbSymbolTableRecord
100
AcDbLayerTableRecord
  2
00_COMPONENTS_3_2_3_2_1
 70
0
 62
7
  6
CONTINUOUS
370
-3
390
F
  0
LAYER
  5
47B
100
AcDbSymbolTableRecord
100
AcDbLayerTableRecord
  2
00_COMPONENTS_3_2_3_3
 70
0
 62
7
  6
CONTINUOUS
370
-3
390
F
  0
LAYER
  5
47C
100
AcDbSymbolTableRecord
100
AcDbLayerTableRecord
  2
00_COMPONENTS_3_2_3_3_1
 70
0
 62
7
  6
CONTINUOUS
370
-3
390
F
  0
LAYER
  5
47D
100
AcDbSymbolTableRecord
100
AcDbLayerTableRecord
  2
00_COMPONENTS_3_2_3_4
 70
0
 62
7
  6
CONTINUOUS
370
-3
390
F
  0
LAYER
  5
47E
100
AcDbSymbolTableRecord
100
AcDbLayerTableRecord
  2
00_COMPONENTS_3_2_3_4_1
 70
0
 62
7
  6
CONTINUOUS
370
-3
390
F
  0
LAYER
  5
47F
100
AcDbSymbolTableRecord
100
AcDbLayerTableRecord
  2
00_COMPONENTS_3_2_3_5
 70
0
 62
7
  6
CONTINUOUS
370
-3
390
F
  0
LAYER
  5
480
100
AcDbSymbolTableRecord
100
AcDbLayerTableRecord
  2
00_COMPONENTS_3_2_3_5_1
 70
0
 62
7
  6
CONTINUOUS
370
-3
390
F
  0
LAYER
  5
481
100
AcDbSymbolTableRecord
100
AcDbLayerTableRecord
  2
00_COMPONENTS_3_2_3_7
 70
0
 62
7
  6
CONTINUOUS
370
-3
390
F
  0
LAYER
  5
482
100
AcDbSymbolTableRecord
100
AcDbLayerTableRecord
  2
00_COMPONENTS_3_2_3_7_1
 70
0
 62
7
  6
CONTINUOUS
370
-3
390
F
  0
LAYER
  5
483
100
AcDbSymbolTableRecord
100
AcDbLayerTableRecord
  2
00_COMPONENTS_3_2_3_8
 70
0
 62
7
  6
CONTINUOUS
370
-3
390
F
  0
LAYER
  5
484
100
AcDbSymbolTableRecord
100
AcDbLayerTableRecord
  2
00_COMPONENTS_3_2_3_8_1
 70
0
 62
7
  6
CONTINUOUS
370
-3
390
F
  0
LAYER
  5
485
100
AcDbSymbolTableRecord
100
AcDbLayerTableRecord
  2
00_COMPONENTS_3_2_4_1
 70
0
 62
7
  6
CONTINUOUS
370
-3
390
F
  0
LAYER
  5
486
100
AcDbSymbolTableRecord
100
AcDbLayerTableRecord
  2
00_COMPONENTS_3_2_4_1_1
 70
0
 62
7
  6
CONTINUOUS
370
-3
390
F
  0
LAYER
  5
487
100
AcDbSymbolTableRecord
100
AcDbLayerTableRecord
  2
00_COMPONENTS_3_2_4_3
 70
0
 62
7
  6
CONTINUOUS
370
-3
390
F
  0
LAYER
  5
488
100
AcDbSymbolTableRecord
100
AcDbLayerTableRecord
  2
00_COMPONENTS_3_2_4_3_1
 70
0
 62
7
  6
CONTINUOUS
370
-3
390
F
  0
LAYER
  5
489
100
AcDbSymbolTableRecord
100
AcDbLayerTableRecord
  2
00_COMPONENTS_3_2_4_4
 70
0
 62
7
  6
CONTINUOUS
370
-3
390
F
  0
LAYER
  5
48A
100
AcDbSymbolTableRecord
100
AcDbLayerTableRecord
  2
00_COMPONENTS_3_2_4_4_1
 70
0
 62
7
  6
CONTINUOUS
370
-3
390
F
  0
LAYER
  5
48B
100
AcDbSymbolTableRecord
100
AcDbLayerTableRecord
  2
00_COMPONENTS_3_2_4_6
 70
0
 62
7
  6
CONTINUOUS
370
-3
390
F
  0
LAYER
  5
48C
100
AcDbSymbolTableRecord
100
AcDbLayerTableRecord
  2
00_COMPONENTS_3_2_4_6_1
 70
0
 62
7
  6
CONTINUOUS
370
-3
390
F
  0
LAYER
  5
48D
100
AcDbSymbolTableRecord
100
AcDbLayerTableRecord
  2
00_COMPONENTS_3_2_5
 70
0
 62
7
  6
CONTINUOUS
370
-3
390
F
  0
LAYER
  5
48E
100
AcDbSymbolTableRecord
100
AcDbLayerTableRecord
  2
00_COMPONENTS_3_2_5_1
 70
0
 62
7
  6
CONTINUOUS
370
-3
390
F
  0
LAYER
  5
48F
100
AcDbSymbolTableRecord
100
AcDbLayerTableRecord
  2
00_COMPONENTS_3_2_6
 70
0
 62
7
  6
CONTINUOUS
370
-3
390
F
  0
LAYER
  5
490
100
AcDbSymbolTableRecord
100
AcDbLayerTableRecord
  2
00_COMPONENTS_3_2_6_1
 70
0
 62
7
  6
CONTINUOUS
370
-3
390
F
  0
LAYER
  5
491
100
AcDbSymbolTableRecord
100
AcDbLayerTableRecord
  2
00_COMPONENTS_3_2_7
 70
0
 62
7
  6
CONTINUOUS
370
-3
390
F
  0
LAYER
  5
492
100
AcDbSymbolTableRecord
100
AcDbLayerTableRecord
  2
00_COMPONENTS_3_2_7_1
 70
0
 62
7
  6
CONTINUOUS
370
-3
390
F
  0
LAYER
  5
493
100
AcDbSymbolTableRecord
100
AcDbLayerTableRecord
  2
00_COMPONENTS_3_2_9
 70
0
 62
7
  6
CONTINUOUS
370
-3
390
F
  0
LAYER
  5
494
100
AcDbSymbolTableRecord
100
AcDbLayerTableRecord
  2
00_COMPONENTS_3_2_9_1
 70
0
 62
7
  6
CONTINUOUS
370
-3
390
F
  0
LAYER
  5
495
100
AcDbSymbolTableRecord
100
AcDbLayerTableRecord
  2
00_COMPONENTS_3_4
 70
0
 62
7
  6
CONTINUOUS
370
-3
390
F
  0
LAYER
  5
496
100
AcDbSymbolTableRecord
100
AcDbLayerTableRecord
  2
00_COMPONENTS_3_4_1
 70
0
 62
7
  6
CONTINUOUS
370
-3
390
F
  0
LAYER
  5
497
100
AcDbSymbolTableRecord
100
AcDbLayerTableRecord
  2
00_COMPONENTS_3_9
 70
0
 62
7
  6
CONTINUOUS
370
-3
390
F
  0
LAYER
  5
498
100
AcDbSymbolTableRecord
100
AcDbLayerTableRecord
  2
00_COMPONENTS_3_9_1
 70
0
 62
7
  6
CONTINUOUS
370
-3
390
F
  0
LAYER
  5
499
100
AcDbSymbolTableRecord
100
AcDbLayerTableRecord
  2
00_COMPONENTS_4
 70
0
 62
7
  6
CONTINUOUS
370
-3
390
F
  0
LAYER
  5
49A
100
AcDbSymbolTableRecord
100
AcDbLayerTableRecord
  2
00_COMPONENTS_40_1
 70
0
 62
7
  6
CONTINUOUS
370
-3
390
F
  0
LAYER
  5
49B
100
AcDbSymbolTableRecord
100
AcDbLayerTableRecord
  2
00_COMPONENTS_41
 70
0
 62
7
  6
CONTINUOUS
370
-3
390
F
  0
LAYER
  5
49C
100
AcDbSymbolTableRecord
100
AcDbLayerTableRecord
  2
00_COMPONENTS_41_2
 70
0
 62
7
  6
CONTINUOUS
370
-3
390
F
  0
LAYER
  5
49D
100
AcDbSymbolTableRecord
100
AcDbLayerTableRecord
  2
00_COMPONENTS_42
 70
0
 62
7
  6
CONTINUOUS
370
-3
390
F
  0
LAYER
  5
49E
100
AcDbSymbolTableRecord
100
AcDbLayerTableRecord
  2
00_COMPONENTS_44_1
 70
0
 62
7
  6
CONTINUOUS
370
-3
390
F
  0
LAYER
  5
49F
100
AcDbSymbolTableRecord
100
AcDbLayerTableRecord
  2
00_COMPONENTS_45
 70
0
 62
7
  6
CONTINUOUS
370
-3
390
F
  0
LAYER
  5
4A0
100
AcDbSymbolTableRecord
100
AcDbLayerTableRecord
  2
00_COMPONENTS_46_2
 70
0
 62
7
  6
CONTINUOUS
370
-3
390
F
  0
LAYER
  5
4A1
100
AcDbSymbolTableRecord
100
AcDbLayerTableRecord
  2
00_COMPONENTS_4_1
 70
0
 62
7
  6
CONTINUOUS
370
-3
390
F
  0
LAYER
  5
4A2
100
AcDbSymbolTableRecord
100
AcDbLayerTableRecord
  2
00_COMPONENTS_4_1_1
 70
0
 62
7
  6
CONTINUOUS
370
-3
390
F
  0
LAYER
  5
4A3
100
AcDbSymbolTableRecord
100
AcDbLayerTableRecord
  2
00_COMPONENTS_4_1_1_1
 70
0
 62
7
  6
CONTINUOUS
370
-3
390
F
  0
LAYER
  5
4A4
100
AcDbSymbolTableRecord
100
AcDbLayerTableRecord
  2
00_COMPONENTS_4_1_1_1_1
 70
0
 62
7
  6
CONTINUOUS
370
-3
390
F
  0
LAYER
  5
4A5
100
AcDbSymbolTableRecord
100
AcDbLayerTableRecord
  2
00_COMPONENTS_4_1_1_1_2
 70
0
 62
7
  6
CONTINUOUS
370
-3
390
F
  0
LAYER
  5
4A6
100
AcDbSymbolTableRecord
100
AcDbLayerTableRecord
  2
00_COMPONENTS_4_1_1_2
 70
0
 62
7
  6
CONTINUOUS
370
-3
390
F
  0
LAYER
  5
4A7
100
AcDbSymbolTableRecord
100
AcDbLayerTableRecord
  2
00_COMPONENTS_4_1_1_2_1
 70
0
 62
7
  6
CONTINUOUS
370
-3
390
F
  0
LAYER
  5
4A8
100
AcDbSymbolTableRecord
100
AcDbLayerTableRecord
  2
00_COMPONENTS_4_1_1_2_2
 70
0
 62
7
  6
CONTINUOUS
370
-3
390
F
  0
LAYER
  5
4A9
100
AcDbSymbolTableRecord
100
AcDbLayerTableRecord
  2
00_COMPONENTS_4_1_2
 70
0
 62
7
  6
CONTINUOUS
370
-3
390
F
  0
LAYER
  5
4AA
100
AcDbSymbolTableRecord
100
AcDbLayerTableRecord
  2
00_COMPONENTS_4_1_2_1
 70
0
 62
7
  6
CONTINUOUS
370
-3
390
F
  0
LAYER
  5
4AB
100
AcDbSymbolTableRecord
100
AcDbLayerTableRecord
  2
00_COMPONENTS_4_4
 70
0
 62
7
  6
CONTINUOUS
370
-3
390
F
  0
LAYER
  5
4AC
100
AcDbSymbolTableRecord
100
AcDbLayerTableRecord
  2
00_COMPONENTS_4_4_1
 70
0
 62
7
  6
CONTINUOUS
370
-3
390
F
  0
LAYER
  5
4AD
100
AcDbSymbolTableRecord
100
AcDbLayerTableRecord
  2
00_COMPONENTS_4_6
 70
0
 62
7
  6
CONTINUOUS
370
-3
390
F
  0
LAYER
  5
4AE
100
AcDbSymbolTableRecord
100
AcDbLayerTableRecord
  2
00_COMPONENTS_4_6_1
 70
0
 62
7
  6
CONTINUOUS
370
-3
390
F
  0
LAYER
  5
4AF
100
AcDbSymbolTableRecord
100
AcDbLayerTableRecord
  2
00_COMPONENTS_5
 70
0
 62
7
  6
CONTINUOUS
370
-3
390
F
  0
LAYER
  5
4B0
100
AcDbSymbolTableRecord
100
AcDbLayerTableRecord
  2
00_COMPONENTS_51
 70
0
 62
7
  6
CONTINUOUS
370
-3
390
F
  0
LAYER
  5
4B1
100
AcDbSymbolTableRecord
100
AcDbLayerTableRecord
  2
00_COMPONENTS_53
 70
0
 62
7
  6
CONTINUOUS
370
-3
390
F
  0
LAYER
  5
4B2
100
AcDbSymbolTableRecord
100
AcDbLayerTableRecord
  2
00_COMPONENTS_54
 70
0
 62
7
  6
CONTINUOUS
370
-3
390
F
  0
LAYER
  5
4B3
100
AcDbSymbolTableRecord
100
AcDbLayerTableRecord
  2
00_COMPONENTS_55
 70
0
 62
7
  6
CONTINUOUS
370
-3
390
F
  0
LAYER
  5
4B4
100
AcDbSymbolTableRecord
100
AcDbLayerTableRecord
  2
00_COMPONENTS_57_2
 70
0
 62
7
  6
CONTINUOUS
370
-3
390
F
  0
LAYER
  5
4B5
100
AcDbSymbolTableRecord
100
AcDbLayerTableRecord
  2
00_COMPONENTS_5_1_1
 70
0
 62
7
  6
CONTINUOUS
370
-3
390
F
  0
LAYER
  5
4B6
100
AcDbSymbolTableRecord
100
AcDbLayerTableRecord
  2
00_COMPONENTS_5_1_1_1
 70
0
 62
7
  6
CONTINUOUS
370
-3
390
F
  0
LAYER
  5
4B7
100
AcDbSymbolTableRecord
100
AcDbLayerTableRecord
  2
00_COMPONENTS_5_1_1_1_1
 70
0
 62
7
  6
CONTINUOUS
370
-3
390
F
  0
LAYER
  5
4B8
100
AcDbSymbolTableRecord
100
AcDbLayerTableRecord
  2
00_COMPONENTS_5_1_1_1_2
 70
0
 62
7
  6
CONTINUOUS
370
-3
390
F
  0
LAYER
  5
4B9
100
AcDbSymbolTableRecord
100
AcDbLayerTableRecord
  2
00_COMPONENTS_5_1_1_2
 70
0
 62
7
  6
CONTINUOUS
370
-3
390
F
  0
LAYER
  5
4BA
100
AcDbSymbolTableRecord
100
AcDbLayerTableRecord
  2
00_COMPONENTS_5_1_1_2_1
 70
0
 62
7
  6
CONTINUOUS
370
-3
390
F
  0
LAYER
  5
4BB
100
AcDbSymbolTableRecord
100
AcDbLayerTableRecord
  2
00_COMPONENTS_5_1_1_4
 70
0
 62
7
  6
CONTINUOUS
370
-3
390
F
  0
LAYER
  5
4BC
100
AcDbSymbolTableRecord
100
AcDbLayerTableRecord
  2
00_COMPONENTS_5_1_1_4_1
 70
0
 62
7
  6
CONTINUOUS
370
-3
390
F
  0
LAYER
  5
4BD
100
AcDbSymbolTableRecord
100
AcDbLayerTableRecord
  2
00_COMPONENTS_5_1_1_6
 70
0
 62
7
  6
CONTINUOUS
370
-3
390
F
  0
LAYER
  5
4BE
100
AcDbSymbolTableRecord
100
AcDbLayerTableRecord
  2
00_COMPONENTS_5_1_1_6_1
 70
0
 62
7
  6
CONTINUOUS
370
-3
390
F
  0
LAYER
  5
4BF
100
AcDbSymbolTableRecord
100
AcDbLayerTableRecord
  2
00_COMPONENTS_5_1_2
 70
0
 62
7
  6
CONTINUOUS
370
-3
390
F
  0
LAYER
  5
4C0
100
AcDbSymbolTableRecord
100
AcDbLayerTableRecord
  2
00_COMPONENTS_5_1_2_1
 70
0
 62
7
  6
CONTINUOUS
370
-3
390
F
  0
LAYER
  5
4C1
100
AcDbSymbolTableRecord
100
AcDbLayerTableRecord
  2
00_COMPONENTS_5_1_3
 70
0
 62
7
  6
CONTINUOUS
370
-3
390
F
  0
LAYER
  5
4C2
100
AcDbSymbolTableRecord
100
AcDbLayerTableRecord
  2
00_COMPONENTS_5_1_3_1
 70
0
 62
7
  6
CONTINUOUS
370
-3
390
F
  0
LAYER
  5
4C3
100
AcDbSymbolTableRecord
100
AcDbLayerTableRecord
  2
00_COMPONENTS_5_1_4
 70
0
 62
7
  6
CONTINUOUS
370
-3
390
F
  0
LAYER
  5
4C4
100
AcDbSymbolTableRecord
100
AcDbLayerTableRecord
  2
00_COMPONENTS_5_1_4_1
 70
0
 62
7
  6
CONTINUOUS
370
-3
390
F
  0
LAYER
  5
4C5
100
AcDbSymbolTableRecord
100
AcDbLayerTableRecord
  2
00_COMPONENTS_6
 70
0
 62
7
  6
CONTINUOUS
370
-3
390
F
  0
LAYER
  5
4C6
100
AcDbSymbolTableRecord
100
AcDbLayerTableRecord
  2
00_COMPONENTS_60
 70
0
 62
7
  6
CONTINUOUS
370
-3
390
F
  0
LAYER
  5
4C7
100
AcDbSymbolTableRecord
100
AcDbLayerTableRecord
  2
00_COMPONENTS_61
 70
0
 62
7
  6
CONTINUOUS
370
-3
390
F
  0
LAYER
  5
4C8
100
AcDbSymbolTableRecord
100
AcDbLayerTableRecord
  2
00_COMPONENTS_61_1
 70
0
 62
7
  6
CONTINUOUS
370
-3
390
F
  0
LAYER
  5
4C9
100
AcDbSymbolTableRecord
100
AcDbLayerTableRecord
  2
00_COMPONENTS_63
 70
0
 62
7
  6
CONTINUOUS
370
-3
390
F
  0
LAYER
  5
4CA
100
AcDbSymbolTableRecord
100
AcDbLayerTableRecord
  2
00_COMPONENTS_65
 70
0
 62
7
  6
CONTINUOUS
370
-3
390
F
  0
LAYER
  5
4CB
100
AcDbSymbolTableRecord
100
AcDbLayerTableRecord
  2
00_COMPONENTS_7
 70
0
 62
7
  6
CONTINUOUS
370
-3
390
F
  0
LAYER
  5
4CC
100
AcDbSymbolTableRecord
100
AcDbLayerTableRecord
  2
00_COMPONENTS_71_1
 70
0
 62
7
  6
CONTINUOUS
370
-3
390
F
  0
LAYER
  5
4CD
100
AcDbSymbolTableRecord
100
AcDbLayerTableRecord
  2
00_COMPONENTS_73
 70
0
 62
7
  6
CONTINUOUS
370
-3
390
F
  0
LAYER
  5
4CE
100
AcDbSymbolTableRecord
100
AcDbLayerTableRecord
  2
00_COMPONENTS_76_1
 70
0
 62
7
  6
CONTINUOUS
370
-3
390
F
  0
LAYER
  5
4CF
100
AcDbSymbolTableRecord
100
AcDbLayerTableRecord
  2
00_COMPONENTS_7_1
 70
0
 62
7
  6
CONTINUOUS
370
-3
390
F
  0
LAYER
  5
4D0
100
AcDbSymbolTableRecord
100
AcDbLayerTableRecord
  2
00_COMPONENTS_7_1_1
 70
0
 62
7
  6
CONTINUOUS
370
-3
390
F
  0
LAYER
  5
4D1
100
AcDbSymbolTableRecord
100
AcDbLayerTableRecord
  2
00_COMPONENTS_7_1_1_1
 70
0
 62
7
  6
CONTINUOUS
370
-3
390
F
  0
LAYER
  5
4D2
100
AcDbSymbolTableRecord
100
AcDbLayerTableRecord
  2
00_COMPONENTS_7_1_1_1_1
 70
0
 62
7
  6
CONTINUOUS
370
-3
390
F
  0
LAYER
  5
4D3
100
AcDbSymbolTableRecord
100
AcDbLayerTableRecord
  2
00_COMPONENTS_7_1_1_1_2
 70
0
 62
7
  6
CONTINUOUS
370
-3
390
F
  0
LAYER
  5
4D4
100
AcDbSymbolTableRecord
100
AcDbLayerTableRecord
  2
00_COMPONENTS_7_1_1_2
 70
0
 62
7
  6
CONTINUOUS
370
-3
390
F
  0
LAYER
  5
4D5
100
AcDbSymbolTableRecord
100
AcDbLayerTableRecord
  2
00_COMPONENTS_7_1_1_2_1
 70
0
 62
7
  6
CONTINUOUS
370
-3
390
F
  0
LAYER
  5
4D6
100
AcDbSymbolTableRecord
100
AcDbLayerTableRecord
  2
00_COMPONENTS_7_1_1_2_2
 70
0
 62
7
  6
CONTINUOUS
370
-3
390
F
  0
LAYER
  5
4D7
100
AcDbSymbolTableRecord
100
AcDbLayerTableRecord
  2
00_COMPONENTS_7_1_2
 70
0
 62
7
  6
CONTINUOUS
370
-3
390
F
  0
LAYER
  5
4D8
100
AcDbSymbolTableRecord
100
AcDbLayerTableRecord
  2
00_COMPONENTS_7_1_2_1
 70
0
 62
7
  6
CONTINUOUS
370
-3
390
F
  0
LAYER
  5
4D9
100
AcDbSymbolTableRecord
100
AcDbLayerTableRecord
  2
00_COMPONENTS_7_2
 70
0
 62
7
  6
CONTINUOUS
370
-3
390
F
  0
LAYER
  5
4DA
100
AcDbSymbolTableRecord
100
AcDbLayerTableRecord
  2
00_COMPONENTS_7_2_1
 70
0
 62
7
  6
CONTINUOUS
370
-3
390
F
  0
LAYER
  5
4DB
100
AcDbSymbolTableRecord
100
AcDbLayerTableRecord
  2
00_COMPONENTS_7_7
 70
0
 62
7
  6
CONTINUOUS
370
-3
390
F
  0
LAYER
  5
4DC
100
AcDbSymbolTableRecord
100
AcDbLayerTableRecord
  2
00_COMPONENTS_7_7_1
 70
0
 62
7
  6
CONTINUOUS
370
-3
390
F
  0
LAYER
  5
4DD
100
AcDbSymbolTableRecord
100
AcDbLayerTableRecord
  2
00_COMPONENTS_8
 70
0
 62
7
  6
CONTINUOUS
370
-3
390
F
  0
LAYER
  5
4DE
100
AcDbSymbolTableRecord
100
AcDbLayerTableRecord
  2
00_COMPONENTS_82_1
 70
0
 62
7
  6
CONTINUOUS
370
-3
390
F
  0
LAYER
  5
4DF
100
AcDbSymbolTableRecord
100
AcDbLayerTableRecord
  2
00_COMPONENTS_8_1
 70
0
 62
7
  6
CONTINUOUS
370
-3
390
F
  0
LAYER
  5
4E0
100
AcDbSymbolTableRecord
100
AcDbLayerTableRecord
  2
00_COMPONENTS_8_1_1
 70
0
 62
7
  6
CONTINUOUS
370
-3
390
F
  0
LAYER
  5
4E1
100
AcDbSymbolTableRecord
100
AcDbLayerTableRecord
  2
00_COMPONENTS_8_2
 70
0
 62
7
  6
CONTINUOUS
370
-3
390
F
  0
LAYER
  5
4E2
100
AcDbSymbolTableRecord
100
AcDbLayerTableRecord
  2
00_COMPONENTS_8_2_1
 70
0
 62
7
  6
CONTINUOUS
370
-3
390
F
  0
LAYER
  5
4E3
100
AcDbSymbolTableRecord
100
AcDbLayerTableRecord
  2
00_COMPONENTS_8_7
 70
0
 62
7
  6
CONTINUOUS
370
-3
390
F
  0
LAYER
  5
4E4
100
AcDbSymbolTableRecord
100
AcDbLayerTableRecord
  2
00_COMPONENTS_8_7_1
 70
0
 62
7
  6
CONTINUOUS
370
-3
390
F
  0
LAYER
  5
4E5
100
AcDbSymbolTableRecord
100
AcDbLayerTableRecord
  2
00_COMPONENTS_90_1
 70
0
 62
7
  6
CONTINUOUS
370
-3
390
F
  0
LAYER
  5
4E6
100
AcDbSymbolTableRecord
100
AcDbLayerTableRecord
  2
00_COMPONENTS_9_1
 70
0
 62
7
  6
CONTINUOUS
370
-3
390
F
  0
LAYER
  5
4E7
100
AcDbSymbolTableRecord
100
AcDbLayerTableRecord
  2
00_COMPONENTS_9_10
 70
0
 62
7
  6
CONTINUOUS
370
-3
390
F
  0
LAYER
  5
4E8
100
AcDbSymbolTableRecord
100
AcDbLayerTableRecord
  2
00_COMPONENTS_9_10_1
 70
0
 62
7
  6
CONTINUOUS
370
-3
390
F
  0
LAYER
  5
4E9
100
AcDbSymbolTableRecord
100
AcDbLayerTableRecord
  2
00_COMPONENTS_9_2_1
 70
0
 62
7
  6
CONTINUOUS
370
-3
390
F
  0
LAYER
  5
4EA
100
AcDbSymbolTableRecord
100
AcDbLayerTableRecord
  2
00_COMPONENTS_9_2_2
 70
0
 62
7
  6
CONTINUOUS
370
-3
390
F
  0
LAYER
  5
4EB
100
AcDbSymbolTableRecord
100
AcDbLayerTableRecord
  2
00_COMPONENTS_9_5
 70
0
 62
7
  6
CONTINUOUS
370
-3
390
F
  0
LAYER
  5
4EC
100
AcDbSymbolTableRecord
100
AcDbLayerTableRecord
  2
00_COMPONENTS_9_5_1
 70
0
 62
7
  6
CONTINUOUS
370
-3
390
F
  0
LAYER
  5
4ED
100
AcDbSymbolTableRecord
100
AcDbLayerTableRecord
  2
00_COMPONENTS_9_6
 70
0
 62
7
  6
CONTINUOUS
370
-3
390
F
  0
LAYER
  5
4EE
100
AcDbSymbolTableRecord
100
AcDbLayerTableRecord
  2
00_COMPONENTS_9_6_1
 70
0
 62
7
  6
CONTINUOUS
370
-3
390
F
  0
LAYER
  5
4EF
100
AcDbSymbolTableRecord
100
AcDbLayerTableRecord
  2
00_COMPONENTS_9_8
 70
0
 62
7
  6
CONTINUOUS
370
-3
390
F
  0
LAYER
  5
4F0
100
AcDbSymbolTableRecord
100
AcDbLayerTableRecord
  2
00_COMPONENTS_9_8_1
 70
0
 62
7
  6
CONTINUOUS
370
-3
390
F
  0
LAYER
  5
4F1
100
AcDbSymbolTableRecord
100
AcDbLayerTableRecord
  2
01_ALL_DTM_PLN
 70
0
 62
7
  6
CONTINUOUS
370
-3
390
F
  0
LAYER
  5
4F2
100
AcDbSymbolTableRecord
100
AcDbLayerTableRecord
  2
01__ASM_ALL_DTM_PLN
 70
0
 62
7
  6
CONTINUOUS
370
-3
390
F
  0
LAYER
  5
4F3
100
AcDbSymbolTableRecord
100
AcDbLayerTableRecord
  2
01__ASM_DEF_DTM_PLN
 70
0
 62
7
  6
CONTINUOUS
370
-3
390
F
  0
LAYER
  5
4F4
100
AcDbSymbolTableRecord
100
AcDbLayerTableRecord
  2
01___PRT_ALL_DTM_PLN
 70
0
 62
7
  6
CONTINUOUS
370
-3
390
F
  0
LAYER
  5
4F5
100
AcDbSymbolTableRecord
100
AcDbLayerTableRecord
  2
01___PRT_DEF_DTM_PLN
 70
0
 62
7
  6
CONTINUOUS
370
-3
390
F
  0
LAYER
  5
4F6
100
AcDbSymbolTableRecord
100
AcDbLayerTableRecord
  2
02_ALL_AXES
 70
0
 62
7
  6
CONTINUOUS
370
-3
390
F
  0
LAYER
  5
4F7
100
AcDbSymbolTableRecord
100
AcDbLayerTableRecord
  2
02__ASM_ALL_AXES
 70
0
 62
7
  6
CONTINUOUS
370
-3
390
F
  0
LAYER
  5
4F8
100
AcDbSymbolTableRecord
100
AcDbLayerTableRecord
  2
02___PRT_ALL_AXES
 70
0
 62
7
  6
CONTINUOUS
370
-3
390
F
  0
LAYER
  5
4F9
100
AcDbSymbolTableRecord
100
AcDbLayerTableRecord
  2
03_ALL_CURVES
 70
0
 62
7
  6
CONTINUOUS
370
-3
390
F
  0
LAYER
  5
4FA
100
AcDbSymbolTableRecord
100
AcDbLayerTableRecord
  2
03__ASM_ALL_CURVES
 70
0
 62
7
  6
CONTINUOUS
370
-3
390
F
  0
LAYER
  5
4FB
100
AcDbSymbolTableRecord
100
AcDbLayerTableRecord
  2
03___PRT_ALL_CURVES
 70
0
 62
7
  6
CONTINUOUS
370
-3
390
F
  0
LAYER
  5
4FC
100
AcDbSymbolTableRecord
100
AcDbLayerTableRecord
  2
04_ALL_DTM_PNT
 70
0
 62
7
  6
CONTINUOUS
370
-3
390
F
  0
LAYER
  5
4FD
100
AcDbSymbolTableRecord
100
AcDbLayerTableRecord
  2
04__ASM_ALL_DTM_PNT
 70
0
 62
7
  6
CONTINUOUS
370
-3
390
F
  0
LAYER
  5
4FE
100
AcDbSymbolTableRecord
100
AcDbLayerTableRecord
  2
04___PRT_ALL_DTM_PNT
 70
0
 62
7
  6
CONTINUOUS
370
-3
390
F
  0
LAYER
  5
4FF
100
AcDbSymbolTableRecord
100
AcDbLayerTableRecord
  2
05_ALL_DTM_CSYS
 70
0
 62
7
  6
CONTINUOUS
370
-3
390
F
  0
LAYER
  5
500
100
AcDbSymbolTableRecord
100
AcDbLayerTableRecord
  2
05__ASM_ALL_DTM_CSYS
 70
0
 62
7
  6
CONTINUOUS
370
-3
390
F
  0
LAYER
  5
501
100
AcDbSymbolTableRecord
100
AcDbLayerTableRecord
  2
05__ASM_DEF_DTM_CSYS
 70
0
 62
7
  6
CONTINUOUS
370
-3
390
F
  0
LAYER
  5
502
100
AcDbSymbolTableRecord
100
AcDbLayerTableRecord
  2
05___PRT_ALL_DTM_CSYS
 70
0
 62
7
  6
CONTINUOUS
370
-3
390
F
  0
LAYER
  5
503
100
AcDbSymbolTableRecord
100
AcDbLayerTableRecord
  2
05___PRT_DEF_DTM_CSYS
 70
0
 62
7
  6
CONTINUOUS
370
-3
390
F
  0
LAYER
  5
504
100
AcDbSymbolTableRecord
100
AcDbLayerTableRecord
  2
06_ALL_SURFS
 70
0
 62
7
  6
CONTINUOUS
370
-3
390
F
  0
LAYER
  5
505
100
AcDbSymbolTableRecord
100
AcDbLayerTableRecord
  2
06__ASM_ALL_SURFS
 70
0
 62
7
  6
CONTINUOUS
370
-3
390
F
  0
LAYER
  5
506
100
AcDbSymbolTableRecord
100
AcDbLayerTableRecord
  2
06___PRT_ALL_SURFS
 70
0
 62
7
  6
CONTINUOUS
370
-3
390
F
  0
LAYER
  5
507
100
AcDbSymbolTableRecord
100
AcDbLayerTableRecord
  2
07__ASM_ALL_SKELETONS
 70
0
 62
7
  6
CONTINUOUS
370
-3
390
F
  0
ENDTAB
  0
TABLE
  2
STYLE
  5
3
100
AcDbSymbolTable
 70
1
  0
STYLE
  5
11
100
AcDbSymbolTableRecord
100
AcDbTextStyleTableRecord
  2
STANDARD
 70
0
 40
0.0
 41
0.8
 50
0.0
 71
0
 42
0.2
  3
txt
  4

  0
STYLE
  5
508
100
AcDbSymbolTableRecord
100
AcDbTextStyleTableRecord
  2
TEXTSTYLE_1
 70
0
 40
0.0
 41
0.8
 50
0.0
 71
0
 42
0.2
  3
gdt
  4

  0
ENDTAB
  0
TABLE
  2
VIEW
  5
6
100
AcDbSymbolTable
 70
0
  0
ENDTAB
  0
TABLE
  2
UCS
  5
7
100
AcDbSymbolTable
 70
0
  0
ENDTAB
  0
TABLE
  2
APPID
  5
9
100
AcDbSymbolTable
 70
1
  0
APPID
  5
509
100
AcDbSymbolTableRecord
100
AcDbRegAppTableRecord
  2
ACAD
 70
0
  0
ENDTAB
  0
TABLE
  2
BLOCK_RECORD
  5
1
100
AcDbSymbolTable
 70
0
  0
BLOCK_RECORD
  5
50A
100
AcDbSymbolTableRecord
100
AcDbBlockTableRecord
  2
*Model_Space
  0
BLOCK_RECORD
  5
50B
100
AcDbSymbolTableRecord
100
AcDbBlockTableRecord
  2
*Paper_Space
  0
BLOCK_RECORD
  5
50C
100
AcDbSymbolTableRecord
100
AcDbBlockTableRecord
  2
_CLOSED
  0
ENDTAB
  0
TABLE
  2
DIMSTYLE
  5
A
100
AcDbSymbolTable
 70
1
100
AcDbDimStyleTable
 71
0
  0
DIMSTYLE
105
50D
100
AcDbSymbolTableRecord
100
AcDbDimStyleTableRecord
  2
STANDARD
 70
0
  3

  4

 40
1.0
 41
0.1875
 42
0.0625
 43
0.38
 44
0.125
 45
0.0
 46
0.0
 47
0.01
 48
0.01
140
0.15625
141
0.09
142
0.0
143
25.4
144
1.0
145
0.0
146
1.0
147
0.625
 71
0.0
 72
0.0
 73
1
 74
1
 75
0
 76
0
 77
0
 78
8
 79
2
170
0
171
1
172
0
173
0
174
0
175
0
176
0
177
0
178
0
270
2
179
2
271
2
272
2
273
2
274
2
275
0
280
0
281
0
282
0
283
1
284
8
285
0
286
0
287
3
288
0
340
11
278
46
341
50C
342
50C
343
50C
344
50C
  0
ENDTAB
  0
ENDSEC
  0
SECTION
  2
BLOCKS
  0
BLOCK
  5
20
100
AcDbEntity
  8
0
100
AcDbBlockBegin
  2
*Model_Space
 70
0
 10
0.0
 20
0.0
 30
0.0
  3
*Model_Space
  1

  0
ENDBLK
  5
21
100
AcDbEntity
  8
0
100
AcDbBlockEnd
  0
BLOCK
  5
1C
100
AcDbEntity
  8
0
100
AcDbBlockBegin
  2
*Paper_Space
 70
0
 10
0.0
 20
0.0
 30
0.0
  3
*Paper_Space
  1

  0
ENDBLK
  5
1D
100
AcDbEntity
  8
0
100
AcDbBlockEnd
  0
BLOCK
  5
50E
100
AcDbEntity
  8
0
100
AcDbBlockBegin
  2
_CLOSED
 70
64
 10
0.0
 20
0.0
  3
_CLOSED
  1

  0
LINE
  5
50F
100
AcDbEntity
  8
0
  6
BYBLOCK
 62
0
100
AcDbLine
 10
0.0
 20
0.0
 11
-1.0
 21
0.1666666667
  0
LINE
  5
510
100
AcDbEntity
  8
0
  6
BYBLOCK
 62
0
100
AcDbLine
 10
-1.0
 20
0.1666666667
 11
-1.0
 21
-0.1666666667
  0
LINE
  5
511
100
AcDbEntity
  8
0
  6
BYBLOCK
 62
0
100
AcDbLine
 10
-1.0
 20
-0.1666666667
 11
0.0
 21
0.0
  0
LINE
  5
512
100
AcDbEntity
  8
0
  6
BYBLOCK
 62
0
100
AcDbLine
 10
-1.0
 20
0.0
 11
0.0
 21
0.0
  0
ENDBLK
  5
513
100
AcDbEntity
  8
0
  6
BYBLOCK
 62
0
100
AcDbBlockEnd
  0
ENDSEC
  0
SECTION
  2
ENTITIES
  0
LINE
  5
514
100
AcDbEntity
  8
00_COMPONENTS_14_2_1_1_5
100
AcDbLine
 62
7
  6
CONTINUOUS
 10
75.734363354
 20
125.8624339467
 11
70.834363354
 21
125.8624339467
  0
LINE
  5
515
100
AcDbEntity
  8
00_COMPONENTS_13
100
AcDbLine
 62
7
  6
CONTINUOUS
 10
70.834363354
 20
125.8624339467
 11
65.934363354
 21
125.8624339467
  0
LINE
  5
516
100
AcDbEntity
  8
00_COMPONENTS_14_2_1
100
AcDbLine
 62
7
  6
CONTINUOUS
 10
55.934363354
 20
125.8624339467
 11
51.034363354
 21
125.8624339467
  0
LINE
  5
517
100
AcDbEntity
  8
00_COMPONENTS_15
100
AcDbLine
 62
7
  6
CONTINUOUS
 10
51.034363354
 20
125.8624339467
 11
46.134363354
 21
125.8624339467
  0
LINE
  5
518
100
AcDbEntity
  8
00_COMPONENTS_16_2
100
AcDbLine
 62
7
  6
CONTINUOUS
 10
60.934363354
 20
125.9624339467
 11
56.034363354
 21
125.9624339467
  0
LINE
  5
519
100
AcDbEntity
  8
00_COMPONENTS_12_1
100
AcDbLine
 62
7
  6
CONTINUOUS
 10
60.934363354
 20
125.9624339467
 11
65.834363354
 21
125.9624339467
  0
LINE
  5
51A
100
AcDbEntity
  8
00_COMPONENTS_12_1
100
AcDbLine
 62
7
  6
CONTINUOUS
 10
64.187890399
 20
127.5922276549
 11
60.934363354
 21
127.5922276549
  0
LINE
  5
51B
100
AcDbEntity
  8
00_COMPONENTS_16_2
100
AcDbLine
 62
7
  6
CONTINUOUS
 10
60.934363354
 20
127.592227655
 11
57.6808363091
 21
127.592227655
  0
LINE
  5
51C
100
AcDbEntity
  8
00_COMPONENTS_13
100
AcDbLine
 62
7
  6
CONTINUOUS
 10
70.834363354
 20
127.6389795598
 11
67.4883217162
 21
127.6389795598
  0
LINE
  5
51D
100
AcDbEntity
  8
00_COMPONENTS_15
100
AcDbLine
 62
7
  6
CONTINUOUS
 10
51.034363354
 20
127.6389795598
 11
47.6883217162
 21
127.6389795598
  0
LINE
  5
51E
100
AcDbEntity
  8
00_COMPONENTS_14_2_1
100
AcDbLine
 62
7
  6
CONTINUOUS
 10
51.034363354
 20
127.6389795598
 11
54.2686836008
 21
127.6389795598
  0
LINE
  5
51F
100
AcDbEntity
  8
00_COMPONENTS_14_2_1_1_5
100
AcDbLine
 62
7
  6
CONTINUOUS
 10
70.834363354
 20
127.6389795598
 11
74.0686836008
 21
127.6389795598
  0
LINE
  5
520
100
AcDbEntity
  8
00_COMPONENTS_16_2
100
AcDbLine
 62
7
  6
CONTINUOUS
 10
57.8551924214
 20
127.866906629
 11
60.934363354
 21
127.8669066289
  0
LINE
  5
521
100
AcDbEntity
  8
00_COMPONENTS_12_1
100
AcDbLine
 62
7
  6
CONTINUOUS
 10
60.934363354
 20
127.8669066288
 11
64.0135342868
 21
127.866906629
  0
LINE
  5
522
100
AcDbEntity
  8
00_COMPONENTS_14_2_1_1_5
100
AcDbLine
 62
7
  6
CONTINUOUS
 10
72.948722708
 20
128.5624339467
 11
70.834363354
 21
128.5624339467
  0
LINE
  5
523
100
AcDbEntity
  8
00_COMPONENTS_13
100
AcDbLine
 62
7
  6
CONTINUOUS
 10
70.834363354
 20
128.5624339467
 11
68.7200040001
 21
128.5624339467
  0
LINE
  5
524
100
AcDbEntity
  8
00_COMPONENTS_14_2_1
100
AcDbLine
 62
7
  6
CONTINUOUS
 10
53.148722708
 20
128.5624339467
 11
51.034363354
 21
128.5624339467
  0
LINE
  5
525
100
AcDbEntity
  8
00_COMPONENTS_15
100
AcDbLine
 62
7
  6
CONTINUOUS
 10
51.034363354
 20
128.5624339467
 11
48.9200040001
 21
128.5624339467
  0
LINE
  5
526
100
AcDbEntity
  8
00_COMPONENTS_16_2
100
AcDbLine
 62
7
  6
CONTINUOUS
 10
60.934363354
 20
128.6624339467
 11
58.8200040001
 21
128.6624339467
  0
LINE
  5
527
100
AcDbEntity
  8
00_COMPONENTS_12_1
100
AcDbLine
 62
7
  6
CONTINUOUS
 10
60.934363354
 20
128.6624339467
 11
63.048722708
 21
128.6624339467
  0
LINE
  5
528
100
AcDbEntity
  8
00_COMPONENTS_14_2_1
100
AcDbLine
 62
7
  6
CONTINUOUS
 10
54.2686836008
 20
127.6389795598
 11
53.148722708
 21
128.5624339467
  0
LINE
  5
529
100
AcDbEntity
  8
00_COMPONENTS_15
100
AcDbLine
 62
7
  6
CONTINUOUS
 10
47.234363354
 20
128.359074111
 11
47.688321716
 21
127.6389795598
  0
LINE
  5
52A
100
AcDbEntity
  8
00_COMPONENTS_15
100
AcDbLine
 62
7
  6
CONTINUOUS
 10
47.8677906814
 20
127.6948402554
 11
47.4087078407
 21
128.4230635458
  0
LINE
  5
52B
100
AcDbEntity
  8
00_COMPONENTS_14_2_1_1_5
100
AcDbLine
 62
7
  6
CONTINUOUS
 10
75.734363354
 20
129.9836500759
 11
74.6343633539
 21
129.9836500759
  0
LINE
  5
52C
100
AcDbEntity
  8
00_COMPONENTS_14_2_1
100
AcDbLine
 62
7
  6
CONTINUOUS
 10
55.934363354
 20
129.9836500759
 11
54.8343633539
 21
129.9836500759
  0
LINE
  5
52D
100
AcDbEntity
  8
00_COMPONENTS_15
100
AcDbLine
 62
7
  6
CONTINUOUS
 10
46.134363354
 20
129.9836500759
 11
47.234363354
 21
129.9836500759
  0
LINE
  5
52E
100
AcDbEntity
  8
00_COMPONENTS_13
100
AcDbLine
 62
7
  6
CONTINUOUS
 10
65.934363354
 20
129.9836500759
 11
67.034363354
 21
129.9836500759
  0
LINE
  5
52F
100
AcDbEntity
  8
00_COMPONENTS_16_2
100
AcDbLine
 62
7
  6
CONTINUOUS
 10
57.134363354
 20
130.0836500759
 11
56.034363354
 21
130.0836500759
  0
LINE
  5
530
100
AcDbEntity
  8
00_COMPONENTS_12_1
100
AcDbLine
 62
7
  6
CONTINUOUS
 10
64.734363354
 20
130.0836500759
 11
65.834363354
 21
130.0836500759
  0
LINE
  5
531
100
AcDbEntity
  8
00_COMPONENTS_14_2_1_1_5
100
AcDbLine
 62
7
  6
CONTINUOUS
 10
75.734363354
 20
130.8624339467
 11
75.084363354
 21
130.8624339467
  0
LINE
  5
532
100
AcDbEntity
  8
00_COMPONENTS_14_2_1
100
AcDbLine
 62
7
  6
CONTINUOUS
 10
55.934363354
 20
130.8624339467
 11
55.284363354
 21
130.8624339467
  0
LINE
  5
533
100
AcDbEntity
  8
00_COMPONENTS_15
100
AcDbLine
 62
7
  6
CONTINUOUS
 10
46.134363354
 20
130.8624339467
 11
46.784363354
 21
130.8624339467
  0
LINE
  5
534
100
AcDbEntity
  8
00_COMPONENTS_13
100
AcDbLine
 62
7
  6
CONTINUOUS
 10
65.934363354
 20
130.8624339467
 11
66.584363354
 21
130.8624339467
  0
LINE
  5
535
100
AcDbEntity
  8
00_COMPONENTS_16_2
100
AcDbLine
 62
7
  6
CONTINUOUS
 10
56.684363354
 20
130.9624339467
 11
56.034363354
 21
130.9624339467
  0
LINE
  5
536
100
AcDbEntity
  8
00_COMPONENTS_12_1
100
AcDbLine
 62
7
  6
CONTINUOUS
 10
65.184363354
 20
130.9624339467
 11
65.834363354
 21
130.9624339467
  0
LINE
  5
537
100
AcDbEntity
  8
00_COMPONENTS_15
100
AcDbLine
 62
7
  6
CONTINUOUS
 10
46.134363354
 20
131.2145283996
 11
46.784363354
 21
131.2145283998
  0
LINE
  5
538
100
AcDbEntity
  8
00_COMPONENTS_14_2_1
100
AcDbLine
 62
7
  6
CONTINUOUS
 10
55.284363354
 20
131.2145284
 11
55.934363354
 21
131.2145284
  0
LINE
  5
539
100
AcDbEntity
  8
00_COMPONENTS_13
100
AcDbLine
 62
7
  6
CONTINUOUS
 10
65.934363354
 20
131.2145283996
 11
66.584363354
 21
131.2145283998
  0
LINE
  5
53A
100
AcDbEntity
  8
00_COMPONENTS_14_2_1_1_5
100
AcDbLine
 62
7
  6
CONTINUOUS
 10
75.084363354
 20
131.2145284
 11
75.734363354
 21
131.2145284
  0
LINE
  5
53B
100
AcDbEntity
  8
00_COMPONENTS_16_2
100
AcDbLine
 62
7
  6
CONTINUOUS
 10
56.034363354
 20
131.3145284001
 11
56.684363354
 21
131.3145284001
  0
LINE
  5
53C
100
AcDbEntity
  8
00_COMPONENTS_12_1
100
AcDbLine
 62
7
  6
CONTINUOUS
 10
65.184363354
 20
131.3145284001
 11
65.834363354
 21
131.3145284
  0
LINE
  5
53D
100
AcDbEntity
  8
00_COMPONENTS_14_2_1_1_5
100
AcDbLine
 62
7
  6
CONTINUOUS
 10
72.948722708
 20
132.0107530692
 11
70.834363354
 21
132.0107530692
  0
LINE
  5
53E
100
AcDbEntity
  8
00_COMPONENTS_14_2_1
100
AcDbLine
 62
7
  6
CONTINUOUS
 10
53.148722708
 20
132.0107530692
 11
51.034363354
 21
132.0107530692
  0
LINE
  5
53F
100
AcDbEntity
  8
00_COMPONENTS_13
100
AcDbLine
 62
7
  6
CONTINUOUS
 10
70.834363354
 20
132.0692295373
 11
68.7200040001
 21
132.0692295373
  0
LINE
  5
540
100
AcDbEntity
  8
00_COMPONENTS_15
100
AcDbLine
 62
7
  6
CONTINUOUS
 10
51.034363354
 20
132.0692295373
 11
48.9200040001
 21
132.0692295373
  0
LINE
  5
541
100
AcDbEntity
  8
00_COMPONENTS_16_2
100
AcDbLine
 62
7
  6
CONTINUOUS
 10
60.934363354
 20
132.7359334261
 11
58.8200040001
 21
132.7359334261
  0
LINE
  5
542
100
AcDbEntity
  8
00_COMPONENTS_12_1
100
AcDbLine
 62
7
  6
CONTINUOUS
 10
60.934363354
 20
132.7359334261
 11
63.048722708
 21
132.7359334261
  0
LINE
  5
543
100
AcDbEntity
  8
00_COMPONENTS_14_2_1_1_5
100
AcDbLine
 62
7
  6
CONTINUOUS
 10
74.334363354
 20
132.9018944701
 11
70.834363354
 21
132.9018944701
  0
LINE
  5
544
100
AcDbEntity
  8
00_COMPONENTS_14_2_1
100
AcDbLine
 62
7
  6
CONTINUOUS
 10
54.534363354
 20
132.9018944701
 11
51.034363354
 21
132.9018944701
  0
LINE
  5
545
100
AcDbEntity
  8
00_COMPONENTS_13
100
AcDbLine
 62
7
  6
CONTINUOUS
 10
70.834363354
 20
132.9465771837
 11
67.334363354
 21
132.9465771836
  0
LINE
  5
546
100
AcDbEntity
  8
00_COMPONENTS_15
100
AcDbLine
 62
7
  6
CONTINUOUS
 10
51.034363354
 20
132.9465771837
 11
47.534363354
 21
132.9465771836
  0
LINE
  5
547
100
AcDbEntity
  8
00_COMPONENTS_14_2_1
100
AcDbLine
 62
7
  6
CONTINUOUS
 10
51.034363354
 20
133.0126383534
 11
54.534363354
 21
133.0126383534
  0
LINE
  5
548
100
AcDbEntity
  8
00_COMPONENTS_14_2_1_1_5
100
AcDbLine
 62
7
  6
CONTINUOUS
 10
70.834363354
 20
133.0126383534
 11
74.334363354
 21
133.0126383534
  0
LINE
  5
549
100
AcDbEntity
  8
00_COMPONENTS_14_2_1
100
AcDbLine
 62
7
  6
CONTINUOUS
 10
51.034363354
 20
133.0197731035
 11
54.534363354
 21
133.0197731035
  0
LINE
  5
54A
100
AcDbEntity
  8
00_COMPONENTS_14_2_1_1_5
100
AcDbLine
 62
7
  6
CONTINUOUS
 10
70.834363354
 20
133.0197731035
 11
74.334363354
 21
133.0197731035
  0
LINE
  5
54B
100
AcDbEntity
  8
00_COMPONENTS_15
100
AcDbLine
 62
7
  6
CONTINUOUS
 10
47.534363354
 20
133.0573210669
 11
51.034363354
 21
133.0573210669
  0
LINE
  5
54C
100
AcDbEntity
  8
00_COMPONENTS_13
100
AcDbLine
 62
7
  6
CONTINUOUS
 10
67.334363354
 20
133.0573210669
 11
70.834363354
 21
133.0573210669
  0
LINE
  5
54D
100
AcDbEntity
  8
00_COMPONENTS_15
100
AcDbLine
 62
7
  6
CONTINUOUS
 10
47.534363354
 20
133.0644558171
 11
51.034363354
 21
133.0644558171
  0
LINE
  5
54E
100
AcDbEntity
  8
00_COMPONENTS_13
100
AcDbLine
 62
7
  6
CONTINUOUS
 10
67.334363354
 20
133.0644558171
 11
70.834363354
 21
133.0644558171
  0
LINE
  5
54F
100
AcDbEntity
  8
00_COMPONENTS_14_2_1
100
AcDbLine
 62
7
  6
CONTINUOUS
 10
53.148722708
 20
132.0107530692
 11
54.534363354
 21
130.9867997634
  0
LINE
  5
550
100
AcDbEntity
  8
00_COMPONENTS_108_1
100
AcDbLine
 62
7
  6
CONTINUOUS
 10
42.729363354
 20
179.4624339467
 11
42.729363354
 21
178.8624339467
  0
LINE
  5
551
100
AcDbEntity
  8
00_COMPONENTS_29_4
100
AcDbLine
 62
7
  6
CONTINUOUS
 10
42.934363354
 20
171.2310642599
 11
42.934363354
 21
172.2626676864
  0
LINE
  5
552
100
AcDbEntity
  8
00_COMPONENTS_28
100
AcDbLine
 62
7
  6
CONTINUOUS
 10
43.4072415139
 20
176.5124339467
 11
43.4072415139
 21
177.8624339467
  0
LINE
  5
553
100
AcDbEntity
  8
00_COMPONENTS_29_4
100
AcDbLine
 62
7
  6
CONTINUOUS
 10
42.934363354
 20
172.2626676864
 11
42.9345022434
 21
172.2919596591
  0
LINE
  5
554
100
AcDbEntity
  8
00_COMPONENTS_16_2
100
AcDbLine
 62
7
  6
CONTINUOUS
 10
60.934363354
 20
133.739898143
 11
57.434363354
 21
133.739898143
  0
LINE
  5
555
100
AcDbEntity
  8
00_COMPONENTS_12_1
100
AcDbLine
 62
7
  6
CONTINUOUS
 10
60.934363354
 20
133.739898143
 11
64.434363354
 21
133.739898143
  0
LINE
  5
556
100
AcDbEntity
  8
00_COMPONENTS_16_2
100
AcDbLine
 62
7
  6
CONTINUOUS
 10
60.934363354
 20
133.7572629608
 11
57.434363354
 21
133.7572629608
  0
LINE
  5
557
100
AcDbEntity
  8
00_COMPONENTS_16_2
100
AcDbLine
 62
7
  6
CONTINUOUS
 10
60.934363354
 20
133.7618206349
 11
57.434363354
 21
133.7618206349
  0
LINE
  5
558
100
AcDbEntity
  8
00_COMPONENTS_12_1
100
AcDbLine
 62
7
  6
CONTINUOUS
 10
60.934363354
 20
133.8093574141
 11
64.434363354
 21
133.8093574141
  0
LINE
  5
559
100
AcDbEntity
  8
00_COMPONENTS_14_2_1_1_5
100
AcDbLine
 62
7
  6
CONTINUOUS
 10
74.6343633536
 20
134.9304925613
 11
74.334363354
 21
134.9304925613
  0
LINE
  5
55A
100
AcDbEntity
  8
00_COMPONENTS_14_2_1
100
AcDbLine
 62
7
  6
CONTINUOUS
 10
54.8343633536
 20
134.9304925613
 11
54.534363354
 21
134.9304925613
  0
LINE
  5
55B
100
AcDbEntity
  8
00_COMPONENTS_14_2_1_1_5
100
AcDbLine
 62
7
  6
CONTINUOUS
 10
74.0343633556
 20
135.2397480249
 11
73.634363354
 21
135.2397480249
  0
LINE
  5
55C
100
AcDbEntity
  8
00_COMPONENTS_14_2_1
100
AcDbLine
 62
7
  6
CONTINUOUS
 10
54.2343633556
 20
135.2397480249
 11
53.834363354
 21
135.2397480249
  0
LINE
  5
55D
100
AcDbEntity
  8
00_COMPONENTS_13
100
AcDbLine
 62
7
  6
CONTINUOUS
 10
73.634363354
 20
135.4575350251
 11
67.334363354
 21
135.4575350251
  0
LINE
  5
55E
100
AcDbEntity
  8
00_COMPONENTS_15
100
AcDbLine
 62
7
  6
CONTINUOUS
 10
53.834363354
 20
135.4575350251
 11
47.534363354
 21
135.4575350251
  0
LINE
  5
55F
100
AcDbEntity
  8
00_COMPONENTS_15
100
AcDbLine
 62
7
  6
CONTINUOUS
 10
47.534363354
 20
135.4677572772
 11
53.834363354
 21
135.4677572772
  0
LINE
  5
560
100
AcDbEntity
  8
00_COMPONENTS_13
100
AcDbLine
 62
7
  6
CONTINUOUS
 10
67.334363354
 20
135.4677572772
 11
73.634363354
 21
135.4677572772
  0
LINE
  5
561
100
AcDbEntity
  8
00_COMPONENTS_14_2_1
100
AcDbLine
 62
7
  6
CONTINUOUS
 10
53.834363354
 20
135.5397480248
 11
54.234363366
 21
135.5397480245
  0
LINE
  5
562
100
AcDbEntity
  8
00_COMPONENTS_14_2_1_1_5
100
AcDbLine
 62
7
  6
CONTINUOUS
 10
73.634363354
 20
135.5397480248
 11
74.034363366
 21
135.5397480245
  0
LINE
  5
563
100
AcDbEntity
  8
00_COMPONENTS_13
100
AcDbLine
 62
7
  6
CONTINUOUS
 10
73.634363354
 20
135.7754070161
 11
67.334363354
 21
135.7754070161
  0
LINE
  5
564
100
AcDbEntity
  8
00_COMPONENTS_15
100
AcDbLine
 62
7
  6
CONTINUOUS
 10
53.834363354
 20
135.7754070161
 11
47.534363354
 21
135.7754070161
  0
LWPOLYLINE
  5
565
100
AcDbEntity
  8
00_COMPONENTS_14_2_1
100
AcDbPolyline
 62
7
  6
CONTINUOUS
 90
7
 70
0
 10
54.234363519
 20
135.2397427765
 10
54.2787909533
 20
135.236336251
 10
54.3692455425
 20
135.2067066692
 10
54.446580115
 20
135.1490510819
 10
54.5025902938
 20
135.0689660205
 10
54.5313215421
 20
134.9744158084
 10
54.5343561078
 20
134.9304924296
  0
LINE
  5
566
100
AcDbEntity
  8
00_COMPONENTS_12_1
100
AcDbLine
 62
7
  6
CONTINUOUS
 10
63.048722708
 20
128.6624339467
 11
64.0135342868
 21
127.866906629
  0
LINE
  5
567
100
AcDbEntity
  8
00_COMPONENTS_29_4
100
AcDbLine
 62
7
  6
CONTINUOUS
 10
43.392445938
 20
165.1219375084
 11
43.0104710416
 21
169.4879305527
  0
LINE
  5
568
100
AcDbEntity
  8
00_COMPONENTS_14_2_1_1_5
100
AcDbLine
 62
7
  6
CONTINUOUS
 10
75.084363354
 20
135.8494562529
 11
73.634363354
 21
135.8494562529
  0
LINE
  5
569
100
AcDbEntity
  8
00_COMPONENTS_14_2_1
100
AcDbLine
 62
7
  6
CONTINUOUS
 10
55.284363354
 20
135.8494562529
 11
53.834363354
 21
135.8494562529
  0
LINE
  5
56A
100
AcDbEntity
  8
00_COMPONENTS_15
100
AcDbLine
 62
7
  6
CONTINUOUS
 10
46.784363354
 20
135.849456253
 11
47.234363354
 21
135.8494562529
  0
LINE
  5
56B
100
AcDbEntity
  8
00_COMPONENTS_13
100
AcDbLine
 62
7
  6
CONTINUOUS
 10
66.584363354
 20
135.849456253
 11
67.034363354
 21
135.8494562529
  0
LINE
  5
56C
100
AcDbEntity
  8
00_COMPONENTS_16_2
100
AcDbLine
 62
7
  6
CONTINUOUS
 10
57.134363354
 20
135.9494562529
 11
56.684363354
 21
135.9494562529
  0
LINE
  5
56D
100
AcDbEntity
  8
00_COMPONENTS_12_1
100
AcDbLine
 62
7
  6
CONTINUOUS
 10
64.734363354
 20
135.9494562529
 11
65.184363354
 21
135.9494562529
  0
LINE
  5
56E
100
AcDbEntity
  8
00_COMPONENTS_12_1
100
AcDbLine
 62
7
  6
CONTINUOUS
 10
64.434363354
 20
135.9594294079
 11
57.434363354
 21
135.9594294079
  0
LINE
  5
56F
100
AcDbEntity
  8
00_COMPONENTS_15
100
AcDbLine
 62
7
  6
CONTINUOUS
 10
47.4832922636
 20
136.1775667421
 11
53.834363354
 21
136.177566742
  0
LINE
  5
570
100
AcDbEntity
  8
00_COMPONENTS_13
100
AcDbLine
 62
7
  6
CONTINUOUS
 10
67.2832922636
 20
136.1775667421
 11
73.634363354
 21
136.177566742
  0
LINE
  5
571
100
AcDbEntity
  8
00_COMPONENTS_12_1
100
AcDbLine
 62
7
  6
CONTINUOUS
 10
57.434363354
 20
136.3718113859
 11
64.734363354
 21
136.3718113859
  0
LWPOLYLINE
  5
572
100
AcDbEntity
  8
00_COMPONENTS_14_2_1_1_5
100
AcDbPolyline
 62
7
  6
CONTINUOUS
 90
7
 70
0
 10
74.034363519
 20
135.2397427765
 10
74.0787909533
 20
135.236336251
 10
74.1692455425
 20
135.2067066692
 10
74.246580115
 20
135.1490510819
 10
74.3025902938
 20
135.0689660205
 10
74.3313215421
 20
134.9744158084
 10
74.3343561078
 20
134.9304924296
  0
LINE
  5
573
100
AcDbEntity
  8
00_COMPONENTS_12_1
100
AcDbLine
 62
7
  6
CONTINUOUS
 10
63.048722708
 20
132.7359334261
 11
64.434363354
 21
131.7119801203
  0
LINE
  5
574
100
AcDbEntity
  8
00_COMPONENTS_16_2
100
AcDbLine
 62
7
  6
CONTINUOUS
 10
57.134363354
 20
128.459074111
 11
57.6808363091
 21
127.592227655
  0
LINE
  5
575
100
AcDbEntity
  8
00_COMPONENTS_16_2
100
AcDbLine
 62
7
  6
CONTINUOUS
 10
57.7801952866
 20
127.7751633658
 11
57.3087078407
 21
128.5230635458
  0
LINE
  5
576
100
AcDbEntity
  8
00_COMPONENTS
100
AcDbLine
 62
7
  6
CONTINUOUS
 10
46.034363354
 20
154.4624339467
 11
46.034363354
 21
146.3624339467
  0
LINE
  5
577
100
AcDbEntity
  8
00_COMPONENTS_15
100
AcDbLine
 62
7
  6
CONTINUOUS
 10
46.134363354
 20
146.3624339467
 11
46.134363354
 21
125.8624339467
  0
LINE
  5
578
100
AcDbEntity
  8
00_COMPONENTS_29_4
100
AcDbLine
 62
7
  6
CONTINUOUS
 10
46.434363354
 20
159.0962489939
 11
46.434363354
 21
163.2962489939
  0
LINE
  5
579
100
AcDbEntity
  8
00_COMPONENTS_29_4
100
AcDbLine
 62
7
  6
CONTINUOUS
 10
46.4773264114
 20
163.2962489939
 11
46.4773264114
 21
159.0962489939
  0
LINE
  5
57A
100
AcDbEntity
  8
00_COMPONENTS_28
100
AcDbLine
 62
7
  6
CONTINUOUS
 10
46.523107432
 20
176.5124339467
 11
46.523107432
 21
173.8624339467
  0
LINE
  5
57B
100
AcDbEntity
  8
00_COMPONENTS_15
100
AcDbLine
 62
7
  6
CONTINUOUS
 10
46.784363354
 20
138.5855156773
 11
46.784363354
 21
130.8624339467
  0
LINE
  5
57C
100
AcDbEntity
  8
00_COMPONENTS_108_1
100
AcDbLine
 62
7
  6
CONTINUOUS
 10
46.7922277303
 20
172.6962489939
 11
46.7922277303
 21
173.2624339467
  0
LINE
  5
57D
100
AcDbEntity
  8
00_COMPONENTS_108_1
100
AcDbLine
 62
7
  6
CONTINUOUS
 10
46.934363354
 20
173.8624339467
 11
46.934363354
 21
173.5624339467
  0
LINE
  5
57E
100
AcDbEntity
  8
00_COMPONENTS
100
AcDbLine
 62
7
  6
CONTINUOUS
 10
47.034363354
 20
146.3624339467
 11
47.034363354
 21
154.4624339467
  0
LINE
  5
57F
100
AcDbEntity
  8
00_COMPONENTS_108_1
100
AcDbLine
 62
7
  6
CONTINUOUS
 10
47.0441689709
 20
173.3624339467
 11
47.0441689709
 21
173.5624339467
  0
LINE
  5
580
100
AcDbEntity
  8
00_COMPONENTS_15
100
AcDbLine
 62
7
  6
CONTINUOUS
 10
47.134363354
 20
146.3624339467
 11
47.134363354
 21
145.6624339467
  0
LINE
  5
581
100
AcDbEntity
  8
00_COMPONENTS_15
100
AcDbLine
 62
7
  6
CONTINUOUS
 10
47.234363354
 20
128.359074111
 11
47.234363354
 21
135.8494562529
  0
LINE
  5
582
100
AcDbEntity
  8
00_COMPONENTS_15
100
AcDbLine
 62
7
  6
CONTINUOUS
 10
47.534363354
 20
128.9375572024
 11
47.534363354
 21
135.7863640452
  0
LINE
  5
583
100
AcDbEntity
  8
00_COMPONENTS
100
AcDbLine
 62
7
  6
CONTINUOUS
 10
47.534363354
 20
147.8624339467
 11
47.534363354
 21
152.8624339467
  0
LINE
  5
584
100
AcDbEntity
  8
00_COMPONENTS_29_4
100
AcDbLine
 62
7
  6
CONTINUOUS
 10
47.9728822784
 20
160.0084747381
 11
47.9728819572
 21
158.7962489939
  0
LINE
  5
585
100
AcDbEntity
  8
00_COMPONENTS_29_4
100
AcDbLine
 62
7
  6
CONTINUOUS
 10
61.0050741496
 20
172.2919597895
 11
61.409363354
 21
172.6962489939
  0
LINE
  5
586
100
AcDbEntity
  8
00_COMPONENTS_15
100
AcDbLine
 62
7
  6
CONTINUOUS
 10
46.134363354
 20
138.5855156773
 11
46.784363354
 21
138.5855156774
  0
LINE
  5
587
100
AcDbEntity
  8
00_COMPONENTS_13
100
AcDbLine
 62
7
  6
CONTINUOUS
 10
65.934363354
 20
138.5855156773
 11
66.584363354
 21
138.5855156774
  0
LINE
  5
588
100
AcDbEntity
  8
00_COMPONENTS_14_2_1_1_5
100
AcDbLine
 62
7
  6
CONTINUOUS
 10
75.734363354
 20
138.5905093505
 11
75.084363354
 21
138.5905093505
  0
LINE
  5
589
100
AcDbEntity
  8
00_COMPONENTS_14_2_1
100
AcDbLine
 62
7
  6
CONTINUOUS
 10
55.934363354
 20
138.5905093505
 11
55.284363354
 21
138.5905093505
  0
LINE
  5
58A
100
AcDbEntity
  8
00_COMPONENTS_16_2
100
AcDbLine
 62
7
  6
CONTINUOUS
 10
56.684363354
 20
138.6894264834
 11
56.034363354
 21
138.6894264834
  0
LINE
  5
58B
100
AcDbEntity
  8
00_COMPONENTS_12_1
100
AcDbLine
 62
7
  6
CONTINUOUS
 10
65.184363354
 20
138.6894264834
 11
65.834363354
 21
138.6894264834
  0
LINE
  5
58C
100
AcDbEntity
  8
00_COMPONENTS_29_4
100
AcDbLine
 62
7
  6
CONTINUOUS
 10
48.3127677885
 20
158.7962489939
 11
48.3127677885
 21
159.0962489939
  0
LINE
  5
58D
100
AcDbEntity
  8
00_COMPONENTS_15
100
AcDbLine
 62
7
  6
CONTINUOUS
 10
48.634363354
 20
151.7624339467
 11
48.634363354
 21
150.5624339467
  0
LINE
  5
58E
100
AcDbEntity
  8
00_COMPONENTS_15
100
AcDbLine
 62
7
  6
CONTINUOUS
 10
48.634363354
 20
146.3624339467
 11
48.634363354
 21
146.2448210373
  0
LINE
  5
58F
100
AcDbEntity
  8
00_COMPONENTS_28
100
AcDbLine
 62
7
  6
CONTINUOUS
 10
48.8692544192
 20
176.5124339467
 11
48.8692544192
 21
175.5160237852
  0
LINE
  5
590
100
AcDbEntity
  8
00_COMPONENTS_15
100
AcDbLine
 62
7
  6
CONTINUOUS
 10
48.9200040001
 20
132.0692295373
 11
48.9200040001
 21
128.5624339467
  0
LINE
  5
591
100
AcDbEntity
  8
00_COMPONENTS_15
100
AcDbLine
 62
7
  6
CONTINUOUS
 10
48.9230384886
 20
152.2624339467
 11
48.9230384886
 21
150.5624339467
  0
LINE
  5
592
100
AcDbEntity
  8
00_COMPONENTS_10_4
100
AcDbLine
 62
7
  6
CONTINUOUS
 10
49.534363354
 20
133.0644558171
 11
49.534363354
 21
135.4575350251
  0
LINE
  5
593
100
AcDbEntity
  8
00_COMPONENTS_108_1
100
AcDbLine
 62
7
  6
CONTINUOUS
 10
49.9576835281
 20
156.1424339467
 11
49.9576835281
 21
158.7962489939
  0
LINE
  5
594
100
AcDbEntity
  8
00_COMPONENTS_29_4
100
AcDbLine
 62
7
  6
CONTINUOUS
 10
47.9728830917
 20
160.0084746911
 11
48.2488904431
 21
160.1112508905
  0
LINE
  5
595
100
AcDbEntity
  8
00_COMPONENTS_14_2_1_1_5
100
AcDbLine
 62
7
  6
CONTINUOUS
 10
74.0686836008
 20
127.6389795598
 11
72.948722708
 21
128.5624339467
  0
LINE
  5
596
100
AcDbEntity
  8
00_COMPONENTS_23
100
AcDbLine
 62
7
  6
CONTINUOUS
 10
50.7418350109
 20
154.5624339467
 11
50.7418350109
 21
156.0624339467
  0
LINE
  5
597
100
AcDbEntity
  8
00_COMPONENTS_23
100
AcDbLine
 62
7
  6
CONTINUOUS
 10
50.9126791278
 20
154.5624339467
 11
50.9126791278
 21
156.0624339467
  0
LINE
  5
598
100
AcDbEntity
  8
00_COMPONENTS_108_1
100
AcDbLine
 62
7
  6
CONTINUOUS
 10
51.0328483225
 20
154.5624339467
 11
51.0328487504
 21
154.4624339467
  0
LINE
  5
599
100
AcDbEntity
  8
00_COMPONENTS_14_2_1
100
AcDbLine
 62
7
  6
CONTINUOUS
 10
51.034363354
 20
132.0107530692
 11
51.034363354
 21
125.8624339467
  0
LINE
  5
59A
100
AcDbEntity
  8
00_COMPONENTS_15
100
AcDbLine
 62
7
  6
CONTINUOUS
 10
51.034363354
 20
125.8624339467
 11
51.034363354
 21
133.0643705294
  0
LINE
  5
59B
100
AcDbEntity
  8
00_COMPONENTS_23
100
AcDbLine
 62
7
  6
CONTINUOUS
 10
52.049271502
 20
156.0624339467
 11
52.049271502
 21
154.5624339467
  0
LINE
  5
59C
100
AcDbEntity
  8
00_COMPONENTS_29_4
100
AcDbLine
 62
7
  6
CONTINUOUS
 10
52.0875972518
 20
159.0962489939
 11
52.0875972518
 21
162.3032015163
  0
LINE
  5
59D
100
AcDbEntity
  8
00_COMPONENTS_108_1
100
AcDbLine
 62
7
  6
CONTINUOUS
 10
52.434363354
 20
156.0624339467
 11
52.434363354
 21
156.1424339467
  0
LINE
  5
59E
100
AcDbEntity
  8
00_COMPONENTS_15
100
AcDbLine
 62
7
  6
CONTINUOUS
 10
48.634363354
 20
151.7624339467
 11
48.9230384886
 21
152.2624339467
  0
LINE
  5
59F
100
AcDbEntity
  8
00_COMPONENTS_14_2_1_1_5
100
AcDbLine
 62
7
  6
CONTINUOUS
 10
74.734363354
 20
144.4124339467
 11
74.4647296684
 21
144.4124339467
  0
LINE
  5
5A0
100
AcDbEntity
  8
00_COMPONENTS_14_2_1
100
AcDbLine
 62
7
  6
CONTINUOUS
 10
54.934363354
 20
144.4124339467
 11
54.6647296684
 21
144.4124339467
  0
LINE
  5
5A1
100
AcDbEntity
  8
00_COMPONENTS_14_2_1_1_5
100
AcDbLine
 62
7
  6
CONTINUOUS
 10
72.948722708
 20
132.0107530692
 11
74.334363354
 21
130.9867997634
  0
LINE
  5
5A2
100
AcDbEntity
  8
00_COMPONENTS_29_4
100
AcDbLine
 62
7
  6
CONTINUOUS
 10
47.9728822784
 20
160.0084747381
 11
48.3127676605
 21
159.0962513347
  0
LINE
  5
5A3
100
AcDbEntity
  8
00_COMPONENTS_10_4
100
AcDbLine
 62
7
  6
CONTINUOUS
 10
52.534363354
 20
133.0197731035
 11
52.534363354
 21
135.4575350251
  0
LINE
  5
5A4
100
AcDbEntity
  8
00_COMPONENTS
100
AcDbLine
 62
7
  6
CONTINUOUS
 10
52.559363354
 20
154.4624339467
 11
52.559363354
 21
154.5624339467
  0
LINE
  5
5A5
100
AcDbEntity
  8
00_COMPONENTS
100
AcDbLine
 62
7
  6
CONTINUOUS
 10
52.559363354
 20
156.0624339467
 11
52.559363354
 21
158.1624339467
  0
LINE
  5
5A6
100
AcDbEntity
  8
00_COMPONENTS_29_4
100
AcDbLine
 62
7
  6
CONTINUOUS
 10
52.7398934709
 20
163.2962489939
 11
52.7398934709
 21
159.0962489939
  0
LINE
  5
5A7
100
AcDbEntity
  8
00_COMPONENTS_28
100
AcDbLine
 62
7
  6
CONTINUOUS
 10
52.8207401399
 20
176.5124339467
 11
52.8207401399
 21
175.5160237852
  0
LINE
  5
5A8
100
AcDbEntity
  8
00_COMPONENTS_15
100
AcDbLine
 62
7
  6
CONTINUOUS
 10
53.1456882194
 20
152.2624339467
 11
53.1456882194
 21
150.5624339467
  0
LINE
  5
5A9
100
AcDbEntity
  8
00_COMPONENTS_14_2_1
100
AcDbLine
 62
7
  6
CONTINUOUS
 10
53.148722708
 20
132.0107530692
 11
53.148722708
 21
128.5624339467
  0
LINE
  5
5AA
100
AcDbEntity
  8
00_COMPONENTS_15
100
AcDbLine
 62
7
  6
CONTINUOUS
 10
53.434363354
 20
146.3624339467
 11
53.434363354
 21
146.2448210373
  0
LINE
  5
5AB
100
AcDbEntity
  8
00_COMPONENTS_15
100
AcDbLine
 62
7
  6
CONTINUOUS
 10
53.434363354
 20
150.5624339467
 11
53.434363354
 21
151.7624339467
  0
LINE
  5
5AC
100
AcDbEntity
  8
00_COMPONENTS_14_2_1
100
AcDbLine
 62
7
  6
CONTINUOUS
 10
53.834363354
 20
135.2398949459
 11
53.834363354
 21
143.2624339467
  0
LINE
  5
5AD
100
AcDbEntity
  8
00_COMPONENTS_15
100
AcDbLine
 62
7
  6
CONTINUOUS
 10
53.834363354
 20
136.177566742
 11
53.834363354
 21
143.6425317067
  0
LINE
  5
5AE
100
AcDbEntity
  8
00_COMPONENTS
100
AcDbLine
 62
7
  6
CONTINUOUS
 10
53.834363354
 20
150.5624339467
 11
53.834363354
 21
152.8624339467
  0
LINE
  5
5AF
100
AcDbEntity
  8
00_COMPONENTS_14_2_1
100
AcDbLine
 62
7
  6
CONTINUOUS
 10
54.2343633556
 20
135.2397484825
 11
54.2343633556
 21
135.5397480247
  0
LINE
  5
5B0
100
AcDbEntity
  8
00_COMPONENTS
100
AcDbLine
 62
7
  6
CONTINUOUS
 10
54.3050746511
 20
150.5624339467
 11
54.3050746511
 21
152.8624339467
  0
LINE
  5
5B1
100
AcDbEntity
  8
00_COMPONENTS
100
AcDbLine
 62
7
  6
CONTINUOUS
 10
54.434363354
 20
152.8624339467
 11
54.434363354
 21
147.8624339467
  0
LINE
  5
5B2
100
AcDbEntity
  8
00_COMPONENTS_14_2_1
100
AcDbLine
 62
7
  6
CONTINUOUS
 10
54.534363354
 20
134.9304923861
 11
54.534363354
 21
128.9375572023
  0
LINE
  5
5B3
100
AcDbEntity
  8
00_COMPONENTS_29_4
100
AcDbLine
 62
7
  6
CONTINUOUS
 10
54.6717962945
 20
163.2962489939
 11
54.6717962945
 21
159.0962489939
  0
LINE
  5
5B4
100
AcDbEntity
  8
00_COMPONENTS_12_1
100
AcDbLine
 62
7
  6
CONTINUOUS
 10
57.434363354
 20
144.2566377583
 11
58.034363354
 21
144.3624339467
  0
LINE
  5
5B5
100
AcDbEntity
  8
00_COMPONENTS_16_2
100
AcDbLine
 62
7
  6
CONTINUOUS
 10
57.434363354
 20
144.4566377583
 11
58.034363354
 21
144.5624339467
  0
LINE
  5
5B6
100
AcDbEntity
  8
00_COMPONENTS_16_2
100
AcDbLine
 62
7
  6
CONTINUOUS
 10
57.034363354
 20
145.5624339467
 11
56.034363354
 21
145.5624339467
  0
LINE
  5
5B7
100
AcDbEntity
  8
00_COMPONENTS_12_1
100
AcDbLine
 62
7
  6
CONTINUOUS
 10
64.834363354
 20
145.5624339467
 11
65.834363354
 21
145.5624339467
  0
LINE
  5
5B8
100
AcDbEntity
  8
00_COMPONENTS_14_2_1_1_5
100
AcDbLine
 62
7
  6
CONTINUOUS
 10
75.734363354
 20
145.6624339467
 11
74.734363354
 21
145.6624339467
  0
LINE
  5
5B9
100
AcDbEntity
  8
00_COMPONENTS_14_2_1
100
AcDbLine
 62
7
  6
CONTINUOUS
 10
55.934363354
 20
145.6624339467
 11
54.934363354
 21
145.6624339467
  0
LINE
  5
5BA
100
AcDbEntity
  8
00_COMPONENTS_15
100
AcDbLine
 62
7
  6
CONTINUOUS
 10
46.134363354
 20
145.6624339467
 11
47.134363354
 21
145.6624339467
  0
LINE
  5
5BB
100
AcDbEntity
  8
00_COMPONENTS_13
100
AcDbLine
 62
7
  6
CONTINUOUS
 10
65.934363354
 20
145.6624339467
 11
66.934363354
 21
145.6624339467
  0
LINE
  5
5BC
100
AcDbEntity
  8
00_COMPONENTS_16_2
100
AcDbLine
 62
7
  6
CONTINUOUS
 10
56.034363354
 20
145.8624339467
 11
57.034363354
 21
145.8624339467
  0
LINE
  5
5BD
100
AcDbEntity
  8
00_COMPONENTS_12_1
100
AcDbLine
 62
7
  6
CONTINUOUS
 10
64.834363354
 20
145.8624339467
 11
65.834363354
 21
145.8624339467
  0
LINE
  5
5BE
100
AcDbEntity
  8
00_COMPONENTS_15
100
AcDbLine
 62
7
  6
CONTINUOUS
 10
46.134363354
 20
146.0467724714
 11
47.134363354
 21
146.0467724714
  0
LINE
  5
5BF
100
AcDbEntity
  8
00_COMPONENTS_14_2_1
100
AcDbLine
 62
7
  6
CONTINUOUS
 10
54.934363354
 20
146.0467724714
 11
55.934363354
 21
146.0467724714
  0
LINE
  5
5C0
100
AcDbEntity
  8
00_COMPONENTS_13
100
AcDbLine
 62
7
  6
CONTINUOUS
 10
65.934363354
 20
146.0467724714
 11
66.934363354
 21
146.0467724714
  0
LINE
  5
5C1
100
AcDbEntity
  8
00_COMPONENTS_14_2_1_1_5
100
AcDbLine
 62
7
  6
CONTINUOUS
 10
74.734363354
 20
146.0467724714
 11
75.734363354
 21
146.0467724714
  0
LINE
  5
5C2
100
AcDbEntity
  8
00_COMPONENTS_15
100
AcDbLine
 62
7
  6
CONTINUOUS
 10
48.634363354
 20
146.2448210373
 11
53.434363354
 21
146.2448210373
  0
LINE
  5
5C3
100
AcDbEntity
  8
00_COMPONENTS_13
100
AcDbLine
 62
7
  6
CONTINUOUS
 10
68.434363354
 20
146.2448210373
 11
73.234363354
 21
146.2448210373
  0
LINE
  5
5C4
100
AcDbEntity
  8
00_COMPONENTS_12_1
100
AcDbLine
 62
7
  6
CONTINUOUS
 10
58.534363354
 20
146.3448210373
 11
63.334363354
 21
146.3448210373
  0
LINE
  5
5C5
100
AcDbEntity
  8
00_COMPONENTS
100
AcDbLine
 62
7
  6
CONTINUOUS
 10
46.034363354
 20
146.3624339467
 11
75.834363354
 21
146.3624339467
  0
LINE
  5
5C6
100
AcDbEntity
  8
00_COMPONENTS_13
100
AcDbLine
 62
7
  6
CONTINUOUS
 10
67.034363354
 20
128.359074111
 11
67.488321716
 21
127.6389795598
  0
LINE
  5
5C7
100
AcDbEntity
  8
00_COMPONENTS_13
100
AcDbLine
 62
7
  6
CONTINUOUS
 10
67.6677906814
 20
127.6948402554
 11
67.2087078407
 21
128.4230635458
  0
LINE
  5
5C8
100
AcDbEntity
  8
00_COMPONENTS_15
100
AcDbLine
 62
7
  6
CONTINUOUS
 10
53.434363354
 20
151.7624339467
 11
53.1456882194
 21
152.2624339467
  0
LINE
  5
5C9
100
AcDbEntity
  8
00_COMPONENTS_14_2_1
100
AcDbLine
 62
7
  6
CONTINUOUS
 10
54.8343633534
 20
134.9304926986
 11
54.8343633538
 21
128.5362929302
  0
LINE
  5
5CA
100
AcDbEntity
  8
00_COMPONENTS
100
AcDbLine
 62
7
  6
CONTINUOUS
 10
54.8586816449
 20
156.1624339467
 11
54.8586816449
 21
158.1624339467
  0
LINE
  5
5CB
100
AcDbEntity
  8
00_COMPONENTS_14_2_1
100
AcDbLine
 62
7
  6
CONTINUOUS
 10
54.934363354
 20
145.6624339467
 11
54.934363354
 21
144.3624339467
  0
LINE
  5
5CC
100
AcDbEntity
  8
00_COMPONENTS_15
100
AcDbLine
 62
7
  6
CONTINUOUS
 10
54.934363354
 20
144.6624339467
 11
54.934363354
 21
146.3624339467
  0
LINE
  5
5CD
100
AcDbEntity
  8
00_COMPONENTS_14_2_1
100
AcDbLine
 62
7
  6
CONTINUOUS
 10
55.284363354
 20
130.8624339467
 11
55.284363354
 21
138.5905093505
  0
LINE
  5
5CE
100
AcDbEntity
  8
00_COMPONENTS_14_2_1
100
AcDbLine
 62
7
  6
CONTINUOUS
 10
55.934363354
 20
125.8624339467
 11
55.934363354
 21
146.3624339467
  0
LINE
  5
5CF
100
AcDbEntity
  8
00_COMPONENTS
100
AcDbLine
 62
7
  6
CONTINUOUS
 10
55.934363354
 20
147.8624339467
 11
55.934363354
 21
152.8624339467
  0
LINE
  5
5D0
100
AcDbEntity
  8
00_COMPONENTS
100
AcDbLine
 62
7
  6
CONTINUOUS
 10
55.9503890363
 20
152.8624339467
 11
55.9503890363
 21
154.4624339467
  0
LINE
  5
5D1
100
AcDbEntity
  8
00_COMPONENTS_16_2
100
AcDbLine
 62
7
  6
CONTINUOUS
 10
56.034363354
 20
125.9624339467
 11
56.034363354
 21
146.3624339467
  0
LINE
  5
5D2
100
AcDbEntity
  8
00_COMPONENTS_108_1
100
AcDbLine
 62
7
  6
CONTINUOUS
 10
56.3300175807
 20
158.7962489939
 11
56.3300175807
 21
158.1624339467
  0
LINE
  5
5D3
100
AcDbEntity
  8
00_COMPONENTS
100
AcDbLine
 62
7
  6
CONTINUOUS
 10
56.3523549859
 20
150.5624339467
 11
56.3523549859
 21
152.8624339467
  0
LINE
  5
5D4
100
AcDbEntity
  8
00_COMPONENTS_29_4
100
AcDbLine
 62
7
  6
CONTINUOUS
 10
56.6186862909
 20
160.008474653
 11
56.6186861791
 21
159.0962489939
  0
LINE
  5
5D5
100
AcDbEntity
  8
00_COMPONENTS_16_2
100
AcDbLine
 62
7
  6
CONTINUOUS
 10
56.684363354
 20
138.6894264833
 11
56.684363354
 21
130.9624339467
  0
LINE
  5
5D6
100
AcDbEntity
  8
00_COMPONENTS_15
100
AcDbLine
 62
7
  6
CONTINUOUS
 10
48.634363354
 20
151.5553271655
 11
48.9230384886
 21
151.7624339467
  0
LINE
  5
5D7
100
AcDbEntity
  8
00_COMPONENTS
100
AcDbLine
 62
7
  6
CONTINUOUS
 10
74.334363354
 20
147.8624339467
 11
67.434363354
 21
147.8624339467
  0
LINE
  5
5D8
100
AcDbEntity
  8
00_COMPONENTS
100
AcDbLine
 62
7
  6
CONTINUOUS
 10
65.934363354
 20
147.8624339467
 11
55.934363354
 21
147.8624339467
  0
LINE
  5
5D9
100
AcDbEntity
  8
00_COMPONENTS
100
AcDbLine
 62
7
  6
CONTINUOUS
 10
54.434363354
 20
147.8624339467
 11
47.534363354
 21
147.8624339467
  0
LINE
  5
5DA
100
AcDbEntity
  8
00_COMPONENTS_15
100
AcDbLine
 62
7
  6
CONTINUOUS
 10
53.434363354
 20
151.5553271655
 11
53.1456882194
 21
151.7624339467
  0
LINE
  5
5DB
100
AcDbEntity
  8
00_COMPONENTS
100
AcDbLine
 62
7
  6
CONTINUOUS
 10
56.9406182445
 20
156.1624339467
 11
56.9406182445
 21
158.1624339467
  0
LINE
  5
5DC
100
AcDbEntity
  8
00_COMPONENTS_16_2
100
AcDbLine
 62
7
  6
CONTINUOUS
 10
57.034363354
 20
146.3624339467
 11
57.034363354
 21
145.5624339467
  0
LINE
  5
5DD
100
AcDbEntity
  8
00_COMPONENTS_16_2
100
AcDbLine
 62
7
  6
CONTINUOUS
 10
57.134363354
 20
128.459074111
 11
57.134363354
 21
135.9494562529
  0
LINE
  5
5DE
100
AcDbEntity
  8
00_COMPONENTS_12_1
100
AcDbLine
 62
7
  6
CONTINUOUS
 10
57.434363354
 20
144.2566377583
 11
57.434363354
 21
135.9998892113
  0
LINE
  5
5DF
100
AcDbEntity
  8
00_COMPONENTS_16_2
100
AcDbLine
 62
7
  6
CONTINUOUS
 10
57.434363354
 20
129.0375572023
 11
57.434363354
 21
135.9998892113
  0
LINE
  5
5E0
100
AcDbEntity
  8
00_COMPONENTS_16_2
100
AcDbLine
 62
7
  6
CONTINUOUS
 10
57.434363354
 20
136.691982309
 11
57.434363354
 21
144.4566377583
  0
LINE
  5
5E1
100
AcDbEntity
  8
00_COMPONENTS_23
100
AcDbLine
 62
7
  6
CONTINUOUS
 10
57.5821182401
 20
156.0624339467
 11
57.5821182401
 21
154.5624339467
  0
LINE
  5
5E2
100
AcDbEntity
  8
00_COMPONENTS
100
AcDbLine
 62
7
  6
CONTINUOUS
 10
58.034363354
 20
152.8624339467
 11
58.034363354
 21
150.5624339467
  0
LINE
  5
5E3
100
AcDbEntity
  8
00_COMPONENTS_12_1
100
AcDbLine
 62
7
  6
CONTINUOUS
 10
58.034363354
 20
146.3624339467
 11
58.034363354
 21
144.3624339467
  0
LINE
  5
5E4
100
AcDbEntity
  8
00_COMPONENTS_16_2
100
AcDbLine
 62
7
  6
CONTINUOUS
 10
58.034363354
 20
144.5624339467
 11
58.034363354
 21
146.3624339467
  0
LINE
  5
5E5
100
AcDbEntity
  8
00_COMPONENTS_23
100
AcDbLine
 62
7
  6
CONTINUOUS
 10
58.324363354
 20
154.5624339467
 11
58.324363354
 21
156.0624339467
  0
LINE
  5
5E6
100
AcDbEntity
  8
00_COMPONENTS_12_1
100
AcDbLine
 62
7
  6
CONTINUOUS
 10
58.534363354
 20
151.496408543
 11
58.534363354
 21
150.5624339467
  0
LINE
  5
5E7
100
AcDbEntity
  8
00_COMPONENTS_12_1
100
AcDbLine
 62
7
  6
CONTINUOUS
 10
58.534363354
 20
146.3624339467
 11
58.534363354
 21
146.3448210373
  0
LINE
  5
5E8
100
AcDbEntity
  8
00_COMPONENTS_16_2
100
AcDbLine
 62
7
  6
CONTINUOUS
 10
58.8200040001
 20
128.6624339467
 11
58.8200040001
 21
132.7359334261
  0
LINE
  5
5E9
100
AcDbEntity
  8
00_COMPONENTS_12_1
100
AcDbLine
 62
7
  6
CONTINUOUS
 10
59.034363354
 20
151.8624339467
 11
59.034363354
 21
150.5624339467
  0
LINE
  5
5EA
100
AcDbEntity
  8
00_COMPONENTS_29_4
100
AcDbLine
 62
7
  6
CONTINUOUS
 10
73.5559580318
 20
159.0962543561
 11
73.2043051826
 21
158.9936482909
  0
LINE
  5
5EB
100
AcDbEntity
  8
00_COMPONENTS
100
AcDbLine
 62
7
  6
CONTINUOUS
 10
47.034363354
 20
149.4624339467
 11
46.034363354
 21
149.4624339467
  0
LINE
  5
5EC
100
AcDbEntity
  8
00_COMPONENTS
100
AcDbLine
 62
7
  6
CONTINUOUS
 10
74.834363354
 20
149.4624339467
 11
75.834363354
 21
149.4624339467
  0
LINE
  5
5ED
100
AcDbEntity
  8
00_COMPONENTS
100
AcDbLine
 62
7
  6
CONTINUOUS
 10
47.534363354
 20
150.5624339467
 11
54.434363354
 21
150.5624339467
  0
LINE
  5
5EE
100
AcDbEntity
  8
00_COMPONENTS
100
AcDbLine
 62
7
  6
CONTINUOUS
 10
55.934363354
 20
150.5624339467
 11
65.934363354
 21
150.5624339467
  0
LINE
  5
5EF
100
AcDbEntity
  8
00_COMPONENTS
100
AcDbLine
 62
7
  6
CONTINUOUS
 10
67.434363354
 20
150.5624339467
 11
74.334363354
 21
150.5624339467
  0
LINE
  5
5F0
100
AcDbEntity
  8
00_COMPONENTS_12_1
100
AcDbLine
 62
7
  6
CONTINUOUS
 10
59.034363354
 20
151.8624339467
 11
58.8900257867
 21
152.1124339467
  0
LINE
  5
5F1
100
AcDbEntity
  8
00_COMPONENTS_29_4
100
AcDbLine
 62
7
  6
CONTINUOUS
 10
56.6186862909
 20
160.008474653
 11
56.7886290168
 21
159.0962513332
  0
LINE
  5
5F2
100
AcDbEntity
  8
00_COMPONENTS
100
AcDbLine
 62
7
  6
CONTINUOUS
 10
59.090886653
 20
154.4624339467
 11
59.090886653
 21
155.4624339467
  0
LINE
  5
5F3
100
AcDbEntity
  8
00_COMPONENTS_11_1_1_3
100
AcDbLine
 62
7
  6
CONTINUOUS
 10
59.434363354
 20
133.7618206349
 11
59.434363354
 21
135.9594294079
  0
LINE
  5
5F4
100
AcDbEntity
  8
00_COMPONENTS_12_1
100
AcDbLine
 62
7
  6
CONTINUOUS
 10
60.934363354
 20
125.9624339467
 11
60.934363354
 21
133.8093574141
  0
LINE
  5
5F5
100
AcDbEntity
  8
00_COMPONENTS_16_2
100
AcDbLine
 62
7
  6
CONTINUOUS
 10
60.934363354
 20
125.9624339467
 11
60.934363354
 21
133.7617353472
  0
LINE
  5
5F6
100
AcDbEntity
  8
00_COMPONENTS_12_1
100
AcDbLine
 62
7
  6
CONTINUOUS
 10
58.534363354
 20
151.496408543
 11
59.034363354
 21
152.3624339467
  0
LINE
  5
5F7
100
AcDbEntity
  8
00_COMPONENTS_28
100
AcDbLine
 62
7
  6
CONTINUOUS
 10
72.1374029974
 20
173.9692861343
 11
72.9726773696
 21
175.4160237852
  0
LINE
  5
5F8
100
AcDbEntity
  8
00_COMPONENTS_28
100
AcDbLine
 62
7
  6
CONTINUOUS
 10
72.137225544
 20
173.9695444456
 11
72.0742658019
 21
173.8624339467
  0
LINE
  5
5F9
100
AcDbEntity
  8
00_COMPONENTS_12_1
100
AcDbLine
 62
7
  6
CONTINUOUS
 10
63.834363354
 20
151.5624339467
 11
63.2962435694
 21
151.5624339467
  0
LINE
  5
5FA
100
AcDbEntity
  8
00_COMPONENTS_16_2
100
AcDbLine
 62
7
  6
CONTINUOUS
 10
58.5724831387
 20
151.5624339467
 11
58.034363354
 21
151.5624339467
  0
LINE
  5
5FB
100
AcDbEntity
  8
00_COMPONENTS_15
100
AcDbLine
 62
7
  6
CONTINUOUS
 10
48.9230384886
 20
151.7624339467
 11
53.1456882194
 21
151.7624339467
  0
LINE
  5
5FC
100
AcDbEntity
  8
00_COMPONENTS_13
100
AcDbLine
 62
7
  6
CONTINUOUS
 10
68.7230384886
 20
151.7624339467
 11
72.9456882194
 21
151.7624339467
  0
LINE
  5
5FD
100
AcDbEntity
  8
00_COMPONENTS_12_1
100
AcDbLine
 62
7
  6
CONTINUOUS
 10
59.034363354
 20
151.8624339467
 11
62.834363354
 21
151.8624339467
  0
LINE
  5
5FE
100
AcDbEntity
  8
00_COMPONENTS_15
100
AcDbLine
 62
7
  6
CONTINUOUS
 10
48.9230384886
 20
152.2624339467
 11
53.1456882194
 21
152.2624339467
  0
LINE
  5
5FF
100
AcDbEntity
  8
00_COMPONENTS_13
100
AcDbLine
 62
7
  6
CONTINUOUS
 10
68.7230384886
 20
152.2624339467
 11
72.9456882194
 21
152.2624339467
  0
LINE
  5
600
100
AcDbEntity
  8
00_COMPONENTS_12_1
100
AcDbLine
 62
7
  6
CONTINUOUS
 10
59.034363354
 20
152.3624339467
 11
62.834363354
 21
152.3624339467
  0
LINE
  5
601
100
AcDbEntity
  8
00_COMPONENTS
100
AcDbLine
 62
7
  6
CONTINUOUS
 10
47.034363354
 20
152.8624339467
 11
74.834363354
 21
152.8624339467
  0
LINE
  5
602
100
AcDbEntity
  8
00_COMPONENTS_11_1_1_3
100
AcDbLine
 62
7
  6
CONTINUOUS
 10
62.434363354
 20
133.8093574141
 11
62.434363354
 21
135.9594294079
  0
LINE
  5
603
100
AcDbEntity
  8
00_COMPONENTS
100
AcDbLine
 62
7
  6
CONTINUOUS
 10
62.777840055
 20
155.4624339467
 11
62.777840055
 21
154.4624339467
  0
LINE
  5
604
100
AcDbEntity
  8
00_COMPONENTS_12_1
100
AcDbLine
 62
7
  6
CONTINUOUS
 10
62.834363354
 20
151.8624339467
 11
62.834363354
 21
150.5624339467
  0
LINE
  5
605
100
AcDbEntity
  8
00_COMPONENTS_12_1
100
AcDbLine
 62
7
  6
CONTINUOUS
 10
63.048722708
 20
132.7359334261
 11
63.048722708
 21
128.6624339467
  0
LINE
  5
606
100
AcDbEntity
  8
00_COMPONENTS_12_1
100
AcDbLine
 62
7
  6
CONTINUOUS
 10
63.334363354
 20
151.496408543
 11
63.334363354
 21
150.5624339467
  0
LINE
  5
607
100
AcDbEntity
  8
00_COMPONENTS_12_1
100
AcDbLine
 62
7
  6
CONTINUOUS
 10
63.334363354
 20
146.3624339467
 11
63.334363354
 21
146.3448210373
  0
LINE
  5
608
100
AcDbEntity
  8
00_COMPONENTS_12_1
100
AcDbLine
 62
7
  6
CONTINUOUS
 10
62.834363354
 20
151.8624339467
 11
62.9787009213
 21
152.1124339467
  0
LINE
  5
609
100
AcDbEntity
  8
00_COMPONENTS_14_2_1
100
AcDbLine
 62
7
  6
CONTINUOUS
 10
53.834363354
 20
143.2624339467
 11
54.934363354
 21
144.3624339467
  0
LINE
  5
60A
100
AcDbEntity
  8
00_COMPONENTS_15
100
AcDbLine
 62
7
  6
CONTINUOUS
 10
53.834363354
 20
143.6425317067
 11
54.934363354
 21
144.6624339467
  0
LINE
  5
60B
100
AcDbEntity
  8
00_COMPONENTS
100
AcDbLine
 62
7
  6
CONTINUOUS
 10
46.034363354
 20
154.4624339467
 11
59.090886653
 21
154.4624339467
  0
LINE
  5
60C
100
AcDbEntity
  8
00_COMPONENTS
100
AcDbLine
 62
7
  6
CONTINUOUS
 10
62.777840055
 20
154.4624339467
 11
75.834363354
 21
154.4624339467
  0
LINE
  5
60D
100
AcDbEntity
  8
00_COMPONENTS_23
100
AcDbLine
 62
7
  6
CONTINUOUS
 10
50.7418838447
 20
154.5624339467
 11
58.324363354
 21
154.5624339467
  0
LINE
  5
60E
100
AcDbEntity
  8
00_COMPONENTS_23
100
AcDbLine
 62
7
  6
CONTINUOUS
 10
63.544363354
 20
154.5624339467
 11
71.1268428634
 21
154.5624339467
  0
LINE
  5
60F
100
AcDbEntity
  8
00_COMPONENTS_29_4
100
AcDbLine
 62
7
  6
CONTINUOUS
 10
48.6644210459
 20
158.9936497736
 11
48.3127690357
 21
159.0962558454
  0
LINE
  5
610
100
AcDbEntity
  8
00_COMPONENTS_28
100
AcDbLine
 62
7
  6
CONTINUOUS
 10
49.7944609062
 20
173.8624339467
 11
49.731482598
 21
173.9695174802
  0
LINE
  5
611
100
AcDbEntity
  8
00_COMPONENTS_28
100
AcDbLine
 62
7
  6
CONTINUOUS
 10
49.7313237107
 20
173.9692861343
 11
48.8960493385
 21
175.4160237852
  0
LINE
  5
612
100
AcDbEntity
  8
00_COMPONENTS_12_1
100
AcDbLine
 62
7
  6
CONTINUOUS
 10
63.334363354
 20
151.496408543
 11
62.834363354
 21
152.3624339467
  0
LINE
  5
613
100
AcDbEntity
  8
00_COMPONENTS_23
100
AcDbLine
 62
7
  6
CONTINUOUS
 10
63.544363354
 20
154.5624339467
 11
63.544363354
 21
156.0624339467
  0
LINE
  5
614
100
AcDbEntity
  8
00_COMPONENTS
100
AcDbLine
 62
7
  6
CONTINUOUS
 10
63.834363354
 20
150.5624339467
 11
63.834363354
 21
152.8624339467
  0
LINE
  5
615
100
AcDbEntity
  8
00_COMPONENTS_23
100
AcDbLine
 62
7
  6
CONTINUOUS
 10
64.286608468
 20
156.0624339467
 11
64.286608468
 21
154.5624339467
  0
LINE
  5
616
100
AcDbEntity
  8
00_COMPONENTS_12_1
100
AcDbLine
 62
7
  6
CONTINUOUS
 10
64.434363354
 20
129.0375572023
 11
64.434363354
 21
135.9812742515
  0
LINE
  5
617
100
AcDbEntity
  8
00_COMPONENTS_12_1
100
AcDbLine
 62
7
  6
CONTINUOUS
 10
64.734363354
 20
136.3718113859
 11
64.734363354
 21
128.459074111
  0
LINE
  5
618
100
AcDbEntity
  8
00_COMPONENTS_12_1
100
AcDbLine
 62
7
  6
CONTINUOUS
 10
64.834363354
 20
145.5624339467
 11
64.834363354
 21
146.3624339467
  0
LINE
  5
619
100
AcDbEntity
  8
00_COMPONENTS
100
AcDbLine
 62
7
  6
CONTINUOUS
 10
64.9281084636
 20
158.1624339467
 11
64.9281084636
 21
156.1624339467
  0
LINE
  5
61A
100
AcDbEntity
  8
00_COMPONENTS_12_1
100
AcDbLine
 62
7
  6
CONTINUOUS
 10
65.184363354
 20
130.9624339467
 11
65.184363354
 21
138.6894264834
  0
LINE
  5
61B
100
AcDbEntity
  8
00_COMPONENTS_29_4
100
AcDbLine
 62
7
  6
CONTINUOUS
 10
65.2500405269
 20
159.0962489939
 11
65.2500404057
 21
160.0084746756
  0
LINE
  5
61C
100
AcDbEntity
  8
00_COMPONENTS
100
AcDbLine
 62
7
  6
CONTINUOUS
 10
65.5163717222
 20
150.5624339467
 11
65.5163717222
 21
152.8624339467
  0
LINE
  5
61D
100
AcDbEntity
  8
00_COMPONENTS_108_1
100
AcDbLine
 62
7
  6
CONTINUOUS
 10
65.5387091273
 20
158.1624339467
 11
65.5387091273
 21
158.7962489939
  0
LINE
  5
61E
100
AcDbEntity
  8
00_COMPONENTS_29_4
100
AcDbLine
 62
7
  6
CONTINUOUS
 10
65.0800976837
 20
159.0962511459
 11
65.2500404057
 21
160.0084746756
  0
LINE
  5
61F
100
AcDbEntity
  8
00_COMPONENTS
100
AcDbLine
 62
7
  6
CONTINUOUS
 10
63.544363354
 20
155.4624339467
 11
62.777840055
 21
155.4624339467
  0
LINE
  5
620
100
AcDbEntity
  8
00_COMPONENTS
100
AcDbLine
 62
7
  6
CONTINUOUS
 10
59.090886653
 20
155.4624339467
 11
58.324363354
 21
155.4624339467
  0
LINE
  5
621
100
AcDbEntity
  8
00_COMPONENTS_23
100
AcDbLine
 62
7
  6
CONTINUOUS
 10
58.324363354
 20
156.0624339467
 11
50.7418838447
 21
156.0624339467
  0
LINE
  5
622
100
AcDbEntity
  8
00_COMPONENTS_23
100
AcDbLine
 62
7
  6
CONTINUOUS
 10
63.544363354
 20
156.0624339467
 11
71.1268428634
 21
156.0624339467
  0
LINE
  5
623
100
AcDbEntity
  8
00_COMPONENTS_108_1
100
AcDbLine
 62
7
  6
CONTINUOUS
 10
49.9576835282
 20
156.1424339467
 11
52.559363354
 21
156.1424339467
  0
LINE
  5
624
100
AcDbEntity
  8
00_COMPONENTS_108_1
100
AcDbLine
 62
7
  6
CONTINUOUS
 10
69.309363354
 20
156.1424339467
 11
71.9110431799
 21
156.1424339467
  0
LINE
  5
625
100
AcDbEntity
  8
00_COMPONENTS
100
AcDbLine
 62
7
  6
CONTINUOUS
 10
52.559363354
 20
156.1624339467
 11
58.1790942854
 21
156.1624339467
  0
LINE
  5
626
100
AcDbEntity
  8
00_COMPONENTS
100
AcDbLine
 62
7
  6
CONTINUOUS
 10
63.6896324226
 20
156.1624339467
 11
69.309363354
 21
156.1624339467
  0
LINE
  5
627
100
AcDbEntity
  8
00_COMPONENTS_12_1
100
AcDbLine
 62
7
  6
CONTINUOUS
 10
65.834363354
 20
125.9624339467
 11
65.834363354
 21
146.3624339467
  0
LINE
  5
628
100
AcDbEntity
  8
00_COMPONENTS
100
AcDbLine
 62
7
  6
CONTINUOUS
 10
65.9183376718
 20
154.4624339467
 11
65.9183376718
 21
152.8624339467
  0
LINE
  5
629
100
AcDbEntity
  8
00_COMPONENTS
100
AcDbLine
 62
7
  6
CONTINUOUS
 10
65.934363354
 20
152.8624339467
 11
65.934363354
 21
147.8624339467
  0
LINE
  5
62A
100
AcDbEntity
  8
00_COMPONENTS_13
100
AcDbLine
 62
7
  6
CONTINUOUS
 10
65.934363354
 20
146.3624339467
 11
65.934363354
 21
125.8624339467
  0
LINE
  5
62B
100
AcDbEntity
  8
00_COMPONENTS_13
100
AcDbLine
 62
7
  6
CONTINUOUS
 10
66.584363354
 20
138.5855156773
 11
66.584363354
 21
130.8624339467
  0
LINE
  5
62C
100
AcDbEntity
  8
00_COMPONENTS_13
100
AcDbLine
 62
7
  6
CONTINUOUS
 10
66.934363354
 20
146.3624339467
 11
66.934363354
 21
145.6624339467
  0
LINE
  5
62D
100
AcDbEntity
  8
00_COMPONENTS
100
AcDbLine
 62
7
  6
CONTINUOUS
 10
67.0086816449
 20
156.1624339467
 11
67.0086816449
 21
158.1624339467
  0
LINE
  5
62E
100
AcDbEntity
  8
00_COMPONENTS_13
100
AcDbLine
 62
7
  6
CONTINUOUS
 10
67.034363354
 20
128.359074111
 11
67.034363354
 21
135.8494562529
  0
LINE
  5
62F
100
AcDbEntity
  8
00_COMPONENTS_29_4
100
AcDbLine
 62
7
  6
CONTINUOUS
 10
67.1969304135
 20
163.2962489939
 11
67.1969304135
 21
159.0962489939
  0
LINE
  5
630
100
AcDbEntity
  8
00_COMPONENTS_13
100
AcDbLine
 62
7
  6
CONTINUOUS
 10
67.334363354
 20
128.9375572024
 11
67.334363354
 21
135.7863640452
  0
LINE
  5
631
100
AcDbEntity
  8
00_COMPONENTS
100
AcDbLine
 62
7
  6
CONTINUOUS
 10
67.434363354
 20
147.8624339467
 11
67.434363354
 21
152.8624339467
  0
LINE
  5
632
100
AcDbEntity
  8
00_COMPONENTS
100
AcDbLine
 62
7
  6
CONTINUOUS
 10
67.563652057
 20
150.5624339467
 11
67.563652057
 21
152.8624339467
  0
LINE
  5
633
100
AcDbEntity
  8
00_COMPONENTS_13
100
AcDbLine
 62
7
  6
CONTINUOUS
 10
68.434363354
 20
151.5553271655
 11
68.7230384886
 21
151.7624339467
  0
LINE
  5
634
100
AcDbEntity
  8
00_COMPONENTS
100
AcDbLine
 62
7
  6
CONTINUOUS
 10
52.559363354
 20
158.1624339467
 11
69.309363354
 21
158.1624339467
  0
LINE
  5
635
100
AcDbEntity
  8
00_COMPONENTS_29_4
100
AcDbLine
 62
7
  6
CONTINUOUS
 10
46.7343657876
 20
158.7962489939
 11
75.1343609205
 21
158.7962489939
  0
LINE
  5
636
100
AcDbEntity
  8
00_COMPONENTS_29_4
100
AcDbLine
 62
7
  6
CONTINUOUS
 10
48.6644235248
 20
158.9936429509
 11
52.1073250802
 21
158.9936429509
  0
LINE
  5
637
100
AcDbEntity
  8
00_COMPONENTS_29_4
100
AcDbLine
 62
7
  6
CONTINUOUS
 10
57.1710821545
 20
158.9936429509
 11
64.6976446481
 21
158.9936429509
  0
LINE
  5
638
100
AcDbEntity
  8
00_COMPONENTS_29_4
100
AcDbLine
 62
7
  6
CONTINUOUS
 10
69.7614016278
 20
158.9936429509
 11
73.2043032048
 21
158.9936429509
  0
LINE
  5
639
100
AcDbEntity
  8
00_COMPONENTS_29_4
100
AcDbLine
 62
7
  6
CONTINUOUS
 10
69.7811294562
 20
159.0962489939
 11
65.0800976837
 21
159.0962511459
  0
LINE
  5
63A
100
AcDbEntity
  8
00_COMPONENTS_29_4
100
AcDbLine
 62
7
  6
CONTINUOUS
 10
56.7886290168
 20
159.0962513332
 11
52.0875972518
 21
159.0962489939
  0
LINE
  5
63B
100
AcDbEntity
  8
00_COMPONENTS_29_4
100
AcDbLine
 62
7
  6
CONTINUOUS
 10
75.434363354
 20
159.0962489939
 11
73.5559590316
 21
159.096251146
  0
LINE
  5
63C
100
AcDbEntity
  8
00_COMPONENTS_29_4
100
AcDbLine
 62
7
  6
CONTINUOUS
 10
48.3127676605
 20
159.0962513347
 11
46.434363354
 21
159.0962489939
  0
LINE
  5
63D
100
AcDbEntity
  8
00_COMPONENTS_13
100
AcDbLine
 62
7
  6
CONTINUOUS
 10
73.234363354
 20
151.5553271655
 11
72.9456882194
 21
151.7624339467
  0
LINE
  5
63E
100
AcDbEntity
  8
00_COMPONENTS
100
AcDbLine
 62
7
  6
CONTINUOUS
 10
68.034363354
 20
152.8624339467
 11
68.034363354
 21
150.5624339467
  0
LINE
  5
63F
100
AcDbEntity
  8
00_COMPONENTS_13
100
AcDbLine
 62
7
  6
CONTINUOUS
 10
68.434363354
 20
151.7624339467
 11
68.434363354
 21
150.5624339467
  0
LINE
  5
640
100
AcDbEntity
  8
00_COMPONENTS_13
100
AcDbLine
 62
7
  6
CONTINUOUS
 10
68.434363354
 20
146.3624339467
 11
68.434363354
 21
146.2448210373
  0
LINE
  5
641
100
AcDbEntity
  8
00_COMPONENTS_13
100
AcDbLine
 62
7
  6
CONTINUOUS
 10
68.7200040001
 20
132.0692295373
 11
68.7200040001
 21
128.5624339467
  0
LINE
  5
642
100
AcDbEntity
  8
00_COMPONENTS_13
100
AcDbLine
 62
7
  6
CONTINUOUS
 10
68.7230384886
 20
152.2624339467
 11
68.7230384886
 21
150.5624339467
  0
LINE
  5
643
100
AcDbEntity
  8
00_COMPONENTS_28
100
AcDbLine
 62
7
  6
CONTINUOUS
 10
69.0479865681
 20
176.5124339467
 11
69.0479865681
 21
175.5160237852
  0
LINE
  5
644
100
AcDbEntity
  8
00_COMPONENTS_29_4
100
AcDbLine
 62
7
  6
CONTINUOUS
 10
69.1288332372
 20
163.2962489939
 11
69.1288332372
 21
159.0962489939
  0
LINE
  5
645
100
AcDbEntity
  8
00_COMPONENTS
100
AcDbLine
 62
7
  6
CONTINUOUS
 10
69.309363354
 20
154.4624339467
 11
69.309363354
 21
154.5624339467
  0
LINE
  5
646
100
AcDbEntity
  8
00_COMPONENTS
100
AcDbLine
 62
7
  6
CONTINUOUS
 10
69.309363354
 20
156.0624339467
 11
69.309363354
 21
158.1624339467
  0
LINE
  5
647
100
AcDbEntity
  8
00_COMPONENTS_10_1_1
100
AcDbLine
 62
7
  6
CONTINUOUS
 10
69.334363354
 20
133.0644558171
 11
69.334363354
 21
135.4575350251
  0
LINE
  5
648
100
AcDbEntity
  8
00_COMPONENTS_108_1
100
AcDbLine
 62
7
  6
CONTINUOUS
 10
69.434363354
 20
156.1424339467
 11
69.434363354
 21
156.0624339467
  0
LINE
  5
649
100
AcDbEntity
  8
00_COMPONENTS_29_4
100
AcDbLine
 62
7
  6
CONTINUOUS
 10
69.7811294562
 20
159.0962489939
 11
69.7811294562
 21
162.3032126804
  0
LINE
  5
64A
100
AcDbEntity
  8
00_COMPONENTS_23
100
AcDbLine
 62
7
  6
CONTINUOUS
 10
69.8194552061
 20
154.5624339467
 11
69.8194552061
 21
156.0624339467
  0
LINE
  5
64B
100
AcDbEntity
  8
00_COMPONENTS_13
100
AcDbLine
 62
7
  6
CONTINUOUS
 10
68.434363354
 20
151.7624339467
 11
68.7230384886
 21
152.2624339467
  0
LINE
  5
64C
100
AcDbEntity
  8
00_COMPONENTS_14_2_1
100
AcDbLine
 62
7
  6
CONTINUOUS
 10
54.8343633541
 20
128.5362929307
 11
54.2686836008
 21
127.6389795598
  0
LINE
  5
64D
100
AcDbEntity
  8
00_COMPONENTS_14_2_1_1_5
100
AcDbLine
 62
7
  6
CONTINUOUS
 10
70.834363354
 20
132.0107530692
 11
70.834363354
 21
125.8624339467
  0
LINE
  5
64E
100
AcDbEntity
  8
00_COMPONENTS_13
100
AcDbLine
 62
7
  6
CONTINUOUS
 10
70.834363354
 20
125.8624339467
 11
70.834363354
 21
133.0643705294
  0
LINE
  5
64F
100
AcDbEntity
  8
00_COMPONENTS_108_1
100
AcDbLine
 62
7
  6
CONTINUOUS
 10
70.8358782214
 20
154.4624339467
 11
70.8358783855
 21
154.5624339467
  0
LINE
  5
650
100
AcDbEntity
  8
00_COMPONENTS_23
100
AcDbLine
 62
7
  6
CONTINUOUS
 10
70.9560475803
 20
156.0624339467
 11
70.9560475803
 21
154.5624339467
  0
LINE
  5
651
100
AcDbEntity
  8
00_COMPONENTS_23
100
AcDbLine
 62
7
  6
CONTINUOUS
 10
71.1268428634
 20
154.5624339467
 11
71.1268428634
 21
156.0624339467
  0
LINE
  5
652
100
AcDbEntity
  8
00_COMPONENTS_108_1
100
AcDbLine
 62
7
  6
CONTINUOUS
 10
71.9110431799
 20
158.7962489939
 11
71.9110431799
 21
156.1424339467
  0
LINE
  5
653
100
AcDbEntity
  8
00_COMPONENTS_29_4
100
AcDbLine
 62
7
  6
CONTINUOUS
 10
73.5559590316
 20
159.096251146
 11
73.8958444917
 21
160.0084746568
  0
LINE
  5
654
100
AcDbEntity
  8
00_COMPONENTS_15
100
AcDbLine
 62
7
  6
CONTINUOUS
 10
48.9200040001
 20
128.5624339467
 11
47.8677906814
 21
127.6948402554
  0
LINE
  5
655
100
AcDbEntity
  8
00_COMPONENTS_15
100
AcDbLine
 62
7
  6
CONTINUOUS
 10
47.534363354
 20
131.0452762316
 11
48.9200040001
 21
132.0692295373
  0
LINE
  5
656
100
AcDbEntity
  8
00_COMPONENTS_29_4
100
AcDbLine
 62
7
  6
CONTINUOUS
 10
45.3848353342
 20
163.2962489939
 11
76.4838913739
 21
163.2962489939
  0
LINE
  5
657
100
AcDbEntity
  8
00_COMPONENTS_29_4
100
AcDbLine
 62
7
  6
CONTINUOUS
 10
73.6198365235
 20
160.1112508359
 11
73.8958437009
 21
160.0084746679
  0
LINE
  5
658
100
AcDbEntity
  8
00_COMPONENTS_13
100
AcDbLine
 62
7
  6
CONTINUOUS
 10
73.234363354
 20
151.7624339467
 11
72.9456882194
 21
152.2624339467
  0
LINE
  5
659
100
AcDbEntity
  8
00_COMPONENTS_10_1_1
100
AcDbLine
 62
7
  6
CONTINUOUS
 10
72.334363354
 20
133.0197731035
 11
72.334363354
 21
135.4575350251
  0
LINE
  5
65A
100
AcDbEntity
  8
00_COMPONENTS_13
100
AcDbLine
 62
7
  6
CONTINUOUS
 10
72.9456882194
 20
152.2624339467
 11
72.9456882194
 21
150.5624339467
  0
LINE
  5
65B
100
AcDbEntity
  8
00_COMPONENTS_14_2_1_1_5
100
AcDbLine
 62
7
  6
CONTINUOUS
 10
72.948722708
 20
132.0107530692
 11
72.948722708
 21
128.5624339467
  0
LINE
  5
65C
100
AcDbEntity
  8
00_COMPONENTS_28
100
AcDbLine
 62
7
  6
CONTINUOUS
 10
72.9994722888
 20
176.5124339467
 11
72.9994722888
 21
175.5160237852
  0
LINE
  5
65D
100
AcDbEntity
  8
00_COMPONENTS_13
100
AcDbLine
 62
7
  6
CONTINUOUS
 10
73.234363354
 20
146.3624339467
 11
73.234363354
 21
146.2448210373
  0
LINE
  5
65E
100
AcDbEntity
  8
00_COMPONENTS_13
100
AcDbLine
 62
7
  6
CONTINUOUS
 10
73.234363354
 20
150.5624339467
 11
73.234363354
 21
151.7624339467
  0
LINE
  5
65F
100
AcDbEntity
  8
00_COMPONENTS_29_4
100
AcDbLine
 62
7
  6
CONTINUOUS
 10
73.5559589214
 20
159.0962489939
 11
73.5559589214
 21
158.7962489939
  0
LINE
  5
660
100
AcDbEntity
  8
00_COMPONENTS_14_2_1_1_5
100
AcDbLine
 62
7
  6
CONTINUOUS
 10
73.634363354
 20
135.2398949459
 11
73.634363354
 21
143.2624339467
  0
LINE
  5
661
100
AcDbEntity
  8
00_COMPONENTS_13
100
AcDbLine
 62
7
  6
CONTINUOUS
 10
73.634363354
 20
136.177566742
 11
73.634363354
 21
143.6425317067
  0
LINE
  5
662
100
AcDbEntity
  8
00_COMPONENTS_29_4
100
AcDbLine
 62
7
  6
CONTINUOUS
 10
73.8958447509
 20
158.7962489939
 11
73.8958444917
 21
160.0084746568
  0
LINE
  5
663
100
AcDbEntity
  8
00_COMPONENTS_14_2_1_1_5
100
AcDbLine
 62
7
  6
CONTINUOUS
 10
74.0343633556
 20
135.2397484825
 11
74.0343633556
 21
135.5397480247
  0
LINE
  5
664
100
AcDbEntity
  8
00_COMPONENTS_29_4
100
AcDbLine
 62
7
  6
CONTINUOUS
 10
43.392445938
 20
165.1219375084
 11
78.4762807701
 21
165.1219375084
  0
LINE
  5
665
100
AcDbEntity
  8
00_COMPONENTS
100
AcDbLine
 62
7
  6
CONTINUOUS
 10
74.334363354
 20
152.8624339467
 11
74.334363354
 21
147.8624339467
  0
LINE
  5
666
100
AcDbEntity
  8
00_COMPONENTS_14_2_1_1_5
100
AcDbLine
 62
7
  6
CONTINUOUS
 10
74.334363354
 20
134.9304923861
 11
74.334363354
 21
128.9375572023
  0
LINE
  5
667
100
AcDbEntity
  8
00_COMPONENTS_14_2_1_1_5
100
AcDbLine
 62
7
  6
CONTINUOUS
 10
74.6343633534
 20
134.9304926986
 11
74.6343633538
 21
128.5362929302
  0
LINE
  5
668
100
AcDbEntity
  8
00_COMPONENTS_14_2_1_1_5
100
AcDbLine
 62
7
  6
CONTINUOUS
 10
74.734363354
 20
145.6624339467
 11
74.734363354
 21
144.3624339467
  0
LINE
  5
669
100
AcDbEntity
  8
00_COMPONENTS_13
100
AcDbLine
 62
7
  6
CONTINUOUS
 10
74.734363354
 20
144.6624339467
 11
74.734363354
 21
146.3624339467
  0
LINE
  5
66A
100
AcDbEntity
  8
00_COMPONENTS_108_1
100
AcDbLine
 62
7
  6
CONTINUOUS
 10
74.8245577371
 20
173.5624339467
 11
74.8245577371
 21
173.3624339467
  0
LINE
  5
66B
100
AcDbEntity
  8
00_COMPONENTS
100
AcDbLine
 62
7
  6
CONTINUOUS
 10
74.834363354
 20
146.3624339467
 11
74.834363354
 21
154.4624339467
  0
LINE
  5
66C
100
AcDbEntity
  8
00_COMPONENTS_108_1
100
AcDbLine
 62
7
  6
CONTINUOUS
 10
74.934363354
 20
173.8624339467
 11
74.934363354
 21
173.5624339467
  0
LINE
  5
66D
100
AcDbEntity
  8
00_COMPONENTS_108_1
100
AcDbLine
 62
7
  6
CONTINUOUS
 10
75.0764989778
 20
173.2624339467
 11
75.0764989778
 21
172.6962489939
  0
LINE
  5
66E
100
AcDbEntity
  8
00_COMPONENTS_14_2_1_1_5
100
AcDbLine
 62
7
  6
CONTINUOUS
 10
75.084363354
 20
130.8624339467
 11
75.084363354
 21
138.5905093505
  0
LINE
  5
66F
100
AcDbEntity
  8
00_COMPONENTS_28
100
AcDbLine
 62
7
  6
CONTINUOUS
 10
75.3456192761
 20
176.5124339467
 11
75.3456192761
 21
173.8624339467
  0
LINE
  5
670
100
AcDbEntity
  8
00_COMPONENTS_29_4
100
AcDbLine
 62
7
  6
CONTINUOUS
 10
75.3914002967
 20
163.2962489939
 11
75.3914002967
 21
159.0962489939
  0
LINE
  5
671
100
AcDbEntity
  8
00_COMPONENTS_29_4
100
AcDbLine
 62
7
  6
CONTINUOUS
 10
75.434363354
 20
159.0962489939
 11
75.434363354
 21
163.2962489939
  0
LINE
  5
672
100
AcDbEntity
  8
00_COMPONENTS_14_2_1_1_5
100
AcDbLine
 62
7
  6
CONTINUOUS
 10
75.734363354
 20
125.8624339467
 11
75.734363354
 21
146.3624339467
  0
LINE
  5
673
100
AcDbEntity
  8
00_COMPONENTS
100
AcDbLine
 62
7
  6
CONTINUOUS
 10
75.834363354
 20
146.3624339467
 11
75.834363354
 21
154.4624339467
  0
LINE
  5
674
100
AcDbEntity
  8
00_COMPONENTS_13
100
AcDbLine
 62
7
  6
CONTINUOUS
 10
73.634363354
 20
143.6425317067
 11
74.734363354
 21
144.6624339467
  0
LINE
  5
675
100
AcDbEntity
  8
00_COMPONENTS_16_2
100
AcDbLine
 62
7
  6
CONTINUOUS
 10
57.434363354
 20
131.7119801203
 11
58.8200040001
 21
132.7359334261
  0
LINE
  5
676
100
AcDbEntity
  8
00_COMPONENTS_29_4
100
AcDbLine
 62
7
  6
CONTINUOUS
 10
60.459363354
 20
172.6962489939
 11
60.8636525582
 21
172.2919597898
  0
LINE
  5
677
100
AcDbEntity
  8
00_COMPONENTS_28
100
AcDbLine
 62
7
  6
CONTINUOUS
 10
78.4614851942
 20
177.8624339467
 11
78.4614851942
 21
176.5124339467
  0
LINE
  5
678
100
AcDbEntity
  8
00_COMPONENTS_29_4
100
AcDbLine
 62
7
  6
CONTINUOUS
 10
78.4762807701
 20
165.1219375084
 11
78.8582556665
 21
169.4879305527
  0
LINE
  5
679
100
AcDbEntity
  8
00_COMPONENTS_12_1
100
AcDbLine
 62
7
  6
CONTINUOUS
 10
64.5600188673
 20
128.5230635458
 11
64.0885314215
 21
127.7751633657
  0
LINE
  5
67A
100
AcDbEntity
  8
00_COMPONENTS_12_1
100
AcDbLine
 62
7
  6
CONTINUOUS
 10
64.187890399
 20
127.5922276549
 11
64.734363354
 21
128.459074111
  0
LINE
  5
67B
100
AcDbEntity
  8
00_COMPONENTS_14_2_1_1_5
100
AcDbLine
 62
7
  6
CONTINUOUS
 10
73.634363354
 20
143.2624339467
 11
74.734363354
 21
144.3624339467
  0
LINE
  5
67C
100
AcDbEntity
  8
00_COMPONENTS_16_2
100
AcDbLine
 62
7
  6
CONTINUOUS
 10
58.8200040001
 20
128.6624339467
 11
57.8551924211
 21
127.8669066288
  0
LINE
  5
67D
100
AcDbEntity
  8
00_COMPONENTS_29_4
100
AcDbLine
 62
7
  6
CONTINUOUS
 10
78.8582556665
 20
169.4879305527
 11
43.0104710416
 21
169.4879305527
  0
LINE
  5
67E
100
AcDbEntity
  8
00_COMPONENTS_29_4
100
AcDbLine
 62
7
  6
CONTINUOUS
 10
78.9342244646
 20
172.2919596699
 11
78.934363354
 21
172.2626703514
  0
LINE
  5
67F
100
AcDbEntity
  8
00_COMPONENTS_29_4
100
AcDbLine
 62
7
  6
CONTINUOUS
 10
78.934363354
 20
171.2310642599
 11
78.934363354
 21
172.2626703516
  0
LINE
  5
680
100
AcDbEntity
  8
00_COMPONENTS_108_1
100
AcDbLine
 62
7
  6
CONTINUOUS
 10
79.139363354
 20
179.4624339467
 11
79.139363354
 21
178.8624339467
  0
LINE
  5
681
100
AcDbEntity
  8
00_COMPONENTS_29_4
100
AcDbLine
 62
7
  6
CONTINUOUS
 10
42.934363354
 20
171.2310642599
 11
78.934363354
 21
171.2310642599
  0
LINE
  5
682
100
AcDbEntity
  8
00_COMPONENTS_29_4
100
AcDbLine
 62
7
  6
CONTINUOUS
 10
42.9684166222
 20
172.2919597927
 11
42.9776660356
 21
172.2919598036
  0
LINE
  5
683
100
AcDbEntity
  8
00_COMPONENTS_29_4
100
AcDbLine
 62
7
  6
CONTINUOUS
 10
43.0792639411
 20
172.2919597927
 11
43.097723162
 21
172.2919598146
  0
LINE
  5
684
100
AcDbEntity
  8
00_COMPONENTS_29_4
100
AcDbLine
 62
7
  6
CONTINUOUS
 10
43.2665695368
 20
172.2919597927
 11
43.29415952
 21
172.2919598257
  0
LINE
  5
685
100
AcDbEntity
  8
00_COMPONENTS_29_4
100
AcDbLine
 62
7
  6
CONTINUOUS
 10
43.5295313381
 20
172.2919597927
 11
43.566133939
 21
172.2919598372
  0
LINE
  5
686
100
AcDbEntity
  8
00_COMPONENTS_29_4
100
AcDbLine
 62
7
  6
CONTINUOUS
 10
43.8670233021
 20
172.2919597927
 11
43.9124817828
 21
172.291959849
  0
LINE
  5
687
100
AcDbEntity
  8
00_COMPONENTS_29_4
100
AcDbLine
 62
7
  6
CONTINUOUS
 10
44.2776002365
 20
172.2919597927
 11
44.3317199367
 21
172.2919598614
  0
LINE
  5
688
100
AcDbEntity
  8
00_COMPONENTS_29_4
100
AcDbLine
 62
7
  6
CONTINUOUS
 10
44.7595039877
 20
172.2919597927
 11
44.8220531586
 21
172.2919598745
  0
LINE
  5
689
100
AcDbEntity
  8
00_COMPONENTS_29_4
100
AcDbLine
 62
7
  6
CONTINUOUS
 10
45.3106709698
 20
172.2919597929
 11
45.3813817664
 21
172.2919598887
  0
LINE
  5
68A
100
AcDbEntity
  8
00_COMPONENTS_29_4
100
AcDbLine
 62
7
  6
CONTINUOUS
 10
45.9287410015
 20
172.2919597927
 11
46.007310629
 21
172.2919599035
  0
LINE
  5
68B
100
AcDbEntity
  8
00_COMPONENTS_29_4
100
AcDbLine
 62
7
  6
CONTINUOUS
 10
46.6110674117
 20
172.2919597927
 11
46.6971594231
 21
172.29195992
  0
LINE
  5
68C
100
AcDbEntity
  8
00_COMPONENTS_29_4
100
AcDbLine
 62
7
  6
CONTINUOUS
 10
47.3547283741
 20
172.2919597927
 11
47.4479741101
 21
172.2919599382
  0
LINE
  5
68D
100
AcDbEntity
  8
00_COMPONENTS_29_4
100
AcDbLine
 62
7
  6
CONTINUOUS
 10
48.1565394183
 20
172.2919597927
 11
48.2565395864
 21
172.2919599586
  0
LINE
  5
68E
100
AcDbEntity
  8
00_COMPONENTS_29_4
100
AcDbLine
 62
7
  6
CONTINUOUS
 10
49.0130670663
 20
172.2919597927
 11
49.1193934503
 21
172.2919599818
  0
LINE
  5
68F
100
AcDbEntity
  8
00_COMPONENTS_29_4
100
AcDbLine
 62
7
  6
CONTINUOUS
 10
49.9206435351
 20
172.2919597927
 11
50.0328408293
 21
172.2919600089
  0
LINE
  5
690
100
AcDbEntity
  8
00_COMPONENTS_29_4
100
AcDbLine
 62
7
  6
CONTINUOUS
 10
50.8753824431
 20
172.2919597927
 11
50.9929702013
 21
172.2919600409
  0
LINE
  5
691
100
AcDbEntity
  8
00_COMPONENTS_29_4
100
AcDbLine
 62
7
  6
CONTINUOUS
 10
51.8731954498
 20
172.2919597949
 11
51.995670139
 21
172.2919600841
  0
LINE
  5
692
100
AcDbEntity
  8
00_COMPONENTS_29_4
100
AcDbLine
 62
7
  6
CONTINUOUS
 10
52.9098097722
 20
172.2919597927
 11
53.0366469454
 21
172.291960129
  0
LINE
  5
693
100
AcDbEntity
  8
00_COMPONENTS_29_4
100
AcDbLine
 62
7
  6
CONTINUOUS
 10
53.9807864631
 20
172.2919597927
 11
54.1114429799
 21
172.2919601931
  0
LINE
  5
694
100
AcDbEntity
  8
00_COMPONENTS_29_4
100
AcDbLine
 62
7
  6
CONTINUOUS
 10
55.0815394378
 20
172.2919597927
 11
55.2154558069
 21
172.2919602813
  0
LINE
  5
695
100
AcDbEntity
  8
00_COMPONENTS_29_4
100
AcDbLine
 62
7
  6
CONTINUOUS
 10
56.2073551031
 20
172.2919597927
 11
56.343957874
 21
172.2919604117
  0
LINE
  5
696
100
AcDbEntity
  8
00_COMPONENTS_29_4
100
AcDbLine
 62
7
  6
CONTINUOUS
 10
57.3534125434
 20
172.2919597927
 11
57.4921167622
 21
172.2919606265
  0
LINE
  5
697
100
AcDbEntity
  8
00_COMPONENTS_29_4
100
AcDbLine
 62
7
  6
CONTINUOUS
 10
58.5148041649
 20
172.2919597927
 11
58.6499470523
 21
172.2919610069
  0
LINE
  5
698
100
AcDbEntity
  8
00_COMPONENTS_29_4
100
AcDbLine
 62
7
  6
CONTINUOUS
 10
59.6865567102
 20
172.2919597927
 11
59.7542725316
 21
172.2919610069
  0
LINE
  5
699
100
AcDbEntity
  8
00_COMPONENTS_29_4
100
AcDbLine
 62
7
  6
CONTINUOUS
 10
62.1144541614
 20
172.2919609919
 11
62.1821699969
 21
172.2919597918
  0
LINE
  5
69A
100
AcDbEntity
  8
00_COMPONENTS_29_4
100
AcDbLine
 62
7
  6
CONTINUOUS
 10
63.2187796408
 20
172.291960992
 11
63.3539225423
 21
172.2919597918
  0
LINE
  5
69B
100
AcDbEntity
  8
00_COMPONENTS_29_4
100
AcDbLine
 62
7
  6
CONTINUOUS
 10
64.3766099433
 20
172.2919606159
 11
64.5153141637
 21
172.2919597918
  0
LINE
  5
69C
100
AcDbEntity
  8
00_COMPONENTS_29_4
100
AcDbLine
 62
7
  6
CONTINUOUS
 10
65.5247688314
 20
172.2919604036
 11
65.6613716041
 21
172.2919597918
  0
LINE
  5
69D
100
AcDbEntity
  8
00_COMPONENTS_29_4
100
AcDbLine
 62
7
  6
CONTINUOUS
 10
66.6532708985
 20
172.2919602747
 11
66.7871872694
 21
172.2919597918
  0
LINE
  5
69E
100
AcDbEntity
  8
00_COMPONENTS_29_4
100
AcDbLine
 62
7
  6
CONTINUOUS
 10
67.7572837254
 20
172.2919601876
 11
67.8879402441
 21
172.2919597918
  0
LINE
  5
69F
100
AcDbEntity
  8
00_COMPONENTS_29_4
100
AcDbLine
 62
7
  6
CONTINUOUS
 10
68.8320797599
 20
172.2919601242
 11
68.9589169351
 21
172.2919597918
  0
LINE
  5
6A0
100
AcDbEntity
  8
00_COMPONENTS_29_4
100
AcDbLine
 62
7
  6
CONTINUOUS
 10
69.87305656
 20
172.2919600752
 11
69.9955312555
 21
172.2919597916
  0
LINE
  5
6A1
100
AcDbEntity
  8
00_COMPONENTS_29_4
100
AcDbLine
 62
7
  6
CONTINUOUS
 10
70.875756504
 20
172.2919600371
 11
70.9933442643
 21
172.2919597918
  0
LINE
  5
6A2
100
AcDbEntity
  8
00_COMPONENTS_29_4
100
AcDbLine
 62
7
  6
CONTINUOUS
 10
71.8358858761
 20
172.2919600054
 11
71.9480831723
 21
172.2919597918
  0
LINE
  5
6A3
100
AcDbEntity
  8
00_COMPONENTS_29_4
100
AcDbLine
 62
7
  6
CONTINUOUS
 10
72.7493332551
 20
172.2919599787
 11
72.8556596412
 21
172.2919597918
  0
LINE
  5
6A4
100
AcDbEntity
  8
00_COMPONENTS_29_4
100
AcDbLine
 62
7
  6
CONTINUOUS
 10
73.6121871191
 20
172.2919599557
 11
73.7121872892
 21
172.2919597918
  0
LINE
  5
6A5
100
AcDbEntity
  8
00_COMPONENTS_29_4
100
AcDbLine
 62
7
  6
CONTINUOUS
 10
74.4207525954
 20
172.2919599356
 11
74.5139983334
 21
172.2919597918
  0
LINE
  5
6A6
100
AcDbEntity
  8
00_COMPONENTS_29_4
100
AcDbLine
 62
7
  6
CONTINUOUS
 10
75.1715672825
 20
172.2919599176
 11
75.2576592958
 21
172.2919597918
  0
LINE
  5
6A7
100
AcDbEntity
  8
00_COMPONENTS_29_4
100
AcDbLine
 62
7
  6
CONTINUOUS
 10
75.8614160766
 20
172.2919599013
 11
75.9399857061
 21
172.2919597918
  0
LINE
  5
6A8
100
AcDbEntity
  8
00_COMPONENTS_29_4
100
AcDbLine
 62
7
  6
CONTINUOUS
 10
76.4873449389
 20
172.2919598861
 11
76.5580557376
 21
172.2919597916
  0
LINE
  5
6A9
100
AcDbEntity
  8
00_COMPONENTS_29_4
100
AcDbLine
 62
7
  6
CONTINUOUS
 10
77.0466735472
 20
172.2919598727
 11
77.10922272
 21
172.2919597918
  0
LINE
  5
6AA
100
AcDbEntity
  8
00_COMPONENTS_29_4
100
AcDbLine
 62
7
  6
CONTINUOUS
 10
77.5370067692
 20
172.2919598597
 11
77.5911264713
 21
172.2919597918
  0
LINE
  5
6AB
100
AcDbEntity
  8
00_COMPONENTS_29_4
100
AcDbLine
 62
7
  6
CONTINUOUS
 10
77.9562449232
 20
172.2919598475
 11
78.0017034057
 21
172.2919597918
  0
LINE
  5
6AC
100
AcDbEntity
  8
00_COMPONENTS_29_4
100
AcDbLine
 62
7
  6
CONTINUOUS
 10
78.7710035444
 20
172.2919598134
 11
78.789462767
 21
172.2919597918
  0
LINE
  5
6AD
100
AcDbEntity
  8
00_COMPONENTS_29_4
100
AcDbLine
 62
7
  6
CONTINUOUS
 10
78.5745671862
 20
172.2919598244
 11
78.6021571711
 21
172.2919597918
  0
LINE
  5
6AE
100
AcDbEntity
  8
00_COMPONENTS_29_4
100
AcDbLine
 62
7
  6
CONTINUOUS
 10
78.3025927671
 20
172.2919598357
 11
78.3391953698
 21
172.2919597918
  0
LINE
  5
6AF
100
AcDbEntity
  8
00_COMPONENTS_29_4
100
AcDbLine
 62
7
  6
CONTINUOUS
 10
78.8910606709
 20
172.2919598026
 11
78.9003100859
 21
172.2919597918
  0
LINE
  5
6B0
100
AcDbEntity
  8
00_COMPONENTS_29_4
100
AcDbLine
 62
7
  6
CONTINUOUS
 10
78.9280949014
 20
172.6962489939
 11
72.4959898267
 21
172.6962489939
  0
LINE
  5
6B1
100
AcDbEntity
  8
00_COMPONENTS_29_4
100
AcDbLine
 62
7
  6
CONTINUOUS
 10
72.4413310393
 20
172.6962489939
 11
71.6561099363
 21
172.6962489939
  0
LINE
  5
6B2
100
AcDbEntity
  8
00_COMPONENTS_29_4
100
AcDbLine
 62
7
  6
CONTINUOUS
 10
71.5114102474
 20
172.6962489939
 11
70.770317881
 21
172.6962489939
  0
LINE
  5
6B3
100
AcDbEntity
  8
00_COMPONENTS_29_4
100
AcDbLine
 62
7
  6
CONTINUOUS
 10
70.5361969169
 20
172.6962489939
 11
69.8424067583
 21
172.6962489939
  0
LINE
  5
6B4
100
AcDbEntity
  8
00_COMPONENTS_29_4
100
AcDbLine
 62
7
  6
CONTINUOUS
 10
69.5198670609
 20
172.6962489939
 11
68.8763500262
 21
172.6962489939
  0
LINE
  5
6B5
100
AcDbEntity
  8
00_COMPONENTS_29_4
100
AcDbLine
 62
7
  6
CONTINUOUS
 10
68.4667727601
 20
172.6962489939
 11
67.8762844878
 21
172.6962489939
  0
LINE
  5
6B6
100
AcDbEntity
  8
00_COMPONENTS_29_4
100
AcDbLine
 62
7
  6
CONTINUOUS
 10
67.3814235257
 20
172.6962489939
 11
66.8464925775
 21
172.6962489939
  0
LINE
  5
6B7
100
AcDbEntity
  8
00_COMPONENTS_29_4
100
AcDbLine
 62
7
  6
CONTINUOUS
 10
66.2684669899
 20
172.6962489939
 11
65.7913840221
 21
172.6962489939
  0
LINE
  5
6B8
100
AcDbEntity
  8
00_COMPONENTS_29_4
100
AcDbLine
 62
7
  6
CONTINUOUS
 10
65.1326690035
 20
172.6962489939
 11
64.7154769586
 21
172.6962489939
  0
LINE
  5
6B9
100
AcDbEntity
  8
00_COMPONENTS_29_4
100
AcDbLine
 62
7
  6
CONTINUOUS
 10
63.9788932277
 20
172.6962489939
 11
63.6233785862
 21
172.6962489939
  0
LINE
  5
6BA
100
AcDbEntity
  8
00_COMPONENTS_29_4
100
AcDbLine
 62
7
  6
CONTINUOUS
 10
62.8120803076
 20
172.6962489939
 11
62.5197654377
 21
172.6962489939
  0
LINE
  5
6BB
100
AcDbEntity
  8
00_COMPONENTS_29_4
100
AcDbLine
 62
7
  6
CONTINUOUS
 10
61.6372267152
 20
172.6962489939
 11
61.409363354
 21
172.6962489939
  0
LINE
  5
6BC
100
AcDbEntity
  8
00_COMPONENTS_29_4
100
AcDbLine
 62
7
  6
CONTINUOUS
 10
60.459363354
 20
172.6962489939
 11
60.2314999928
 21
172.6962489939
  0
LINE
  5
6BD
100
AcDbEntity
  8
00_COMPONENTS_29_4
100
AcDbLine
 62
7
  6
CONTINUOUS
 10
59.3489612704
 20
172.6962489939
 11
59.0566464005
 21
172.6962489939
  0
LINE
  5
6BE
100
AcDbEntity
  8
00_COMPONENTS_29_4
100
AcDbLine
 62
7
  6
CONTINUOUS
 10
58.2453481219
 20
172.6962489939
 11
57.8898334804
 21
172.6962489939
  0
LINE
  5
6BF
100
AcDbEntity
  8
00_COMPONENTS_29_4
100
AcDbLine
 62
7
  6
CONTINUOUS
 10
57.1532497495
 20
172.6962489939
 11
56.7360577046
 21
172.6962489939
  0
LINE
  5
6C0
100
AcDbEntity
  8
00_COMPONENTS_29_4
100
AcDbLine
 62
7
  6
CONTINUOUS
 10
56.077342686
 20
172.6962489939
 11
55.6002597181
 21
172.6962489939
  0
LINE
  5
6C1
100
AcDbEntity
  8
00_COMPONENTS_29_4
100
AcDbLine
 62
7
  6
CONTINUOUS
 10
55.0222341306
 20
172.6962489939
 11
54.4873031824
 21
172.6962489939
  0
LINE
  5
6C2
100
AcDbEntity
  8
00_COMPONENTS_29_4
100
AcDbLine
 62
7
  6
CONTINUOUS
 10
53.9924422202
 20
172.6962489939
 11
53.401953948
 21
172.6962489939
  0
LINE
  5
6C3
100
AcDbEntity
  8
00_COMPONENTS_29_4
100
AcDbLine
 62
7
  6
CONTINUOUS
 10
52.9923766819
 20
172.6962489939
 11
52.3488596471
 21
172.6962489939
  0
LINE
  5
6C4
100
AcDbEntity
  8
00_COMPONENTS_29_4
100
AcDbLine
 62
7
  6
CONTINUOUS
 10
52.0263199498
 20
172.6962489939
 11
51.3325297912
 21
172.6962489939
  0
LINE
  5
6C5
100
AcDbEntity
  8
00_COMPONENTS_29_4
100
AcDbLine
 62
7
  6
CONTINUOUS
 10
51.0984088271
 20
172.6962489939
 11
50.3573164607
 21
172.6962489939
  0
LINE
  5
6C6
100
AcDbEntity
  8
00_COMPONENTS_29_4
100
AcDbLine
 62
7
  6
CONTINUOUS
 10
50.2126167718
 20
172.6962489939
 11
49.4273956688
 21
172.6962489939
  0
LINE
  5
6C7
100
AcDbEntity
  8
00_COMPONENTS_29_4
100
AcDbLine
 62
7
  6
CONTINUOUS
 10
49.3727368813
 20
172.6962489939
 11
42.9480912807
 21
172.6962489939
  0
LINE
  5
6C8
100
AcDbEntity
  8
00_COMPONENTS_13
100
AcDbLine
 62
7
  6
CONTINUOUS
 10
67.334363354
 20
131.0452762316
 11
68.7200040001
 21
132.0692295373
  0
LINE
  5
6C9
100
AcDbEntity
  8
00_COMPONENTS_108_1
100
AcDbLine
 62
7
  6
CONTINUOUS
 10
75.0764989778
 20
173.2624339467
 11
46.7922277303
 21
173.2624339467
  0
LINE
  5
6CA
100
AcDbEntity
  8
00_COMPONENTS_108_1
100
AcDbLine
 62
7
  6
CONTINUOUS
 10
74.9757308088
 20
173.3624339467
 11
46.8929958993
 21
173.3624339467
  0
LINE
  5
6CB
100
AcDbEntity
  8
00_COMPONENTS_108_1
100
AcDbLine
 62
7
  6
CONTINUOUS
 10
46.934363354
 20
173.5624339467
 11
47.0441689709
 21
173.5624339467
  0
LINE
  5
6CC
100
AcDbEntity
  8
00_COMPONENTS_108_1
100
AcDbLine
 62
7
  6
CONTINUOUS
 10
74.8245577371
 20
173.5624339467
 11
74.934363354
 21
173.5624339467
  0
LINE
  5
6CD
100
AcDbEntity
  8
00_COMPONENTS_28
100
AcDbLine
 62
7
  6
CONTINUOUS
 10
46.523107432
 20
173.8624339467
 11
75.3456192761
 21
173.8624339467
  0
LINE
  5
6CE
100
AcDbEntity
  8
00_COMPONENTS_13
100
AcDbLine
 62
7
  6
CONTINUOUS
 10
68.7200040001
 20
128.5624339467
 11
67.6677906814
 21
127.6948402554
  0
LINE
  5
6CF
100
AcDbEntity
  8
00_COMPONENTS_28
100
AcDbLine
 62
7
  6
CONTINUOUS
 10
72.9726773696
 20
175.4160237852
 11
69.0758300474
 21
175.4160237852
  0
LINE
  5
6D0
100
AcDbEntity
  8
00_COMPONENTS_28
100
AcDbLine
 62
7
  6
CONTINUOUS
 10
52.7928966606
 20
175.4160237852
 11
48.8960493385
 21
175.4160237852
  0
LINE
  5
6D1
100
AcDbEntity
  8
00_COMPONENTS_28
100
AcDbLine
 62
7
  6
CONTINUOUS
 10
48.8692544192
 20
175.5160237852
 11
52.8207401399
 21
175.5160237852
  0
LINE
  5
6D2
100
AcDbEntity
  8
00_COMPONENTS_28
100
AcDbLine
 62
7
  6
CONTINUOUS
 10
69.0479865681
 20
175.5160237852
 11
72.9994722888
 21
175.5160237852
  0
LINE
  5
6D3
100
AcDbEntity
  8
00_COMPONENTS_28
100
AcDbLine
 62
7
  6
CONTINUOUS
 10
43.4072415139
 20
176.5124339467
 11
78.4614851942
 21
176.5124339467
  0
LINE
  5
6D4
100
AcDbEntity
  8
00_COMPONENTS_14_2_1_1_5
100
AcDbLine
 62
7
  6
CONTINUOUS
 10
74.6343633541
 20
128.5362929307
 11
74.0686836008
 21
127.6389795598
  0
LINE
  5
6D5
100
AcDbEntity
  8
00_COMPONENTS_108_1
100
AcDbLine
 62
7
  6
CONTINUOUS
 10
42.7649345094
 20
177.8624339467
 11
79.1037921987
 21
177.8624339467
  0
LINE
  5
6D6
100
AcDbEntity
  8
00_COMPONENTS_108_1
100
AcDbLine
 62
7
  6
CONTINUOUS
 10
42.729363354
 20
178.8624339467
 11
42.7596687211
 21
178.8624339467
  0
LINE
  5
6D7
100
AcDbEntity
  8
00_COMPONENTS_108_1
100
AcDbLine
 62
7
  6
CONTINUOUS
 10
79.109057987
 20
178.8624339467
 11
79.139363354
 21
178.8624339467
  0
LINE
  5
6D8
100
AcDbEntity
  8
00_COMPONENTS_108_1
100
AcDbLine
 62
7
  6
CONTINUOUS
 10
79.139363354
 20
179.4624339467
 11
42.7295761982
 21
179.4624339467
  0
LINE
  5
6D9
100
AcDbEntity
  8
00_COMPONENTS_108_1
100
AcDbLine
 62
7
  6
CONTINUOUS
 10
78.739363354
 20
179.8624339467
 11
43.1295715216
 21
179.8624339467
  0
LINE
  5
6DA
100
AcDbEntity
  8
00_COMPONENTS_1_1
100
AcDbLine
 62
7
  6
CONTINUOUS
 10
51.7343633545
 20
180.0125164138
 11
70.1343633536
 21
180.0125164138
  0
ARC
  5
6DB
100
AcDbEntity
  8
00_COMPONENTS_29_4
100
AcDbCircle
 62
7
  6
CONTINUOUS
 10
58.9343633569
 20
171.2310642599
 40
19.9999999972
100
AcDbArc
 50
354.9999305468
 51
360.0
  0
ARC
  5
6DC
100
AcDbEntity
  8
00_COMPONENTS_29_4
100
AcDbCircle
 62
7
  6
CONTINUOUS
 10
62.9343633512
 20
171.2310642599
 40
19.9999999972
100
AcDbArc
 50
179.9999999998
 51
185.0000694532
  0
ARC
  5
6DD
100
AcDbEntity
  8
00_COMPONENTS_1_1
100
AcDbCircle
 62
7
  6
CONTINUOUS
 10
70.1343633538
 20
170.0125164137
 40
10.0
100
AcDbArc
 50
80.7030877588
 51
89.9999999985
  0
ARC
  5
6DE
100
AcDbEntity
  8
00_COMPONENTS_1_1
100
AcDbCircle
 62
7
  6
CONTINUOUS
 10
51.7343633537
 20
170.0125164142
 40
10.0
100
AcDbArc
 50
89.9999999985
 51
99.2968780481
  0
ARC
  5
6DF
100
AcDbEntity
  8
00_COMPONENTS_29_4
100
AcDbCircle
 62
7
  6
CONTINUOUS
 10
76.4838913739
 20
165.2962489939
 40
2.0
100
AcDbArc
 50
270.0
 51
355.0
  0
ARC
  5
6E0
100
AcDbEntity
  8
00_COMPONENTS_29_4
100
AcDbCircle
 62
7
  6
CONTINUOUS
 10
45.3848353342
 20
165.2962489939
 40
2.0
100
AcDbArc
 50
185.0
 51
270.0
  0
ARC
  5
6E1
100
AcDbEntity
  8
00_COMPONENTS_108_1
100
AcDbCircle
 62
7
  6
CONTINUOUS
 10
43.129363354
 20
179.4624339467
 40
0.4
100
AcDbArc
 50
90.0
 51
180.0
  0
ARC
  5
6E2
100
AcDbEntity
  8
00_COMPONENTS_108_1
100
AcDbCircle
 62
7
  6
CONTINUOUS
 10
78.739363354
 20
179.4624339467
 40
0.4
100
AcDbArc
 50
0.0
 51
90.0
  0
ARC
  5
6E3
100
AcDbEntity
  8
00_COMPONENTS_29_4
100
AcDbCircle
 62
7
  6
CONTINUOUS
 10
46.7767883544
 20
159.0967258015
 40
0.3004770124
100
AcDbArc
 50
252.0142854361
 51
269.9331020243
  0
ARC
  5
6E4
100
AcDbEntity
  8
00_COMPONENTS_29_4
100
AcDbCircle
 62
7
  6
CONTINUOUS
 10
46.734363354
 20
159.0962489939
 40
0.3
100
AcDbArc
 50
180.0
 51
270.0
  0
ARC
  5
6E5
100
AcDbEntity
  8
00_COMPONENTS_29_4
100
AcDbCircle
 62
7
  6
CONTINUOUS
 10
52.3875972518
 20
159.0962489939
 40
0.3
100
AcDbArc
 50
180.0
 51
270.0
  0
ARC
  5
6E6
100
AcDbEntity
  8
00_COMPONENTS_29_4
100
AcDbCircle
 62
7
  6
CONTINUOUS
 10
69.4811294562
 20
159.0962489939
 40
0.3
100
AcDbArc
 50
270.0
 51
360.0
  0
ARC
  5
6E7
100
AcDbEntity
  8
00_COMPONENTS_29_4
100
AcDbCircle
 62
7
  6
CONTINUOUS
 10
75.134363354
 20
159.0962489939
 40
0.3
100
AcDbArc
 50
270.0
 51
360.0
  0
ARC
  5
6E8
100
AcDbEntity
  8
00_COMPONENTS_29_4
100
AcDbCircle
 62
7
  6
CONTINUOUS
 10
75.0921990068
 20
159.0939456405
 40
0.2976966603
100
AcDbArc
 50
270.0173565082
 51
288.0030496134
  0
ARC
  5
6E9
100
AcDbEntity
  8
00_COMPONENTS_28
100
AcDbCircle
 62
7
  6
CONTINUOUS
 10
72.7994722888
 20
175.5160237852
 40
0.2
100
AcDbArc
 50
330.0
 51
360.0
  0
ARC
  5
6EA
100
AcDbEntity
  8
00_COMPONENTS_28
100
AcDbCircle
 62
7
  6
CONTINUOUS
 10
49.0692544192
 20
175.5160237852
 40
0.2
100
AcDbArc
 50
180.0
 51
210.0
  0
ARC
  5
6EB
100
AcDbEntity
  8
00_COMPONENTS_29_4
100
AcDbCircle
 62
7
  6
CONTINUOUS
 10
59.8253063953
 20
172.3633378273
 40
0.1006998465
100
AcDbArc
 50
225.1384738313
 51
247.593326475
  0
ARC
  5
6EC
100
AcDbEntity
  8
00_COMPONENTS_29_4
100
AcDbCircle
 62
7
  6
CONTINUOUS
 10
60.934363354
 20
172.3626703501
 40
0.1
100
AcDbArc
 50
224.9994176328
 51
315.0005778294
  0
ARC
  5
6ED
100
AcDbEntity
  8
00_COMPONENTS_29_4
100
AcDbCircle
 62
7
  6
CONTINUOUS
 10
58.5849561222
 20
172.3613337591
 40
0.0986612606
100
AcDbArc
 50
224.6805243324
 51
269.9627006564
  0
ARC
  5
6EE
100
AcDbEntity
  8
00_COMPONENTS_29_4
100
AcDbCircle
 62
7
  6
CONTINUOUS
 10
63.2837705869
 20
172.3613337567
 40
0.0986612582
100
AcDbArc
 50
270.0372987587
 51
315.3194743871
  0
SPLINE
  5
6EF
100
AcDbEntity
  8
00_COMPONENTS_14_2_1_1_5
100
AcDbSpline
 62
7
  6
CONTINUOUS
 70
0
 71
3
 72
13
 73
9
 74
0
 42
0.0000001
 43
0.0000001
 44
0.0000000001
 40
0.0
 40
0.0
 40
0.0
 40
0.0
 40
0.0375526004
 40
0.1001746261
 40
0.1929082051
 40
0.3146203211
 40
0.6290897838
 40
1.0
 40
1.0
 40
1.0
 40
1.0
 10
74.334363354
 20
130.0365481701
 30
0.0
 10
74.334363354
 20
130.0326452686
 30
0.0
 10
74.3415398553
 20
130.0232613837
 30
0.0
 10
74.3595469204
 20
130.0148249721
 30
0.0
 10
74.3871196655
 20
130.0059295071
 30
0.0
 10
74.4410002811
 20
129.994972852
 30
0.0
 10
74.5245763739
 20
129.9859954684
 30
0.0
 10
74.5958140645
 20
129.9836500758
 30
0.0
 10
74.634363354
 20
129.9836500759
 30
0.0
  0
SPLINE
  5
6F0
100
AcDbEntity
  8
00_COMPONENTS_14_2_1_1_5
100
AcDbSpline
 62
7
  6
CONTINUOUS
 70
0
 71
3
 72
11
 73
7
 74
0
 42
0.0000001
 43
0.0000001
 44
0.0000000001
 40
0.0
 40
0.0
 40
0.0
 40
0.0
 40
0.2500561689
 40
0.500090092
 40
0.7500596924
 40
1.0
 40
1.0
 40
1.0
 40
1.0
 10
74.6343633534
 20
134.9304926986
 30
0.0
 10
74.6343845386
 20
135.0091463614
 30
0.0
 10
74.6035793032
 20
135.1680773462
 30
0.0
 10
74.471514227
 20
135.3705732111
 30
0.0
 10
74.2719782417
 20
135.5073937249
 30
0.0
 10
74.1129805854
 20
135.5397686183
 30
0.0
 10
74.034363366
 20
135.5397480245
 30
0.0
  0
SPLINE
  5
6F1
100
AcDbEntity
  8
00_COMPONENTS_14_2_1
100
AcDbSpline
 62
7
  6
CONTINUOUS
 70
0
 71
3
 72
13
 73
9
 74
0
 42
0.0000001
 43
0.0000001
 44
0.0000000001
 40
0.0
 40
0.0
 40
0.0
 40
0.0
 40
0.0375526004
 40
0.1001746261
 40
0.1929082051
 40
0.3146203211
 40
0.6290897838
 40
1.0
 40
1.0
 40
1.0
 40
1.0
 10
54.534363354
 20
130.0365481701
 30
0.0
 10
54.534363354
 20
130.0326452686
 30
0.0
 10
54.5415398553
 20
130.0232613837
 30
0.0
 10
54.5595469204
 20
130.0148249721
 30
0.0
 10
54.5871196655
 20
130.0059295071
 30
0.0
 10
54.6410002811
 20
129.994972852
 30
0.0
 10
54.7245763739
 20
129.9859954684
 30
0.0
 10
54.7958140645
 20
129.9836500758
 30
0.0
 10
54.834363354
 20
129.9836500759
 30
0.0
  0
SPLINE
  5
6F2
100
AcDbEntity
  8
00_COMPONENTS_14_2_1
100
AcDbSpline
 62
7
  6
CONTINUOUS
 70
0
 71
3
 72
11
 73
7
 74
0
 42
0.0000001
 43
0.0000001
 44
0.0000000001
 40
0.0
 40
0.0
 40
0.0
 40
0.0
 40
0.2500561689
 40
0.500090092
 40
0.7500596924
 40
1.0
 40
1.0
 40
1.0
 40
1.0
 10
54.8343633534
 20
134.9304926986
 30
0.0
 10
54.8343845386
 20
135.0091463614
 30
0.0
 10
54.8035793032
 20
135.1680773462
 30
0.0
 10
54.671514227
 20
135.3705732111
 30
0.0
 10
54.4719782417
 20
135.5073937249
 30
0.0
 10
54.3129805854
 20
135.5397686183
 30
0.0
 10
54.234363366
 20
135.5397480245
 30
0.0
  0
SPLINE
  5
6F3
100
AcDbEntity
  8
00_COMPONENTS_28
100
AcDbSpline
 62
7
  6
CONTINUOUS
 70
0
 71
3
 72
9
 73
5
 74
0
 42
0.0000001
 43
0.0000001
 44
0.0000000001
 40
0.0
 40
0.0
 40
0.0
 40
0.0
 40
0.2446950002
 40
1.0
 40
1.0
 40
1.0
 40
1.0
 10
69.0758300475
 20
175.4160237852
 30
0.0
 10
69.0714417632
 20
175.4233314536
 30
0.0
 10
69.0554254347
 20
175.4543065934
 30
0.0
 10
69.0479865681
 20
175.4897124953
 30
0.0
 10
69.0479865681
 20
175.5160237852
 30
0.0
  0
SPLINE
  5
6F4
100
AcDbEntity
  8
00_COMPONENTS_28
100
AcDbSpline
 62
7
  6
CONTINUOUS
 70
0
 71
3
 72
10
 73
6
 74
0
 42
0.0000001
 43
0.0000001
 44
0.0000000001
 40
0.0
 40
0.0
 40
0.0
 40
0.0
 40
0.2452778489
 40
0.4944237332
 40
1.0
 40
1.0
 40
1.0
 40
1.0
 10
70.076948913
 20
173.8624339467
 30
0.0
 10
69.9872304812
 20
173.9840815205
 30
0.0
 10
69.8133334468
 20
174.2344239278
 30
0.0
 10
69.4781671886
 20
174.7516079647
 30
0.0
 10
69.236227639
 20
175.1489188406
 30
0.0
 10
69.0758300475
 20
175.4160237852
 30
0.0
  0
SPLINE
  5
6F5
100
AcDbEntity
  8
00_COMPONENTS_28
100
AcDbSpline
 62
7
  6
CONTINUOUS
 70
0
 71
3
 72
9
 73
5
 74
0
 42
0.0000001
 43
0.0000001
 44
0.0000000001
 40
0.0
 40
0.0
 40
0.0
 40
0.0
 40
0.2560410815
 40
1.0
 40
1.0
 40
1.0
 40
1.0
 10
52.8207401399
 20
175.5160237852
 30
0.0
 10
52.8207401399
 20
175.5071021233
 30
0.0
 10
52.818354011
 20
175.4722835762
 30
0.0
 10
52.8062421633
 20
175.4382476212
 30
0.0
 10
52.7928966606
 20
175.4160237852
 30
0.0
  0
SPLINE
  5
6F6
100
AcDbEntity
  8
00_COMPONENTS_28
100
AcDbSpline
 62
7
  6
CONTINUOUS
 70
0
 71
3
 72
10
 73
6
 74
0
 42
0.0000001
 43
0.0000001
 44
0.0000000001
 40
0.0
 40
0.0
 40
0.0
 40
0.0
 40
0.5055760336
 40
0.7547225921
 40
1.0
 40
1.0
 40
1.0
 40
1.0
 10
52.7928966606
 20
175.4160237852
 30
0.0
 10
52.6324991264
 20
175.1489189359
 30
0.0
 10
52.3905600181
 20
174.7516075263
 30
0.0
 10
52.0553981534
 20
174.2344204144
 30
0.0
 10
51.8814960749
 20
173.9840813145
 30
0.0
 10
51.7917777951
 20
173.8624339467
 30
0.0
  0
SPLINE
  5
6F7
100
AcDbEntity
  8
00_COMPONENTS_16_2
100
AcDbSpline
 62
7
  6
CONTINUOUS
 70
0
 71
3
 72
13
 73
9
 74
0
 42
0.0000001
 43
0.0000001
 44
0.0000000001
 40
0.0
 40
0.0
 40
0.0
 40
0.0
 40
0.3709181486
 40
0.6853796985
 40
0.8070857623
 40
0.8998221446
 40
0.9624473068
 40
1.0
 40
1.0
 40
1.0
 40
1.0
 10
57.134363354
 20
130.0836500759
 30
0.0
 10
57.1729135182
 20
130.0836500759
 30
0.0
 10
57.2441513866
 20
130.0859923361
 30
0.0
 10
57.3277270494
 20
130.0949697758
 30
0.0
 10
57.3816066409
 20
130.1059256454
 30
0.0
 10
57.409178899
 20
130.1148241337
 30
0.0
 10
57.4271850857
 20
130.1232619684
 30
0.0
 10
57.434363354
 20
130.1326452538
 30
0.0
 10
57.434363354
 20
130.1365481701
 30
0.0
  0
SPLINE
  5
6F8
100
AcDbEntity
  8
00_COMPONENTS_16_2
100
AcDbSpline
 62
7
  6
CONTINUOUS
 70
0
 71
3
 72
9
 73
5
 74
0
 42
0.0000001
 43
0.0000001
 44
0.0000000001
 40
0.0
 40
0.0
 40
0.0
 40
0.0
 40
0.2371605837
 40
1.0
 40
1.0
 40
1.0
 40
1.0
 10
57.3087078407
 20
128.5230635458
 30
0.0
 10
57.2955713451
 20
128.5164731354
 30
0.0
 10
57.2392598548
 20
128.4905410146
 30
0.0
 10
57.1801441575
 20
128.4708601067
 30
0.0
 10
57.134363354
 20
128.459074111
 30
0.0
  0
SPLINE
  5
6F9
100
AcDbEntity
  8
00_COMPONENTS_16_2
100
AcDbSpline
 62
7
  6
CONTINUOUS
 70
0
 71
3
 72
9
 73
5
 74
0
 42
0.0000001
 43
0.0000001
 44
0.0000000001
 40
0.0
 40
0.0
 40
0.0
 40
0.0
 40
0.2460404961
 40
1.0
 40
1.0
 40
1.0
 40
1.0
 10
57.6808363091
 20
127.592227655
 30
0.0
 10
57.689691695
 20
127.6068290522
 30
0.0
 10
57.7249342206
 20
127.6666237702
 30
0.0
 10
57.7574984181
 20
127.7280119055
 30
0.0
 10
57.7801952866
 20
127.7751633658
 30
0.0
  0
SPLINE
  5
6FA
100
AcDbEntity
  8
00_COMPONENTS_13
100
AcDbSpline
 62
7
  6
CONTINUOUS
 70
0
 71
3
 72
13
 73
9
 74
0
 42
0.0000001
 43
0.0000001
 44
0.0000000001
 40
0.0
 40
0.0
 40
0.0
 40
0.0
 40
0.0375524292
 40
0.1001751487
 40
0.1929096766
 40
0.3146220773
 40
0.6290909941
 40
1.0
 40
1.0
 40
1.0
 40
1.0
 10
67.334363354
 20
130.0365481701
 30
0.0
 10
67.334363354
 20
130.0326452772
 30
0.0
 10
67.3271867328
 20
130.0232613978
 30
0.0
 10
67.3091798228
 20
130.0148244533
 30
0.0
 10
67.2816071802
 20
130.0059276212
 30
0.0
 10
67.2277265376
 20
129.994970067
 30
0.0
 10
67.1441504252
 20
129.9859912237
 30
0.0
 10
67.0729126084
 20
129.9836500759
 30
0.0
 10
67.034363354
 20
129.9836500759
 30
0.0
  0
SPLINE
  5
6FB
100
AcDbEntity
  8
00_COMPONENTS_13
100
AcDbSpline
 62
7
  6
CONTINUOUS
 70
0
 71
3
 72
13
 73
9
 74
0
 42
0.0000001
 43
0.0000001
 44
0.0000000001
 40
0.0
 40
0.0
 40
0.0
 40
0.0
 40
0.2923394907
 40
0.5836817449
 40
0.7162003465
 40
0.8336289441
 40
0.9302987898
 40
1.0
 40
1.0
 40
1.0
 40
1.0
 10
67.2832922636
 20
136.177566742
 30
0.0
 10
67.2730352384
 20
136.1398232929
 30
0.0
 10
67.2608007446
 20
136.0613371003
 30
0.0
 10
67.2777057863
 20
135.9656232617
 30
0.0
 10
67.3006178805
 20
135.896980838
 30
0.0
 10
67.3167597037
 20
135.8534402781
 30
0.0
 10
67.329072507
 20
135.8176713961
 30
0.0
 10
67.334363354
 20
135.7956894253
 30
0.0
 10
67.334363354
 20
135.7863640452
 30
0.0
  0
SPLINE
  5
6FC
100
AcDbEntity
  8
00_COMPONENTS_13
100
AcDbSpline
 62
7
  6
CONTINUOUS
 70
0
 71
3
 72
9
 73
5
 74
0
 42
0.0000001
 43
0.0000001
 44
0.0000000001
 40
0.0
 40
0.0
 40
0.0
 40
0.0
 40
0.2371627473
 40
1.0
 40
1.0
 40
1.0
 40
1.0
 10
67.2087078407
 20
128.4230635458
 30
0.0
 10
67.1955712132
 20
128.4164730693
 30
0.0
 10
67.1392614623
 20
128.3905369968
 30
0.0
 10
67.0801440696
 20
128.3708600841
 30
0.0
 10
67.034363354
 20
128.359074111
 30
0.0
  0
SPLINE
  5
6FD
100
AcDbEntity
  8
00_COMPONENTS_15
100
AcDbSpline
 62
7
  6
CONTINUOUS
 70
0
 71
3
 72
13
 73
9
 74
0
 42
0.0000001
 43
0.0000001
 44
0.0000000001
 40
0.0
 40
0.0
 40
0.0
 40
0.0
 40
0.0375524292
 40
0.1001751487
 40
0.1929096766
 40
0.3146220773
 40
0.6290909941
 40
1.0
 40
1.0
 40
1.0
 40
1.0
 10
47.534363354
 20
130.0365481701
 30
0.0
 10
47.534363354
 20
130.0326452772
 30
0.0
 10
47.5271867328
 20
130.0232613978
 30
0.0
 10
47.5091798228
 20
130.0148244533
 30
0.0
 10
47.4816071802
 20
130.0059276212
 30
0.0
 10
47.4277265376
 20
129.994970067
 30
0.0
 10
47.3441504252
 20
129.9859912237
 30
0.0
 10
47.2729126084
 20
129.9836500759
 30
0.0
 10
47.234363354
 20
129.9836500759
 30
0.0
  0
SPLINE
  5
6FE
100
AcDbEntity
  8
00_COMPONENTS_15
100
AcDbSpline
 62
7
  6
CONTINUOUS
 70
0
 71
3
 72
13
 73
9
 74
0
 42
0.0000001
 43
0.0000001
 44
0.0000000001
 40
0.0
 40
0.0
 40
0.0
 40
0.0
 40
0.2923394907
 40
0.5836817449
 40
0.7162003465
 40
0.8336289441
 40
0.9302987898
 40
1.0
 40
1.0
 40
1.0
 40
1.0
 10
47.4832922636
 20
136.177566742
 30
0.0
 10
47.4730352384
 20
136.1398232929
 30
0.0
 10
47.4608007446
 20
136.0613371003
 30
0.0
 10
47.4777057863
 20
135.9656232617
 30
0.0
 10
47.5006178805
 20
135.896980838
 30
0.0
 10
47.5167597037
 20
135.8534402781
 30
0.0
 10
47.529072507
 20
135.8176713961
 30
0.0
 10
47.534363354
 20
135.7956894253
 30
0.0
 10
47.534363354
 20
135.7863640452
 30
0.0
  0
SPLINE
  5
6FF
100
AcDbEntity
  8
00_COMPONENTS_15
100
AcDbSpline
 62
7
  6
CONTINUOUS
 70
0
 71
3
 72
9
 73
5
 74
0
 42
0.0000001
 43
0.0000001
 44
0.0000000001
 40
0.0
 40
0.0
 40
0.0
 40
0.0
 40
0.2371627473
 40
1.0
 40
1.0
 40
1.0
 40
1.0
 10
47.4087078407
 20
128.4230635458
 30
0.0
 10
47.3955712132
 20
128.4164730693
 30
0.0
 10
47.3392614623
 20
128.3905369968
 30
0.0
 10
47.2801440696
 20
128.3708600841
 30
0.0
 10
47.234363354
 20
128.359074111
 30
0.0
  0
SPLINE
  5
700
100
AcDbEntity
  8
00_COMPONENTS_12_1
100
AcDbSpline
 62
7
  6
CONTINUOUS
 70
0
 71
3
 72
13
 73
9
 74
0
 42
0.0000001
 43
0.0000001
 44
0.0000000001
 40
0.0
 40
0.0
 40
0.0
 40
0.0
 40
0.3709187718
 40
0.6853819044
 40
0.8070878042
 40
0.8998213554
 40
0.9624454755
 40
1.0
 40
1.0
 40
1.0
 40
1.0
 10
64.734363354
 20
130.0836500759
 30
0.0
 10
64.6958131905
 20
130.0836500759
 30
0.0
 10
64.6245752806
 20
130.0859949244
 30
0.0
 10
64.5409996492
 20
130.0949730496
 30
0.0
 10
64.4871203526
 20
130.1059286764
 30
0.0
 10
64.4595477053
 20
130.1148240458
 30
0.0
 10
64.4415412604
 20
130.1232614589
 30
0.0
 10
64.434363354
 20
130.1326450701
 30
0.0
 10
64.434363354
 20
130.1365481701
 30
0.0
  0
SPLINE
  5
701
100
AcDbEntity
  8
00_COMPONENTS_12_1
100
AcDbSpline
 62
7
  6
CONTINUOUS
 70
0
 71
3
 72
14
 73
10
 74
0
 42
0.0000001
 43
0.0000001
 44
0.0000000001
 40
0.0
 40
0.0
 40
0.0
 40
0.0
 40
0.3689462604
 40
0.5355512979
 40
0.6818876178
 40
0.8031926991
 40
0.8960882507
 40
0.9598260028
 40
1.0
 40
1.0
 40
1.0
 40
1.0
 10
64.734363354
 20
135.9494562529
 30
0.0
 10
64.6957540209
 20
135.9494562529
 30
0.0
 10
64.6396645636
 20
135.9474484097
 30
0.0
 10
64.5686524157
 20
135.9402066325
 30
0.0
 10
64.5237355059
 20
135.9331335447
 30
0.0
 10
64.4868992486
 20
135.9248092088
 30
0.0
 10
64.459354882
 20
135.9150678388
 30
0.0
 10
64.4411489657
 20
135.9054515009
 30
0.0
 10
64.434363354
 20
135.8953462718
 30
0.0
 10
64.434363354
 20
135.8911421602
 30
0.0
  0
SPLINE
  5
702
100
AcDbEntity
  8
00_COMPONENTS_12_1
100
AcDbSpline
 62
7
  6
CONTINUOUS
 70
0
 71
3
 72
14
 73
10
 74
0
 42
0.0000001
 43
0.0000001
 44
0.0000000001
 40
0.0
 40
0.0
 40
0.0
 40
0.0
 40
0.0706717747
 40
0.172903529
 40
0.2963704831
 40
0.4317832237
 40
0.5731316544
 40
0.7165607617
 40
1.0
 40
1.0
 40
1.0
 40
1.0
 10
64.434363354
 20
135.9812742515
 30
0.0
 10
64.434363354
 20
135.9930064863
 30
0.0
 10
64.443801277
 20
136.021057029
 30
0.0
 10
64.4669525654
 20
136.0641941934
 30
0.0
 10
64.5003719632
 20
136.1141929084
 30
0.0
 10
64.5409373008
 20
136.1668085563
 30
0.0
 10
64.586117547
 20
136.2199907609
 30
0.0
 10
64.6493147451
 20
136.2900343065
 30
0.0
 10
64.6998587706
 20
136.3398192933
 30
0.0
 10
64.734363354
 20
136.3718113859
 30
0.0
  0
SPLINE
  5
703
100
AcDbEntity
  8
00_COMPONENTS_12_1
100
AcDbSpline
 62
7
  6
CONTINUOUS
 70
0
 71
3
 72
9
 73
5
 74
0
 42
0.0000001
 43
0.0000001
 44
0.0000000001
 40
0.0
 40
0.0
 40
0.0
 40
0.0
 40
0.2460403477
 40
1.0
 40
1.0
 40
1.0
 40
1.0
 10
64.187890399
 20
127.5922276549
 30
0.0
 10
64.1790350226
 20
127.6068290364
 30
0.0
 10
64.1437974059
 20
127.6666265937
 30
0.0
 10
64.1112282836
 20
127.7280119186
 30
0.0
 10
64.0885314215
 20
127.7751633657
 30
0.0
  0
SPLINE
  5
704
100
AcDbEntity
  8
00_COMPONENTS_12_1
100
AcDbSpline
 62
7
  6
CONTINUOUS
 70
0
 71
3
 72
9
 73
5
 74
0
 42
0.0000001
 43
0.0000001
 44
0.0000000001
 40
0.0
 40
0.0
 40
0.0
 40
0.0
 40
0.2371620398
 40
1.0
 40
1.0
 40
1.0
 40
1.0
 10
64.5600188673
 20
128.5230635458
 30
0.0
 10
64.573155457
 20
128.5164730882
 30
0.0
 10
64.6294649935
 20
128.4905365299
 30
0.0
 10
64.6885825911
 20
128.4708600963
 30
0.0
 10
64.734363354
 20
128.459074111
 30
0.0
  0
SPLINE
  5
705
100
AcDbEntity
  8
00_COMPONENTS
100
AcDbSpline
 62
7
  6
CONTINUOUS
 70
0
 71
3
 72
13
 73
9
 74
0
 42
0.0000001
 43
0.0000001
 44
0.0000000001
 40
0.0
 40
0.0
 40
0.0
 40
0.0
 40
0.1284905662
 40
0.2564358255
 40
0.3834709133
 40
0.5094185671
 40
0.7570724967
 40
1.0
 40
1.0
 40
1.0
 40
1.0
 10
59.090886653
 20
155.4624339467
 30
0.0
 10
59.090886653
 20
155.51642508
 30
0.0
 10
59.0727426146
 20
155.624885133
 30
0.0
 10
58.9991796457
 20
155.7703664769
 30
0.0
 10
58.8939814037
 20
155.892694311
 30
0.0
 10
58.7277580071
 20
156.0232353581
 30
0.0
 10
58.4881165522
 20
156.1316698888
 30
0.0
 10
58.2811712829
 20
156.1624339467
 30
0.0
 10
58.1790942854
 20
156.1624339467
 30
0.0
  0
SPLINE
  5
706
100
AcDbEntity
  8
00_COMPONENTS
100
AcDbSpline
 62
7
  6
CONTINUOUS
 70
0
 71
3
 72
13
 73
9
 74
0
 42
0.0000001
 43
0.0000001
 44
0.0000000001
 40
0.0
 40
0.0
 40
0.0
 40
0.0
 40
0.1284919785
 40
0.2564372546
 40
0.3834724127
 40
0.5094196305
 40
0.7570729318
 40
1.0
 40
1.0
 40
1.0
 40
1.0
 10
62.777840055
 20
155.4624339467
 30
0.0
 10
62.777840055
 20
155.5164256731
 30
0.0
 10
62.7959844081
 20
155.6248863441
 30
0.0
 10
62.8695481212
 20
155.7703680126
 30
0.0
 10
62.9747466118
 20
155.8926954239
 30
0.0
 10
63.1409698118
 20
156.0232360165
 30
0.0
 10
63.3806108012
 20
156.1316700081
 30
0.0
 10
63.5875556086
 20
156.1624339467
 30
0.0
 10
63.6896324226
 20
156.1624339467
 30
0.0
  0
SPLINE
  5
707
100
AcDbEntity
  8
00_COMPONENTS_29_4
100
AcDbSpline
 62
7
  6
CONTINUOUS
 70
0
 71
3
 72
11
 73
7
 74
0
 42
0.0000001
 43
0.0000001
 44
0.0000000001
 40
0.0
 40
0.0
 40
0.0
 40
0.0
 40
0.0772264253
 40
0.2718667367
 40
0.5841696349
 40
1.0
 40
1.0
 40
1.0
 40
1.0
 10
42.9729027357
 20
172.2626725194
 30
0.0
 10
42.9736732843
 20
172.2626725193
 30
0.0
 10
42.9746488434
 20
172.2662387473
 30
0.0
 10
42.9757055213
 20
172.2711065799
 30
0.0
 10
42.9767976072
 20
172.2807273336
 30
0.0
 10
42.9773791039
 20
172.2878206586
 30
0.0
 10
42.9776660356
 20
172.2919597904
 30
0.0
  0
SPLINE
  5
708
100
AcDbEntity
  8
00_COMPONENTS_29_4
100
AcDbSpline
 62
7
  6
CONTINUOUS
 70
0
 71
3
 72
10
 73
6
 74
0
 42
0.0000001
 43
0.0000001
 44
0.0000000001
 40
0.0
 40
0.0
 40
0.0
 40
0.0
 40
0.1014604546
 40
0.2984161958
 40
1.0
 40
1.0
 40
1.0
 40
1.0
 10
43.0883558493
 20
172.2626725194
 30
0.0
 10
43.0894214773
 20
172.2626725193
 30
0.0
 10
43.0918656634
 20
172.2654909351
 30
0.0
 10
43.0950594699
 20
172.2750683139
 30
0.0
 10
43.0967415086
 20
172.2846568136
 30
0.0
 10
43.097723162
 20
172.2919597904
 30
0.0
  0
SPLINE
  5
709
100
AcDbEntity
  8
00_COMPONENTS_29_4
100
AcDbSpline
 62
7
  6
CONTINUOUS
 70
0
 71
3
 72
9
 73
5
 74
0
 42
0.0000001
 43
0.0000001
 44
0.0000000001
 40
0.0
 40
0.0
 40
0.0
 40
0.0
 40
0.3209858225
 40
1.0
 40
1.0
 40
1.0
 40
1.0
 10
43.2802283068
 20
172.2626725194
 30
0.0
 10
43.2837910247
 20
172.2626725192
 30
0.0
 10
43.2907316422
 20
172.2749550783
 30
0.0
 10
43.292689015
 20
172.2845680595
 30
0.0
 10
43.29415952
 20
172.2919597904
 30
0.0
  0
SPLINE
  5
70A
100
AcDbEntity
  8
00_COMPONENTS_29_4
100
AcDbSpline
 62
7
  6
CONTINUOUS
 70
0
 71
3
 72
9
 73
5
 74
0
 42
0.0000001
 43
0.0000001
 44
0.0000000001
 40
0.0
 40
0.0
 40
0.0
 40
0.0
 40
0.349723242
 40
1.0
 40
1.0
 40
1.0
 40
1.0
 10
43.5476984808
 20
172.2626725194
 30
0.0
 10
43.551872126
 20
172.2626725192
 30
0.0
 10
43.5612514822
 20
172.2735468518
 30
0.0
 10
43.5641628044
 20
172.2844538017
 30
0.0
 10
43.566133939
 20
172.2919597904
 30
0.0
  0
SPLINE
  5
70B
100
AcDbEntity
  8
00_COMPONENTS_29_4
100
AcDbSpline
 62
7
  6
CONTINUOUS
 70
0
 71
3
 72
9
 73
5
 74
0
 42
0.0000001
 43
0.0000001
 44
0.0000000001
 40
0.0
 40
0.0
 40
0.0
 40
0.0
 40
0.375626683
 40
1.0
 40
1.0
 40
1.0
 40
1.0
 10
43.8896210231
 20
172.2626725194
 30
0.0
 10
43.8944531588
 20
172.2626725192
 30
0.0
 10
43.9057796683
 20
172.2723843362
 30
0.0
 10
43.909998129
 20
172.2843213695
 30
0.0
 10
43.9124817828
 20
172.2919597904
 30
0.0
  0
SPLINE
  5
70C
100
AcDbEntity
  8
00_COMPONENTS_29_4
100
AcDbSpline
 62
7
  6
CONTINUOUS
 70
0
 71
3
 72
10
 73
6
 74
0
 42
0.0000001
 43
0.0000001
 44
0.0000000001
 40
0.0
 40
0.0
 40
0.0
 40
0.0
 40
0.1839714025
 40
0.5304571678
 40
1.0
 40
1.0
 40
1.0
 40
1.0
 10
44.3045317688
 20
172.2626725194
 30
0.0
 10
44.3071029603
 20
172.2626725193
 30
0.0
 10
44.3145522323
 20
172.2648333407
 30
0.0
 10
44.3243991564
 20
172.2755249861
 30
0.0
 10
44.3293551835
 20
172.2858383228
 30
0.0
 10
44.3317199367
 20
172.2919597904
 30
0.0
  0
SPLINE
  5
70D
100
AcDbEntity
  8
00_COMPONENTS_29_4
100
AcDbSpline
 62
7
  6
CONTINUOUS
 70
0
 71
3
 72
9
 73
5
 74
0
 42
0.0000001
 43
0.0000001
 44
0.0000000001
 40
0.0
 40
0.0
 40
0.0
 40
0.0
 40
0.1989897296
 40
1.0
 40
1.0
 40
1.0
 40
1.0
 10
44.7906540064
 20
172.2626725194
 30
0.0
 10
44.793601824
 20
172.2626725193
 30
0.0
 10
44.8084995568
 20
172.2664071483
 30
0.0
 10
44.8172215875
 20
172.2811218817
 30
0.0
 10
44.8220531586
 20
172.2919597904
 30
0.0
  0
SPLINE
  5
70E
100
AcDbEntity
  8
00_COMPONENTS_29_4
100
AcDbSpline
 62
7
  6
CONTINUOUS
 70
0
 71
3
 72
9
 73
5
 74
0
 42
0.0000001
 43
0.0000001
 44
0.0000000001
 40
0.0
 40
0.0
 40
0.0
 40
0.0
 40
0.2093594183
 40
1.0
 40
1.0
 40
1.0
 40
1.0
 10
45.3459060859
 20
172.2626725194
 30
0.0
 10
45.3492208796
 20
172.2626725193
 30
0.0
 10
45.3651677787
 20
172.2660782275
 30
0.0
 10
45.3757531216
 20
172.2807783523
 30
0.0
 10
45.3813817664
 20
172.2919597905
 30
0.0
  0
SPLINE
  5
70F
100
AcDbEntity
  8
00_COMPONENTS_29_4
100
AcDbSpline
 62
7
  6
CONTINUOUS
 70
0
 71
3
 72
9
 73
5
 74
0
 42
0.0000001
 43
0.0000001
 44
0.0000000001
 40
0.0
 40
0.0
 40
0.0
 40
0.0
 40
0.4446127429
 40
1.0
 40
1.0
 40
1.0
 40
1.0
 10
45.9679103326
 20
172.2626725194
 30
0.0
 10
45.9754475358
 20
172.2626725193
 30
0.0
 10
45.9923844914
 20
172.269648488
 30
0.0
 10
46.0027177391
 20
172.2837409594
 30
0.0
 10
46.007310629
 20
172.2919597904
 30
0.0
  0
SPLINE
  5
710
100
AcDbEntity
  8
00_COMPONENTS_29_4
100
AcDbSpline
 62
7
  6
CONTINUOUS
 70
0
 71
3
 72
9
 73
5
 74
0
 42
0.0000001
 43
0.0000001
 44
0.0000000001
 40
0.0
 40
0.0
 40
0.0
 40
0.0
 40
0.4550896995
 40
1.0
 40
1.0
 40
1.0
 40
1.0
 10
46.6540032288
 20
172.2626725194
 30
0.0
 10
46.6621819995
 20
172.2626725193
 30
0.0
 10
46.6802519296
 20
172.2692746981
 30
0.0
 10
46.6920482717
 20
172.2836064013
 30
0.0
 10
46.6971594231
 20
172.2919597904
 30
0.0
  0
SPLINE
  5
711
100
AcDbEntity
  8
00_COMPONENTS_29_4
100
AcDbSpline
 62
7
  6
CONTINUOUS
 70
0
 71
3
 72
9
 73
5
 74
0
 42
0.0000001
 43
0.0000001
 44
0.0000000001
 40
0.0
 40
0.0
 40
0.0
 40
0.0
 40
0.4637340211
 40
1.0
 40
1.0
 40
1.0
 40
1.0
 10
47.4012468194
 20
172.2626725194
 30
0.0
 10
47.4100407103
 20
172.2626725193
 30
0.0
 10
47.429174085
 20
172.2689758646
 30
0.0
 10
47.4423589206
 20
172.2834812922
 30
0.0
 10
47.4479741101
 20
172.2919597904
 30
0.0
  0
SPLINE
  5
712
100
AcDbEntity
  8
00_COMPONENTS_29_4
100
AcDbSpline
 62
7
  6
CONTINUOUS
 70
0
 71
3
 72
9
 73
5
 74
0
 42
0.0000001
 43
0.0000001
 44
0.0000000001
 40
0.0
 40
0.0
 40
0.0
 40
0.0
 40
0.4708811043
 40
1.0
 40
1.0
 40
1.0
 40
1.0
 10
48.2064412927
 20
172.2626725194
 30
0.0
 10
48.2158195377
 20
172.2626725193
 30
0.0
 10
48.2359507847
 20
172.2687361118
 30
0.0
 10
48.2504395735
 20
172.2833666511
 30
0.0
 10
48.2565395864
 20
172.2919597904
 30
0.0
  0
SPLINE
  5
713
100
AcDbEntity
  8
00_COMPONENTS_29_4
100
AcDbSpline
 62
7
  6
CONTINUOUS
 70
0
 71
3
 72
9
 73
5
 74
0
 42
0.0000001
 43
0.0000001
 44
0.0000000001
 40
0.0
 40
0.0
 40
0.0
 40
0.0
 40
0.4768022733
 40
1.0
 40
1.0
 40
1.0
 40
1.0
 10
49.0661386822
 20
172.2626725194
 30
0.0
 10
49.076066798
 20
172.2626725193
 30
0.0
 10
49.0971307936
 20
172.2685431046
 30
0.0
 10
49.1128323992
 20
172.2832629135
 30
0.0
 10
49.1193934503
 20
172.2919597904
 30
0.0
  0
SPLINE
  5
714
100
AcDbEntity
  8
00_COMPONENTS_29_4
100
AcDbSpline
 62
7
  6
CONTINUOUS
 70
0
 71
3
 72
9
 73
5
 74
0
 42
0.0000001
 43
0.0000001
 44
0.0000000001
 40
0.0
 40
0.0
 40
0.0
 40
0.0
 40
0.4817143656
 40
1.0
 40
1.0
 40
1.0
 40
1.0
 10
49.9766576319
 20
172.2626725194
 30
0.0
 10
49.987097885
 20
172.2626725193
 30
0.0
 10
50.009027907
 20
172.2683872882
 30
0.0
 10
50.0258466298
 20
172.2831701108
 30
0.0
 10
50.0328408293
 20
172.2919597904
 30
0.0
  0
SPLINE
  5
715
100
AcDbEntity
  8
00_COMPONENTS_29_4
100
AcDbSpline
 62
7
  6
CONTINUOUS
 70
0
 71
3
 72
9
 73
5
 74
0
 42
0.0000001
 43
0.0000001
 44
0.0000000001
 40
0.0
 40
0.0
 40
0.0
 40
0.0
 40
0.4857895654
 40
1.0
 40
1.0
 40
1.0
 40
1.0
 10
50.9340991597
 20
172.2626725194
 30
0.0
 10
50.9450109516
 20
172.2626725193
 30
0.0
 10
50.9677375598
 20
172.2682612735
 30
0.0
 10
50.9855743757
 20
172.2830880128
 30
0.0
 10
50.9929702013
 20
172.2919597904
 30
0.0
  0
SPLINE
  5
716
100
AcDbEntity
  8
00_COMPONENTS_29_4
100
AcDbSpline
 62
7
  6
CONTINUOUS
 70
0
 71
3
 72
9
 73
5
 74
0
 42
0.0000001
 43
0.0000001
 44
0.0000000001
 40
0.0
 40
0.0
 40
0.0
 40
0.0
 40
0.4891641137
 40
1.0
 40
1.0
 40
1.0
 40
1.0
 10
51.934363354
 20
172.2626725194
 30
0.0
 10
51.9457035537
 20
172.2626725191
 30
0.0
 10
51.9691540625
 20
172.2681593486
 30
0.0
 10
51.9879073837
 20
172.2830162329
 30
0.0
 10
51.995670139
 20
172.2919597834
 30
0.0
  0
SPLINE
  5
717
100
AcDbEntity
  8
00_COMPONENTS_29_4
100
AcDbSpline
 62
7
  6
CONTINUOUS
 70
0
 71
3
 72
9
 73
5
 74
0
 42
0.0000001
 43
0.0000001
 44
0.0000000001
 40
0.0
 40
0.0
 40
0.0
 40
0.0
 40
0.4919455115
 40
1.0
 40
1.0
 40
1.0
 40
1.0
 10
52.9731669301
 20
172.2626725194
 30
0.0
 10
52.9848901827
 20
172.2626725193
 30
0.0
 10
53.0089885251
 20
172.2680771124
 30
0.0
 10
53.0285547067
 20
172.2829543248
 30
0.0
 10
53.0366469454
 20
172.2919597904
 30
0.0
  0
SPLINE
  5
718
100
AcDbEntity
  8
00_COMPONENTS_29_4
100
AcDbSpline
 62
7
  6
CONTINUOUS
 70
0
 71
3
 72
9
 73
5
 74
0
 42
0.0000001
 43
0.0000001
 44
0.0000000001
 40
0.0
 40
0.0
 40
0.0
 40
0.0
 40
0.4942183083
 40
1.0
 40
1.0
 40
1.0
 40
1.0
 10
54.0460615715
 20
172.2626725194
 30
0.0
 10
54.0581205728
 20
172.2626725193
 30
0.0
 10
54.0827873884
 20
172.2680111635
 30
0.0
 10
54.1030610444
 20
172.2829018032
 30
0.0
 10
54.1114429799
 20
172.2919597904
 30
0.0
  0
SPLINE
  5
719
100
AcDbEntity
  8
00_COMPONENTS_29_4
100
AcDbSpline
 62
7
  6
CONTINUOUS
 70
0
 71
3
 72
9
 73
5
 74
0
 42
0.0000001
 43
0.0000001
 44
0.0000000001
 40
0.0
 40
0.0
 40
0.0
 40
0.0
 40
0.4960485871
 40
1.0
 40
1.0
 40
1.0
 40
1.0
 10
55.1484529786
 20
172.2626725194
 30
0.0
 10
55.160798752
 20
172.2626725193
 30
0.0
 10
55.1859516555
 20
172.2679589002
 30
0.0
 10
55.2068259355
 20
172.2828582168
 30
0.0
 10
55.2154558069
 20
172.2919597904
 30
0.0
  0
SPLINE
  5
71A
100
AcDbEntity
  8
00_COMPONENTS_29_4
100
AcDbSpline
 62
7
  6
CONTINUOUS
 70
0
 71
3
 72
9
 73
5
 74
0
 42
0.0000001
 43
0.0000001
 44
0.0000000001
 40
0.0
 40
0.0
 40
0.0
 40
0.0
 40
0.4974874413
 40
1.0
 40
1.0
 40
1.0
 40
1.0
 10
56.2756205422
 20
172.2626725194
 30
0.0
 10
56.2882027013
 20
172.2626725193
 30
0.0
 10
56.3137566419
 20
172.267918344
 30
0.0
 10
56.3351234534
 20
172.2828231562
 30
0.0
 10
56.3439578741
 20
172.2919597904
 30
0.0
  0
SPLINE
  5
71B
100
AcDbEntity
  8
00_COMPONENTS_29_4
100
AcDbSpline
 62
7
  6
CONTINUOUS
 70
0
 71
3
 72
9
 73
5
 74
0
 42
0.0000001
 43
0.0000001
 44
0.0000000001
 40
0.0
 40
0.0
 40
0.0
 40
0.0
 40
0.4985735973
 40
1.0
 40
1.0
 40
1.0
 40
1.0
 10
57.4227375577
 20
172.2626725194
 30
0.0
 10
57.4355045664
 20
172.2626725193
 30
0.0
 10
57.4613722552
 20
172.2678880178
 30
0.0
 10
57.4831224799
 20
172.2827962734
 30
0.0
 10
57.4921167622
 20
172.2919597904
 30
0.0
  0
SPLINE
  5
71C
100
AcDbEntity
  8
00_COMPONENTS_29_4
100
AcDbSpline
 62
7
  6
CONTINUOUS
 70
0
 71
3
 72
8
 73
4
 74
0
 42
0.0000001
 43
0.0000001
 44
0.0000000001
 40
0.0
 40
0.0
 40
0.0
 40
0.0
 40
1.0
 40
1.0
 40
1.0
 40
1.0
 10
58.5848918941
 20
172.2626725194
 30
0.0
 10
58.6102232919
 20
172.2626725191
 30
0.0
 10
58.6371765223
 20
172.2739754338
 30
0.0
 10
58.6550158787
 20
172.2919597904
 30
0.0
  0
SPLINE
  5
71D
100
AcDbEntity
  8
00_COMPONENTS_29_4
100
AcDbSpline
 62
7
  6
CONTINUOUS
 70
0
 71
3
 72
8
 73
4
 74
0
 42
0.0000001
 43
0.0000001
 44
0.0000000001
 40
0.0
 40
0.0
 40
0.0
 40
0.0
 40
1.0
 40
1.0
 40
1.0
 40
1.0
 10
59.7571070279
 20
172.2626725194
 30
0.0
 10
59.7825752108
 20
172.2626725191
 30
0.0
 10
59.8096839592
 20
172.2739339089
 30
0.0
 10
59.827675511
 20
172.2919597904
 30
0.0
  0
SPLINE
  5
71E
100
AcDbEntity
  8
00_COMPONENTS_29_4
100
AcDbSpline
 62
7
  6
CONTINUOUS
 70
0
 71
3
 72
8
 73
4
 74
0
 42
0.0000001
 43
0.0000001
 44
0.0000000001
 40
0.0
 40
0.0
 40
0.0
 40
0.0
 40
1.0
 40
1.0
 40
1.0
 40
1.0
 10
62.0410511948
 20
172.2919597927
 30
0.0
 10
62.0590427453
 20
172.2739339085
 30
0.0
 10
62.0861514963
 20
172.2626725196
 30
0.0
 10
62.1116196802
 20
172.2626725194
 30
0.0
  0
SPLINE
  5
71F
100
AcDbEntity
  8
00_COMPONENTS_29_4
100
AcDbSpline
 62
7
  6
CONTINUOUS
 70
0
 71
3
 72
8
 73
4
 74
0
 42
0.0000001
 43
0.0000001
 44
0.0000000001
 40
0.0
 40
0.0
 40
0.0
 40
0.0
 40
1.0
 40
1.0
 40
1.0
 40
1.0
 10
63.2137108272
 20
172.2919597927
 30
0.0
 10
63.2315501822
 20
172.2739754334
 30
0.0
 10
63.2585034152
 20
172.2626725196
 30
0.0
 10
63.283834814
 20
172.2626725194
 30
0.0
  0
SPLINE
  5
720
100
AcDbEntity
  8
00_COMPONENTS_29_4
100
AcDbSpline
 62
7
  6
CONTINUOUS
 70
0
 71
3
 72
9
 73
5
 74
0
 42
0.0000001
 43
0.0000001
 44
0.0000000001
 40
0.0
 40
0.0
 40
0.0
 40
0.0
 40
0.5014264039
 40
1.0
 40
1.0
 40
1.0
 40
1.0
 10
64.3766099437
 20
172.2919597927
 30
0.0
 10
64.3856042253
 20
172.2827962743
 30
0.0
 10
64.4073544519
 20
172.2678880188
 30
0.0
 10
64.4332221412
 20
172.2626725195
 30
0.0
 10
64.4459891503
 20
172.2626725194
 30
0.0
  0
SPLINE
  5
721
100
AcDbEntity
  8
00_COMPONENTS_29_4
100
AcDbSpline
 62
7
  6
CONTINUOUS
 70
0
 71
3
 72
9
 73
5
 74
0
 42
0.0000001
 43
0.0000001
 44
0.0000000001
 40
0.0
 40
0.0
 40
0.0
 40
0.0
 40
0.5025125599
 40
1.0
 40
1.0
 40
1.0
 40
1.0
 10
65.5247688318
 20
172.2919597927
 30
0.0
 10
65.5336032518
 20
172.2828231571
 30
0.0
 10
65.5549700651
 20
172.267918345
 30
0.0
 10
65.5805240063
 20
172.2626725195
 30
0.0
 10
65.5931061659
 20
172.2626725194
 30
0.0
  0
SPLINE
  5
722
100
AcDbEntity
  8
00_COMPONENTS_29_4
100
AcDbSpline
 62
7
  6
CONTINUOUS
 70
0
 71
3
 72
9
 73
5
 74
0
 42
0.0000001
 43
0.0000001
 44
0.0000000001
 40
0.0
 40
0.0
 40
0.0
 40
0.0
 40
0.5039514143
 40
1.0
 40
1.0
 40
1.0
 40
1.0
 10
66.653270899
 20
172.2919597927
 30
0.0
 10
66.6619007698
 20
172.2828582178
 30
0.0
 10
66.6827750515
 20
172.2679589012
 30
0.0
 10
66.7079279556
 20
172.2626725195
 30
0.0
 10
66.7202737295
 20
172.2626725194
 30
0.0
  0
SPLINE
  5
723
100
AcDbEntity
  8
00_COMPONENTS_29_4
100
AcDbSpline
 62
7
  6
CONTINUOUS
 70
0
 71
3
 72
9
 73
5
 74
0
 42
0.0000001
 43
0.0000001
 44
0.0000000001
 40
0.0
 40
0.0
 40
0.0
 40
0.0
 40
0.5057816931
 40
1.0
 40
1.0
 40
1.0
 40
1.0
 10
67.757283726
 20
172.2919597927
 30
0.0
 10
67.7656656609
 20
172.2829018042
 30
0.0
 10
67.7859393187
 20
172.2680111645
 30
0.0
 10
67.8106061349
 20
172.2626725195
 30
0.0
 10
67.8226651366
 20
172.2626725194
 30
0.0
  0
SPLINE
  5
724
100
AcDbEntity
  8
00_COMPONENTS_29_4
100
AcDbSpline
 62
7
  6
CONTINUOUS
 70
0
 71
3
 72
9
 73
5
 74
0
 42
0.0000001
 43
0.0000001
 44
0.0000000001
 40
0.0
 40
0.0
 40
0.0
 40
0.0
 40
0.50805449
 40
1.0
 40
1.0
 40
1.0
 40
1.0
 10
68.8320797606
 20
172.2919597927
 30
0.0
 10
68.8401719987
 20
172.2829543258
 30
0.0
 10
68.859738182
 20
172.2680771134
 30
0.0
 10
68.8838365249
 20
172.2626725195
 30
0.0
 10
68.895559778
 20
172.2626725194
 30
0.0
  0
SPLINE
  5
725
100
AcDbEntity
  8
00_COMPONENTS_29_4
100
AcDbSpline
 62
7
  6
CONTINUOUS
 70
0
 71
3
 72
9
 73
5
 74
0
 42
0.0000001
 43
0.0000001
 44
0.0000000001
 40
0.0
 40
0.0
 40
0.0
 40
0.0
 40
0.5108358903
 40
1.0
 40
1.0
 40
1.0
 40
1.0
 10
69.8730565608
 20
172.291959793
 30
0.0
 10
69.8808193139
 20
172.2830162376
 30
0.0
 10
69.8995726408
 20
172.2681593517
 30
0.0
 10
69.9230231524
 20
172.2626725195
 30
0.0
 10
69.934363354
 20
172.2626725194
 30
0.0
  0
SPLINE
  5
726
100
AcDbEntity
  8
00_COMPONENTS_29_4
100
AcDbSpline
 62
7
  6
CONTINUOUS
 70
0
 71
3
 72
9
 73
5
 74
0
 42
0.0000001
 43
0.0000001
 44
0.0000000001
 40
0.0
 40
0.0
 40
0.0
 40
0.0
 40
0.5142104363
 40
1.0
 40
1.0
 40
1.0
 40
1.0
 10
70.8757565049
 20
172.2919597927
 30
0.0
 10
70.8831523298
 20
172.2830880139
 30
0.0
 10
70.9009891473
 20
172.2682612744
 30
0.0
 10
70.9237157561
 20
172.2626725195
 30
0.0
 10
70.9346275484
 20
172.2626725194
 30
0.0
  0
SPLINE
  5
727
100
AcDbEntity
  8
00_COMPONENTS_29_4
100
AcDbSpline
 62
7
  6
CONTINUOUS
 70
0
 71
3
 72
9
 73
5
 74
0
 42
0.0000001
 43
0.0000001
 44
0.0000000001
 40
0.0
 40
0.0
 40
0.0
 40
0.0
 40
0.5182856363
 40
1.0
 40
1.0
 40
1.0
 40
1.0
 10
71.835885877
 20
172.2919597927
 30
0.0
 10
71.8428800758
 20
172.2831701119
 30
0.0
 10
71.8596988002
 20
172.2683872892
 30
0.0
 10
71.8816288227
 20
172.2626725195
 30
0.0
 10
71.8920690762
 20
172.2626725194
 30
0.0
  0
SPLINE
  5
728
100
AcDbEntity
  8
00_COMPONENTS_29_4
100
AcDbSpline
 62
7
  6
CONTINUOUS
 70
0
 71
3
 72
9
 73
5
 74
0
 42
0.0000001
 43
0.0000001
 44
0.0000000001
 40
0.0
 40
0.0
 40
0.0
 40
0.0
 40
0.5231977288
 40
1.0
 40
1.0
 40
1.0
 40
1.0
 10
72.749333256
 20
172.2919597927
 30
0.0
 10
72.7558943065
 20
172.2832629147
 30
0.0
 10
72.7715959136
 20
172.2685431055
 30
0.0
 10
72.7926599096
 20
172.2626725195
 30
0.0
 10
72.8025880258
 20
172.2626725194
 30
0.0
  0
SPLINE
  5
729
100
AcDbEntity
  8
00_COMPONENTS_29_4
100
AcDbSpline
 62
7
  6
CONTINUOUS
 70
0
 71
3
 72
9
 73
5
 74
0
 42
0.0000001
 43
0.0000001
 44
0.0000000001
 40
0.0
 40
0.0
 40
0.0
 40
0.0
 40
0.5291188979
 40
1.0
 40
1.0
 40
1.0
 40
1.0
 10
73.6121871201
 20
172.2919597927
 30
0.0
 10
73.6182871324
 20
172.2833666523
 30
0.0
 10
73.6327759225
 20
172.2687361127
 30
0.0
 10
73.65290717
 20
172.2626725195
 30
0.0
 10
73.6622854154
 20
172.2626725194
 30
0.0
  0
SPLINE
  5
72A
100
AcDbEntity
  8
00_COMPONENTS_29_4
100
AcDbSpline
 62
7
  6
CONTINUOUS
 70
0
 71
3
 72
9
 73
5
 74
0
 42
0.0000001
 43
0.0000001
 44
0.0000000001
 40
0.0
 40
0.0
 40
0.0
 40
0.0
 40
0.5362659813
 40
1.0
 40
1.0
 40
1.0
 40
1.0
 10
74.4207525965
 20
172.2919597927
 30
0.0
 10
74.4263677853
 20
172.2834812935
 30
0.0
 10
74.4395526222
 20
172.2689758655
 30
0.0
 10
74.4586859974
 20
172.2626725195
 30
0.0
 10
74.4674798887
 20
172.2626725194
 30
0.0
  0
SPLINE
  5
72B
100
AcDbEntity
  8
00_COMPONENTS_29_4
100
AcDbSpline
 62
7
  6
CONTINUOUS
 70
0
 71
3
 72
9
 73
5
 74
0
 42
0.0000001
 43
0.0000001
 44
0.0000000001
 40
0.0
 40
0.0
 40
0.0
 40
0.0
 40
0.5449103031
 40
1.0
 40
1.0
 40
1.0
 40
1.0
 10
75.1715672836
 20
172.2919597927
 30
0.0
 10
75.1766784344
 20
172.2836064026
 30
0.0
 10
75.1884747777
 20
172.269274699
 30
0.0
 10
75.2065447082
 20
172.2626725195
 30
0.0
 10
75.2147234793
 20
172.2626725194
 30
0.0
  0
SPLINE
  5
72C
100
AcDbEntity
  8
00_COMPONENTS_29_4
100
AcDbSpline
 62
7
  6
CONTINUOUS
 70
0
 71
3
 72
9
 73
5
 74
0
 42
0.0000001
 43
0.0000001
 44
0.0000000001
 40
0.0
 40
0.0
 40
0.0
 40
0.0
 40
0.5553872598
 40
1.0
 40
1.0
 40
1.0
 40
1.0
 10
75.8614160778
 20
172.2919597927
 30
0.0
 10
75.8660089672
 20
172.2837409608
 30
0.0
 10
75.876342216
 20
172.269648489
 30
0.0
 10
75.8932791719
 20
172.2626725195
 30
0.0
 10
75.9008163755
 20
172.2626725194
 30
0.0
  0
SPLINE
  5
72D
100
AcDbEntity
  8
00_COMPONENTS_29_4
100
AcDbSpline
 62
7
  6
CONTINUOUS
 70
0
 71
3
 72
9
 73
5
 74
0
 42
0.0000001
 43
0.0000001
 44
0.0000000001
 40
0.0
 40
0.0
 40
0.0
 40
0.0
 40
0.3087554322
 40
1.0
 40
1.0
 40
1.0
 40
1.0
 10
76.4873449402
 20
172.2919597935
 30
0.0
 10
76.4895260603
 20
172.2876269447
 30
0.0
 10
76.497237203
 20
172.2742927586
 30
0.0
 10
76.5119604662
 20
172.2626725196
 30
0.0
 10
76.5228206222
 20
172.2626725194
 30
0.0
  0
SPLINE
  5
72E
100
AcDbEntity
  8
00_COMPONENTS_29_4
100
AcDbSpline
 62
7
  6
CONTINUOUS
 70
0
 71
3
 72
9
 73
5
 74
0
 42
0.0000001
 43
0.0000001
 44
0.0000000001
 40
0.0
 40
0.0
 40
0.0
 40
0.0
 40
0.3208108126
 40
1.0
 40
1.0
 40
1.0
 40
1.0
 10
77.0466735485
 20
172.2919597927
 30
0.0
 10
77.0485894785
 20
172.2876620852
 30
0.0
 10
77.0550483423
 20
172.2749634566
 30
0.0
 10
77.0681108255
 20
172.2626725196
 30
0.0
 10
77.0780727016
 20
172.2626725194
 30
0.0
  0
SPLINE
  5
72F
100
AcDbEntity
  8
00_COMPONENTS_29_4
100
AcDbSpline
 62
7
  6
CONTINUOUS
 70
0
 71
3
 72
9
 73
5
 74
0
 42
0.0000001
 43
0.0000001
 44
0.0000000001
 40
0.0
 40
0.0
 40
0.0
 40
0.0
 40
0.334963206
 40
1.0
 40
1.0
 40
1.0
 40
1.0
 10
77.5370067705
 20
172.2919597927
 30
0.0
 10
77.538653485
 20
172.2876970598
 30
0.0
 10
77.5439164171
 20
172.2757270039
 30
0.0
 10
77.555122158
 20
172.2626725196
 30
0.0
 10
77.5641949392
 20
172.2626725194
 30
0.0
  0
SPLINE
  5
730
100
AcDbEntity
  8
00_COMPONENTS_29_4
100
AcDbSpline
 62
7
  6
CONTINUOUS
 70
0
 71
3
 72
9
 73
5
 74
0
 42
0.0000001
 43
0.0000001
 44
0.0000000001
 40
0.0
 40
0.0
 40
0.0
 40
0.0
 40
0.6243733192
 40
1.0
 40
1.0
 40
1.0
 40
1.0
 10
77.9562449246
 20
172.2919597927
 30
0.0
 10
77.958728578
 20
172.2843213711
 30
0.0
 10
77.9629470393
 20
172.2723843372
 30
0.0
 10
77.974273549
 20
172.2626725195
 30
0.0
 10
77.9791056849
 20
172.2626725194
 30
0.0
  0
SPLINE
  5
731
100
AcDbEntity
  8
00_COMPONENTS_29_4
100
AcDbSpline
 62
7
  6
CONTINUOUS
 70
0
 71
3
 72
9
 73
5
 74
0
 42
0.0000001
 43
0.0000001
 44
0.0000000001
 40
0.0
 40
0.0
 40
0.0
 40
0.0
 40
0.6502767592
 40
1.0
 40
1.0
 40
1.0
 40
1.0
 10
78.3025927685
 20
172.2919597927
 30
0.0
 10
78.3045639027
 20
172.2844538034
 30
0.0
 10
78.3074752255
 20
172.2735468528
 30
0.0
 10
78.3168545818
 20
172.2626725195
 30
0.0
 10
78.3210282272
 20
172.2626725194
 30
0.0
  0
SPLINE
  5
732
100
AcDbEntity
  8
00_COMPONENTS_29_4
100
AcDbSpline
 62
7
  6
CONTINUOUS
 70
0
 71
3
 72
9
 73
5
 74
0
 42
0.0000001
 43
0.0000001
 44
0.0000000001
 40
0.0
 40
0.0
 40
0.0
 40
0.0
 40
0.6790141771
 40
1.0
 40
1.0
 40
1.0
 40
1.0
 10
78.5745671876
 20
172.2919597927
 30
0.0
 10
78.5760376924
 20
172.2845680613
 30
0.0
 10
78.5779950657
 20
172.2749550793
 30
0.0
 10
78.5849356831
 20
172.2626725195
 30
0.0
 10
78.5884984013
 20
172.2626725194
 30
0.0
  0
SPLINE
  5
733
100
AcDbEntity
  8
00_COMPONENTS_29_4
100
AcDbSpline
 62
7
  6
CONTINUOUS
 70
0
 71
3
 72
10
 73
6
 74
0
 42
0.0000001
 43
0.0000001
 44
0.0000000001
 40
0.0
 40
0.0
 40
0.0
 40
0.0
 40
0.7015838031
 40
0.8985395438
 40
1.0
 40
1.0
 40
1.0
 40
1.0
 10
78.7710035458
 20
172.2919597927
 30
0.0
 10
78.771985199
 20
172.2846568154
 30
0.0
 10
78.7736672378
 20
172.275068315
 30
0.0
 10
78.7768610447
 20
172.2654909355
 30
0.0
 10
78.7793052307
 20
172.2626725195
 30
0.0
 10
78.7803708588
 20
172.2626725194
 30
0.0
  0
SPLINE
  5
734
100
AcDbEntity
  8
00_COMPONENTS_29_4
100
AcDbSpline
 62
7
  6
CONTINUOUS
 70
0
 71
3
 72
11
 73
7
 74
0
 42
0.0000001
 43
0.0000001
 44
0.0000000001
 40
0.0
 40
0.0
 40
0.0
 40
0.0
 40
0.4158303719
 40
0.7281332593
 40
0.9227735699
 40
1.0
 40
1.0
 40
1.0
 40
1.0
 10
78.8910606723
 20
172.2919597927
 30
0.0
 10
78.891347604
 20
172.2878206605
 30
0.0
 10
78.8919291007
 20
172.2807273349
 30
0.0
 10
78.8930211866
 20
172.2711065807
 30
0.0
 10
78.8940778648
 20
172.2662387476
 30
0.0
 10
78.8950534237
 20
172.2626725195
 30
0.0
 10
78.8958239723
 20
172.2626725194
 30
0.0
  0
SPLINE
  5
735
100
AcDbEntity
  8
00_COMPONENTS_29_4
100
AcDbSpline
 62
7
  6
CONTINUOUS
 70
0
 71
3
 72
8
 73
4
 74
0
 42
0.0000001
 43
0.0000001
 44
0.0000000001
 40
0.0
 40
0.0
 40
0.0
 40
0.0
 40
1.0
 40
1.0
 40
1.0
 40
1.0
 10
62.1144535597
 20
172.2919603919
 30
0.0
 10
62.1051620683
 20
172.2826993515
 30
0.0
 10
62.0938151311
 20
172.2751570783
 30
0.0
 10
62.0816826652
 20
172.2701668928
 30
0.0
  0
SPLINE
  5
736
100
AcDbEntity
  8
00_COMPONENTS_29_4
100
AcDbSpline
 62
7
  6
CONTINUOUS
 70
0
 71
3
 72
11
 73
7
 74
0
 42
0.0000001
 43
0.0000001
 44
0.0000000001
 40
0.0
 40
0.0
 40
0.0
 40
0.0
 40
0.3694327639
 40
0.5097599671
 40
0.6646368924
 40
1.0
 40
1.0
 40
1.0
 40
1.0
 10
67.0673600605
 20
158.7962489939
 30
0.0
 10
67.1096762901
 20
158.7962489939
 30
0.0
 10
67.1528143989
 20
158.8610404366
 30
0.0
 10
67.1762250037
 20
158.9305395361
 30
0.0
 10
67.1925841486
 20
159.0017333117
 30
0.0
 10
67.1969304134
 20
159.0578352319
 30
0.0
 10
67.1969304134
 20
159.0962489939
 30
0.0
  0
SPLINE
  5
737
100
AcDbEntity
  8
00_COMPONENTS_29_4
100
AcDbSpline
 62
7
  6
CONTINUOUS
 70
0
 71
3
 72
11
 73
7
 74
0
 42
0.0000001
 43
0.0000001
 44
0.0000000001
 40
0.0
 40
0.0
 40
0.0
 40
0.0
 40
0.2487973358
 40
0.4984913546
 40
0.7490665311
 40
1.0
 40
1.0
 40
1.0
 40
1.0
 10
65.2500404729
 20
160.0084733752
 30
0.0
 10
65.2937991301
 20
160.290510295
 30
0.0
 10
65.3953912049
 20
160.8535779117
 30
0.0
 10
65.5979425817
 20
161.6893171192
 30
0.0
 10
65.8588217197
 20
162.5112541134
 30
0.0
 10
66.0858798854
 20
163.0421053113
 30
0.0
 10
66.2210665569
 20
163.2962489936
 30
0.0
  0
SPLINE
  5
738
100
AcDbEntity
  8
00_COMPONENTS_29_4
100
AcDbSpline
 62
7
  6
CONTINUOUS
 70
0
 71
3
 72
11
 73
7
 74
0
 42
0.0000001
 43
0.0000001
 44
0.0000000001
 40
0.0
 40
0.0
 40
0.0
 40
0.0
 40
0.2332466128
 40
0.4766038331
 40
0.7336388487
 40
1.0
 40
1.0
 40
1.0
 40
1.0
 10
65.5098481641
 20
158.7962489939
 30
0.0
 10
65.4758398802
 20
158.7962489939
 30
0.0
 10
65.4054622359
 20
158.8127620063
 30
0.0
 10
65.3193500118
 20
158.8810910942
 30
0.0
 10
65.2629713399
 20
158.9804245467
 30
0.0
 10
65.250040543
 20
159.0574124785
 30
0.0
 10
65.250040543
 20
159.0962489939
 30
0.0
  0
SPLINE
  5
739
100
AcDbEntity
  8
00_COMPONENTS_29_4
100
AcDbSpline
 62
7
  6
CONTINUOUS
 70
0
 71
3
 72
10
 73
6
 74
0
 42
0.0000001
 43
0.0000001
 44
0.0000000001
 40
0.0
 40
0.0
 40
0.0
 40
0.0
 40
0.2006983429
 40
0.4494290696
 40
1.0
 40
1.0
 40
1.0
 40
1.0
 10
65.0800971841
 20
159.0962543587
 30
0.0
 10
65.0570849298
 20
159.0828303259
 30
0.0
 10
65.0023344048
 20
159.0583772463
 30
0.0
 10
64.8758285113
 20
159.0180473587
 30
0.0
 10
64.7705324566
 20
158.9990252186
 30
0.0
 10
64.6976455846
 20
158.9936482932
 30
0.0
  0
SPLINE
  5
73A
100
AcDbEntity
  8
00_COMPONENTS_29_4
100
AcDbSpline
 62
7
  6
CONTINUOUS
 70
0
 71
3
 72
10
 73
6
 74
0
 42
0.0000001
 43
0.0000001
 44
0.0000000001
 40
0.0
 40
0.0
 40
0.0
 40
0.0
 40
0.5538724311
 40
0.8101405983
 40
1.0
 40
1.0
 40
1.0
 40
1.0
 10
64.9040094016
 20
160.1110810461
 30
0.0
 10
64.971043331
 20
160.1061525623
 30
0.0
 10
65.0687850707
 20
160.0883034695
 30
0.0
 10
65.1832633161
 20
160.0477960934
 30
0.0
 10
65.2315612638
 20
160.0222371318
 30
0.0
 10
65.2500401401
 20
160.0084753939
 30
0.0
  0
SPLINE
  5
73B
100
AcDbEntity
  8
00_COMPONENTS_29_4
100
AcDbSpline
 62
7
  6
CONTINUOUS
 70
0
 71
3
 72
11
 73
7
 74
0
 42
0.0000001
 43
0.0000001
 44
0.0000000001
 40
0.0
 40
0.0
 40
0.0
 40
0.0
 40
0.2558858127
 40
0.5233901818
 40
0.7761222567
 40
1.0
 40
1.0
 40
1.0
 40
1.0
 10
65.0800976284
 20
159.0962489939
 30
0.0
 10
65.0800976342
 20
159.0589404146
 30
0.0
 10
65.0925063594
 20
158.982053423
 30
0.0
 10
65.1488035345
 20
158.8808170492
 30
0.0
 10
65.2369642081
 20
158.8120269958
 30
0.0
 10
65.3072635003
 20
158.7962489939
 30
0.0
 10
65.3399052495
 20
158.7962489939
 30
0.0
  0
SPLINE
  5
73C
100
AcDbEntity
  8
00_COMPONENTS_29_4
100
AcDbSpline
 62
7
  6
CONTINUOUS
 70
0
 71
3
 72
12
 73
8
 74
0
 42
0.0000001
 43
0.0000001
 44
0.0000000001
 40
0.0
 40
0.0
 40
0.0
 40
0.0
 40
0.1392240601
 40
0.2384027417
 40
0.3595394953
 40
0.6598914391
 40
1.0
 40
1.0
 40
1.0
 40
1.0
 10
64.6132576166
 20
158.7962489938
 30
0.0
 10
64.6236875501
 20
158.7962489937
 30
0.0
 10
64.6402255612
 20
158.808319007
 30
0.0
 10
64.6552554365
 20
158.8301511016
 30
0.0
 10
64.6724061754
 20
158.8655608774
 30
0.0
 10
64.6873192029
 20
158.9208651348
 30
0.0
 10
64.6948846848
 20
158.968313699
 30
0.0
 10
64.6976443425
 20
158.9936429509
 30
0.0
  0
SPLINE
  5
73D
100
AcDbEntity
  8
00_COMPONENTS_29_4
100
AcDbSpline
 62
7
  6
CONTINUOUS
 70
0
 71
3
 72
9
 73
5
 74
0
 42
0.0000001
 43
0.0000001
 44
0.0000000001
 40
0.0
 40
0.0
 40
0.0
 40
0.0
 40
0.3025947698
 40
1.0
 40
1.0
 40
1.0
 40
1.0
 10
42.9684166208
 20
172.2919597927
 30
0.0
 10
42.9685521562
 20
172.2897553136
 30
0.0
 10
42.9690535075
 20
172.2824752116
 30
0.0
 10
42.9696845593
 20
172.2751923829
 30
0.0
 10
42.9704592642
 20
172.2701613132
 30
0.0
  0
SPLINE
  5
73E
100
AcDbEntity
  8
00_COMPONENTS_29_4
100
AcDbSpline
 62
7
  6
CONTINUOUS
 70
0
 71
3
 72
9
 73
5
 74
0
 42
0.0000001
 43
0.0000001
 44
0.0000000001
 40
0.0
 40
0.0
 40
0.0
 40
0.0
 40
0.7161324457
 40
1.0
 40
1.0
 40
1.0
 40
1.0
 10
42.9704592642
 20
172.2701613132
 30
0.0
 10
42.97074961
 20
172.2682757561
 30
0.0
 10
42.9711980732
 20
172.2662114164
 30
0.0
 10
42.9721465111
 20
172.2626725195
 30
0.0
 10
42.9729027357
 20
172.2626725194
 30
0.0
  0
SPLINE
  5
73F
100
AcDbEntity
  8
00_COMPONENTS_29_4
100
AcDbSpline
 62
7
  6
CONTINUOUS
 70
0
 71
3
 72
9
 73
5
 74
0
 42
0.0000001
 43
0.0000001
 44
0.0000000001
 40
0.0
 40
0.0
 40
0.0
 40
0.0
 40
0.3005961593
 40
1.0
 40
1.0
 40
1.0
 40
1.0
 10
43.0792639397
 20
172.2919597927
 30
0.0
 10
43.0795434666
 20
172.2897523412
 30
0.0
 10
43.0805776781
 20
172.2824286859
 30
0.0
 10
43.0818954179
 20
172.2751028884
 30
0.0
 10
43.0834393191
 20
172.2701613132
 30
0.0
  0
SPLINE
  5
740
100
AcDbEntity
  8
00_COMPONENTS_29_4
100
AcDbSpline
 62
7
  6
CONTINUOUS
 70
0
 71
3
 72
9
 73
5
 74
0
 42
0.0000001
 43
0.0000001
 44
0.0000000001
 40
0.0
 40
0.0
 40
0.0
 40
0.0
 40
0.3802703934
 40
1.0
 40
1.0
 40
1.0
 40
1.0
 10
43.0834393191
 20
172.2701613132
 30
0.0
 10
43.0837836359
 20
172.2690592559
 30
0.0
 10
43.0847349603
 20
172.2664489203
 30
0.0
 10
43.0864742005
 20
172.2626725195
 30
0.0
 10
43.0883558493
 20
172.2626725194
 30
0.0
  0
SPLINE
  5
741
100
AcDbEntity
  8
00_COMPONENTS_29_4
100
AcDbSpline
 62
7
  6
CONTINUOUS
 70
0
 71
3
 72
9
 73
5
 74
0
 42
0.0000001
 43
0.0000001
 44
0.0000000001
 40
0.0
 40
0.0
 40
0.0
 40
0.0
 40
0.2974933849
 40
1.0
 40
1.0
 40
1.0
 40
1.0
 10
43.2665695354
 20
172.2919597927
 30
0.0
 10
43.2669925901
 20
172.289747551
 30
0.0
 10
43.2685638755
 20
172.2823525303
 30
0.0
 10
43.2705992196
 20
172.2749757099
 30
0.0
 10
43.2728597712
 20
172.2701613132
 30
0.0
  0
SPLINE
  5
742
100
AcDbEntity
  8
00_COMPONENTS_29_4
100
AcDbSpline
 62
7
  6
CONTINUOUS
 70
0
 71
3
 72
9
 73
5
 74
0
 42
0.0000001
 43
0.0000001
 44
0.0000000001
 40
0.0
 40
0.0
 40
0.0
 40
0.0
 40
0.3458226204
 40
1.0
 40
1.0
 40
1.0
 40
1.0
 10
43.2728597712
 20
172.2701613132
 30
0.0
 10
43.2733851323
 20
172.2690424285
 30
0.0
 10
43.2749558899
 20
172.2660029011
 30
0.0
 10
43.2778900586
 20
172.2626725195
 30
0.0
 10
43.2802283068
 20
172.2626725194
 30
0.0
  0
SPLINE
  5
743
100
AcDbEntity
  8
00_COMPONENTS_29_4
100
AcDbSpline
 62
7
  6
CONTINUOUS
 70
0
 71
3
 72
9
 73
5
 74
0
 42
0.0000001
 43
0.0000001
 44
0.0000000001
 40
0.0
 40
0.0
 40
0.0
 40
0.0
 40
0.6267772935
 40
1.0
 40
1.0
 40
1.0
 40
1.0
 10
43.5295313368
 20
172.2919597927
 30
0.0
 10
43.531254839
 20
172.2852014703
 30
0.0
 10
43.5344243225
 20
172.2748657081
 30
0.0
 10
43.5412735953
 20
172.2646511337
 30
0.0
 10
43.5451503073
 20
172.2631613017
 30
0.0
  0
SPLINE
  5
744
100
AcDbEntity
  8
00_COMPONENTS_29_4
100
AcDbSpline
 62
7
  6
CONTINUOUS
 70
0
 71
3
 72
9
 73
5
 74
0
 42
0.0000001
 43
0.0000001
 44
0.0000000001
 40
0.0
 40
0.0
 40
0.0
 40
0.0
 40
0.6246491456
 40
1.0
 40
1.0
 40
1.0
 40
1.0
 10
43.8670233008
 20
172.2919597927
 30
0.0
 10
43.8694472524
 20
172.2843304177
 30
0.0
 10
43.8735371914
 20
172.2723940273
 30
0.0
 10
43.884810721
 20
172.2626725195
 30
0.0
 10
43.8896210231
 20
172.2626725194
 30
0.0
  0
SPLINE
  5
745
100
AcDbEntity
  8
00_COMPONENTS_29_4
100
AcDbSpline
 62
7
  6
CONTINUOUS
 70
0
 71
3
 72
9
 73
5
 74
0
 42
0.0000001
 43
0.0000001
 44
0.0000000001
 40
0.0
 40
0.0
 40
0.0
 40
0.0
 40
0.335308352
 40
1.0
 40
1.0
 40
1.0
 40
1.0
 10
44.2776002352
 20
172.2919597927
 30
0.0
 10
44.2792150317
 20
172.2876996357
 30
0.0
 10
44.2843647915
 20
172.2757435504
 30
0.0
 10
44.2955004126
 20
172.2626725196
 30
0.0
 10
44.3045317688
 20
172.2626725194
 30
0.0
  0
SPLINE
  5
746
100
AcDbEntity
  8
00_COMPONENTS_29_4
100
AcDbSpline
 62
7
  6
CONTINUOUS
 70
0
 71
3
 72
8
 73
4
 74
0
 42
0.0000001
 43
0.0000001
 44
0.0000000001
 40
0.0
 40
0.0
 40
0.0
 40
0.0
 40
1.0
 40
1.0
 40
1.0
 40
1.0
 10
57.1709455784
 20
158.9934779463
 30
0.0
 10
57.1432679119
 20
159.145121245
 30
0.0
 10
57.115059339
 20
159.2966671683
 30
0.0
 10
57.0871632491
 20
159.4482704381
 30
0.0
  0
SPLINE
  5
747
100
AcDbEntity
  8
00_COMPONENTS_29_4
100
AcDbSpline
 62
7
  6
CONTINUOUS
 70
0
 71
3
 72
9
 73
5
 74
0
 42
0.0000001
 43
0.0000001
 44
0.0000000001
 40
0.0
 40
0.0
 40
0.0
 40
0.0
 40
0.3210403958
 40
1.0
 40
1.0
 40
1.0
 40
1.0
 10
44.7595039864
 20
172.2919597927
 30
0.0
 10
44.7613885067
 20
172.2876646523
 30
0.0
 10
44.7677337047
 20
172.2749739793
 30
0.0
 10
44.7807344532
 20
172.2626725196
 30
0.0
 10
44.7906540064
 20
172.2626725194
 30
0.0
  0
LINE
  5
748
100
AcDbEntity
  8
00_COMPONENTS_29_4
100
AcDbLine
 62
7
  6
CONTINUOUS
 10
57.0871632491
 20
159.4482704381
 11
57.0473600515
 21
159.663381157
  0
SPLINE
  5
749
100
AcDbEntity
  8
00_COMPONENTS_29_4
100
AcDbSpline
 62
7
  6
CONTINUOUS
 70
0
 71
3
 72
9
 73
5
 74
0
 42
0.0000001
 43
0.0000001
 44
0.0000000001
 40
0.0
 40
0.0
 40
0.0
 40
0.0
 40
0.5679583234
 40
1.0
 40
1.0
 40
1.0
 40
1.0
 10
45.3106709686
 20
172.2919597929
 30
0.0
 10
45.3146775442
 20
172.2838915789
 30
0.0
 10
45.3233747506
 20
172.2701083922
 30
0.0
 10
45.3390535705
 20
172.2626725195
 30
0.0
 10
45.3459060859
 20
172.2626725194
 30
0.0
  0
SPLINE
  5
74A
100
AcDbEntity
  8
00_COMPONENTS_29_4
100
AcDbSpline
 62
7
  6
CONTINUOUS
 70
0
 71
3
 72
9
 73
5
 74
0
 42
0.0000001
 43
0.0000001
 44
0.0000000001
 40
0.0
 40
0.0
 40
0.0
 40
0.0
 40
0.5551689373
 40
1.0
 40
1.0
 40
1.0
 40
1.0
 10
45.9287410004
 20
172.2919597927
 30
0.0
 10
45.933275976
 20
172.2837486082
 30
0.0
 10
45.9435029093
 20
172.2696364602
 30
0.0
 10
45.9603943545
 20
172.2626725195
 30
0.0
 10
45.9679103326
 20
172.2626725194
 30
0.0
  0
LINE
  5
74B
100
AcDbEntity
  8
00_COMPONENTS_29_4
100
AcDbLine
 62
7
  6
CONTINUOUS
 10
57.0473600515
 20
159.663381157
 11
56.9648606064
 21
160.1112509865
  0
SPLINE
  5
74C
100
AcDbEntity
  8
00_COMPONENTS_29_4
100
AcDbSpline
 62
7
  6
CONTINUOUS
 70
0
 71
3
 72
9
 73
5
 74
0
 42
0.0000001
 43
0.0000001
 44
0.0000000001
 40
0.0
 40
0.0
 40
0.0
 40
0.0
 40
0.5446434702
 40
1.0
 40
1.0
 40
1.0
 40
1.0
 10
46.6110674107
 20
172.2919597927
 30
0.0
 10
46.6161223941
 20
172.283613172
 30
0.0
 10
46.6278201255
 20
172.2692609802
 30
0.0
 10
46.6458449052
 20
172.2626725195
 30
0.0
 10
46.6540032288
 20
172.2626725194
 30
0.0
  0
SPLINE
  5
74D
100
AcDbEntity
  8
00_COMPONENTS_29_4
100
AcDbSpline
 62
7
  6
CONTINUOUS
 70
0
 71
3
 72
9
 73
5
 74
0
 42
0.0000001
 43
0.0000001
 44
0.0000000001
 40
0.0
 40
0.0
 40
0.0
 40
0.0
 40
0.5359714197
 40
1.0
 40
1.0
 40
1.0
 40
1.0
 10
47.3547283731
 20
172.2919597927
 30
0.0
 10
47.3602896319
 20
172.2834871561
 30
0.0
 10
47.3733835621
 20
172.2689613559
 30
0.0
 10
47.392472445
 20
172.2626725195
 30
0.0
 10
47.4012468194
 20
172.2626725194
 30
0.0
  0
SPLINE
  5
74E
100
AcDbEntity
  8
00_COMPONENTS_29_4
100
AcDbSpline
 62
7
  6
CONTINUOUS
 70
0
 71
3
 72
9
 73
5
 74
0
 42
0.0000001
 43
0.0000001
 44
0.0000000001
 40
0.0
 40
0.0
 40
0.0
 40
0.0
 40
0.5288127323
 40
1.0
 40
1.0
 40
1.0
 40
1.0
 10
48.1565394174
 20
172.2919597927
 30
0.0
 10
48.1625881821
 20
172.2833716337
 30
0.0
 10
48.1769936551
 20
172.2687214845
 30
0.0
 10
48.1970815036
 20
172.2626725195
 30
0.0
 10
48.2064412927
 20
172.2626725194
 30
0.0
  0
SPLINE
  5
74F
100
AcDbEntity
  8
00_COMPONENTS_29_4
100
AcDbSpline
 62
7
  6
CONTINUOUS
 70
0
 71
3
 72
10
 73
6
 74
0
 42
0.0000001
 43
0.0000001
 44
0.0000000001
 40
0.0
 40
0.0
 40
0.0
 40
0.0
 40
0.2538063915
 40
0.5047602207
 40
1.0
 40
1.0
 40
1.0
 40
1.0
 10
65.9909522056
 20
163.2962489939
 30
0.0
 10
65.8448493499
 20
163.0504720752
 30
0.0
 10
65.5941510124
 20
162.5377917273
 30
0.0
 10
65.2048816582
 20
161.4797408357
 30
0.0
 10
65.0052828066
 20
160.6597207394
 30
0.0
 10
64.9040087581
 20
160.1110809885
 30
0.0
  0
SPLINE
  5
750
100
AcDbEntity
  8
00_COMPONENTS_29_4
100
AcDbSpline
 62
7
  6
CONTINUOUS
 70
0
 71
3
 72
9
 73
5
 74
0
 42
0.0000001
 43
0.0000001
 44
0.0000000001
 40
0.0
 40
0.0
 40
0.0
 40
0.0
 40
0.5228922717
 40
1.0
 40
1.0
 40
1.0
 40
1.0
 10
49.0130670654
 20
172.2919597927
 30
0.0
 10
49.0195799463
 20
172.2832670757
 30
0.0
 10
49.0352056663
 20
172.2685288515
 30
0.0
 10
49.0562278491
 20
172.2626725195
 30
0.0
 10
49.0661386822
 20
172.2626725194
 30
0.0
  0
LINE
  5
751
100
AcDbEntity
  8
00_COMPONENTS_29_4
100
AcDbLine
 62
7
  6
CONTINUOUS
 10
64.9038662537
 20
160.1112510186
 11
64.6977812217
 21
158.9934779343
  0
SPLINE
  5
752
100
AcDbEntity
  8
00_COMPONENTS_29_4
100
AcDbSpline
 62
7
  6
CONTINUOUS
 70
0
 71
3
 72
9
 73
5
 74
0
 42
0.0000001
 43
0.0000001
 44
0.0000000001
 40
0.0
 40
0.0
 40
0.0
 40
0.0
 40
0.5179901917
 40
1.0
 40
1.0
 40
1.0
 40
1.0
 10
49.9206435343
 20
172.2919597927
 30
0.0
 10
49.9275929874
 20
172.2831735333
 30
0.0
 10
49.9443430936
 20
172.2683737645
 30
0.0
 10
49.9662333889
 20
172.2626725195
 30
0.0
 10
49.9766576319
 20
172.2626725194
 30
0.0
  0
SPLINE
  5
753
100
AcDbEntity
  8
00_COMPONENTS_29_4
100
AcDbSpline
 62
7
  6
CONTINUOUS
 70
0
 71
3
 72
10
 73
6
 74
0
 42
0.0000001
 43
0.0000001
 44
0.0000000001
 40
0.0
 40
0.0
 40
0.0
 40
0.0
 40
0.5505270983
 40
0.7992775096
 40
1.0
 40
1.0
 40
1.0
 40
1.0
 10
57.1710811684
 20
158.9936497677
 30
0.0
 10
57.0982001385
 20
158.9990262996
 30
0.0
 10
56.9929069236
 20
159.018045928
 30
0.0
 10
56.8664015435
 20
159.0583768806
 30
0.0
 10
56.8116448299
 20
159.0828303954
 30
0.0
 10
56.7886297034
 20
159.0962558395
 30
0.0
  0
SPLINE
  5
754
100
AcDbEntity
  8
00_COMPONENTS_29_4
100
AcDbSpline
 62
7
  6
CONTINUOUS
 70
0
 71
3
 72
9
 73
5
 74
0
 42
0.0000001
 43
0.0000001
 44
0.0000000001
 40
0.0
 40
0.0
 40
0.0
 40
0.0
 40
0.5139319847
 40
1.0
 40
1.0
 40
1.0
 40
1.0
 10
50.8753824423
 20
172.2919597927
 30
0.0
 10
50.8827372445
 20
172.2830907851
 30
0.0
 10
50.9005125698
 20
172.2682487306
 30
0.0
 10
50.9232020178
 20
172.2626725195
 30
0.0
 10
50.9340991597
 20
172.2626725194
 30
0.0
  0
SPLINE
  5
755
100
AcDbEntity
  8
00_COMPONENTS_29_4
100
AcDbSpline
 62
7
  6
CONTINUOUS
 70
0
 71
3
 72
10
 73
6
 74
0
 42
0.0000001
 43
0.0000001
 44
0.0000000001
 40
0.0
 40
0.0
 40
0.0
 40
0.0
 40
0.1898592414
 40
0.4461273344
 40
1.0
 40
1.0
 40
1.0
 40
1.0
 10
56.6186865656
 20
160.0084753224
 30
0.0
 10
56.6371654332
 20
160.0222370563
 30
0.0
 10
56.6854633746
 20
160.04779602
 30
0.0
 10
56.7999416688
 20
160.0883034185
 30
0.0
 10
56.8976834738
 20
160.106152518
 30
0.0
 10
56.964717462
 20
160.1110809942
 30
0.0
  0
SPLINE
  5
756
100
AcDbEntity
  8
00_COMPONENTS_29_4
100
AcDbSpline
 62
7
  6
CONTINUOUS
 70
0
 71
3
 72
9
 73
5
 74
0
 42
0.0000001
 43
0.0000001
 44
0.0000000001
 40
0.0
 40
0.0
 40
0.0
 40
0.0
 40
0.5105796408
 40
1.0
 40
1.0
 40
1.0
 40
1.0
 10
51.8731954491
 20
172.2919597948
 30
0.0
 10
51.8809211579
 20
172.2830184499
 30
0.0
 10
51.8996200041
 20
172.2681479644
 30
0.0
 10
51.9230363651
 20
172.2626725197
 30
0.0
 10
51.934363354
 20
172.2626725194
 30
0.0
  0
SPLINE
  5
757
100
AcDbEntity
  8
00_COMPONENTS_29_4
100
AcDbSpline
 62
7
  6
CONTINUOUS
 70
0
 71
3
 72
12
 73
8
 74
0
 42
0.0000001
 43
0.0000001
 44
0.0000000001
 40
0.0
 40
0.0
 40
0.0
 40
0.0
 40
0.340108512
 40
0.640460415
 40
0.7615971623
 40
0.8607758544
 40
1.0
 40
1.0
 40
1.0
 40
1.0
 10
57.1710824702
 20
158.9936429508
 30
0.0
 10
57.1738421315
 20
158.9683136968
 30
0.0
 10
57.1814076235
 20
158.920865129
 30
0.0
 10
57.1963206715
 20
158.8655608688
 30
0.0
 10
57.2134714311
 20
158.830151096
 30
0.0
 10
57.2285013291
 20
158.8083189986
 30
0.0
 10
57.2450393572
 20
158.7962489938
 30
0.0
 10
57.2554692997
 20
158.7962489938
 30
0.0
  0
SPLINE
  5
758
100
AcDbEntity
  8
00_COMPONENTS_29_4
100
AcDbSpline
 62
7
  6
CONTINUOUS
 70
0
 71
3
 72
9
 73
5
 74
0
 42
0.0000001
 43
0.0000001
 44
0.0000000001
 40
0.0
 40
0.0
 40
0.0
 40
0.0
 40
0.5078243086
 40
1.0
 40
1.0
 40
1.0
 40
1.0
 10
52.9098097716
 20
172.2919597927
 30
0.0
 10
52.9178691614
 20
172.2829560631
 30
0.0
 10
52.937387786
 20
172.2680670015
 30
0.0
 10
52.9614553849
 20
172.2626725195
 30
0.0
 10
52.9731669301
 20
172.2626725194
 30
0.0
  0
SPLINE
  5
759
100
AcDbEntity
  8
00_COMPONENTS_29_4
100
AcDbSpline
 62
7
  6
CONTINUOUS
 70
0
 71
3
 72
9
 73
5
 74
0
 42
0.0000001
 43
0.0000001
 44
0.0000000001
 40
0.0
 40
0.0
 40
0.0
 40
0.0
 40
0.5055804357
 40
1.0
 40
1.0
 40
1.0
 40
1.0
 10
53.9807864626
 20
172.2919597927
 30
0.0
 10
53.9891399267
 20
172.2829031452
 30
0.0
 10
54.0093728864
 20
172.2680024089
 30
0.0
 10
54.0340127134
 20
172.2626725195
 30
0.0
 10
54.0460615715
 20
172.2626725194
 30
0.0
  0
SPLINE
  5
75A
100
AcDbEntity
  8
00_COMPONENTS_29_4
100
AcDbSpline
 62
7
  6
CONTINUOUS
 70
0
 71
3
 72
11
 73
7
 74
0
 42
0.0000001
 43
0.0000001
 44
0.0000000001
 40
0.0
 40
0.0
 40
0.0
 40
0.0
 40
0.2238777182
 40
0.4766097816
 40
0.7441141595
 40
1.0
 40
1.0
 40
1.0
 40
1.0
 10
56.5288214603
 20
158.7962489939
 30
0.0
 10
56.5614632058
 20
158.7962489939
 30
0.0
 10
56.6317624924
 20
158.8120269926
 30
0.0
 10
56.719923166
 20
158.8808170387
 30
0.0
 10
56.7762203475
 20
158.9820534136
 30
0.0
 10
56.7886290745
 20
159.0589404106
 30
0.0
 10
56.7886290807
 20
159.0962489939
 30
0.0
  0
SPLINE
  5
75B
100
AcDbEntity
  8
00_COMPONENTS_29_4
100
AcDbSpline
 62
7
  6
CONTINUOUS
 70
0
 71
3
 72
9
 73
5
 74
0
 42
0.0000001
 43
0.0000001
 44
0.0000000001
 40
0.0
 40
0.0
 40
0.0
 40
0.0
 40
0.5037811729
 40
1.0
 40
1.0
 40
1.0
 40
1.0
 10
55.0815394374
 20
172.2919597927
 30
0.0
 10
55.0901453651
 20
172.2828592305
 30
0.0
 10
55.1109857678
 20
172.2679515545
 30
0.0
 10
55.1361157341
 20
172.2626725195
 30
0.0
 10
55.1484529786
 20
172.2626725194
 30
0.0
  0
SPLINE
  5
75C
100
AcDbEntity
  8
00_COMPONENTS_29_4
100
AcDbSpline
 62
7
  6
CONTINUOUS
 70
0
 71
3
 72
9
 73
5
 74
0
 42
0.0000001
 43
0.0000001
 44
0.0000000001
 40
0.0
 40
0.0
 40
0.0
 40
0.0
 40
0.5023748488
 40
1.0
 40
1.0
 40
1.0
 40
1.0
 10
56.2073551028
 20
172.2919597927
 30
0.0
 10
56.2161702283
 20
172.2828238988
 30
0.0
 10
56.237509956
 20
172.2679124407
 30
0.0
 10
56.263045256
 20
172.2626725195
 30
0.0
 10
56.2756205422
 20
172.2626725194
 30
0.0
  0
SPLINE
  5
75D
100
AcDbEntity
  8
00_COMPONENTS_29_4
100
AcDbSpline
 62
7
  6
CONTINUOUS
 70
0
 71
3
 72
9
 73
5
 74
0
 42
0.0000001
 43
0.0000001
 44
0.0000000001
 40
0.0
 40
0.0
 40
0.0
 40
0.0
 40
0.5013222953
 40
1.0
 40
1.0
 40
1.0
 40
1.0
 10
57.3534125432
 20
172.2919597927
 30
0.0
 10
57.3623922735
 20
172.2827967906
 30
0.0
 10
57.3841221932
 20
172.2678835774
 30
0.0
 10
57.4099757328
 20
172.2626725195
 30
0.0
 10
57.4227375577
 20
172.2626725194
 30
0.0
  0
SPLINE
  5
75E
100
AcDbEntity
  8
00_COMPONENTS_29_4
100
AcDbSpline
 62
7
  6
CONTINUOUS
 70
0
 71
3
 72
11
 73
7
 74
0
 42
0.0000001
 43
0.0000001
 44
0.0000000001
 40
0.0
 40
0.0
 40
0.0
 40
0.0
 40
0.2509331691
 40
0.5015081454
 40
0.7512024013
 40
1.0
 40
1.0
 40
1.0
 40
1.0
 10
55.6476580337
 20
163.296248994
 30
0.0
 10
55.7828514993
 20
163.0421092258
 30
0.0
 10
56.0099027205
 20
162.5112545001
 30
0.0
 10
56.27078453
 20
161.6893191414
 30
0.0
 10
56.4733357438
 20
160.8535790357
 30
0.0
 10
56.5749275393
 20
160.2905106858
 30
0.0
 10
56.6186862287
 20
160.0084733865
 30
0.0
  0
SPLINE
  5
75F
100
AcDbEntity
  8
00_COMPONENTS_29_4
100
AcDbSpline
 62
7
  6
CONTINUOUS
 70
0
 71
3
 72
8
 73
4
 74
0
 42
0.0000001
 43
0.0000001
 44
0.0000000001
 40
0.0
 40
0.0
 40
0.0
 40
0.0
 40
1.0
 40
1.0
 40
1.0
 40
1.0
 10
59.6865567102
 20
172.2919597927
 30
0.0
 10
59.7045396685
 20
172.2739332364
 30
0.0
 10
59.7316444372
 20
172.2626725196
 30
0.0
 10
59.7571070279
 20
172.2626725194
 30
0.0
  0
SPLINE
  5
760
100
AcDbEntity
  8
00_COMPONENTS_29_4
100
AcDbSpline
 62
7
  6
CONTINUOUS
 70
0
 71
3
 72
11
 73
7
 74
0
 42
0.0000001
 43
0.0000001
 44
0.0000000001
 40
0.0
 40
0.0
 40
0.0
 40
0.0
 40
0.2663611513
 40
0.5233961669
 40
0.7667533872
 40
1.0
 40
1.0
 40
1.0
 40
1.0
 10
56.6186861651
 20
159.0962489939
 30
0.0
 10
56.6186861651
 20
159.0574124785
 30
0.0
 10
56.6057553682
 20
158.9804245467
 30
0.0
 10
56.5493766963
 20
158.8810910942
 30
0.0
 10
56.4632644721
 20
158.8127620063
 30
0.0
 10
56.3928868279
 20
158.7962489939
 30
0.0
 10
56.3588785439
 20
158.7962489939
 30
0.0
  0
SPLINE
  5
761
100
AcDbEntity
  8
00_COMPONENTS_29_4
100
AcDbSpline
 62
7
  6
CONTINUOUS
 70
0
 71
3
 72
11
 73
7
 74
0
 42
0.0000001
 43
0.0000001
 44
0.0000000001
 40
0.0
 40
0.0
 40
0.0
 40
0.0
 40
0.3694327639
 40
0.5097599671
 40
0.6646368924
 40
1.0
 40
1.0
 40
1.0
 40
1.0
 10
54.8013666476
 20
158.7962489939
 30
0.0
 10
54.7590504179
 20
158.7962489939
 30
0.0
 10
54.7159123092
 20
158.8610404366
 30
0.0
 10
54.6925017044
 20
158.9305395361
 30
0.0
 10
54.6761425595
 20
159.0017333117
 30
0.0
 10
54.6717962946
 20
159.0578352319
 30
0.0
 10
54.6717962946
 20
159.0962489939
 30
0.0
  0
SPLINE
  5
762
100
AcDbEntity
  8
00_COMPONENTS_29_4
100
AcDbSpline
 62
7
  6
CONTINUOUS
 70
0
 71
3
 72
11
 73
7
 74
0
 42
0.0000001
 43
0.0000001
 44
0.0000000001
 40
0.0
 40
0.0
 40
0.0
 40
0.0
 40
0.1841691503
 40
0.4121910487
 40
0.6906650507
 40
1.0
 40
1.0
 40
1.0
 40
1.0
 10
52.909434227
 20
158.7962489939
 30
0.0
 10
52.8865041879
 20
158.7962489939
 30
0.0
 10
52.8351421762
 20
158.8170429212
 30
0.0
 10
52.7821475103
 20
158.8876205681
 30
0.0
 10
52.7476641251
 20
158.9841959241
 30
0.0
 10
52.7398934708
 20
159.0577351468
 30
0.0
 10
52.7398934708
 20
159.0962489939
 30
0.0
  0
SPLINE
  5
763
100
AcDbEntity
  8
00_COMPONENTS_29_4
100
AcDbSpline
 62
7
  6
CONTINUOUS
 70
0
 71
3
 72
9
 73
5
 74
0
 42
0.0000001
 43
0.0000001
 44
0.0000000001
 40
0.0
 40
0.0
 40
0.0
 40
0.0
 40
0.4921756929
 40
1.0
 40
1.0
 40
1.0
 40
1.0
 10
68.895559778
 20
172.2626725194
 30
0.0
 10
68.9072713228
 20
172.2626725193
 30
0.0
 10
68.9313389211
 20
172.2680670005
 30
0.0
 10
68.950857544
 20
172.2829560621
 30
0.0
 10
68.9589169344
 20
172.2919597904
 30
0.0
  0
SPLINE
  5
764
100
AcDbEntity
  8
00_COMPONENTS_29_4
100
AcDbSpline
 62
7
  6
CONTINUOUS
 70
0
 71
3
 72
9
 73
5
 74
0
 42
0.0000001
 43
0.0000001
 44
0.0000000001
 40
0.0
 40
0.0
 40
0.0
 40
0.0
 40
0.4894203616
 40
1.0
 40
1.0
 40
1.0
 40
1.0
 10
69.934363354
 20
172.2626725194
 30
0.0
 10
69.9456903421
 20
172.2626725193
 30
0.0
 10
69.9691067018
 20
172.2681479628
 30
0.0
 10
69.987805545
 20
172.2830184477
 30
0.0
 10
69.9955312549
 20
172.2919597901
 30
0.0
  0
SPLINE
  5
765
100
AcDbEntity
  8
00_COMPONENTS_29_4
100
AcDbSpline
 62
7
  6
CONTINUOUS
 70
0
 71
3
 72
9
 73
5
 74
0
 42
0.0000001
 43
0.0000001
 44
0.0000000001
 40
0.0
 40
0.0
 40
0.0
 40
0.0
 40
0.486068017
 40
1.0
 40
1.0
 40
1.0
 40
1.0
 10
70.9346275484
 20
172.2626725194
 30
0.0
 10
70.9455246898
 20
172.2626725193
 30
0.0
 10
70.9682141373
 20
172.2682487296
 30
0.0
 10
70.985989461
 20
172.2830907841
 30
0.0
 10
70.9933442638
 20
172.2919597904
 30
0.0
  0
SPLINE
  5
766
100
AcDbEntity
  8
00_COMPONENTS_29_4
100
AcDbSpline
 62
7
  6
CONTINUOUS
 70
0
 71
3
 72
9
 73
5
 74
0
 42
0.0000001
 43
0.0000001
 44
0.0000000001
 40
0.0
 40
0.0
 40
0.0
 40
0.0
 40
0.4820098102
 40
1.0
 40
1.0
 40
1.0
 40
1.0
 10
71.8920690762
 20
172.2626725194
 30
0.0
 10
71.9024933188
 20
172.2626725193
 30
0.0
 10
71.9243836136
 20
172.2683737635
 30
0.0
 10
71.9411337182
 20
172.2831735322
 30
0.0
 10
71.948083172
 20
172.2919597904
 30
0.0
  0
SPLINE
  5
767
100
AcDbEntity
  8
00_COMPONENTS_29_4
100
AcDbSpline
 62
7
  6
CONTINUOUS
 70
0
 71
3
 72
9
 73
5
 74
0
 42
0.0000001
 43
0.0000001
 44
0.0000000001
 40
0.0
 40
0.0
 40
0.0
 40
0.0
 40
0.4771077304
 40
1.0
 40
1.0
 40
1.0
 40
1.0
 10
72.8025880258
 20
172.2626725194
 30
0.0
 10
72.8124988586
 20
172.2626725193
 30
0.0
 10
72.8335210409
 20
172.2685288505
 30
0.0
 10
72.8491467595
 20
172.2832670745
 30
0.0
 10
72.855659641
 20
172.2919597904
 30
0.0
  0
SPLINE
  5
768
100
AcDbEntity
  8
00_COMPONENTS_29_4
100
AcDbSpline
 62
7
  6
CONTINUOUS
 70
0
 71
3
 72
9
 73
5
 74
0
 42
0.0000001
 43
0.0000001
 44
0.0000000001
 40
0.0
 40
0.0
 40
0.0
 40
0.0
 40
0.4711872699
 40
1.0
 40
1.0
 40
1.0
 40
1.0
 10
73.6622854154
 20
172.2626725194
 30
0.0
 10
73.6716452041
 20
172.2626725193
 30
0.0
 10
73.6917330522
 20
172.2687214835
 30
0.0
 10
73.7061385238
 20
172.2833716325
 30
0.0
 10
73.7121872891
 20
172.2919597904
 30
0.0
  0
SPLINE
  5
769
100
AcDbEntity
  8
00_COMPONENTS_29_4
100
AcDbSpline
 62
7
  6
CONTINUOUS
 70
0
 71
3
 72
9
 73
5
 74
0
 42
0.0000001
 43
0.0000001
 44
0.0000000001
 40
0.0
 40
0.0
 40
0.0
 40
0.0
 40
0.4640285827
 40
1.0
 40
1.0
 40
1.0
 40
1.0
 10
74.4674798887
 20
172.2626725194
 30
0.0
 10
74.4762542628
 20
172.2626725193
 30
0.0
 10
74.4953431451
 20
172.2689613549
 30
0.0
 10
74.5084370741
 20
172.2834871548
 30
0.0
 10
74.5139983335
 20
172.2919597904
 30
0.0
  0
SPLINE
  5
76A
100
AcDbEntity
  8
00_COMPONENTS_29_4
100
AcDbSpline
 62
7
  6
CONTINUOUS
 70
0
 71
3
 72
9
 73
5
 74
0
 42
0.0000001
 43
0.0000001
 44
0.0000000001
 40
0.0
 40
0.0
 40
0.0
 40
0.0
 40
0.4553565324
 40
1.0
 40
1.0
 40
1.0
 40
1.0
 10
75.2147234793
 20
172.2626725194
 30
0.0
 10
75.2228818026
 20
172.2626725193
 30
0.0
 10
75.2409065818
 20
172.2692609792
 30
0.0
 10
75.252604312
 20
172.2836131706
 30
0.0
 10
75.257659296
 20
172.2919597904
 30
0.0
  0
LINE
  5
76B
100
AcDbEntity
  8
00_COMPONENTS_29_4
100
AcDbLine
 62
7
  6
CONTINUOUS
 10
48.6639800896
 20
158.9934778436
 11
48.4951026053
 21
159.4482810301
  0
LINE
  5
76C
100
AcDbEntity
  8
00_COMPONENTS_29_4
100
AcDbLine
 62
7
  6
CONTINUOUS
 10
48.4951026053
 20
159.4482810301
 11
48.4151881188
 21
159.6633918955
  0
LINE
  5
76D
100
AcDbEntity
  8
00_COMPONENTS_29_4
100
AcDbLine
 62
7
  6
CONTINUOUS
 10
48.4151881188
 20
159.6633918955
 11
48.2488904431
 21
160.1112508905
  0
SPLINE
  5
76E
100
AcDbEntity
  8
00_COMPONENTS_29_4
100
AcDbSpline
 62
7
  6
CONTINUOUS
 70
0
 71
3
 72
10
 73
6
 74
0
 42
0.0000001
 43
0.0000001
 44
0.0000000001
 40
0.0
 40
0.0
 40
0.0
 40
0.0
 40
0.2414580749
 40
0.4897793863
 40
1.0
 40
1.0
 40
1.0
 40
1.0
 10
52.0288196433
 20
163.2962489939
 30
0.0
 10
51.9991290759
 20
163.1069835262
 30
0.0
 10
51.9670346597
 20
162.7186281147
 30
0.0
 10
51.9713348682
 20
161.924781242
 30
0.0
 10
52.0306837587
 20
161.3244228547
 30
0.0
 10
52.0857012418
 20
160.9233543907
 30
0.0
  0
SPLINE
  5
76F
100
AcDbEntity
  8
00_COMPONENTS_29_4
100
AcDbSpline
 62
7
  6
CONTINUOUS
 70
0
 71
3
 72
9
 73
5
 74
0
 42
0.0000001
 43
0.0000001
 44
0.0000000001
 40
0.0
 40
0.0
 40
0.0
 40
0.0
 40
0.5069697795
 40
1.0
 40
1.0
 40
1.0
 40
1.0
 10
52.0876378393
 20
162.3031942404
 30
0.0
 10
52.0876358025
 20
162.471540279
 30
0.0
 10
52.0958746296
 20
162.8036816622
 30
0.0
 10
52.1297031442
 20
163.1346562023
 30
0.0
 10
52.1559918972
 20
163.296248995
 30
0.0
  0
SPLINE
  5
770
100
AcDbEntity
  8
00_COMPONENTS_29_4
100
AcDbSpline
 62
7
  6
CONTINUOUS
 70
0
 71
3
 72
9
 73
5
 74
0
 42
0.0000001
 43
0.0000001
 44
0.0000000001
 40
0.0
 40
0.0
 40
0.0
 40
0.0
 40
0.4895239692
 40
1.0
 40
1.0
 40
1.0
 40
1.0
 10
48.6644235967
 20
158.9936429509
 30
0.0
 10
48.6838301166
 20
158.9390120362
 30
0.0
 10
48.7575634907
 20
158.8364308957
 30
0.0
 10
48.8791047025
 20
158.7962489939
 30
0.0
 10
48.9395615268
 20
158.7962489939
 30
0.0
  0
SPLINE
  5
771
100
AcDbEntity
  8
00_COMPONENTS_29_4
100
AcDbSpline
 62
7
  6
CONTINUOUS
 70
0
 71
3
 72
9
 73
5
 74
0
 42
0.0000001
 43
0.0000001
 44
0.0000000001
 40
0.0
 40
0.0
 40
0.0
 40
0.0
 40
0.4919668664
 40
1.0
 40
1.0
 40
1.0
 40
1.0
 10
46.8692881712
 20
163.2962489937
 30
0.0
 10
47.0663032939
 20
162.7626946008
 30
0.0
 10
47.4446159534
 20
161.6700062218
 30
0.0
 10
47.7988151475
 20
160.5694280303
 30
0.0
 10
47.9728821251
 20
160.0084736215
 30
0.0
  0
SPLINE
  5
772
100
AcDbEntity
  8
00_COMPONENTS_29_4
100
AcDbSpline
 62
7
  6
CONTINUOUS
 70
0
 71
3
 72
9
 73
5
 74
0
 42
0.0000001
 43
0.0000001
 44
0.0000000001
 40
0.0
 40
0.0
 40
0.0
 40
0.0
 40
0.4995856061
 40
1.0
 40
1.0
 40
1.0
 40
1.0
 10
46.6840071047
 20
158.810932039
 30
0.0
 10
46.6253524034
 20
158.830023745
 30
0.0
 10
46.5174409873
 20
158.9077528549
 30
0.0
 10
46.4773264114
 20
159.0344630581
 30
0.0
 10
46.4773264114
 20
159.0962489939
 30
0.0
  0
SPLINE
  5
773
100
AcDbEntity
  8
00_COMPONENTS_29_4
100
AcDbSpline
 62
7
  6
CONTINUOUS
 70
0
 71
3
 72
9
 73
5
 74
0
 42
0.0000001
 43
0.0000001
 44
0.0000000001
 40
0.0
 40
0.0
 40
0.0
 40
0.0
 40
0.4448310655
 40
1.0
 40
1.0
 40
1.0
 40
1.0
 10
75.9008163755
 20
172.2626725194
 30
0.0
 10
75.9083323533
 20
172.2626725193
 30
0.0
 10
75.9252237981
 20
172.2696364592
 30
0.0
 10
75.9354507302
 20
172.2837486068
 30
0.0
 10
75.9399857064
 20
172.2919597904
 30
0.0
  0
SPLINE
  5
774
100
AcDbEntity
  8
00_COMPONENTS_29_4
100
AcDbSpline
 62
7
  6
CONTINUOUS
 70
0
 71
3
 72
9
 73
5
 74
0
 42
0.0000001
 43
0.0000001
 44
0.0000000001
 40
0.0
 40
0.0
 40
0.0
 40
0.0
 40
0.4320416801
 40
1.0
 40
1.0
 40
1.0
 40
1.0
 10
76.5228206222
 20
172.2626725194
 30
0.0
 10
76.5296731372
 20
172.2626725192
 30
0.0
 10
76.5453519566
 20
172.2701083911
 30
0.0
 10
76.5540491619
 20
172.2838915772
 30
0.0
 10
76.5580557381
 20
172.2919597901
 30
0.0
  0
SPLINE
  5
775
100
AcDbEntity
  8
00_COMPONENTS_29_4
100
AcDbSpline
 62
7
  6
CONTINUOUS
 70
0
 71
3
 72
9
 73
5
 74
0
 42
0.0000001
 43
0.0000001
 44
0.0000000001
 40
0.0
 40
0.0
 40
0.0
 40
0.0
 40
0.2319947425
 40
1.0
 40
1.0
 40
1.0
 40
1.0
 10
77.0780727016
 20
172.2626725194
 30
0.0
 10
77.0795128068
 20
172.2626725194
 30
0.0
 10
77.0857347107
 20
172.263365327
 30
0.0
 10
77.091346027
 20
172.2669082224
 30
0.0
 10
77.0948310345
 20
172.2701613264
 30
0.0
  0
SPLINE
  5
776
100
AcDbEntity
  8
00_COMPONENTS_29_4
100
AcDbSpline
 62
7
  6
CONTINUOUS
 70
0
 71
3
 72
9
 73
5
 74
0
 42
0.0000001
 43
0.0000001
 44
0.0000000001
 40
0.0
 40
0.0
 40
0.0
 40
0.0
 40
0.2204002403
 40
1.0
 40
1.0
 40
1.0
 40
1.0
 10
77.0948310345
 20
172.2701613264
 30
0.0
 10
77.096239465
 20
172.2714760354
 30
0.0
 10
77.1021800735
 20
172.2779230179
 30
0.0
 10
77.1064845241
 20
172.2857189786
 30
0.0
 10
77.1092227206
 20
172.2919597904
 30
0.0
  0
SPLINE
  5
777
100
AcDbEntity
  8
00_COMPONENTS_29_4
100
AcDbSpline
 62
7
  6
CONTINUOUS
 70
0
 71
3
 72
9
 73
5
 74
0
 42
0.0000001
 43
0.0000001
 44
0.0000000001
 40
0.0
 40
0.0
 40
0.0
 40
0.0
 40
0.2255461592
 40
1.0
 40
1.0
 40
1.0
 40
1.0
 10
77.5641949392
 20
172.2626725194
 30
0.0
 10
77.5654433606
 20
172.2626725194
 30
0.0
 10
77.5709993342
 20
172.2633992383
 30
0.0
 10
77.575776107
 20
172.2670162896
 30
0.0
 10
77.5786889045
 20
172.2701613264
 30
0.0
  0
SPLINE
  5
778
100
AcDbEntity
  8
00_COMPONENTS_29_4
100
AcDbSpline
 62
7
  6
CONTINUOUS
 70
0
 71
3
 72
9
 73
5
 74
0
 42
0.0000001
 43
0.0000001
 44
0.0000000001
 40
0.0
 40
0.0
 40
0.0
 40
0.0
 40
0.2155371892
 40
1.0
 40
1.0
 40
1.0
 40
1.0
 10
77.5786889045
 20
172.2701613264
 30
0.0
 10
77.5799185013
 20
172.2714889597
 30
0.0
 10
77.5851544966
 20
172.2780820685
 30
0.0
 10
77.5887921291
 20
172.2858013272
 30
0.0
 10
77.591126472
 20
172.2919597904
 30
0.0
  0
SPLINE
  5
779
100
AcDbEntity
  8
00_COMPONENTS_29_4
100
AcDbSpline
 62
7
  6
CONTINUOUS
 70
0
 71
3
 72
9
 73
5
 74
0
 42
0.0000001
 43
0.0000001
 44
0.0000000001
 40
0.0
 40
0.0
 40
0.0
 40
0.0
 40
0.2063819732
 40
1.0
 40
1.0
 40
1.0
 40
1.0
 10
77.9791056849
 20
172.2626725194
 30
0.0
 10
77.9803605568
 20
172.2626725193
 30
0.0
 10
77.986479548
 20
172.2638770838
 30
0.0
 10
77.9908134567
 20
172.2691356104
 30
0.0
 10
77.9934077436
 20
172.2732043678
 30
0.0
  0
SPLINE
  5
77A
100
AcDbEntity
  8
00_COMPONENTS_29_4
100
AcDbSpline
 62
7
  6
CONTINUOUS
 70
0
 71
3
 72
9
 73
5
 74
0
 42
0.0000001
 43
0.0000001
 44
0.0000000001
 40
0.0
 40
0.0
 40
0.0
 40
0.0
 40
0.2194432085
 40
1.0
 40
1.0
 40
1.0
 40
1.0
 10
77.9934077436
 20
172.2732043678
 30
0.0
 10
77.994215561
 20
172.2744713105
 30
0.0
 10
77.9976173214
 20
172.2804227873
 30
0.0
 10
78.000085067
 20
172.2868660761
 30
0.0
 10
78.0017034065
 20
172.2919597904
 30
0.0
  0
SPLINE
  5
77B
100
AcDbEntity
  8
00_COMPONENTS_29_4
100
AcDbSpline
 62
7
  6
CONTINUOUS
 70
0
 71
3
 72
9
 73
5
 74
0
 42
0.0000001
 43
0.0000001
 44
0.0000000001
 40
0.0
 40
0.0
 40
0.0
 40
0.0
 40
0.1754788024
 40
1.0
 40
1.0
 40
1.0
 40
1.0
 10
78.3210282272
 20
172.2626725194
 30
0.0
 10
78.3222779639
 20
172.2626725193
 30
0.0
 10
78.3293663295
 20
172.2650212719
 30
0.0
 10
78.3325433815
 20
172.2726472277
 30
0.0
 10
78.33475189
 20
172.2780882206
 30
0.0
  0
SPLINE
  5
77C
100
AcDbEntity
  8
00_COMPONENTS_29_4
100
AcDbSpline
 62
7
  6
CONTINUOUS
 70
0
 71
3
 72
9
 73
5
 74
0
 42
0.0000001
 43
0.0000001
 44
0.0000000001
 40
0.0
 40
0.0
 40
0.0
 40
0.0
 40
0.2284359867
 40
1.0
 40
1.0
 40
1.0
 40
1.0
 10
78.33475189
 20
172.2780882206
 30
0.0
 10
78.3351692172
 20
172.2791163691
 30
0.0
 10
78.3368957964
 20
172.2836578687
 30
0.0
 10
78.3382692407
 20
172.2883281828
 30
0.0
 10
78.3391953707
 20
172.2919597904
 30
0.0
  0
SPLINE
  5
77D
100
AcDbEntity
  8
00_COMPONENTS_29_4
100
AcDbSpline
 62
7
  6
CONTINUOUS
 70
0
 71
3
 72
9
 73
5
 74
0
 42
0.0000001
 43
0.0000001
 44
0.0000000001
 40
0.0
 40
0.0
 40
0.0
 40
0.0
 40
0.333855121
 40
1.0
 40
1.0
 40
1.0
 40
1.0
 10
78.5884984013
 20
172.2626725194
 30
0.0
 10
78.5912150287
 20
172.2626725193
 30
0.0
 10
78.597160418
 20
172.2706767861
 30
0.0
 10
78.5989231618
 20
172.2779752577
 30
0.0
 10
78.60024455
 20
172.2832322474
 30
0.0
  0
LINE
  5
77E
100
AcDbEntity
  8
00_COMPONENTS_29_4
100
AcDbLine
 62
7
  6
CONTINUOUS
 10
78.60024455
 20
172.2832322474
 11
78.6021571722
 21
172.2919597904
  0
SPLINE
  5
77F
100
AcDbEntity
  8
00_COMPONENTS_29_4
100
AcDbSpline
 62
7
  6
CONTINUOUS
 70
0
 71
3
 72
10
 73
6
 74
0
 42
0.0000001
 43
0.0000001
 44
0.0000000001
 40
0.0
 40
0.0
 40
0.0
 40
0.0
 40
0.1011729682
 40
0.2978681638
 40
1.0
 40
1.0
 40
1.0
 40
1.0
 10
78.7803708588
 20
172.2626725194
 30
0.0
 10
78.7814308443
 20
172.2626725193
 30
0.0
 10
78.7838569379
 20
172.2654947989
 30
0.0
 10
78.7869388239
 20
172.2750823615
 30
0.0
 10
78.7885386397
 20
172.2846618586
 30
0.0
 10
78.7894627681
 20
172.2919597904
 30
0.0
  0
SPLINE
  5
780
100
AcDbEntity
  8
00_COMPONENTS_29_4
100
AcDbSpline
 62
7
  6
CONTINUOUS
 70
0
 71
3
 72
11
 73
7
 74
0
 42
0.0000001
 43
0.0000001
 44
0.0000000001
 40
0.0
 40
0.0
 40
0.0
 40
0.0
 40
0.0769445744
 40
0.2714477863
 40
0.58384221
 40
1.0
 40
1.0
 40
1.0
 40
1.0
 10
78.8958239723
 20
172.2626725194
 30
0.0
 10
78.8965905859
 20
172.2626725193
 30
0.0
 10
78.8975371354
 20
172.2662476897
 30
0.0
 10
78.8985335286
 20
172.2711065127
 30
0.0
 10
78.8995360298
 20
172.280731532
 30
0.0
 10
78.9000556477
 20
172.2878213446
 30
0.0
 10
78.9003100872
 20
172.2919597904
 30
0.0
  0
SPLINE
  5
781
100
AcDbEntity
  8
00_COMPONENTS_29_4
100
AcDbSpline
 62
7
  6
CONTINUOUS
 70
0
 71
3
 72
9
 73
5
 74
0
 42
0.0000001
 43
0.0000001
 44
0.0000000001
 40
0.0
 40
0.0
 40
0.0
 40
0.0
 40
0.4995856061
 40
1.0
 40
1.0
 40
1.0
 40
1.0
 10
75.1847196034
 20
158.810932039
 30
0.0
 10
75.2433743046
 20
158.830023745
 30
0.0
 10
75.3512857208
 20
158.9077528549
 30
0.0
 10
75.3914002966
 20
159.0344630581
 30
0.0
 10
75.3914002966
 20
159.0962489939
 30
0.0
  0
SPLINE
  5
782
100
AcDbEntity
  8
00_COMPONENTS_29_4
100
AcDbSpline
 62
7
  6
CONTINUOUS
 70
0
 71
3
 72
9
 73
5
 74
0
 42
0.0000001
 43
0.0000001
 44
0.0000000001
 40
0.0
 40
0.0
 40
0.0
 40
0.0
 40
0.508032148
 40
1.0
 40
1.0
 40
1.0
 40
1.0
 10
73.8958446182
 20
160.0084733971
 30
0.0
 10
74.0699112959
 20
160.5694267608
 30
0.0
 10
74.4241101809
 20
161.6700051678
 30
0.0
 10
74.8024235472
 20
162.7626934042
 30
0.0
 10
74.9994388622
 20
163.296248995
 30
0.0
  0
SPLINE
  5
783
100
AcDbEntity
  8
00_COMPONENTS_29_4
100
AcDbSpline
 62
7
  6
CONTINUOUS
 70
0
 71
3
 72
9
 73
5
 74
0
 42
0.0000001
 43
0.0000001
 44
0.0000000001
 40
0.0
 40
0.0
 40
0.0
 40
0.0
 40
0.4929270212
 40
1.0
 40
1.0
 40
1.0
 40
1.0
 10
46.9722313523
 20
163.2962489939
 30
0.0
 10
47.1982648065
 20
162.7796894962
 30
0.0
 10
47.6351040318
 20
161.722256053
 30
0.0
 10
48.0461958254
 20
160.6547115165
 30
0.0
 10
48.2484334661
 20
160.1110809981
 30
0.0
  0
SPLINE
  5
784
100
AcDbEntity
  8
00_COMPONENTS_29_4
100
AcDbSpline
 62
7
  6
CONTINUOUS
 70
0
 71
3
 72
10
 73
6
 74
0
 42
0.0000001
 43
0.0000001
 44
0.0000000001
 40
0.0
 40
0.0
 40
0.0
 40
0.0
 40
0.2538063442
 40
0.5047602163
 40
1.0
 40
1.0
 40
1.0
 40
1.0
 10
55.8777709351
 20
163.2962489939
 30
0.0
 10
56.0238740724
 20
163.0504721536
 30
0.0
 10
56.2745745175
 20
162.5377926085
 30
0.0
 10
56.6638456841
 20
161.4797417057
 30
0.0
 10
56.8634440394
 20
160.6597210104
 30
0.0
 10
56.9647180942
 20
160.1110809981
 30
0.0
  0
SPLINE
  5
785
100
AcDbEntity
  8
00_COMPONENTS_29_4
100
AcDbSpline
 62
7
  6
CONTINUOUS
 70
0
 71
3
 72
10
 73
6
 74
0
 42
0.0000001
 43
0.0000001
 44
0.0000000001
 40
0.0
 40
0.0
 40
0.0
 40
0.0
 40
0.2414575347
 40
0.4897791548
 40
1.0
 40
1.0
 40
1.0
 40
1.0
 10
69.8399026797
 20
163.2962489939
 30
0.0
 10
69.8695930921
 20
163.1069841521
 30
0.0
 10
69.9016949862
 20
162.7186300341
 30
0.0
 10
69.8973893493
 20
161.9247837156
 30
0.0
 10
69.8380434996
 20
161.3244256144
 30
0.0
 10
69.7830260482
 20
160.9233574167
 30
0.0
  0
SPLINE
  5
786
100
AcDbEntity
  8
00_COMPONENTS_29_4
100
AcDbSpline
 62
7
  6
CONTINUOUS
 70
0
 71
3
 72
9
 73
5
 74
0
 42
0.0000001
 43
0.0000001
 44
0.0000000001
 40
0.0
 40
0.0
 40
0.0
 40
0.0
 40
0.5104760446
 40
1.0
 40
1.0
 40
1.0
 40
1.0
 10
72.9291652288
 20
158.7962489937
 30
0.0
 10
72.9896220515
 20
158.7962489936
 30
0.0
 10
73.1111632568
 20
158.8364309009
 30
0.0
 10
73.1848966189
 20
158.93901204
 30
0.0
 10
73.2043031354
 20
158.9936429508
 30
0.0
  0
SPLINE
  5
787
100
AcDbEntity
  8
00_COMPONENTS_29_4
100
AcDbSpline
 62
7
  6
CONTINUOUS
 70
0
 71
3
 72
9
 73
5
 74
0
 42
0.0000001
 43
0.0000001
 44
0.0000000001
 40
0.0
 40
0.0
 40
0.0
 40
0.0
 40
0.4929272958
 40
1.0
 40
1.0
 40
1.0
 40
1.0
 10
74.8964941679
 20
163.2962489939
 30
0.0
 10
74.6704558397
 20
162.7796913684
 30
0.0
 10
74.2336255172
 20
161.7222542304
 30
0.0
 10
73.8225307764
 20
160.6547111393
 30
0.0
 10
73.620293271
 20
160.1110809887
 30
0.0
  0
LINE
  5
788
100
AcDbEntity
  8
00_COMPONENTS_29_4
100
AcDbLine
 62
7
  6
CONTINUOUS
 10
73.6198365235
 20
160.1112508359
 11
73.204746853
 21
158.9934777503
  0
SPLINE
  5
789
100
AcDbEntity
  8
00_COMPONENTS_29_4
100
AcDbSpline
 62
7
  6
CONTINUOUS
 70
0
 71
3
 72
8
 73
4
 74
0
 42
0.0000001
 43
0.0000001
 44
0.0000000001
 40
0.0
 40
0.0
 40
0.0
 40
0.0
 40
1.0
 40
1.0
 40
1.0
 40
1.0
 10
62.1116196802
 20
172.2626725194
 30
0.0
 10
62.1370822698
 20
172.2626725191
 30
0.0
 10
62.1641870359
 20
172.2739332368
 30
0.0
 10
62.1821699956
 20
172.2919597904
 30
0.0
  0
SPLINE
  5
78A
100
AcDbEntity
  8
00_COMPONENTS_29_4
100
AcDbSpline
 62
7
  6
CONTINUOUS
 70
0
 71
3
 72
9
 73
5
 74
0
 42
0.0000001
 43
0.0000001
 44
0.0000000001
 40
0.0
 40
0.0
 40
0.0
 40
0.0
 40
0.498677706
 40
1.0
 40
1.0
 40
1.0
 40
1.0
 10
64.4459891503
 20
172.2626725194
 30
0.0
 10
64.4587509748
 20
172.2626725193
 30
0.0
 10
64.4846045138
 20
172.2678835764
 30
0.0
 10
64.5063344317
 20
172.2827967897
 30
0.0
 10
64.5153141626
 20
172.2919597904
 30
0.0
  0
SPLINE
  5
78B
100
AcDbEntity
  8
00_COMPONENTS_29_4
100
AcDbSpline
 62
7
  6
CONTINUOUS
 70
0
 71
3
 72
9
 73
5
 74
0
 42
0.0000001
 43
0.0000001
 44
0.0000000001
 40
0.0
 40
0.0
 40
0.0
 40
0.0
 40
0.4976251525
 40
1.0
 40
1.0
 40
1.0
 40
1.0
 10
65.5931061659
 20
172.2626725194
 30
0.0
 10
65.6056814516
 20
172.2626725193
 30
0.0
 10
65.631216751
 20
172.2679124396
 30
0.0
 10
65.6525564769
 20
172.2828238979
 30
0.0
 10
65.661371603
 20
172.2919597904
 30
0.0
  0
SPLINE
  5
78C
100
AcDbEntity
  8
00_COMPONENTS_29_4
100
AcDbSpline
 62
7
  6
CONTINUOUS
 70
0
 71
3
 72
9
 73
5
 74
0
 42
0.0000001
 43
0.0000001
 44
0.0000000001
 40
0.0
 40
0.0
 40
0.0
 40
0.0
 40
0.4930297536
 40
1.0
 40
1.0
 40
1.0
 40
1.0
 10
69.712734596
 20
163.2962489947
 30
0.0
 10
69.7390236371
 20
163.1346580027
 30
0.0
 10
69.7728519673
 20
162.8036866184
 30
0.0
 10
69.7810907226
 20
162.4715484507
 30
0.0
 10
69.7810888494
 20
162.3032038776
 30
0.0
  0
SPLINE
  5
78D
100
AcDbEntity
  8
00_COMPONENTS_29_4
100
AcDbSpline
 62
7
  6
CONTINUOUS
 70
0
 71
3
 72
9
 73
5
 74
0
 42
0.0000001
 43
0.0000001
 44
0.0000000001
 40
0.0
 40
0.0
 40
0.0
 40
0.0
 40
0.4962188284
 40
1.0
 40
1.0
 40
1.0
 40
1.0
 10
66.7202737295
 20
172.2626725194
 30
0.0
 10
66.7326109735
 20
172.2626725193
 30
0.0
 10
66.7577409392
 20
172.2679515535
 30
0.0
 10
66.7785813402
 20
172.2828592296
 30
0.0
 10
66.7871872685
 20
172.2919597904
 30
0.0
  0
SPLINE
  5
78E
100
AcDbEntity
  8
00_COMPONENTS_29_4
100
AcDbSpline
 62
7
  6
CONTINUOUS
 70
0
 71
3
 72
9
 73
5
 74
0
 42
0.0000001
 43
0.0000001
 44
0.0000000001
 40
0.0
 40
0.0
 40
0.0
 40
0.0
 40
0.4944195658
 40
1.0
 40
1.0
 40
1.0
 40
1.0
 10
67.8226651366
 20
172.2626725194
 30
0.0
 10
67.8347139942
 20
172.2626725193
 30
0.0
 10
67.8593538207
 20
172.2680024079
 30
0.0
 10
67.8795867786
 20
172.2829031442
 30
0.0
 10
67.8879402433
 20
172.2919597904
 30
0.0
  0
SPLINE
  5
78F
100
AcDbEntity
  8
00_COMPONENTS_29_4
100
AcDbSpline
 62
7
  6
CONTINUOUS
 70
0
 71
3
 72
11
 73
7
 74
0
 42
0.0000001
 43
0.0000001
 44
0.0000000001
 40
0.0
 40
0.0
 40
0.0
 40
0.0
 40
0.1841691503
 40
0.4121910487
 40
0.6906650507
 40
1.0
 40
1.0
 40
1.0
 40
1.0
 10
68.959292481
 20
158.7962489939
 30
0.0
 10
68.9822225202
 20
158.7962489939
 30
0.0
 10
69.0335845319
 20
158.8170429212
 30
0.0
 10
69.0865791978
 20
158.8876205681
 30
0.0
 10
69.121062583
 20
158.9841959241
 30
0.0
 10
69.1288332372
 20
159.0577351468
 30
0.0
 10
69.1288332372
 20
159.0962489939
 30
0.0
  0
SPLINE
  5
790
100
AcDbEntity
  8
00_COMPONENTS_108_1
100
AcDbSpline
 62
7
  6
CONTINUOUS
 70
0
 71
3
 72
9
 73
5
 74
0
 42
0.0000001
 43
0.0000001
 44
0.0000000001
 40
0.0
 40
0.0
 40
0.0
 40
0.0
 40
0.4998035191
 40
1.0
 40
1.0
 40
1.0
 40
1.0
 10
46.7922277303
 20
173.2624339467
 30
0.0
 10
46.7922277303
 20
173.2880342412
 30
0.0
 10
46.8139843224
 20
173.3413560215
 30
0.0
 10
46.867375477
 20
173.3624339467
 30
0.0
 10
46.8929958993
 20
173.3624339467
 30
0.0
  0
SPLINE
  5
791
100
AcDbEntity
  8
00_COMPONENTS_108_1
100
AcDbSpline
 62
7
  6
CONTINUOUS
 70
0
 71
3
 72
9
 73
5
 74
0
 42
0.0000001
 43
0.0000001
 44
0.0000000001
 40
0.0
 40
0.0
 40
0.0
 40
0.0
 40
0.5001588464
 40
1.0
 40
1.0
 40
1.0
 40
1.0
 10
74.9757308088
 20
173.3624339467
 30
0.0
 10
75.0013493006
 20
173.3624339467
 30
0.0
 10
75.0547400906
 20
173.3413582466
 30
0.0
 10
75.0764989778
 20
173.2880361661
 30
0.0
 10
75.0764989778
 20
173.2624339467
 30
0.0
  0
ELLIPSE
  5
792
100
AcDbEntity
  8
00_COMPONENTS_14_2_1_1_5
100
AcDbEllipse
 62
7
  6
CONTINUOUS
 10
74.634363354
 20
129.4134342507
 30
0.0
 11
0.1534301361
 21
0.9971270376
 31
0.0
 40
0.2585395808
 41
-4.1755365083
 42
-2.6047401815
  0
ELLIPSE
  5
793
100
AcDbEntity
  8
00_COMPONENTS_14_2_1
100
AcDbEllipse
 62
7
  6
CONTINUOUS
 10
54.834363354
 20
129.4134342507
 30
0.0
 11
0.1534301361
 21
0.9971270376
 31
0.0
 40
0.2585395808
 41
-4.1755365083
 42
-2.6047401815
  0
ELLIPSE
  5
794
100
AcDbEntity
  8
00_COMPONENTS_16_2
100
AcDbEllipse
 62
7
  6
CONTINUOUS
 10
57.134363354
 20
136.691982309
 30
0.0
 11
0.0
 21
0.742526056
 31
0.0
 40
0.4040262258
 41
-3.1415926536
 42
-1.5707963268
  0
ELLIPSE
  5
795
100
AcDbEntity
  8
00_COMPONENTS_16_2
100
AcDbEllipse
 62
7
  6
CONTINUOUS
 10
58.2808363091
 20
127.6948336979
 30
0.0
 11
0.5196152423
 21
-0.0
 31
0.0
 40
0.5773502692
 41
2.5307274155
 42
2.8705194976
  0
ELLIPSE
  5
796
100
AcDbEntity
  8
00_COMPONENTS_16_2
100
AcDbEllipse
 62
7
  6
CONTINUOUS
 10
57.134363354
 20
129.5134342507
 30
0.0
 11
-0.1534301361
 21
0.9971270376
 31
0.0
 40
0.2585395808
 41
-3.0583061193
 42
-2.1076487987
  0
ELLIPSE
  5
797
100
AcDbEntity
  8
00_COMPONENTS_13
100
AcDbEllipse
 62
7
  6
CONTINUOUS
 10
67.3638816169
 20
127.9389795598
 30
0.0
 11
0.3476688792
 21
-0.1918129304
 31
0.0
 40
0.6634708285
 41
-0.8771093246
 42
-0.2569703187
  0
ELLIPSE
  5
798
100
AcDbEntity
  8
00_COMPONENTS_13
100
AcDbEllipse
 62
7
  6
CONTINUOUS
 10
67.034363354
 20
136.591982309
 30
0.0
 11
0.0
 21
0.742526056
 31
0.0
 40
0.4040262258
 41
-3.1415926536
 42
-2.1629096894
  0
ELLIPSE
  5
799
100
AcDbEntity
  8
00_COMPONENTS_13
100
AcDbEllipse
 62
7
  6
CONTINUOUS
 10
67.034363354
 20
129.4134342507
 30
0.0
 11
-0.1534301361
 21
0.9971270376
 31
0.0
 40
0.2585395808
 41
-3.0583061193
 42
-2.1076487986
  0
ELLIPSE
  5
79A
100
AcDbEntity
  8
00_COMPONENTS_15
100
AcDbEllipse
 62
7
  6
CONTINUOUS
 10
47.5638816169
 20
127.9389795598
 30
0.0
 11
0.3476688792
 21
-0.1918129304
 31
0.0
 40
0.6634708285
 41
-0.8771093246
 42
-0.2569703187
  0
ELLIPSE
  5
79B
100
AcDbEntity
  8
00_COMPONENTS_15
100
AcDbEllipse
 62
7
  6
CONTINUOUS
 10
47.234363354
 20
136.591982309
 30
0.0
 11
-0.0
 21
0.742526056
 31
0.0
 40
0.4040262258
 41
-3.1415926536
 42
-2.1629096894
  0
ELLIPSE
  5
79C
100
AcDbEntity
  8
00_COMPONENTS_15
100
AcDbEllipse
 62
7
  6
CONTINUOUS
 10
47.234363354
 20
129.4134342507
 30
0.0
 11
-0.1534301361
 21
0.9971270376
 31
0.0
 40
0.2585395808
 41
-3.0583061193
 42
-2.1076487986
  0
ELLIPSE
  5
79D
100
AcDbEntity
  8
00_COMPONENTS_12_1
100
AcDbEllipse
 62
7
  6
CONTINUOUS
 10
64.734363354
 20
129.5134342507
 30
0.0
 11
0.1534301361
 21
0.9971270376
 31
0.0
 40
0.2585395808
 41
-4.1755365085
 42
-3.2248791878
  0
ELLIPSE
  5
79E
100
AcDbEntity
  8
00_COMPONENTS_12_1
100
AcDbEllipse
 62
7
  6
CONTINUOUS
 10
63.587890399
 20
127.6948336979
 30
0.0
 11
0.5196152423
 21
0.0
 31
0.0
 40
0.5773502692
 41
0.2710731558
 42
0.6108652379
  0
ELLIPSE
  5
79F
100
AcDbEntity
  8
00_COMPONENTS
100
AcDbEllipse
 62
7
  6
CONTINUOUS
 10
60.934363354
 20
186.8901248645
 30
0.0
 11
-0.0
 21
44.235998193
 31
0.0
 40
0.1763269807
 41
-3.6317455632
 42
-3.553971696
  0
ELLIPSE
  5
7A0
100
AcDbEntity
  8
00_COMPONENTS
100
AcDbEllipse
 62
7
  6
CONTINUOUS
 10
60.934363354
 20
186.8901248645
 30
0.0
 11
-0.0
 21
44.235998193
 31
0.0
 40
0.1763269807
 41
-2.7292136111
 42
-2.651439744
  0
ELLIPSE
  5
7A1
100
AcDbEntity
  8
00_COMPONENTS_29_4
100
AcDbEllipse
 62
7
  6
CONTINUOUS
 10
60.934363354
 20
172.2212489939
 30
0.0
 11
0.0
 21
18.0
 31
0.0
 40
1.0
 41
1.5444043742
 42
1.5668679462
  0
ELLIPSE
  5
7A2
100
AcDbEntity
  8
00_COMPONENTS_29_4
100
AcDbEllipse
 62
7
  6
CONTINUOUS
 10
60.934363354
 20
172.2212489939
 30
0.0
 11
13.1375533086
 21
13.1375533086
 31
0.0
 40
0.936602208
 41
-3.9861076931
 42
-3.9636441282
  0
ELLIPSE
  5
7A3
100
AcDbEntity
  8
00_COMPONENTS_29_4
100
AcDbEllipse
 62
7
  6
CONTINUOUS
 10
60.934363354
 20
172.2212489939
 30
0.0
 11
13.5331165346
 21
13.5331165346
 31
0.0
 40
0.876976463
 41
-4.0188326165
 42
-3.9963690517
  0
ELLIPSE
  5
7A4
100
AcDbEntity
  8
00_COMPONENTS_29_4
100
AcDbEllipse
 62
7
  6
CONTINUOUS
 10
60.934363354
 20
172.2212489939
 30
0.0
 11
13.9141881605
 21
13.9141881605
 31
0.0
 40
0.8206787908
 41
-4.05155754
 42
-4.0290939752
  0
ELLIPSE
  5
7A5
100
AcDbEntity
  8
00_COMPONENTS_29_4
100
AcDbEllipse
 62
7
  6
CONTINUOUS
 10
60.934363354
 20
172.2212489939
 30
0.0
 11
14.2803601252
 21
14.2803601252
 31
0.0
 40
0.767326988
 41
-4.0842824635
 42
-4.0618188987
  0
ELLIPSE
  5
7A6
100
AcDbEntity
  8
00_COMPONENTS_29_4
100
AcDbEllipse
 62
7
  6
CONTINUOUS
 10
60.934363354
 20
172.2212489939
 30
0.0
 11
14.6312403227
 21
14.6312403226
 31
0.0
 40
0.7165898661
 41
-4.117007387
 42
-4.0945438221
  0
ELLIPSE
  5
7A7
100
AcDbEntity
  8
00_COMPONENTS_29_4
100
AcDbEllipse
 62
7
  6
CONTINUOUS
 10
60.934363354
 20
172.2212489939
 30
0.0
 11
14.9664530214
 21
14.9664530214
 31
0.0
 40
0.6681786379
 41
-4.1497323104
 42
-4.1272687456
  0
ELLIPSE
  5
7A8
100
AcDbEntity
  8
00_COMPONENTS_29_4
100
AcDbEllipse
 62
7
  6
CONTINUOUS
 10
60.934363354
 20
172.2212489939
 30
0.0
 11
15.2856392675
 21
15.2856392675
 31
0.0
 40
0.6218399601
 41
-4.1824572339
 42
-4.1599936691
  0
ELLIPSE
  5
7A9
100
AcDbEntity
  8
00_COMPONENTS_29_4
100
AcDbEllipse
 62
7
  6
CONTINUOUS
 10
60.934363354
 20
172.2212489939
 30
0.0
 11
15.5884572681
 21
15.5884572681
 31
0.0
 40
0.5773502692
 41
-4.2151821574
 42
-4.1927185926
  0
ELLIPSE
  5
7AA
100
AcDbEntity
  8
00_COMPONENTS_29_4
100
AcDbEllipse
 62
7
  6
CONTINUOUS
 10
60.934363354
 20
172.2212489939
 30
0.0
 11
15.8745827583
 21
15.8745827583
 31
0.0
 40
0.534511136
 41
-4.2479070809
 42
-4.225443516
  0
ELLIPSE
  5
7AB
100
AcDbEntity
  8
00_COMPONENTS_29_4
100
AcDbEllipse
 62
7
  6
CONTINUOUS
 10
60.934363354
 20
172.2212489939
 30
0.0
 11
16.1437093476
 21
16.1437093476
 31
0.0
 40
0.493145426
 41
-4.2806320043
 42
-4.2581684395
  0
ELLIPSE
  5
7AC
100
AcDbEntity
  8
00_COMPONENTS_29_4
100
AcDbEllipse
 62
7
  6
CONTINUOUS
 10
60.934363354
 20
172.2212489939
 30
0.0
 11
16.3955488486
 21
16.3955488486
 31
0.0
 40
0.4530941053
 41
-4.3133569278
 42
-4.290893363
  0
ELLIPSE
  5
7AD
100
AcDbEntity
  8
00_COMPONENTS_29_4
100
AcDbEllipse
 62
7
  6
CONTINUOUS
 10
60.934363354
 20
172.2212489939
 30
0.0
 11
16.6298315852
 21
16.6298315852
 31
0.0
 40
0.4142135624
 41
-4.3460818513
 42
-4.3236182865
  0
ELLIPSE
  5
7AE
100
AcDbEntity
  8
00_COMPONENTS_29_4
100
AcDbEllipse
 62
7
  6
CONTINUOUS
 10
60.934363354
 20
172.2212489939
 30
0.0
 11
16.8463066816
 21
16.8463066816
 31
0.0
 40
0.3763733489
 41
-4.3788067748
 42
-4.3563432099
  0
ELLIPSE
  5
7AF
100
AcDbEntity
  8
00_COMPONENTS_29_4
100
AcDbEllipse
 62
7
  6
CONTINUOUS
 10
60.934363354
 20
172.2212489939
 30
0.0
 11
17.0447423309
 21
17.0447423309
 31
0.0
 40
0.3394542589
 41
-4.4115316982
 42
-4.3890681334
  0
ELLIPSE
  5
7B0
100
AcDbEntity
  8
00_COMPONENTS_29_4
100
AcDbEllipse
 62
7
  6
CONTINUOUS
 10
60.934363354
 20
172.2212489939
 30
0.0
 11
17.2249260432
 21
17.2249260432
 31
0.0
 40
0.3033466836
 41
-4.4442566217
 42
-4.4217930569
  0
ELLIPSE
  5
7B1
100
AcDbEntity
  8
00_COMPONENTS_29_4
100
AcDbEllipse
 62
7
  6
CONTINUOUS
 10
60.934363354
 20
172.2212489939
 30
0.0
 11
17.3866648732
 21
17.3866648732
 31
0.0
 40
0.2679491924
 41
-4.4769815452
 42
-4.45451798
  0
ELLIPSE
  5
7B2
100
AcDbEntity
  8
00_COMPONENTS_29_4
100
AcDbEllipse
 62
7
  6
CONTINUOUS
 10
60.934363354
 20
172.2212489939
 30
0.0
 11
17.529785627
 21
17.529785627
 31
0.0
 40
0.2331672972
 41
-4.5097064687
 42
-4.4872429038
  0
ELLIPSE
  5
7B3
100
AcDbEntity
  8
00_COMPONENTS_29_4
100
AcDbEllipse
 62
7
  6
CONTINUOUS
 10
60.934363354
 20
172.2212489939
 30
0.0
 11
17.6541350473
 21
17.6541350473
 31
0.0
 40
0.1989123674
 41
-4.5424313921
 42
-4.5199678273
  0
ELLIPSE
  5
7B4
100
AcDbEntity
  8
00_COMPONENTS_29_4
100
AcDbEllipse
 62
7
  6
CONTINUOUS
 10
60.934363354
 20
172.2212489939
 30
0.0
 11
17.7595799775
 21
17.7595799775
 31
0.0
 40
0.1651006682
 41
-4.5751563156
 42
-4.5526927508
  0
ELLIPSE
  5
7B5
100
AcDbEntity
  8
00_COMPONENTS_29_4
100
AcDbEllipse
 62
7
  6
CONTINUOUS
 10
60.934363354
 20
172.2212489939
 30
0.0
 11
17.8460075047
 21
17.8460075047
 31
0.0
 40
0.1316524976
 41
-4.6078812391
 42
-4.5854176743
  0
ELLIPSE
  5
7B6
100
AcDbEntity
  8
00_COMPONENTS_29_4
100
AcDbEllipse
 62
7
  6
CONTINUOUS
 10
60.934363354
 20
172.2212489939
 30
0.0
 11
17.9133250801
 21
17.9133250801
 31
0.0
 40
0.0984914034
 41
-4.6406061626
 42
-4.6181425977
  0
ELLIPSE
  5
7B7
100
AcDbEntity
  8
00_COMPONENTS_29_4
100
AcDbEllipse
 62
7
  6
CONTINUOUS
 10
60.934363354
 20
172.2212489939
 30
0.0
 11
17.9614606183
 21
17.9614606183
 31
0.0
 40
0.0655434628
 41
-4.673331086
 42
-4.6508675212
  0
ELLIPSE
  5
7B8
100
AcDbEntity
  8
00_COMPONENTS_29_4
100
AcDbEllipse
 62
7
  6
CONTINUOUS
 10
60.934363354
 20
172.2212489939
 30
0.0
 11
17.9903625746
 21
17.9903625746
 31
0.0
 40
0.0327366104
 41
-4.7060560095
 42
-4.6835924447
  0
ELLIPSE
  5
7B9
100
AcDbEntity
  8
00_COMPONENTS_29_4
100
AcDbEllipse
 62
7
  6
CONTINUOUS
 10
60.934363354
 20
172.2212489939
 30
0.0
 11
-17.9903625746
 21
17.9903625746
 31
0.0
 40
0.0327366104
 41
-1.5995928625
 42
-1.5771292977
  0
ELLIPSE
  5
7BA
100
AcDbEntity
  8
00_COMPONENTS_29_4
100
AcDbEllipse
 62
7
  6
CONTINUOUS
 10
60.934363354
 20
172.2212489939
 30
0.0
 11
-17.9614606183
 21
17.9614606183
 31
0.0
 40
0.0655434628
 41
-1.6323177859
 42
-1.6098542211
  0
ELLIPSE
  5
7BB
100
AcDbEntity
  8
00_COMPONENTS_29_4
100
AcDbEllipse
 62
7
  6
CONTINUOUS
 10
60.934363354
 20
172.2212489939
 30
0.0
 11
-17.9133250801
 21
17.9133250801
 31
0.0
 40
0.0984914034
 41
-1.6650427094
 42
-1.6425791446
  0
ELLIPSE
  5
7BC
100
AcDbEntity
  8
00_COMPONENTS_29_4
100
AcDbEllipse
 62
7
  6
CONTINUOUS
 10
60.934363354
 20
172.2212489939
 30
0.0
 11
-17.8460075047
 21
17.8460075047
 31
0.0
 40
0.1316524976
 41
-1.6977676329
 42
-1.6753040681
  0
ELLIPSE
  5
7BD
100
AcDbEntity
  8
00_COMPONENTS_29_4
100
AcDbEllipse
 62
7
  6
CONTINUOUS
 10
60.934363354
 20
172.2212489939
 30
0.0
 11
-17.7595799775
 21
17.7595799775
 31
0.0
 40
0.1651006682
 41
-1.7304925564
 42
-1.7080289916
  0
ELLIPSE
  5
7BE
100
AcDbEntity
  8
00_COMPONENTS_29_4
100
AcDbEllipse
 62
7
  6
CONTINUOUS
 10
60.934363354
 20
172.2212489939
 30
0.0
 11
-17.6541350473
 21
17.6541350473
 31
0.0
 40
0.1989123674
 41
-1.7632174798
 42
-1.740753915
  0
ELLIPSE
  5
7BF
100
AcDbEntity
  8
00_COMPONENTS_29_4
100
AcDbEllipse
 62
7
  6
CONTINUOUS
 10
60.934363354
 20
172.2212489939
 30
0.0
 11
-17.529785627
 21
17.529785627
 31
0.0
 40
0.2331672972
 41
-1.7959424033
 42
-1.7734788385
  0
ELLIPSE
  5
7C0
100
AcDbEntity
  8
00_COMPONENTS_29_4
100
AcDbEllipse
 62
7
  6
CONTINUOUS
 10
60.934363354
 20
172.2212489939
 30
0.0
 11
-17.3866648732
 21
17.3866648732
 31
0.0
 40
0.2679491924
 41
-1.8286673268
 42
-1.806203762
  0
ELLIPSE
  5
7C1
100
AcDbEntity
  8
00_COMPONENTS_29_4
100
AcDbEllipse
 62
7
  6
CONTINUOUS
 10
60.934363354
 20
172.2212489939
 30
0.0
 11
-17.2249260432
 21
17.2249260432
 31
0.0
 40
0.3033466836
 41
-1.8613922503
 42
-1.8389286855
  0
ELLIPSE
  5
7C2
100
AcDbEntity
  8
00_COMPONENTS_29_4
100
AcDbEllipse
 62
7
  6
CONTINUOUS
 10
60.934363354
 20
172.2212489939
 30
0.0
 11
-17.0447423309
 21
17.0447423309
 31
0.0
 40
0.3394542589
 41
-1.8941171737
 42
-1.8716536089
  0
ELLIPSE
  5
7C3
100
AcDbEntity
  8
00_COMPONENTS_29_4
100
AcDbEllipse
 62
7
  6
CONTINUOUS
 10
60.934363354
 20
172.2212489939
 30
0.0
 11
-16.8463066816
 21
16.8463066816
 31
0.0
 40
0.3763733489
 41
-1.9268420972
 42
-1.9043785324
  0
ELLIPSE
  5
7C4
100
AcDbEntity
  8
00_COMPONENTS_29_4
100
AcDbEllipse
 62
7
  6
CONTINUOUS
 10
60.934363354
 20
172.2212489939
 30
0.0
 11
-16.6298315852
 21
16.6298315852
 31
0.0
 40
0.4142135624
 41
-1.9595670207
 42
-1.9371034559
  0
ELLIPSE
  5
7C5
100
AcDbEntity
  8
00_COMPONENTS_29_4
100
AcDbEllipse
 62
7
  6
CONTINUOUS
 10
60.934363354
 20
172.2212489939
 30
0.0
 11
-16.3955488486
 21
16.3955488486
 31
0.0
 40
0.4530941053
 41
-1.9922919442
 42
-1.9698283794
  0
ELLIPSE
  5
7C6
100
AcDbEntity
  8
00_COMPONENTS_29_4
100
AcDbEllipse
 62
7
  6
CONTINUOUS
 10
60.934363354
 20
172.2212489939
 30
0.0
 11
-16.1437093476
 21
16.1437093476
 31
0.0
 40
0.493145426
 41
-2.0250168676
 42
-2.0025533028
  0
ELLIPSE
  5
7C7
100
AcDbEntity
  8
00_COMPONENTS_29_4
100
AcDbEllipse
 62
7
  6
CONTINUOUS
 10
60.934363354
 20
172.2212489939
 30
0.0
 11
-15.8745827583
 21
15.8745827583
 31
0.0
 40
0.534511136
 41
-2.0577417911
 42
-2.0352782263
  0
ELLIPSE
  5
7C8
100
AcDbEntity
  8
00_COMPONENTS_29_4
100
AcDbEllipse
 62
7
  6
CONTINUOUS
 10
60.934363354
 20
172.2212489939
 30
0.0
 11
-15.5884572681
 21
15.5884572681
 31
0.0
 40
0.5773502692
 41
-2.0904667145
 42
-2.0680031498
  0
ELLIPSE
  5
7C9
100
AcDbEntity
  8
00_COMPONENTS_29_4
100
AcDbEllipse
 62
7
  6
CONTINUOUS
 10
60.934363354
 20
172.2212489939
 30
0.0
 11
-15.2856392675
 21
15.2856392675
 31
0.0
 40
0.6218399601
 41
-2.1231916381
 42
-2.1007280733
  0
ELLIPSE
  5
7CA
100
AcDbEntity
  8
00_COMPONENTS_29_4
100
AcDbEllipse
 62
7
  6
CONTINUOUS
 10
60.934363354
 20
172.2212489939
 30
0.0
 11
-14.9664530214
 21
14.9664530214
 31
0.0
 40
0.6681786379
 41
-2.1559165615
 42
-2.1334529967
  0
ELLIPSE
  5
7CB
100
AcDbEntity
  8
00_COMPONENTS_29_4
100
AcDbEllipse
 62
7
  6
CONTINUOUS
 10
60.934363354
 20
172.2212489939
 30
0.0
 11
-14.6312403227
 21
14.6312403226
 31
0.0
 40
0.7165898661
 41
-2.188641485
 42
-2.1661779202
  0
ELLIPSE
  5
7CC
100
AcDbEntity
  8
00_COMPONENTS_29_4
100
AcDbEllipse
 62
7
  6
CONTINUOUS
 10
60.934363354
 20
172.2212489939
 30
0.0
 11
-14.2803601252
 21
14.2803601252
 31
0.0
 40
0.767326988
 41
-2.2213664085
 42
-2.1989028437
  0
ELLIPSE
  5
7CD
100
AcDbEntity
  8
00_COMPONENTS_29_4
100
AcDbEllipse
 62
7
  6
CONTINUOUS
 10
60.934363354
 20
172.2212489939
 30
0.0
 11
-13.9141881605
 21
13.9141881605
 31
0.0
 40
0.8206787908
 41
-2.254091332
 42
-2.2316277672
  0
ELLIPSE
  5
7CE
100
AcDbEntity
  8
00_COMPONENTS_29_4
100
AcDbEllipse
 62
7
  6
CONTINUOUS
 10
60.934363354
 20
172.2212489939
 30
0.0
 11
-13.5331165346
 21
13.5331165346
 31
0.0
 40
0.876976463
 41
-2.2868162554
 42
-2.2643526906
  0
ELLIPSE
  5
7CF
100
AcDbEntity
  8
00_COMPONENTS_29_4
100
AcDbEllipse
 62
7
  6
CONTINUOUS
 10
60.934363354
 20
172.2212489939
 30
0.0
 11
-13.1375533086
 21
13.1375533086
 31
0.0
 40
0.936602208
 41
-2.3195411789
 42
-2.2970776141
  0
ELLIPSE
  5
7D0
100
AcDbEntity
  8
00_COMPONENTS_29_4
100
AcDbEllipse
 62
7
  6
CONTINUOUS
 10
60.934363354
 20
172.2212489939
 30
0.0
 11
0.0
 21
18.0
 31
0.0
 40
1.0
 41
-1.5668679457
 42
-1.5444043742
  0
ELLIPSE
  5
7D1
100
AcDbEntity
  8
00_COMPONENTS_29_4
100
AcDbEllipse
 62
7
  6
CONTINUOUS
 10
59.8102759926
 20
173.7163645096
 30
0.0
 11
-15.9686421767
 21
16.0040193414
 31
0.0
 40
0.3752861817
 41
1.2722310603
 42
1.274278095
  0
ELLIPSE
  5
7D2
100
AcDbEntity
  8
00_COMPONENTS_29_4
100
AcDbEllipse
 62
7
  6
CONTINUOUS
 10
59.7482084655
 20
173.7163645096
 30
0.0
 11
-16.1614642641
 21
16.1903823739
 31
0.0
 40
0.3384200318
 41
1.304746116
 42
1.3099074653
  0
ELLIPSE
  5
7D3
100
AcDbEntity
  8
00_COMPONENTS_29_4
100
AcDbEllipse
 62
7
  6
CONTINUOUS
 10
59.6912202359
 20
173.7163645096
 30
0.0
 11
-16.3365031862
 21
16.3597290898
 31
0.0
 40
0.3023783973
 41
1.3372812356
 42
1.345286435
  0
ELLIPSE
  5
7D4
100
AcDbEntity
  8
00_COMPONENTS_29_4
100
AcDbEllipse
 62
7
  6
CONTINUOUS
 10
59.6395553358
 20
173.7163645096
 30
0.0
 11
-16.4935978418
 21
16.5118300043
 31
0.0
 40
0.267058601
 41
1.3698322467
 42
1.3804819444
  0
ELLIPSE
  5
7D5
100
AcDbEntity
  8
00_COMPONENTS_29_4
100
AcDbEllipse
 62
7
  6
CONTINUOUS
 10
59.5934350026
 20
173.7163645096
 30
0.0
 11
-16.6325961421
 21
16.6464859321
 31
0.0
 40
0.2323648926
 41
1.4023959051
 42
1.4155125484
  0
ELLIPSE
  5
7D6
100
AcDbEntity
  8
00_COMPONENTS_29_4
100
AcDbEllipse
 62
7
  6
CONTINUOUS
 10
59.5530567303
 20
173.7163645096
 30
0.0
 11
-16.7533585531
 21
16.7635250455
 31
0.0
 40
0.1982073658
 41
1.4349696286
 42
1.4504122112
  0
ELLIPSE
  5
7D7
100
AcDbEntity
  8
00_COMPONENTS_29_4
100
AcDbEllipse
 62
7
  6
CONTINUOUS
 10
59.5185934251
 20
173.7163645096
 30
0.0
 11
-16.8557605833
 21
16.8628009139
 31
0.0
 40
0.1645009963
 41
1.4675513144
 42
1.4854344106
  0
ELLIPSE
  5
7D8
100
AcDbEntity
  8
00_COMPONENTS_29_4
100
AcDbEllipse
 62
7
  6
CONTINUOUS
 10
59.4901926641
 20
173.7163645096
 30
0.0
 11
-16.9396945671
 21
16.9441911795
 31
0.0
 40
0.1311647805
 41
1.5001392082
 42
1.5200021563
  0
ELLIPSE
  5
7D9
100
AcDbEntity
  8
00_COMPONENTS_29_4
100
AcDbEllipse
 62
7
  6
CONTINUOUS
 10
59.4679760637
 20
173.7163645096
 30
0.0
 11
-17.0050709556
 21
17.0075966557
 31
0.0
 40
0.0981209546
 41
1.5327318095
 42
1.5545928555
  0
ELLIPSE
  5
7DA
100
AcDbEntity
  8
00_COMPONENTS_29_4
100
AcDbEllipse
 62
7
  6
CONTINUOUS
 10
59.4520387588
 20
173.7163645096
 30
0.0
 11
-17.0518192497
 21
17.0529407137
 31
0.0
 40
0.0652942752
 41
1.565327799
 42
1.5890465523
  0
ELLIPSE
  5
7DB
100
AcDbEntity
  8
00_COMPONENTS_29_4
100
AcDbEllipse
 62
7
  6
CONTINUOUS
 10
59.4424489954
 20
173.7163645096
 30
0.0
 11
-17.0798886594
 21
17.0801688736
 31
0.0
 40
0.0326113496
 41
-4.6852593245
 42
-4.6615405712
  0
ELLIPSE
  5
7DC
100
AcDbEntity
  8
00_COMPONENTS_29_4
100
AcDbEllipse
 62
7
  6
CONTINUOUS
 10
62.4262777126
 20
173.7163645096
 30
0.0
 11
17.0798886594
 21
17.0801688736
 31
0.0
 40
0.0326113496
 41
-1.6216447368
 42
-1.5979259827
  0
ELLIPSE
  5
7DD
100
AcDbEntity
  8
00_COMPONENTS_29_4
100
AcDbEllipse
 62
7
  6
CONTINUOUS
 10
62.4166879492
 20
173.7163645096
 30
0.0
 11
17.0518192497
 21
17.0529407137
 31
0.0
 40
0.0652942752
 41
-1.5890465532
 42
-1.565327799
  0
ELLIPSE
  5
7DE
100
AcDbEntity
  8
00_COMPONENTS_29_4
100
AcDbEllipse
 62
7
  6
CONTINUOUS
 10
62.4007506443
 20
173.7163645096
 30
0.0
 11
17.0050709556
 21
17.0075966557
 31
0.0
 40
0.0981209546
 41
-1.5545928555
 42
-1.5327318095
  0
ELLIPSE
  5
7DF
100
AcDbEntity
  8
00_COMPONENTS_29_4
100
AcDbEllipse
 62
7
  6
CONTINUOUS
 10
62.3785340439
 20
173.7163645096
 30
0.0
 11
16.9396945671
 21
16.9441911795
 31
0.0
 40
0.1311647805
 41
-1.5200021563
 42
-1.5001392082
  0
ELLIPSE
  5
7E0
100
AcDbEntity
  8
00_COMPONENTS_29_4
100
AcDbEllipse
 62
7
  6
CONTINUOUS
 10
62.3501332829
 20
173.7163645096
 30
0.0
 11
16.8557605833
 21
16.8628009139
 31
0.0
 40
0.1645009963
 41
-1.4854344106
 42
-1.4675513144
  0
ELLIPSE
  5
7E1
100
AcDbEntity
  8
00_COMPONENTS_29_4
100
AcDbEllipse
 62
7
  6
CONTINUOUS
 10
62.3156699777
 20
173.7163645096
 30
0.0
 11
16.7533585531
 21
16.7635250455
 31
0.0
 40
0.1982073658
 41
-1.4504122112
 42
-1.4349696286
  0
ELLIPSE
  5
7E2
100
AcDbEntity
  8
00_COMPONENTS_29_4
100
AcDbEllipse
 62
7
  6
CONTINUOUS
 10
62.2752917055
 20
173.7163645096
 30
0.0
 11
16.6325961421
 21
16.6464859321
 31
0.0
 40
0.2323648926
 41
-1.4155125484
 42
-1.4023959051
  0
ELLIPSE
  5
7E3
100
AcDbEntity
  8
00_COMPONENTS_29_4
100
AcDbEllipse
 62
7
  6
CONTINUOUS
 10
62.2291713722
 20
173.7163645096
 30
0.0
 11
16.4935978418
 21
16.5118300043
 31
0.0
 40
0.267058601
 41
-1.3804819444
 42
-1.3698322467
  0
ELLIPSE
  5
7E4
100
AcDbEntity
  8
00_COMPONENTS_29_4
100
AcDbEllipse
 62
7
  6
CONTINUOUS
 10
62.1775064722
 20
173.7163645096
 30
0.0
 11
16.3365031862
 21
16.3597290898
 31
0.0
 40
0.3023783973
 41
-1.345286435
 42
-1.3372812356
  0
ELLIPSE
  5
7E5
100
AcDbEntity
  8
00_COMPONENTS_29_4
100
AcDbEllipse
 62
7
  6
CONTINUOUS
 10
62.1205182425
 20
173.7163645096
 30
0.0
 11
16.1614642641
 21
16.1903823739
 31
0.0
 40
0.3384200318
 41
-1.3099074653
 42
-1.304746116
  0
ELLIPSE
  5
7E6
100
AcDbEntity
  8
00_COMPONENTS_29_4
100
AcDbEllipse
 62
7
  6
CONTINUOUS
 10
62.0584507155
 20
173.7163645096
 30
0.0
 11
15.9686421767
 21
16.0040193414
 31
0.0
 40
0.3752861817
 41
-1.274278095
 42
-1.2722310603
  0
ELLIPSE
  5
7E7
100
AcDbEntity
  8
00_COMPONENTS_29_4
100
AcDbEllipse
 62
7
  6
CONTINUOUS
 10
60.934363354
 20
172.2212489939
 30
0.0
 11
-13.1375533086
 21
13.1375533086
 31
0.0
 40
0.936602208
 41
0.7917311343
 42
0.8141946991
  0
ELLIPSE
  5
7E8
100
AcDbEntity
  8
00_COMPONENTS_29_4
100
AcDbEllipse
 62
7
  6
CONTINUOUS
 10
60.934363354
 20
172.2212489939
 30
0.0
 11
-13.5331165346
 21
13.5331165346
 31
0.0
 40
0.876976463
 41
0.8244560577
 42
0.8469196225
  0
ELLIPSE
  5
7E9
100
AcDbEntity
  8
00_COMPONENTS_29_4
100
AcDbEllipse
 62
7
  6
CONTINUOUS
 10
60.934363354
 20
172.2212489939
 30
0.0
 11
-13.9141881605
 21
13.9141881605
 31
0.0
 40
0.8206787908
 41
0.8571809812
 42
0.879644546
  0
ELLIPSE
  5
7EA
100
AcDbEntity
  8
00_COMPONENTS_29_4
100
AcDbEllipse
 62
7
  6
CONTINUOUS
 10
60.934363354
 20
172.2212489939
 30
0.0
 11
-14.2803601252
 21
14.2803601252
 31
0.0
 40
0.767326988
 41
0.8899059047
 42
0.9123694695
  0
ELLIPSE
  5
7EB
100
AcDbEntity
  8
00_COMPONENTS_29_4
100
AcDbEllipse
 62
7
  6
CONTINUOUS
 10
60.934363354
 20
172.2212489939
 30
0.0
 11
-14.6312403227
 21
14.6312403226
 31
0.0
 40
0.7165898661
 41
0.9226308282
 42
0.945094393
  0
ELLIPSE
  5
7EC
100
AcDbEntity
  8
00_COMPONENTS_29_4
100
AcDbEllipse
 62
7
  6
CONTINUOUS
 10
60.934363354
 20
172.2212489939
 30
0.0
 11
-14.9664530214
 21
14.9664530214
 31
0.0
 40
0.6681786379
 41
0.9553557516
 42
0.9778193164
  0
ELLIPSE
  5
7ED
100
AcDbEntity
  8
00_COMPONENTS_29_4
100
AcDbEllipse
 62
7
  6
CONTINUOUS
 10
60.934363354
 20
172.2212489939
 30
0.0
 11
-15.2856392675
 21
15.2856392675
 31
0.0
 40
0.6218399601
 41
0.9880806751
 42
1.0105442399
  0
ELLIPSE
  5
7EE
100
AcDbEntity
  8
00_COMPONENTS_29_4
100
AcDbEllipse
 62
7
  6
CONTINUOUS
 10
60.934363354
 20
172.2212489939
 30
0.0
 11
-15.5884572681
 21
15.5884572681
 31
0.0
 40
0.5773502692
 41
1.0208055986
 42
1.0432691634
  0
ELLIPSE
  5
7EF
100
AcDbEntity
  8
00_COMPONENTS_29_4
100
AcDbEllipse
 62
7
  6
CONTINUOUS
 10
60.934363354
 20
172.2212489939
 30
0.0
 11
-15.8745827583
 21
15.8745827583
 31
0.0
 40
0.534511136
 41
1.0535305221
 42
1.0759940869
  0
ELLIPSE
  5
7F0
100
AcDbEntity
  8
00_COMPONENTS_29_4
100
AcDbEllipse
 62
7
  6
CONTINUOUS
 10
60.934363354
 20
172.2212489939
 30
0.0
 11
-16.1437093476
 21
16.1437093476
 31
0.0
 40
0.493145426
 41
1.0862554455
 42
1.1087190103
  0
ELLIPSE
  5
7F1
100
AcDbEntity
  8
00_COMPONENTS_29_4
100
AcDbEllipse
 62
7
  6
CONTINUOUS
 10
60.934363354
 20
172.2212489939
 30
0.0
 11
-16.3955488486
 21
16.3955488486
 31
0.0
 40
0.4530941053
 41
1.118980369
 42
1.1414439338
  0
ELLIPSE
  5
7F2
100
AcDbEntity
  8
00_COMPONENTS_29_4
100
AcDbEllipse
 62
7
  6
CONTINUOUS
 10
60.934363354
 20
172.2212489939
 30
0.0
 11
-16.6298315852
 21
16.6298315852
 31
0.0
 40
0.4142135624
 41
1.1517052925
 42
1.1741688573
  0
ELLIPSE
  5
7F3
100
AcDbEntity
  8
00_COMPONENTS_29_4
100
AcDbEllipse
 62
7
  6
CONTINUOUS
 10
60.934363354
 20
172.2212489939
 30
0.0
 11
-16.8463066816
 21
16.8463066816
 31
0.0
 40
0.3763733489
 41
1.184430216
 42
1.2068937808
  0
ELLIPSE
  5
7F4
100
AcDbEntity
  8
00_COMPONENTS_29_4
100
AcDbEllipse
 62
7
  6
CONTINUOUS
 10
60.934363354
 20
172.2212489939
 30
0.0
 11
-17.0447423309
 21
17.0447423309
 31
0.0
 40
0.3394542589
 41
1.2171551394
 42
1.2396187042
  0
ELLIPSE
  5
7F5
100
AcDbEntity
  8
00_COMPONENTS_29_4
100
AcDbEllipse
 62
7
  6
CONTINUOUS
 10
60.934363354
 20
172.2212489939
 30
0.0
 11
-17.2249260432
 21
17.2249260432
 31
0.0
 40
0.3033466836
 41
1.2498800629
 42
1.2723436277
  0
ELLIPSE
  5
7F6
100
AcDbEntity
  8
00_COMPONENTS_29_4
100
AcDbEllipse
 62
7
  6
CONTINUOUS
 10
60.934363354
 20
172.2212489939
 30
0.0
 11
-17.3866648732
 21
17.3866648732
 31
0.0
 40
0.2679491924
 41
1.2826049864
 42
1.3050685511
  0
ELLIPSE
  5
7F7
100
AcDbEntity
  8
00_COMPONENTS_29_4
100
AcDbEllipse
 62
7
  6
CONTINUOUS
 10
60.934363354
 20
172.2212489939
 30
0.0
 11
-17.529785627
 21
17.529785627
 31
0.0
 40
0.2331672972
 41
1.3153299099
 42
1.3377934747
  0
ELLIPSE
  5
7F8
100
AcDbEntity
  8
00_COMPONENTS_29_4
100
AcDbEllipse
 62
7
  6
CONTINUOUS
 10
60.934363354
 20
172.2212489939
 30
0.0
 11
-17.6541350473
 21
17.6541350473
 31
0.0
 40
0.1989123674
 41
1.3480548333
 42
1.3705183981
  0
ELLIPSE
  5
7F9
100
AcDbEntity
  8
00_COMPONENTS_29_4
100
AcDbEllipse
 62
7
  6
CONTINUOUS
 10
60.934363354
 20
172.2212489939
 30
0.0
 11
-17.7595799775
 21
17.7595799775
 31
0.0
 40
0.1651006682
 41
1.3807797568
 42
1.4032433216
  0
ELLIPSE
  5
7FA
100
AcDbEntity
  8
00_COMPONENTS_29_4
100
AcDbEllipse
 62
7
  6
CONTINUOUS
 10
60.934363354
 20
172.2212489939
 30
0.0
 11
-17.8460075047
 21
17.8460075047
 31
0.0
 40
0.1316524976
 41
1.4135046803
 42
1.4359682451
  0
ELLIPSE
  5
7FB
100
AcDbEntity
  8
00_COMPONENTS_29_4
100
AcDbEllipse
 62
7
  6
CONTINUOUS
 10
60.934363354
 20
172.2212489939
 30
0.0
 11
-17.9133250801
 21
17.9133250801
 31
0.0
 40
0.0984914034
 41
1.4462296038
 42
1.4686931686
  0
ELLIPSE
  5
7FC
100
AcDbEntity
  8
00_COMPONENTS_29_4
100
AcDbEllipse
 62
7
  6
CONTINUOUS
 10
60.934363354
 20
172.2212489939
 30
0.0
 11
-17.9614606183
 21
17.9614606183
 31
0.0
 40
0.0655434628
 41
1.4789545272
 42
1.501418092
  0
ELLIPSE
  5
7FD
100
AcDbEntity
  8
00_COMPONENTS_29_4
100
AcDbEllipse
 62
7
  6
CONTINUOUS
 10
60.934363354
 20
172.2212489939
 30
0.0
 11
-17.9903625746
 21
17.9903625746
 31
0.0
 40
0.0327366104
 41
1.5116794507
 42
1.5341430155
  0
ELLIPSE
  5
7FE
100
AcDbEntity
  8
00_COMPONENTS_29_4
100
AcDbEllipse
 62
7
  6
CONTINUOUS
 10
60.934363354
 20
172.2212489939
 30
0.0
 11
17.9903625746
 21
17.9903625746
 31
0.0
 40
0.0327366104
 41
-1.5341430156
 42
-1.5116794507
  0
ELLIPSE
  5
7FF
100
AcDbEntity
  8
00_COMPONENTS_29_4
100
AcDbEllipse
 62
7
  6
CONTINUOUS
 10
60.934363354
 20
172.2212489939
 30
0.0
 11
17.9614606183
 21
17.9614606183
 31
0.0
 40
0.0655434628
 41
-1.5014180921
 42
-1.4789545272
  0
ELLIPSE
  5
800
100
AcDbEntity
  8
00_COMPONENTS_29_4
100
AcDbEllipse
 62
7
  6
CONTINUOUS
 10
60.934363354
 20
172.2212489939
 30
0.0
 11
17.9133250801
 21
17.9133250801
 31
0.0
 40
0.0984914034
 41
-1.4686931686
 42
-1.4462296038
  0
ELLIPSE
  5
801
100
AcDbEntity
  8
00_COMPONENTS_29_4
100
AcDbEllipse
 62
7
  6
CONTINUOUS
 10
60.934363354
 20
172.2212489939
 30
0.0
 11
17.8460075047
 21
17.8460075047
 31
0.0
 40
0.1316524976
 41
-1.4359682451
 42
-1.4135046803
  0
ELLIPSE
  5
802
100
AcDbEntity
  8
00_COMPONENTS_29_4
100
AcDbEllipse
 62
7
  6
CONTINUOUS
 10
60.934363354
 20
172.2212489939
 30
0.0
 11
17.7595799775
 21
17.7595799775
 31
0.0
 40
0.1651006682
 41
-1.4032433217
 42
-1.3807797568
  0
ELLIPSE
  5
803
100
AcDbEntity
  8
00_COMPONENTS_29_4
100
AcDbEllipse
 62
7
  6
CONTINUOUS
 10
60.934363354
 20
172.2212489939
 30
0.0
 11
17.6541350473
 21
17.6541350473
 31
0.0
 40
0.1989123674
 41
-1.3705183982
 42
-1.3480548333
  0
ELLIPSE
  5
804
100
AcDbEntity
  8
00_COMPONENTS_29_4
100
AcDbEllipse
 62
7
  6
CONTINUOUS
 10
60.934363354
 20
172.2212489939
 30
0.0
 11
17.529785627
 21
17.529785627
 31
0.0
 40
0.2331672972
 41
-1.3377934747
 42
-1.3153299099
  0
ELLIPSE
  5
805
100
AcDbEntity
  8
00_COMPONENTS_29_4
100
AcDbEllipse
 62
7
  6
CONTINUOUS
 10
60.934363354
 20
172.2212489939
 30
0.0
 11
17.3866648732
 21
17.3866648732
 31
0.0
 40
0.2679491924
 41
-1.3050685512
 42
-1.2826049864
  0
ELLIPSE
  5
806
100
AcDbEntity
  8
00_COMPONENTS_29_4
100
AcDbEllipse
 62
7
  6
CONTINUOUS
 10
60.934363354
 20
172.2212489939
 30
0.0
 11
17.2249260432
 21
17.2249260432
 31
0.0
 40
0.3033466836
 41
-1.2723436278
 42
-1.2498800629
  0
ELLIPSE
  5
807
100
AcDbEntity
  8
00_COMPONENTS_29_4
100
AcDbEllipse
 62
7
  6
CONTINUOUS
 10
60.934363354
 20
172.2212489939
 30
0.0
 11
17.0447423309
 21
17.0447423309
 31
0.0
 40
0.3394542589
 41
-1.2396187043
 42
-1.2171551394
  0
ELLIPSE
  5
808
100
AcDbEntity
  8
00_COMPONENTS_29_4
100
AcDbEllipse
 62
7
  6
CONTINUOUS
 10
60.934363354
 20
172.2212489939
 30
0.0
 11
16.8463066816
 21
16.8463066816
 31
0.0
 40
0.3763733489
 41
-1.2068937808
 42
-1.184430216
  0
ELLIPSE
  5
809
100
AcDbEntity
  8
00_COMPONENTS_29_4
100
AcDbEllipse
 62
7
  6
CONTINUOUS
 10
60.934363354
 20
172.2212489939
 30
0.0
 11
16.6298315852
 21
16.6298315852
 31
0.0
 40
0.4142135624
 41
-1.1741688573
 42
-1.1517052925
  0
ELLIPSE
  5
80A
100
AcDbEntity
  8
00_COMPONENTS_29_4
100
AcDbEllipse
 62
7
  6
CONTINUOUS
 10
60.934363354
 20
172.2212489939
 30
0.0
 11
16.3955488486
 21
16.3955488486
 31
0.0
 40
0.4530941053
 41
-1.1414439339
 42
-1.118980369
  0
ELLIPSE
  5
80B
100
AcDbEntity
  8
00_COMPONENTS_29_4
100
AcDbEllipse
 62
7
  6
CONTINUOUS
 10
60.934363354
 20
172.2212489939
 30
0.0
 11
16.1437093476
 21
16.1437093476
 31
0.0
 40
0.493145426
 41
-1.1087190104
 42
-1.0862554455
  0
ELLIPSE
  5
80C
100
AcDbEntity
  8
00_COMPONENTS_29_4
100
AcDbEllipse
 62
7
  6
CONTINUOUS
 10
60.934363354
 20
172.2212489939
 30
0.0
 11
15.8745827583
 21
15.8745827583
 31
0.0
 40
0.534511136
 41
-1.0759940869
 42
-1.0535305221
  0
ELLIPSE
  5
80D
100
AcDbEntity
  8
00_COMPONENTS_29_4
100
AcDbEllipse
 62
7
  6
CONTINUOUS
 10
60.934363354
 20
172.2212489939
 30
0.0
 11
15.5884572681
 21
15.5884572681
 31
0.0
 40
0.5773502692
 41
-1.0432691634
 42
-1.0208055986
  0
ELLIPSE
  5
80E
100
AcDbEntity
  8
00_COMPONENTS_29_4
100
AcDbEllipse
 62
7
  6
CONTINUOUS
 10
60.934363354
 20
172.2212489939
 30
0.0
 11
15.2856392675
 21
15.2856392675
 31
0.0
 40
0.6218399601
 41
-1.01054424
 42
-0.9880806751
  0
ELLIPSE
  5
80F
100
AcDbEntity
  8
00_COMPONENTS_29_4
100
AcDbEllipse
 62
7
  6
CONTINUOUS
 10
60.934363354
 20
172.2212489939
 30
0.0
 11
14.9664530214
 21
14.9664530214
 31
0.0
 40
0.6681786379
 41
-0.9778193165
 42
-0.9553557516
  0
ELLIPSE
  5
810
100
AcDbEntity
  8
00_COMPONENTS_29_4
100
AcDbEllipse
 62
7
  6
CONTINUOUS
 10
60.934363354
 20
172.2212489939
 30
0.0
 11
14.6312403227
 21
14.6312403226
 31
0.0
 40
0.7165898661
 41
-0.945094393
 42
-0.9226308282
  0
ELLIPSE
  5
811
100
AcDbEntity
  8
00_COMPONENTS_29_4
100
AcDbEllipse
 62
7
  6
CONTINUOUS
 10
60.934363354
 20
172.2212489939
 30
0.0
 11
14.2803601252
 21
14.2803601252
 31
0.0
 40
0.767326988
 41
-0.9123694695
 42
-0.8899059047
  0
ELLIPSE
  5
812
100
AcDbEntity
  8
00_COMPONENTS_29_4
100
AcDbEllipse
 62
7
  6
CONTINUOUS
 10
60.934363354
 20
172.2212489939
 30
0.0
 11
13.9141881605
 21
13.9141881605
 31
0.0
 40
0.8206787908
 41
-0.8796445461
 42
-0.8571809812
  0
ELLIPSE
  5
813
100
AcDbEntity
  8
00_COMPONENTS_29_4
100
AcDbEllipse
 62
7
  6
CONTINUOUS
 10
60.934363354
 20
172.2212489939
 30
0.0
 11
13.5331165346
 21
13.5331165346
 31
0.0
 40
0.876976463
 41
-0.8469196226
 42
-0.8244560577
  0
ELLIPSE
  5
814
100
AcDbEntity
  8
00_COMPONENTS_29_4
100
AcDbEllipse
 62
7
  6
CONTINUOUS
 10
60.934363354
 20
172.2212489939
 30
0.0
 11
13.1375533086
 21
13.1375533086
 31
0.0
 40
0.936602208
 41
-0.8141946991
 42
-0.7917311343
  0
ELLIPSE
  5
815
100
AcDbEntity
  8
00_COMPONENTS_108_1
100
AcDbEllipse
 62
7
  6
CONTINUOUS
 10
60.934363354
 20
190.8639888646
 30
0.0
 11
-0.0
 21
208.0841021718
 31
0.0
 40
0.0874886635
 41
1.6285048148
 42
1.6333192654
  0
ELLIPSE
  5
816
100
AcDbEntity
  8
00_COMPONENTS_108_1
100
AcDbEllipse
 62
7
  6
CONTINUOUS
 10
60.934363354
 20
190.8639888646
 30
0.0
 11
-0.0
 21
208.0841021718
 31
0.0
 40
0.0874886635
 41
-1.6333192654
 42
-1.6285048148
  0
ENDSEC
  0
SECTION
  2
OBJECTS
  0
DICTIONARY
  5
C
100
AcDbDictionary
280
0
281
1
  3
ACAD_GROUP
350
D
  3
ACAD_MLINESTYLE
350
17
  3
ACAD_LAYOUT
350
1A
  3
ACAD_PLOTSETTINGS
350
19
  3
ACAD_PLOTSTYLENAME
350
E
  0
DICTIONARY
  5
D
102
{ACAD_REACTORS
330
C
102
}
100
AcDbDictionary
280
0
281
1
  0
ACDBDICTIONARYWDFLT
  5
E
102
{ACAD_REACTORS
330
C
102
}
100
AcDbDictionary
281
1
  3
Normal
350
F
100
AcDbDictionaryWithDefault
340
F
  0
DICTIONARY
  5
17
102
{ACAD_REACTORS
330
C
102
}
100
AcDbDictionary
280
0
281
1
  3
Standard
350
18
  0
DICTIONARY
  5
19
102
{ACAD_REACTORS
330
C
102
}
100
AcDbDictionary
281
1
  0
DICTIONARY
  5
1A
102
{ACAD_REACTORS
330
C
102
}
100
AcDbDictionary
281
1
  3
Model
350
817
  3
Layout1
350
818
  0
ACDBPLACEHOLDER
  5
F
102
{ACAD_REACTORS
330
E
102
}
  0
MLINESTYLE
  5
18
102
{ACAD_REACTORS
330
17
102
}
100
AcDbMlineStyle
  2
STANDARD
 70
0
  3

 62
256
 51
90.0
 52
90.0
 71
2
 49
0.5
 62
256
  6
BYLAYER
 49
-0.5
 62
256
  6
BYLAYER
  0
LAYOUT
  5
817
102
{ACAD_REACTORS
330
1A
102
}
100
AcDbPlotSettings
  1

  2
none_device
  4
ANSI_C_(22.00_x_17.00_Inches)
  6

 40
0.0
 41
0.0
 42
0.0
 43
0.0
 44
558.8
 45
431.8
 46
0.0
 47
0.0
 48
0.0
 49
0.0
140
0.0
141
0.0
142
1.0
143
1.0
 70
1024
 72
1
 73
0
 74
0
  7

 75
0
147
1.0
148
0.0
149
0.0
100
AcDbLayout
  1
Model
 70
0
 71
0
 10
0.0
 20
0.0
 11
558.8
 21
431.8
 12
0.0
 22
0.0
 32
0.0
 14
0.0
 24
0.0
 34
0.0
 15
0.0
 25
0.0
 35
0.0
146
0.0
 13
0.0
 23
0.0
 33
0.0
 16
1.0
 26
0.0
 36
0.0
 17
0.0
 27
1.0
 37
0.0
 76
0
330
50A
345
0
346
0
  0
LAYOUT
  5
818
102
{ACAD_REACTORS
330
1A
102
}
100
AcDbPlotSettings
  1

  2
none_device
  4
ANSI_C_(22.00_x_17.00_Inches)
  6

 40
0.0
 41
0.0
 42
0.0
 43
0.0
 44
558.8
 45
431.8
 46
0.0
 47
0.0
 48
0.0
 49
0.0
140
0.0
141
0.0
142
1.0
143
1.0
 70
0
 72
1
 73
0
 74
0
  7

 75
0
147
1.0
148
0.0
149
0.0
100
AcDbLayout
  1
Layout1
 70
0
 71
1
 10
0.0
 20
0.0
 11
558.8
 21
431.8
 12
0.0
 22
0.0
 32
0.0
 14
0.0
 24
0.0
 34
0.0
 15
0.0
 25
0.0
 35
0.0
146
0.0
 13
0.0
 23
0.0
 33
0.0
 16
1.0
 26
0.0
 36
0.0
 17
0.0
 27
1.0
 37
0.0
 76
0
330
50B
345
0
346
0
  0
ENDSEC
  0
EOF
