999
DXF file: C:\Users\sesa63760\Dev\_Creo\CAD\MCADID0002169_3D-CAD\drw0001_5.dxf
999
Pro/ENGINEER 2019471 by Parametric Technology Corporation
  0
SECTION
  2
HEADER
  9
$ACADVER
  1
AC1024
  9
$DWGCODEPAGE
  3
ANSI_1252
  9
$EXTMAX
 10
66.9044011925
 20
94.6219388294
 30
0.0
  9
$EXTMIN
 10
0.0
 20
0.0
 30
0.0
  9
$LIMMIN
 10
0.0
 20
0.0
  9
$LIMMAX
 10
66.9044011925
 20
94.6219388294
  9
$VIEWCTR
 10
33.4522005962
 20
47.3109694147
  9
$VIEWSIZE
 40
94.6219388294
  9
$CLAYER
  8
0
  9
$LTSCALE
 40
6.1679486052
  9
$CELTYPE
  6
BYLAYER
  9
$DIMSCALE
 40
1.0
  9
$DIMASZ
 40
0.7964809666
  9
$DIMEXO
 40
1.0
  9
$DIMDLI
 40
4.2614917636
  9
$DIMEXE
 40
1.0
  9
$DIMCEN
 40
1.0093006808
  9
$DIMLFAC
 40
1.0
  9
$DIMBLK
  1
_FILLED
  9
$DIMALT
 70
0
  9
$DIMALTF
 40
0.0393700787
  9
$DIMTXT
 40
1.1150733532
  9
$DIMTOL
 70
1
  9
$DIMLIM
 70
0
  9
$DIMTFAC
 40
1.0
  9
$DIMTP
 40
0.01
  9
$DIMTM
 40
0.01
  9
$DIMGAP
 40
0.625
  9
$DIMDSEP
 70
46
  9
$AUNITS
 70
0
  9
$PDMODE
 70
3
  9
$PDSIZE
 40
0.3125
  9
$HANDSEED
  5
4D2
  9
$TILEMODE
 70
1
  9
$MEASUREMENT
 70
1
  9
$INSUNITS
 70
4
  0
ENDSEC
  0
SECTION
  2
CLASSES
  0
CLASS
  1
ACDBDICTIONARYWDFLT
  2
AcDbDictionaryWithDefault
  3
AutoCAD 2000
 90
0
 91
1
280
0
281
0
  0
CLASS
  1
ACDBPLACEHOLDER
  2
AcDbPlaceHolder
  3
AutoCAD 2000
 90
0
 91
1
280
0
281
0
  0
CLASS
  1
LAYOUT
  2
AcDbLayout
  3
AutoCAD 2000
 90
0
 91
0
280
0
281
0
  0
ENDSEC
  0
SECTION
  2
TABLES
  0
TABLE
  2
VPORT
  5
8
100
AcDbSymbolTable
 70
2
  0
VPORT
  5
1F4
100
AcDbSymbolTableRecord
100
AcDbViewportTableRecord
  2
*ACTIVE
 70
0
 10
0.0
 20
0.0
 11
1.0
 21
1.0
 12
33.4522005962
 22
47.3109694147
 13
0.0
 23
0.0
 14
1.0
 24
1.0
 15
0.0
 25
0.0
 16
0.0
 26
0.0
 36
1.0
 17
0.0
 27
0.0
 37
0.0
 40
94.6219388294
 41
0.7070707071
 42
50.0
 43
0.0
 44
0.0
 50
0.0
 51
0.0
 71
0
 72
100
 73
1
 74
1
 75
0
 76
0
 77
0
 78
0
  0
ENDTAB
  0
TABLE
  2
LTYPE
  5
5
100
AcDbSymbolTable
 70
6
  0
LTYPE
  5
14
100
AcDbSymbolTableRecord
100
AcDbLinetypeTableRecord
  2
BYBLOCK
 70
0
  3

 72
65
 73
0
 40
0.0
  0
LTYPE
  5
15
100
AcDbSymbolTableRecord
100
AcDbLinetypeTableRecord
  2
BYLAYER
 70
0
  3

 72
65
 73
0
 40
0.0
  0
LTYPE
  5
16
100
AcDbSymbolTableRecord
100
AcDbLinetypeTableRecord
  2
CONTINUOUS
 70
64
  3
Solid line
 72
65
 73
0
 40
0.0
  0
LTYPE
  5
1F5
100
AcDbSymbolTableRecord
100
AcDbLinetypeTableRecord
  2
CENTER
 70
64
  3
____ _ ____ _ ____ _ ____ _ ____ _ ____ _ ____
 72
65
 73
4
 40
0.6
 49
0.375
 74
0
 49
-0.075
 74
0
 49
0.075
 74
0
 49
-0.075
 74
0
  0
LTYPE
  5
1F6
100
AcDbSymbolTableRecord
100
AcDbLinetypeTableRecord
  2
HIDDEN
 70
64
  3
- - - - - - - - - - - - - - - - - - - -
 72
65
 73
2
 40
0.2
 49
0.1
 74
0
 49
-0.1
 74
0
  0
LTYPE
  5
1F7
100
AcDbSymbolTableRecord
100
AcDbLinetypeTableRecord
  2
PHANTOM
 70
64
  3
_____ _ _ _____ _ _ _____ _ _ _____
 72
65
 73
6
 40
0.8
 49
0.45
 74
0
 49
-0.05
 74
0
 49
0.1
 74
0
 49
-0.05
 74
0
 49
0.1
 74
0
 49
-0.05
 74
0
  0
LTYPE
  5
1F8
100
AcDbSymbolTableRecord
100
AcDbLinetypeTableRecord
  2
DOT
 70
64
  3
. . . . . . . . . . . . . . . . . . . .
 72
65
 73
2
 40
0.2
 49
0.1
 74
0
 49
-0.1
 74
0
  0
LTYPE
  5
1F9
100
AcDbSymbolTableRecord
100
AcDbLinetypeTableRecord
  2
DASHED
 70
64
  3
- - - - - - - - - - - - - - - - - - - -
 72
65
 73
2
 40
0.2
 49
0.1
 74
0
 49
-0.1
 74
0
  0
ENDTAB
  0
TABLE
  2
LAYER
  5
2
100
AcDbSymbolTable
 70
36
  0
LAYER
  5
10
100
AcDbSymbolTableRecord
100
AcDbLayerTableRecord
  2
0
 70
0
 62
7
  6
CONTINUOUS
370
-3
390
F
  0
LAYER
  5
1FA
100
AcDbSymbolTableRecord
100
AcDbLayerTableRecord
  2
DEFAULT_1
 70
0
 62
7
  6
CENTER
370
-3
390
F
  0
LAYER
  5
1FB
100
AcDbSymbolTableRecord
100
AcDbLayerTableRecord
  2
DEFAULT_2
 70
0
 62
8
  6
HIDDEN
370
-3
390
F
  0
LAYER
  5
1FC
100
AcDbSymbolTableRecord
100
AcDbLayerTableRecord
  2
DEFAULT_3
 70
0
 62
7
  6
PHANTOM
370
-3
390
F
  0
LAYER
  5
1FD
100
AcDbSymbolTableRecord
100
AcDbLayerTableRecord
  2
00_COMPONENTS
 70
0
 62
7
  6
CONTINUOUS
370
-3
390
F
  0
LAYER
  5
1FE
100
AcDbSymbolTableRecord
100
AcDbLayerTableRecord
  2
01_1_DEFAULT_DATUMS
 70
0
 62
7
  6
CONTINUOUS
370
-3
390
F
  0
LAYER
  5
1FF
100
AcDbSymbolTableRecord
100
AcDbLayerTableRecord
  2
01_PLANES
 70
0
 62
7
  6
CONTINUOUS
370
-3
390
F
  0
LAYER
  5
200
100
AcDbSymbolTableRecord
100
AcDbLayerTableRecord
  2
02_COORD_SYS
 70
0
 62
7
  6
CONTINUOUS
370
-3
390
F
  0
LAYER
  5
201
100
AcDbSymbolTableRecord
100
AcDbLayerTableRecord
  2
03_AXES
 70
0
 62
7
  6
CONTINUOUS
370
-3
390
F
  0
LAYER
  5
202
100
AcDbSymbolTableRecord
100
AcDbLayerTableRecord
  2
04_POINTS
 70
0
 62
7
  6
CONTINUOUS
370
-3
390
F
  0
LAYER
  5
203
100
AcDbSymbolTableRecord
100
AcDbLayerTableRecord
  2
05_CURVES
 70
0
 62
7
  6
CONTINUOUS
370
-3
390
F
  0
LAYER
  5
204
100
AcDbSymbolTableRecord
100
AcDbLayerTableRecord
  2
06_SURFS
 70
0
 62
7
  6
CONTINUOUS
370
-3
390
F
  0
LAYER
  5
205
100
AcDbSymbolTableRecord
100
AcDbLayerTableRecord
  2
07_COSMETICS
 70
0
 62
7
  6
CONTINUOUS
370
-3
390
F
  0
LAYER
  5
206
100
AcDbSymbolTableRecord
100
AcDbLayerTableRecord
  2
10_NOTES
 70
0
 62
7
  6
CONTINUOUS
370
-3
390
F
  0
LAYER
  5
207
100
AcDbSymbolTableRecord
100
AcDbLayerTableRecord
  2
11_NOTES_PUB
 70
0
 62
7
  6
CONTINUOUS
370
-3
390
F
  0
LAYER
  5
208
100
AcDbSymbolTableRecord
100
AcDbLayerTableRecord
  2
13_REF_GTOL
 70
0
 62
7
  6
CONTINUOUS
370
-3
390
F
  0
LAYER
  5
209
100
AcDbSymbolTableRecord
100
AcDbLayerTableRecord
  2
16_MISC
 70
0
 62
7
  6
CONTINUOUS
370
-3
390
F
  0
LAYER
  5
20A
100
AcDbSymbolTableRecord
100
AcDbLayerTableRecord
  2
17_NO_PRINT
 70
0
 62
7
  6
CONTINUOUS
370
-3
390
F
  0
LAYER
  5
20B
100
AcDbSymbolTableRecord
100
AcDbLayerTableRecord
  2
18_DATUM_CAMS_JOINTS
 70
0
 62
7
  6
CONTINUOUS
370
-3
390
F
  0
LAYER
  5
20C
100
AcDbSymbolTableRecord
100
AcDbLayerTableRecord
  2
19_DATUM_FUNCTIONAL
 70
0
 62
7
  6
CONTINUOUS
370
-3
390
F
  0
LAYER
  5
20D
100
AcDbSymbolTableRecord
100
AcDbLayerTableRecord
  2
20_DATUM_KINEMATIC_SCHEME
 70
0
 62
7
  6
CONTINUOUS
370
-3
390
F
  0
ENDTAB
  0
TABLE
  2
STYLE
  5
3
100
AcDbSymbolTable
 70
1
  0
STYLE
  5
11
100
AcDbSymbolTableRecord
100
AcDbTextStyleTableRecord
  2
STANDARD
 70
0
 40
0.0
 41
0.8
 50
0.0
 71
0
 42
0.2
  3
txt
  4

  0
STYLE
  5
20E
100
AcDbSymbolTableRecord
100
AcDbTextStyleTableRecord
  2
TEXTSTYLE_1
 70
0
 40
0.0
 41
0.8
 50
0.0
 71
0
 42
0.2
  3
gdt
  4

  0
ENDTAB
  0
TABLE
  2
VIEW
  5
6
100
AcDbSymbolTable
 70
0
  0
ENDTAB
  0
TABLE
  2
UCS
  5
7
100
AcDbSymbolTable
 70
0
  0
ENDTAB
  0
TABLE
  2
APPID
  5
9
100
AcDbSymbolTable
 70
1
  0
APPID
  5
20F
100
AcDbSymbolTableRecord
100
AcDbRegAppTableRecord
  2
ACAD
 70
0
  0
ENDTAB
  0
TABLE
  2
BLOCK_RECORD
  5
1
100
AcDbSymbolTable
 70
0
  0
BLOCK_RECORD
  5
210
100
AcDbSymbolTableRecord
100
AcDbBlockTableRecord
  2
*Model_Space
  0
BLOCK_RECORD
  5
211
100
AcDbSymbolTableRecord
100
AcDbBlockTableRecord
  2
*Paper_Space
  0
BLOCK_RECORD
  5
212
100
AcDbSymbolTableRecord
100
AcDbBlockTableRecord
  2
_FILLED
  0
ENDTAB
  0
TABLE
  2
DIMSTYLE
  5
A
100
AcDbSymbolTable
 70
1
100
AcDbDimStyleTable
 71
0
  0
DIMSTYLE
105
213
100
AcDbSymbolTableRecord
100
AcDbDimStyleTableRecord
  2
STANDARD
 70
0
  3

  4

 40
1.0
 41
0.7964809666
 42
1.0
 43
0.38
 44
1.0
 45
0.0
 46
0.0
 47
0.01
 48
0.01
140
1.1150733532
141
0.09
142
0.0
143
25.4
144
1.0
145
0.0
146
1.0
147
0.625
 71
1
 72
0
 73
0
 74
0
 75
0
 76
0
 77
1
 78
8
 79
2
170
0
171
1
172
0
173
0
174
0
175
0
176
0
177
0
178
0
270
2
179
2
271
2
272
2
273
2
274
2
275
0
280
0
281
0
282
0
283
1
284
8
285
0
286
0
287
3
288
0
340
11
278
46
341
212
342
212
343
212
344
212
  0
ENDTAB
  0
ENDSEC
  0
SECTION
  2
BLOCKS
  0
BLOCK
  5
20
100
AcDbEntity
  8
0
100
AcDbBlockBegin
  2
*Model_Space
 70
0
 10
0.0
 20
0.0
 30
0.0
  3
*Model_Space
  1

  0
ENDBLK
  5
21
100
AcDbEntity
  8
0
100
AcDbBlockEnd
  0
BLOCK
  5
1C
100
AcDbEntity
  8
0
100
AcDbBlockBegin
  2
*Paper_Space
 70
0
 10
0.0
 20
0.0
 30
0.0
  3
*Paper_Space
  1

  0
ENDBLK
  5
1D
100
AcDbEntity
  8
0
100
AcDbBlockEnd
  0
BLOCK
  5
214
100
AcDbEntity
  8
0
100
AcDbBlockBegin
  2
_FILLED
 70
64
 10
0.0
 20
0.0
  3
_FILLED
  1

  0
SOLID
  5
215
100
AcDbEntity
  8
0
  6
BYBLOCK
 62
0
100
AcDbTrace
 10
0.0
 20
0.0
 11
-1.0
 21
0.25
 12
-1.0
 22
-0.25
 13
-1.0
 23
-0.25
  0
ENDBLK
  5
216
100
AcDbEntity
  8
0
  6
BYBLOCK
 62
0
100
AcDbBlockEnd
  0
ENDSEC
  0
SECTION
  2
ENTITIES
  0
LINE
  5
217
100
AcDbEntity
  8
0
100
AcDbLine
 62
7
  6
CONTINUOUS
 10
53.4784830557
 20
7.7017857246
 11
51.562972831
 21
7.7017857246
  0
LINE
  5
218
100
AcDbEntity
  8
0
100
AcDbLine
 62
7
  6
CONTINUOUS
 10
51.4784830557
 20
7.7017857246
 11
44.2789737749
 21
7.7017857246
  0
LINE
  5
219
100
AcDbEntity
  8
0
100
AcDbLine
 62
7
  6
CONTINUOUS
 10
42.9784830557
 20
7.7017857246
 11
35.7789737749
 21
7.7017857246
  0
LINE
  5
21A
100
AcDbEntity
  8
0
100
AcDbLine
 62
7
  6
CONTINUOUS
 10
32.9784830557
 20
7.7017857246
 11
25.7789737749
 21
7.7017857246
  0
LINE
  5
21B
100
AcDbEntity
  8
0
100
AcDbLine
 62
7
  6
CONTINUOUS
 10
24.4784886431
 20
7.7017857246
 11
17.2789793633
 21
7.7017857246
  0
LINE
  5
21C
100
AcDbEntity
  8
0
100
AcDbLine
 62
7
  6
CONTINUOUS
 10
17.2037238572
 20
7.7017857246
 11
15.2789737748
 21
7.7017857246
  0
LINE
  5
21D
100
AcDbEntity
  8
0
100
AcDbLine
 62
7
  6
CONTINUOUS
 10
14.6789890896
 20
7.9017857337
 11
54.0784733332
 21
7.9017857337
  0
LINE
  5
21E
100
AcDbEntity
  8
0
100
AcDbLine
 62
7
  6
CONTINUOUS
 10
13.378731209
 20
13.7017857246
 11
14.6702696948
 21
12.4102472388
  0
LINE
  5
21F
100
AcDbEntity
  8
0
100
AcDbLine
 62
7
  6
CONTINUOUS
 10
26.178731209
 20
12.4102477268
 11
33.378731209
 21
12.4102477268
  0
LINE
  5
220
100
AcDbEntity
  8
0
100
AcDbLine
 62
7
  6
CONTINUOUS
 10
35.378731209
 20
12.4102477268
 11
42.578731209
 21
12.4102477268
  0
LINE
  5
221
100
AcDbEntity
  8
0
100
AcDbLine
 62
7
  6
CONTINUOUS
 10
26.178731209
 20
13.7017857246
 11
33.378731209
 21
13.7017857246
  0
LINE
  5
222
100
AcDbEntity
  8
0
100
AcDbLine
 62
7
  6
CONTINUOUS
 10
35.378731209
 20
13.7017857246
 11
42.578731209
 21
13.7017857246
  0
LINE
  5
223
100
AcDbEntity
  8
0
100
AcDbLine
 62
7
  6
CONTINUOUS
 10
14.378731209
 20
13.9017857108
 11
26.178731209
 21
13.9017856911
  0
LINE
  5
224
100
AcDbEntity
  8
0
100
AcDbLine
 62
7
  6
CONTINUOUS
 10
33.378731209
 20
13.9017856911
 11
35.378731209
 21
13.9017856911
  0
LINE
  5
225
100
AcDbEntity
  8
0
100
AcDbLine
 62
7
  6
CONTINUOUS
 10
42.578731209
 20
13.9017856911
 11
54.378731209
 21
13.9017857108
  0
LINE
  5
226
100
AcDbEntity
  8
0
100
AcDbLine
 62
7
  6
CONTINUOUS
 10
25.978731209
 20
14.0421303534
 11
26.178731209
 21
14.0421303534
  0
LINE
  5
227
100
AcDbEntity
  8
0
100
AcDbLine
 62
7
  6
CONTINUOUS
 10
42.578731209
 20
14.0421303534
 11
42.778731209
 21
14.0421303534
  0
LINE
  5
228
100
AcDbEntity
  8
0
100
AcDbLine
 62
7
  6
CONTINUOUS
 10
51.328731209
 20
14.1017857246
 11
42.578731209
 21
14.1017857246
  0
LINE
  5
229
100
AcDbEntity
  8
0
100
AcDbLine
 62
7
  6
CONTINUOUS
 10
26.178731209
 20
14.1017857246
 11
17.428731209
 21
14.1017857246
  0
LINE
  5
22A
100
AcDbEntity
  8
0
100
AcDbLine
 62
7
  6
CONTINUOUS
 10
14.578731209
 20
14.1017857246
 11
15.9618309093
 21
14.1017857246
  0
LINE
  5
22B
100
AcDbEntity
  8
0
100
AcDbLine
 62
7
  6
CONTINUOUS
 10
33.378731209
 20
14.1017857246
 11
35.378731209
 21
14.1017857246
  0
LINE
  5
22C
100
AcDbEntity
  8
0
100
AcDbLine
 62
7
  6
CONTINUOUS
 10
52.7956315087
 20
14.1017857246
 11
54.178731209
 21
14.1017857246
  0
LINE
  5
22D
100
AcDbEntity
  8
0
100
AcDbLine
 62
7
  6
CONTINUOUS
 10
34.978731209
 20
14.3021640745
 11
33.778731209
 21
14.3021640745
  0
LINE
  5
22E
100
AcDbEntity
  8
0
100
AcDbLine
 62
7
  6
CONTINUOUS
 10
55.378731209
 20
14.9017857246
 11
54.378731209
 21
14.9017857246
  0
LINE
  5
22F
100
AcDbEntity
  8
0
100
AcDbLine
 62
7
  6
CONTINUOUS
 10
13.378731209
 20
14.9017857246
 11
14.378731209
 21
14.9017857246
  0
LINE
  5
230
100
AcDbEntity
  8
0
100
AcDbLine
 62
7
  6
CONTINUOUS
 10
26.178731209
 20
14.9017857246
 11
33.378731209
 21
14.9017857246
  0
LINE
  5
231
100
AcDbEntity
  8
0
100
AcDbLine
 62
7
  6
CONTINUOUS
 10
35.378731209
 20
14.9017857246
 11
42.578731209
 21
14.9017857246
  0
LINE
  5
232
100
AcDbEntity
  8
0
100
AcDbLine
 62
7
  6
CONTINUOUS
 10
42.778731209
 20
16.1243605453
 11
35.978731209
 21
16.1243605453
  0
LINE
  5
233
100
AcDbEntity
  8
0
100
AcDbLine
 62
7
  6
CONTINUOUS
 10
32.778731209
 20
16.1243605453
 11
25.978731209
 21
16.1243605453
  0
LINE
  5
234
100
AcDbEntity
  8
0
100
AcDbLine
 62
7
  6
CONTINUOUS
 10
52.678731209
 20
16.6017857246
 11
51.478731209
 21
16.6017857246
  0
LINE
  5
235
100
AcDbEntity
  8
0
100
AcDbLine
 62
7
  6
CONTINUOUS
 10
17.278731209
 20
16.6017857246
 11
16.078731209
 21
16.6017857246
  0
LINE
  5
236
100
AcDbEntity
  8
0
100
AcDbLine
 62
7
  6
CONTINUOUS
 10
25.978731209
 20
16.7017857246
 11
26.978731209
 21
16.7017857246
  0
LINE
  5
237
100
AcDbEntity
  8
0
100
AcDbLine
 62
7
  6
CONTINUOUS
 10
31.878731209
 20
16.7017857246
 11
32.778731209
 21
16.7017857246
  0
LINE
  5
238
100
AcDbEntity
  8
0
100
AcDbLine
 62
7
  6
CONTINUOUS
 10
35.978731209
 20
16.7017857246
 11
36.878731209
 21
16.7017857246
  0
LINE
  5
239
100
AcDbEntity
  8
0
100
AcDbLine
 62
7
  6
CONTINUOUS
 10
41.778731209
 20
16.7017857246
 11
42.778731209
 21
16.7017857246
  0
LINE
  5
23A
100
AcDbEntity
  8
0
100
AcDbLine
 62
7
  6
CONTINUOUS
 10
31.878731209
 20
16.7455300563
 11
26.978731209
 21
16.7455300563
  0
LINE
  5
23B
100
AcDbEntity
  8
0
100
AcDbLine
 62
7
  6
CONTINUOUS
 10
36.878731209
 20
16.7455300563
 11
41.778731209
 21
16.7455300563
  0
LINE
  5
23C
100
AcDbEntity
  8
0
100
AcDbLine
 62
7
  6
CONTINUOUS
 10
17.428731209
 20
17.6017857246
 11
25.978731209
 21
17.6017857246
  0
LINE
  5
23D
100
AcDbEntity
  8
0
100
AcDbLine
 62
7
  6
CONTINUOUS
 10
32.778731209
 20
17.6017857246
 11
33.778731209
 21
17.6017857246
  0
LINE
  5
23E
100
AcDbEntity
  8
0
100
AcDbLine
 62
7
  6
CONTINUOUS
 10
34.978731209
 20
17.6017857246
 11
35.978731209
 21
17.6017857246
  0
LINE
  5
23F
100
AcDbEntity
  8
0
100
AcDbLine
 62
7
  6
CONTINUOUS
 10
42.778731209
 20
17.6017857246
 11
51.328731209
 21
17.6017857246
  0
LINE
  5
240
100
AcDbEntity
  8
0
100
AcDbLine
 62
7
  6
CONTINUOUS
 10
17.278731209
 20
17.8017857246
 11
33.778731209
 21
17.8017857246
  0
LINE
  5
241
100
AcDbEntity
  8
0
100
AcDbLine
 62
7
  6
CONTINUOUS
 10
34.978731209
 20
17.8017857246
 11
51.478731209
 21
17.8017857246
  0
LINE
  5
242
100
AcDbEntity
  8
0
100
AcDbLine
 62
7
  6
CONTINUOUS
 10
54.178731209
 20
19.4017857246
 11
52.678731209
 21
19.4017857246
  0
LINE
  5
243
100
AcDbEntity
  8
0
100
AcDbLine
 62
7
  6
CONTINUOUS
 10
16.078731209
 20
19.4017860463
 11
14.5791095589
 21
19.4017860463
  0
LINE
  5
244
100
AcDbEntity
  8
0
100
AcDbLine
 62
7
  6
CONTINUOUS
 10
14.378731209
 20
19.7017857246
 11
16.078731209
 21
19.7017857246
  0
LINE
  5
245
100
AcDbEntity
  8
0
100
AcDbLine
 62
7
  6
CONTINUOUS
 10
52.678731209
 20
19.7017857246
 11
54.378731209
 21
19.7017857246
  0
LINE
  5
246
100
AcDbEntity
  8
0
100
AcDbLine
 62
7
  6
CONTINUOUS
 10
15.9618309093
 20
14.1017857246
 11
15.9970963083
 21
13.9017857086
  0
LINE
  5
247
100
AcDbEntity
  8
0
100
AcDbLine
 62
7
  6
CONTINUOUS
 10
14.4408118969
 20
13.9017857086
 11
15.3638494633
 21
7.9017857601
  0
LINE
  5
248
100
AcDbEntity
  8
0
100
AcDbLine
 62
7
  6
CONTINUOUS
 10
15.4439740964
 20
13.9017855911
 11
16.363840824
 21
7.9017857437
  0
LINE
  5
249
100
AcDbEntity
  8
0
100
AcDbLine
 62
7
  6
CONTINUOUS
 10
13.378731209
 20
14.9017857246
 11
13.378731209
 21
13.7017857246
  0
LINE
  5
24A
100
AcDbEntity
  8
0
100
AcDbLine
 62
7
  6
CONTINUOUS
 10
13.378731209
 20
55.6517857246
 11
13.378731209
 21
56.2909145358
  0
LINE
  5
24B
100
AcDbEntity
  8
0
100
AcDbLine
 62
7
  6
CONTINUOUS
 10
14.3787312087
 20
74.7731392369
 11
14.3868120171
 21
74.9286331514
  0
LINE
  5
24C
100
AcDbEntity
  8
0
100
AcDbLine
 62
7
  6
CONTINUOUS
 10
17.3638380675
 20
7.9017855891
 11
16.4408122453
 21
13.9017858581
  0
LINE
  5
24D
100
AcDbEntity
  8
0
100
AcDbLine
 62
7
  6
CONTINUOUS
 10
17.6888845087
 20
13.9017857246
 11
18.6081612074
 21
7.9017857246
  0
LINE
  5
24E
100
AcDbEntity
  8
0
100
AcDbLine
 62
7
  6
CONTINUOUS
 10
14.378731209
 20
13.9017857108
 11
14.378731209
 21
29.9017857246
  0
LINE
  5
24F
100
AcDbEntity
  8
0
100
AcDbLine
 62
7
  6
CONTINUOUS
 10
14.3867281556
 20
84.0354029603
 11
14.3867281556
 21
84.0706333223
  0
LINE
  5
250
100
AcDbEntity
  8
0
100
AcDbLine
 62
7
  6
CONTINUOUS
 10
14.3868120171
 20
74.9286331515
 11
14.3868120171
 21
75.1517857246
  0
LINE
  5
251
100
AcDbEntity
  8
0
100
AcDbLine
 62
7
  6
CONTINUOUS
 10
14.3933599358
 20
75.1517857246
 11
14.3933599358
 21
83.8734821675
  0
LINE
  5
252
100
AcDbEntity
  8
0
100
AcDbLine
 62
7
  6
CONTINUOUS
 10
14.4493617081
 20
83.8734821674
 11
14.4493617081
 21
75.1517857246
  0
LINE
  5
253
100
AcDbEntity
  8
0
100
AcDbLine
 62
7
  6
CONTINUOUS
 10
14.5539686468
 20
83.9699654317
 11
14.5539686468
 21
84.1361344858
  0
LINE
  5
254
100
AcDbEntity
  8
0
100
AcDbLine
 62
7
  6
CONTINUOUS
 10
14.5563220733
 20
75.1517857246
 11
14.5563220733
 21
83.8734821675
  0
LINE
  5
255
100
AcDbEntity
  8
0
100
AcDbLine
 62
7
  6
CONTINUOUS
 10
14.5869116021
 20
84.7755964613
 11
14.5869116021
 21
84.475987417
  0
LINE
  5
256
100
AcDbEntity
  8
0
100
AcDbLine
 62
7
  6
CONTINUOUS
 10
14.678731209
 20
7.9017857535
 11
14.678731209
 21
12.3552470184
  0
LINE
  5
257
100
AcDbEntity
  8
0
100
AcDbLine
 62
7
  6
CONTINUOUS
 10
14.7237138231
 20
83.8734821675
 11
14.7237138231
 21
75.1517857246
  0
LINE
  5
258
100
AcDbEntity
  8
0
100
AcDbLine
 62
7
  6
CONTINUOUS
 10
14.8733365374
 20
84.7755964614
 11
14.8733365374
 21
75.1517857246
  0
LINE
  5
259
100
AcDbEntity
  8
0
100
AcDbLine
 62
7
  6
CONTINUOUS
 10
14.878731209
 20
36.0598823578
 11
14.878731209
 21
31.5017857246
  0
LINE
  5
25A
100
AcDbEntity
  8
0
100
AcDbLine
 62
7
  6
CONTINUOUS
 10
14.9362237996
 20
83.9039690507
 11
14.9362237996
 21
84.2022117148
  0
LINE
  5
25B
100
AcDbEntity
  8
0
100
AcDbLine
 62
7
  6
CONTINUOUS
 10
14.9364626734
 20
75.1517857246
 11
14.9364626734
 21
83.8734821675
  0
LINE
  5
25C
100
AcDbEntity
  8
0
100
AcDbLine
 62
7
  6
CONTINUOUS
 10
15.2134104218
 20
83.8734821675
 11
15.2134104218
 21
75.1517857246
  0
LINE
  5
25D
100
AcDbEntity
  8
0
100
AcDbLine
 62
7
  6
CONTINUOUS
 10
15.2787340032
 20
7.7017857246
 11
15.2787340032
 21
7.9017857337
  0
LINE
  5
25E
100
AcDbEntity
  8
0
100
AcDbLine
 62
7
  6
CONTINUOUS
 10
15.3734666584
 20
84.7755964613
 11
15.3734666584
 21
75.1517857246
  0
LINE
  5
25F
100
AcDbEntity
  8
0
100
AcDbLine
 62
7
  6
CONTINUOUS
 10
15.5293055467
 20
75.1517857246
 11
15.5293055467
 21
84.2673670467
  0
LINE
  5
260
100
AcDbEntity
  8
0
100
AcDbLine
 62
7
  6
CONTINUOUS
 10
15.878754218
 20
13.9017857246
 11
15.878754218
 21
14.1017857246
  0
LINE
  5
261
100
AcDbEntity
  8
0
100
AcDbLine
 62
7
  6
CONTINUOUS
 10
15.9130862855
 20
83.8734821674
 11
15.9130862855
 21
75.1517857246
  0
LINE
  5
262
100
AcDbEntity
  8
0
100
AcDbLine
 62
7
  6
CONTINUOUS
 10
16.028731209
 20
31.5017857246
 11
16.028731209
 21
29.9017857246
  0
LINE
  5
263
100
AcDbEntity
  8
0
100
AcDbLine
 62
7
  6
CONTINUOUS
 10
16.078731209
 20
16.6017857246
 11
16.078731209
 21
29.9017857246
  0
LINE
  5
264
100
AcDbEntity
  8
0
100
AcDbLine
 62
7
  6
CONTINUOUS
 10
16.081822435
 20
84.7755964614
 11
16.081822435
 21
75.1517857246
  0
LINE
  5
265
100
AcDbEntity
  8
0
100
AcDbLine
 62
7
  6
CONTINUOUS
 10
16.3267159602
 20
75.1517857246
 11
16.3267159602
 21
84.3316907785
  0
LINE
  5
266
100
AcDbEntity
  8
0
100
AcDbLine
 62
7
  6
CONTINUOUS
 10
16.678731209
 20
42.4017857246
 11
16.678731209
 21
39.9017921553
  0
LINE
  5
267
100
AcDbEntity
  8
0
100
AcDbLine
 62
7
  6
CONTINUOUS
 10
16.678731209
 20
7.9017857438
 11
16.678731209
 21
12.3552386244
  0
LINE
  5
268
100
AcDbEntity
  8
0
100
AcDbLine
 62
7
  6
CONTINUOUS
 10
16.8150756193
 20
83.8734821674
 11
16.8150756193
 21
75.1517857246
  0
LINE
  5
269
100
AcDbEntity
  8
0
100
AcDbLine
 62
7
  6
CONTINUOUS
 10
16.9906429729
 20
84.7755964613
 11
16.9906429729
 21
75.1517857246
  0
LINE
  5
26A
100
AcDbEntity
  8
0
100
AcDbLine
 62
7
  6
CONTINUOUS
 10
17.278731209
 20
16.6017857246
 11
17.278731209
 21
17.8017857246
  0
LINE
  5
26B
100
AcDbEntity
  8
0
100
AcDbLine
 62
7
  6
CONTINUOUS
 10
17.2787340032
 20
7.7017857246
 11
17.2787340032
 21
7.9017857483
  0
LINE
  5
26C
100
AcDbEntity
  8
0
100
AcDbLine
 62
7
  6
CONTINUOUS
 10
17.3182589425
 20
17.8017857246
 11
17.3182589425
 21
21.8606641819
  0
LINE
  5
26D
100
AcDbEntity
  8
0
100
AcDbLine
 62
7
  6
CONTINUOUS
 10
17.3197184448
 20
75.1517857246
 11
17.3197184448
 21
84.3948730793
  0
LINE
  5
26E
100
AcDbEntity
  8
0
100
AcDbLine
 62
7
  6
CONTINUOUS
 10
17.3267083454
 20
75.1517857246
 11
17.3267083454
 21
83.8734821675
  0
LINE
  5
26F
100
AcDbEntity
  8
0
100
AcDbLine
 62
7
  6
CONTINUOUS
 10
17.428731209
 20
13.9017857086
 11
17.428731209
 21
17.8017857246
  0
LINE
  5
270
100
AcDbEntity
  8
0
100
AcDbLine
 62
7
  6
CONTINUOUS
 10
17.879315799
 20
68.8290268684
 11
17.879315799
 21
68.9786987217
  0
LINE
  5
271
100
AcDbEntity
  8
0
100
AcDbLine
 62
7
  6
CONTINUOUS
 10
17.9094960391
 20
83.8734821675
 11
17.9094960391
 21
75.1517857246
  0
LINE
  5
272
100
AcDbEntity
  8
0
100
AcDbLine
 62
7
  6
CONTINUOUS
 10
18.0899710443
 20
84.7755964614
 11
18.0899710443
 21
75.1517857246
  0
LINE
  5
273
100
AcDbEntity
  8
0
100
AcDbLine
 62
7
  6
CONTINUOUS
 10
18.378731209
 20
53.0517857246
 11
18.378731209
 21
47.5517857246
  0
LINE
  5
274
100
AcDbEntity
  8
0
100
AcDbLine
 62
7
  6
CONTINUOUS
 10
18.4100117863
 20
47.5517857246
 11
18.4100117863
 21
51.5517857246
  0
LINE
  5
275
100
AcDbEntity
  8
0
100
AcDbLine
 62
7
  6
CONTINUOUS
 10
18.4974334574
 20
75.1517857246
 11
18.4974334574
 21
84.4571180687
  0
LINE
  5
276
100
AcDbEntity
  8
0
100
AcDbLine
 62
7
  6
CONTINUOUS
 10
18.510956381
 20
75.1517857246
 11
18.510956381
 21
83.8734821675
  0
LINE
  5
277
100
AcDbEntity
  8
0
100
AcDbLine
 62
7
  6
CONTINUOUS
 10
18.6953136608
 20
51.5517857246
 11
18.6953136608
 21
47.5517857246
  0
LINE
  5
278
100
AcDbEntity
  8
0
100
AcDbLine
 62
7
  6
CONTINUOUS
 10
19.1843568459
 20
83.8734821675
 11
19.1843568459
 21
75.1517857246
  0
LINE
  5
279
100
AcDbEntity
  8
0
100
AcDbLine
 62
7
  6
CONTINUOUS
 10
19.212951751
 20
47.5517857246
 11
19.212951751
 21
51.5517857246
  0
LINE
  5
27A
100
AcDbEntity
  8
0
100
AcDbLine
 62
7
  6
CONTINUOUS
 10
19.3677621807
 20
84.7755964614
 11
19.3677621807
 21
75.1517857246
  0
LINE
  5
27B
100
AcDbEntity
  8
0
100
AcDbLine
 62
7
  6
CONTINUOUS
 10
19.378731209
 20
55.6517857246
 11
19.378731209
 21
55.1517857246
  0
LINE
  5
27C
100
AcDbEntity
  8
0
100
AcDbLine
 62
7
  6
CONTINUOUS
 10
19.378731209
 20
53.6517857246
 11
19.378731209
 21
54.6517857246
  0
LINE
  5
27D
100
AcDbEntity
  8
0
100
AcDbLine
 62
7
  6
CONTINUOUS
 10
14.378731209
 20
29.9017857246
 11
54.378731209
 21
29.9017857246
  0
LINE
  5
27E
100
AcDbEntity
  8
0
100
AcDbLine
 62
7
  6
CONTINUOUS
 10
53.878731209
 20
31.5017857246
 11
14.878731209
 21
31.5017857246
  0
LINE
  5
27F
100
AcDbEntity
  8
0
100
AcDbLine
 62
7
  6
CONTINUOUS
 10
43.2308256533
 20
13.9017857246
 11
48.4655553397
 21
7.9017857246
  0
LINE
  5
280
100
AcDbEntity
  8
0
100
AcDbLine
 62
7
  6
CONTINUOUS
 10
19.8469577061
 20
75.1517857246
 11
19.8469577061
 21
84.517932828
  0
LINE
  5
281
100
AcDbEntity
  8
0
100
AcDbLine
 62
7
  6
CONTINUOUS
 10
19.8690550783
 20
75.1517857246
 11
19.8690550783
 21
83.8734821675
  0
LINE
  5
282
100
AcDbEntity
  8
0
100
AcDbLine
 62
7
  6
CONTINUOUS
 10
19.8904850992
 20
51.5517857246
 11
19.8904850992
 21
47.5517857246
  0
LINE
  5
283
100
AcDbEntity
  8
0
100
AcDbLine
 62
7
  6
CONTINUOUS
 10
20.028731209
 20
59.8735281029
 11
20.028731209
 21
63.1517857246
  0
LINE
  5
284
100
AcDbEntity
  8
0
100
AcDbLine
 62
7
  6
CONTINUOUS
 10
20.028731209
 20
65.1517857246
 11
20.028731209
 21
67.1517857246
  0
LINE
  5
285
100
AcDbEntity
  8
0
100
AcDbLine
 62
7
  6
CONTINUOUS
 10
20.0494145231
 20
51.5517857246
 11
20.0494145231
 21
47.5517857246
  0
LINE
  5
286
100
AcDbEntity
  8
0
100
AcDbLine
 62
7
  6
CONTINUOUS
 10
20.328731209
 20
63.1517857246
 11
20.328731209
 21
65.1517857246
  0
LINE
  5
287
100
AcDbEntity
  8
0
100
AcDbLine
 62
7
  6
CONTINUOUS
 10
20.6256903977
 20
83.8734821675
 11
20.6256903977
 21
75.1517857246
  0
LINE
  5
288
100
AcDbEntity
  8
0
100
AcDbLine
 62
7
  6
CONTINUOUS
 10
20.810016635
 20
84.7755964614
 11
20.810016635
 21
75.1517857246
  0
LINE
  5
289
100
AcDbEntity
  8
0
100
AcDbLine
 62
7
  6
CONTINUOUS
 10
21.0494145231
 20
47.5517857246
 11
21.0494145231
 21
51.5517857246
  0
LINE
  5
28A
100
AcDbEntity
  8
0
100
AcDbLine
 62
7
  6
CONTINUOUS
 10
21.228731209
 20
86.3120218398
 11
21.228731209
 21
86.5742093096
  0
LINE
  5
28B
100
AcDbEntity
  8
0
100
AcDbLine
 62
7
  6
CONTINUOUS
 10
21.3535055205
 20
75.1517857246
 11
21.3535055205
 21
84.5771298636
  0
LINE
  5
28C
100
AcDbEntity
  8
0
100
AcDbLine
 62
7
  6
CONTINUOUS
 10
21.3861248235
 20
75.1517857246
 11
21.3861248235
 21
83.8734821675
  0
LINE
  5
28D
100
AcDbEntity
  8
0
100
AcDbLine
 62
7
  6
CONTINUOUS
 10
21.6568743046
 20
51.5517857246
 11
21.6568743046
 21
47.5517857246
  0
LINE
  5
28E
100
AcDbEntity
  8
0
100
AcDbLine
 62
7
  6
CONTINUOUS
 10
21.8801577402
 20
13.9017857246
 11
21.8801577402
 21
14.1017857246
  0
LINE
  5
28F
100
AcDbEntity
  8
0
100
AcDbLine
 62
7
  6
CONTINUOUS
 10
22.2177051427
 20
83.8734821675
 11
22.2177051427
 21
75.1517857246
  0
LINE
  5
290
100
AcDbEntity
  8
0
100
AcDbLine
 62
7
  6
CONTINUOUS
 10
22.3800346372
 20
51.5517857246
 11
22.3800346372
 21
47.5517857246
  0
LINE
  5
291
100
AcDbEntity
  8
0
100
AcDbLine
 62
7
  6
CONTINUOUS
 10
22.4009327656
 20
84.7755964613
 11
22.4009327656
 21
75.1517857246
  0
LINE
  5
292
100
AcDbEntity
  8
0
100
AcDbLine
 62
7
  6
CONTINUOUS
 10
22.8763690501
 20
53.6517857246
 11
22.8763690501
 21
54.6517857246
  0
LINE
  5
293
100
AcDbEntity
  8
0
100
AcDbLine
 62
7
  6
CONTINUOUS
 10
23.0005708478
 20
75.1517857246
 11
23.0005708478
 21
84.6345674532
  0
LINE
  5
294
100
AcDbEntity
  8
0
100
AcDbLine
 62
7
  6
CONTINUOUS
 10
23.0455442832
 20
75.1517857246
 11
23.0455442832
 21
83.8734821675
  0
LINE
  5
295
100
AcDbEntity
  8
0
100
AcDbLine
 62
7
  6
CONTINUOUS
 10
23.3787297663
 20
47.5517857246
 11
23.3787297663
 21
42.4017857246
  0
LINE
  5
296
100
AcDbEntity
  8
0
100
AcDbLine
 62
7
  6
CONTINUOUS
 10
23.3787310025
 20
55.1517857246
 11
23.3787310025
 21
54.6517857246
  0
LINE
  5
297
100
AcDbEntity
  8
0
100
AcDbLine
 62
7
  6
CONTINUOUS
 10
23.3787310025
 20
53.6517857246
 11
23.3787310025
 21
53.0517857246
  0
LINE
  5
298
100
AcDbEntity
  8
0
100
AcDbLine
 62
7
  6
CONTINUOUS
 10
23.7942481996
 20
47.5517857246
 11
23.7942481996
 21
51.5517857246
  0
LINE
  5
299
100
AcDbEntity
  8
0
100
AcDbLine
 62
7
  6
CONTINUOUS
 10
23.9429586342
 20
83.8734821675
 11
23.9429586342
 21
75.1517857246
  0
LINE
  5
29A
100
AcDbEntity
  8
0
100
AcDbLine
 62
7
  6
CONTINUOUS
 10
24.1230801625
 20
84.7755964614
 11
24.1230801625
 21
75.1517857246
  0
LINE
  5
29B
100
AcDbEntity
  8
0
100
AcDbLine
 62
7
  6
CONTINUOUS
 10
24.2902370343
 20
51.5517857246
 11
24.2902370343
 21
47.5517857246
  0
LINE
  5
29C
100
AcDbEntity
  8
0
100
AcDbLine
 62
7
  6
CONTINUOUS
 10
24.4787340032
 20
7.7017857246
 11
24.4787340032
 21
7.9017857483
  0
LINE
  5
29D
100
AcDbEntity
  8
0
100
AcDbLine
 62
7
  6
CONTINUOUS
 10
24.7701080954
 20
75.1517857246
 11
24.7701080954
 21
84.6899478808
  0
LINE
  5
29E
100
AcDbEntity
  8
0
100
AcDbLine
 62
7
  6
CONTINUOUS
 10
24.8291325105
 20
75.1517857246
 11
24.8291325105
 21
83.8734821675
  0
LINE
  5
29F
100
AcDbEntity
  8
0
100
AcDbLine
 62
7
  6
CONTINUOUS
 10
25.1853410176
 20
86.5742093096
 11
25.1853410176
 21
86.5561424785
  0
LINE
  5
2A0
100
AcDbEntity
  8
0
100
AcDbLine
 62
7
  6
CONTINUOUS
 10
25.5283460939
 20
51.5517857246
 11
25.5283460939
 21
47.5517857246
  0
LINE
  5
2A1
100
AcDbEntity
  8
0
100
AcDbLine
 62
7
  6
CONTINUOUS
 10
25.7787340032
 20
7.7017857246
 11
25.7787340032
 21
7.9017857529
  0
LINE
  5
2A2
100
AcDbEntity
  8
0
100
AcDbLine
 62
7
  6
CONTINUOUS
 10
25.7825486338
 20
83.8734821675
 11
25.7825486338
 21
75.1517857246
  0
LINE
  5
2A3
100
AcDbEntity
  8
0
100
AcDbLine
 62
7
  6
CONTINUOUS
 10
28.0541758887
 20
36.0598883434
 11
40.7032865293
 21
36.0598883434
  0
LINE
  5
2A4
100
AcDbEntity
  8
0
100
AcDbLine
 62
7
  6
CONTINUOUS
 10
14.8787312086
 20
36.0647857246
 11
28.0541758887
 21
36.0647857246
  0
LINE
  5
2A5
100
AcDbEntity
  8
0
100
AcDbLine
 62
7
  6
CONTINUOUS
 10
40.7032865293
 20
36.0647857246
 11
53.878731209
 21
36.0647857246
  0
LINE
  5
2A6
100
AcDbEntity
  8
0
100
AcDbLine
 62
7
  6
CONTINUOUS
 10
15.1616383249
 20
36.7568849449
 11
28.2348689445
 21
36.7568849449
  0
LINE
  5
2A7
100
AcDbEntity
  8
0
100
AcDbLine
 62
7
  6
CONTINUOUS
 10
40.5225934735
 20
36.7568849449
 11
53.5958240931
 21
36.7568849449
  0
LINE
  5
2A8
100
AcDbEntity
  8
0
100
AcDbLine
 62
7
  6
CONTINUOUS
 10
28.2682059807
 20
36.8282977842
 11
40.4892564373
 21
36.8282977842
  0
LINE
  5
2A9
100
AcDbEntity
  8
0
100
AcDbLine
 62
7
  6
CONTINUOUS
 10
17.879315799
 20
68.8290268684
 11
18.328731209
 21
67.1517857246
  0
LINE
  5
2AA
100
AcDbEntity
  8
0
100
AcDbLine
 62
7
  6
CONTINUOUS
 10
25.878731209
 20
14.1017857246
 11
25.878731209
 21
17.6017857246
  0
LINE
  5
2AB
100
AcDbEntity
  8
0
100
AcDbLine
 62
7
  6
CONTINUOUS
 10
25.9575906183
 20
84.7755964613
 11
25.9575906183
 21
75.1517857246
  0
LINE
  5
2AC
100
AcDbEntity
  8
0
100
AcDbLine
 62
7
  6
CONTINUOUS
 10
25.978731209
 20
13.9017857556
 11
25.978731209
 21
14.1017857246
  0
LINE
  5
2AD
100
AcDbEntity
  8
0
100
AcDbLine
 62
7
  6
CONTINUOUS
 10
25.978731209
 20
16.1243605453
 11
25.978731209
 21
17.8017857246
  0
LINE
  5
2AE
100
AcDbEntity
  8
0
100
AcDbLine
 62
7
  6
CONTINUOUS
 10
26.003474392
 20
17.8017857246
 11
26.003474392
 21
27.8530716589
  0
LINE
  5
2AF
100
AcDbEntity
  8
0
100
AcDbLine
 62
7
  6
CONTINUOUS
 10
26.178731209
 20
12.4102477268
 11
26.178731209
 21
14.9017857246
  0
LINE
  5
2B0
100
AcDbEntity
  8
0
100
AcDbLine
 62
7
  6
CONTINUOUS
 10
26.6427298429
 20
75.1517857246
 11
26.6427298429
 21
84.7435074177
  0
LINE
  5
2B1
100
AcDbEntity
  8
0
100
AcDbLine
 62
7
  6
CONTINUOUS
 10
26.7173481396
 20
75.1517857246
 11
26.7173481396
 21
83.8734821675
  0
LINE
  5
2B2
100
AcDbEntity
  8
0
100
AcDbLine
 62
7
  6
CONTINUOUS
 10
26.978731209
 20
16.7017857246
 11
26.978731209
 21
17.8017857246
  0
LINE
  5
2B3
100
AcDbEntity
  8
0
100
AcDbLine
 62
7
  6
CONTINUOUS
 10
27.2603969014
 20
47.5517857246
 11
27.2603969014
 21
51.5517857246
  0
LINE
  5
2B4
100
AcDbEntity
  8
0
100
AcDbLine
 62
7
  6
CONTINUOUS
 10
27.6111139699
 20
51.5517857246
 11
27.6111139699
 21
47.5517857246
  0
LINE
  5
2B5
100
AcDbEntity
  8
0
100
AcDbLine
 62
7
  6
CONTINUOUS
 10
27.7163202086
 20
83.8734821675
 11
27.7163202086
 21
75.1517857246
  0
LINE
  5
2B6
100
AcDbEntity
  8
0
100
AcDbLine
 62
7
  6
CONTINUOUS
 10
27.8843648528
 20
84.7755964614
 11
27.8843648528
 21
75.1517857246
  0
LINE
  5
2B7
100
AcDbEntity
  8
0
100
AcDbLine
 62
7
  6
CONTINUOUS
 10
28.0541758887
 20
31.5017857246
 11
28.0541758887
 21
36.0598883434
  0
LINE
  5
2B8
100
AcDbEntity
  8
0
100
AcDbLine
 62
7
  6
CONTINUOUS
 10
28.3454899574
 20
39.9017857246
 11
28.3454899574
 21
42.4017857246
  0
LINE
  5
2B9
100
AcDbEntity
  8
0
100
AcDbLine
 62
7
  6
CONTINUOUS
 10
28.5980765441
 20
75.1517857246
 11
28.5980765441
 21
84.7755964499
  0
LINE
  5
2BA
100
AcDbEntity
  8
0
100
AcDbLine
 62
7
  6
CONTINUOUS
 10
28.6895034847
 20
75.1517857246
 11
28.6895034847
 21
83.8734821675
  0
LINE
  5
2BB
100
AcDbEntity
  8
0
100
AcDbLine
 62
7
  6
CONTINUOUS
 10
52.078731209
 20
39.9017857246
 11
16.678731209
 21
39.9017857246
  0
LINE
  5
2BC
100
AcDbEntity
  8
0
100
AcDbLine
 62
7
  6
CONTINUOUS
 10
29.2797966702
 20
51.5517857246
 11
29.2797966702
 21
47.5517857246
  0
LINE
  5
2BD
100
AcDbEntity
  8
0
100
AcDbLine
 62
7
  6
CONTINUOUS
 10
29.7230865525
 20
83.8734821675
 11
29.7230865525
 21
75.1517857246
  0
LINE
  5
2BE
100
AcDbEntity
  8
0
100
AcDbLine
 62
7
  6
CONTINUOUS
 10
29.882292724
 20
84.7755964614
 11
29.882292724
 21
75.1517857246
  0
LINE
  5
2BF
100
AcDbEntity
  8
0
100
AcDbLine
 62
7
  6
CONTINUOUS
 10
30.6163346727
 20
75.1517857246
 11
30.6163346727
 21
84.77559645
  0
LINE
  5
2C0
100
AcDbEntity
  8
0
100
AcDbLine
 62
7
  6
CONTINUOUS
 10
30.7239911994
 20
75.1517857246
 11
30.7239911994
 21
83.8734821675
  0
LINE
  5
2C1
100
AcDbEntity
  8
0
100
AcDbLine
 62
7
  6
CONTINUOUS
 10
31.2116483228
 20
47.5517857246
 11
31.2116483228
 21
51.5517857246
  0
LINE
  5
2C2
100
AcDbEntity
  8
0
100
AcDbLine
 62
7
  6
CONTINUOUS
 10
31.3931928363
 20
51.5517857246
 11
31.3931928363
 21
47.5517857246
  0
LINE
  5
2C3
100
AcDbEntity
  8
0
100
AcDbLine
 62
7
  6
CONTINUOUS
 10
31.7808611135
 20
83.8734821675
 11
31.7808611135
 21
75.1517857246
  0
LINE
  5
2C4
100
AcDbEntity
  8
0
100
AcDbLine
 62
7
  6
CONTINUOUS
 10
53.9393691024
 20
73.7124252188
 11
52.1068023943
 21
71.8798583607
  0
LINE
  5
2C5
100
AcDbEntity
  8
0
100
AcDbLine
 62
7
  6
CONTINUOUS
 10
16.678731209
 20
42.4017857246
 11
52.078731209
 21
42.4017857246
  0
LINE
  5
2C6
100
AcDbEntity
  8
0
100
AcDbLine
 62
7
  6
CONTINUOUS
 10
31.878731209
 20
16.7017857246
 11
31.878731209
 21
17.8017857246
  0
LINE
  5
2C7
100
AcDbEntity
  8
0
100
AcDbLine
 62
7
  6
CONTINUOUS
 10
31.9031363826
 20
86.4555711071
 11
31.9031363826
 21
86.5742093096
  0
LINE
  5
2C8
100
AcDbEntity
  8
0
100
AcDbLine
 62
7
  6
CONTINUOUS
 10
31.9294845162
 20
84.7755964613
 11
31.9294845162
 21
75.1517857246
  0
LINE
  5
2C9
100
AcDbEntity
  8
0
100
AcDbLine
 62
7
  6
CONTINUOUS
 10
32.675814405
 20
75.1517857246
 11
32.675814405
 21
84.7755964499
  0
LINE
  5
2CA
100
AcDbEntity
  8
0
100
AcDbLine
 62
7
  6
CONTINUOUS
 10
32.778731209
 20
16.1243605453
 11
32.778731209
 21
17.8017857246
  0
LINE
  5
2CB
100
AcDbEntity
  8
0
100
AcDbLine
 62
7
  6
CONTINUOUS
 10
32.7985210104
 20
75.1517857246
 11
32.7985210104
 21
83.8734821675
  0
LINE
  5
2CC
100
AcDbEntity
  8
0
100
AcDbLine
 62
7
  6
CONTINUOUS
 10
32.878731209
 20
17.6017857246
 11
32.878731209
 21
14.9017857246
  0
LINE
  5
2CD
100
AcDbEntity
  8
0
100
AcDbLine
 62
7
  6
CONTINUOUS
 10
32.9787340032
 20
7.7017857246
 11
32.9787340032
 21
7.9017857529
  0
LINE
  5
2CE
100
AcDbEntity
  8
0
100
AcDbLine
 62
7
  6
CONTINUOUS
 10
33.378731209
 20
51.5517857246
 11
33.378731209
 21
47.5517857246
  0
LINE
  5
2CF
100
AcDbEntity
  8
0
100
AcDbLine
 62
7
  6
CONTINUOUS
 10
33.378731209
 20
14.9017857246
 11
33.378731209
 21
12.4102477268
  0
LINE
  5
2D0
100
AcDbEntity
  8
0
100
AcDbLine
 62
7
  6
CONTINUOUS
 10
33.778731209
 20
13.9017856942
 11
33.778731209
 21
17.8017857246
  0
LINE
  5
2D1
100
AcDbEntity
  8
0
100
AcDbLine
 62
7
  6
CONTINUOUS
 10
33.8670984829
 20
83.8734821675
 11
33.8670984829
 21
75.1517857246
  0
LINE
  5
2D2
100
AcDbEntity
  8
0
100
AcDbLine
 62
7
  6
CONTINUOUS
 10
34.0035107678
 20
84.7755964614
 11
34.0035107678
 21
75.1517857246
  0
LINE
  5
2D3
100
AcDbEntity
  8
0
100
AcDbLine
 62
7
  6
CONTINUOUS
 10
34.7539516502
 20
75.1517857246
 11
34.7539516502
 21
84.7755964499
  0
LINE
  5
2D4
100
AcDbEntity
  8
0
100
AcDbLine
 62
7
  6
CONTINUOUS
 10
18.378731209
 20
47.5517857246
 11
50.378731209
 21
47.5517857246
  0
LINE
  5
2D5
100
AcDbEntity
  8
0
100
AcDbLine
 62
7
  6
CONTINUOUS
 10
34.8903639351
 20
75.1517857246
 11
34.8903639351
 21
83.8734821675
  0
LINE
  5
2D6
100
AcDbEntity
  8
0
100
AcDbLine
 62
7
  6
CONTINUOUS
 10
34.978731209
 20
17.8017857246
 11
34.978731209
 21
13.9017856937
  0
LINE
  5
2D7
100
AcDbEntity
  8
0
100
AcDbLine
 62
7
  6
CONTINUOUS
 10
35.378731209
 20
12.4102477268
 11
35.378731209
 21
14.9017857246
  0
LINE
  5
2D8
100
AcDbEntity
  8
0
100
AcDbLine
 62
7
  6
CONTINUOUS
 10
35.378731209
 20
47.5517857246
 11
35.378731209
 21
51.5517857246
  0
LINE
  5
2D9
100
AcDbEntity
  8
0
100
AcDbLine
 62
7
  6
CONTINUOUS
 10
35.7787340032
 20
7.7017857246
 11
35.7787340032
 21
7.9017857529
  0
LINE
  5
2DA
100
AcDbEntity
  8
0
100
AcDbLine
 62
7
  6
CONTINUOUS
 10
35.878731209
 20
17.6017857246
 11
35.878731209
 21
14.9017857246
  0
LINE
  5
2DB
100
AcDbEntity
  8
0
100
AcDbLine
 62
7
  6
CONTINUOUS
 10
35.9589414076
 20
83.8734821675
 11
35.9589414076
 21
75.1517857246
  0
LINE
  5
2DC
100
AcDbEntity
  8
0
100
AcDbLine
 62
7
  6
CONTINUOUS
 10
35.978731209
 20
16.1243605453
 11
35.978731209
 21
17.8017857246
  0
LINE
  5
2DD
100
AcDbEntity
  8
0
100
AcDbLine
 62
7
  6
CONTINUOUS
 10
36.081648013
 20
84.7755964613
 11
36.081648013
 21
75.1517857246
  0
LINE
  5
2DE
100
AcDbEntity
  8
0
100
AcDbLine
 62
7
  6
CONTINUOUS
 10
36.8279779018
 20
75.1517857246
 11
36.8279779018
 21
84.7755964499
  0
LINE
  5
2DF
100
AcDbEntity
  8
0
100
AcDbLine
 62
7
  6
CONTINUOUS
 10
36.878731209
 20
16.7017857246
 11
36.878731209
 21
17.8017857246
  0
LINE
  5
2E0
100
AcDbEntity
  8
0
100
AcDbLine
 62
7
  6
CONTINUOUS
 10
36.9766013045
 20
75.1517857246
 11
36.9766013045
 21
83.8734821675
  0
LINE
  5
2E1
100
AcDbEntity
  8
0
100
AcDbLine
 62
7
  6
CONTINUOUS
 10
36.9923893581
 20
86.1424227752
 11
36.9923893581
 21
86.2942704057
  0
LINE
  5
2E2
100
AcDbEntity
  8
0
100
AcDbLine
 62
7
  6
CONTINUOUS
 10
37.3642695817
 20
47.5517857246
 11
37.3642695817
 21
51.5517857246
  0
LINE
  5
2E3
100
AcDbEntity
  8
0
100
AcDbLine
 62
7
  6
CONTINUOUS
 10
37.5458140952
 20
51.5517857246
 11
37.5458140952
 21
47.5517857246
  0
LINE
  5
2E4
100
AcDbEntity
  8
0
100
AcDbLine
 62
7
  6
CONTINUOUS
 10
38.0334712186
 20
83.8734821675
 11
38.0334712186
 21
75.1517857246
  0
LINE
  5
2E5
100
AcDbEntity
  8
0
100
AcDbLine
 62
7
  6
CONTINUOUS
 10
38.1411277453
 20
84.7755964614
 11
38.1411277453
 21
75.1517857246
  0
LINE
  5
2E6
100
AcDbEntity
  8
0
100
AcDbLine
 62
7
  6
CONTINUOUS
 10
38.875169694
 20
75.1517857246
 11
38.875169694
 21
84.7755964499
  0
LINE
  5
2E7
100
AcDbEntity
  8
0
100
AcDbLine
 62
7
  6
CONTINUOUS
 10
39.0343758655
 20
75.1517857246
 11
39.0343758655
 21
83.8734821675
  0
LINE
  5
2E8
100
AcDbEntity
  8
0
100
AcDbLine
 62
7
  6
CONTINUOUS
 10
39.4776657478
 20
47.5517857246
 11
39.4776657478
 21
51.5517857246
  0
LINE
  5
2E9
100
AcDbEntity
  8
0
100
AcDbLine
 62
7
  6
CONTINUOUS
 10
40.0679589333
 20
83.8734821675
 11
40.0679589333
 21
75.1517857246
  0
LINE
  5
2EA
100
AcDbEntity
  8
0
100
AcDbLine
 62
7
  6
CONTINUOUS
 10
40.1593858739
 20
84.7755964613
 11
40.1593858739
 21
75.1517857246
  0
LINE
  5
2EB
100
AcDbEntity
  8
0
100
AcDbLine
 62
7
  6
CONTINUOUS
 10
40.4119724606
 20
42.4017857246
 11
40.4119724606
 21
39.9017857246
  0
LINE
  5
2EC
100
AcDbEntity
  8
0
100
AcDbLine
 62
7
  6
CONTINUOUS
 10
40.7032865293
 20
36.0598883434
 11
40.7032865293
 21
31.5017857246
  0
LINE
  5
2ED
100
AcDbEntity
  8
0
100
AcDbLine
 62
7
  6
CONTINUOUS
 10
50.3474506317
 20
51.5517857246
 11
50.0621487572
 21
51.5517857246
  0
LINE
  5
2EE
100
AcDbEntity
  8
0
100
AcDbLine
 62
7
  6
CONTINUOUS
 10
49.544510667
 20
51.5517857246
 11
48.7080478949
 21
51.5517857246
  0
LINE
  5
2EF
100
AcDbEntity
  8
0
100
AcDbLine
 62
7
  6
CONTINUOUS
 10
47.708047895
 20
51.5517857246
 11
46.3774277808
 21
51.5517857246
  0
LINE
  5
2F0
100
AcDbEntity
  8
0
100
AcDbLine
 62
7
  6
CONTINUOUS
 10
44.9632142185
 20
51.5517857246
 11
43.2291163241
 21
51.5517857246
  0
LINE
  5
2F1
100
AcDbEntity
  8
0
100
AcDbLine
 62
7
  6
CONTINUOUS
 10
41.4970655166
 20
51.5517857246
 11
39.4776657478
 21
51.5517857246
  0
LINE
  5
2F2
100
AcDbEntity
  8
0
100
AcDbLine
 62
7
  6
CONTINUOUS
 10
37.5458140952
 20
51.5517857246
 11
35.378731209
 21
51.5517857246
  0
LINE
  5
2F3
100
AcDbEntity
  8
0
100
AcDbLine
 62
7
  6
CONTINUOUS
 10
33.378731209
 20
51.5517857246
 11
31.2116483228
 21
51.5517857246
  0
LINE
  5
2F4
100
AcDbEntity
  8
0
100
AcDbLine
 62
7
  6
CONTINUOUS
 10
29.2797966702
 20
51.5517857246
 11
27.2603969014
 21
51.5517857246
  0
LINE
  5
2F5
100
AcDbEntity
  8
0
100
AcDbLine
 62
7
  6
CONTINUOUS
 10
25.5283460939
 20
51.5517857246
 11
23.7942481996
 21
51.5517857246
  0
LINE
  5
2F6
100
AcDbEntity
  8
0
100
AcDbLine
 62
7
  6
CONTINUOUS
 10
22.3800346372
 20
51.5517857246
 11
21.0494145231
 21
51.5517857246
  0
LINE
  5
2F7
100
AcDbEntity
  8
0
100
AcDbLine
 62
7
  6
CONTINUOUS
 10
20.0494145231
 20
51.5517857246
 11
19.212951751
 21
51.5517857246
  0
LINE
  5
2F8
100
AcDbEntity
  8
0
100
AcDbLine
 62
7
  6
CONTINUOUS
 10
18.6953136608
 20
51.5517857246
 11
18.4100117863
 21
51.5517857246
  0
LINE
  5
2F9
100
AcDbEntity
  8
0
100
AcDbLine
 62
7
  6
CONTINUOUS
 10
18.378731209
 20
53.0517857246
 11
50.378731209
 21
53.0517857246
  0
LINE
  5
2FA
100
AcDbEntity
  8
0
100
AcDbLine
 62
7
  6
CONTINUOUS
 10
49.378731209
 20
53.6517857246
 11
19.378731209
 21
53.6517857246
  0
LINE
  5
2FB
100
AcDbEntity
  8
0
100
AcDbLine
 62
7
  6
CONTINUOUS
 10
14.8180933156
 20
73.7124252188
 11
16.6506600237
 21
71.8798583607
  0
LINE
  5
2FC
100
AcDbEntity
  8
0
100
AcDbLine
 62
7
  6
CONTINUOUS
 10
40.8730975652
 20
75.1517857246
 11
40.8730975652
 21
84.77559645
  0
LINE
  5
2FD
100
AcDbEntity
  8
0
100
AcDbLine
 62
7
  6
CONTINUOUS
 10
41.0411422094
 20
75.1517857246
 11
41.0411422094
 21
83.8734821675
  0
LINE
  5
2FE
100
AcDbEntity
  8
0
100
AcDbLine
 62
7
  6
CONTINUOUS
 10
41.1463484482
 20
47.5517857246
 11
41.1463484482
 21
51.5517857246
  0
LINE
  5
2FF
100
AcDbEntity
  8
0
100
AcDbLine
 62
7
  6
CONTINUOUS
 10
41.4970655166
 20
51.5517857246
 11
41.4970655166
 21
47.5517857246
  0
LINE
  5
300
100
AcDbEntity
  8
0
100
AcDbLine
 62
7
  6
CONTINUOUS
 10
41.778731209
 20
16.7017857246
 11
41.778731209
 21
17.8017857246
  0
LINE
  5
301
100
AcDbEntity
  8
0
100
AcDbLine
 62
7
  6
CONTINUOUS
 10
42.0401142784
 20
83.8734821675
 11
42.0401142784
 21
75.1517857246
  0
LINE
  5
302
100
AcDbEntity
  8
0
100
AcDbLine
 62
7
  6
CONTINUOUS
 10
42.1147325751
 20
84.7434685698
 11
42.1147325751
 21
75.1517857246
  0
LINE
  5
303
100
AcDbEntity
  8
0
100
AcDbLine
 62
7
  6
CONTINUOUS
 10
42.578731209
 20
14.9017857246
 11
42.578731209
 21
12.4102477268
  0
LINE
  5
304
100
AcDbEntity
  8
0
100
AcDbLine
 62
7
  6
CONTINUOUS
 10
42.7539880257
 20
27.8530716591
 11
42.7539880257
 21
17.8017857246
  0
LINE
  5
305
100
AcDbEntity
  8
0
100
AcDbLine
 62
7
  6
CONTINUOUS
 10
42.778731209
 20
13.9017857472
 11
42.778731209
 21
14.1017857246
  0
LINE
  5
306
100
AcDbEntity
  8
0
100
AcDbLine
 62
7
  6
CONTINUOUS
 10
42.778731209
 20
16.1243605453
 11
42.778731209
 21
17.8017857246
  0
LINE
  5
307
100
AcDbEntity
  8
0
100
AcDbLine
 62
7
  6
CONTINUOUS
 10
42.7998717997
 20
75.1517857246
 11
42.7998717997
 21
84.7755964498
  0
LINE
  5
308
100
AcDbEntity
  8
0
100
AcDbLine
 62
7
  6
CONTINUOUS
 10
42.878731209
 20
14.1017857246
 11
42.878731209
 21
17.6017857246
  0
LINE
  5
309
100
AcDbEntity
  8
0
100
AcDbLine
 62
7
  6
CONTINUOUS
 10
42.9749137842
 20
75.1517857246
 11
42.9749137842
 21
83.8734821675
  0
LINE
  5
30A
100
AcDbEntity
  8
0
100
AcDbLine
 62
7
  6
CONTINUOUS
 10
42.9787340032
 20
7.7017857246
 11
42.9787340032
 21
7.9017857529
  0
LINE
  5
30B
100
AcDbEntity
  8
0
100
AcDbLine
 62
7
  6
CONTINUOUS
 10
43.2291163241
 20
47.5517857246
 11
43.2291163241
 21
51.5517857246
  0
LINE
  5
30C
100
AcDbEntity
  8
0
100
AcDbLine
 62
7
  6
CONTINUOUS
 10
19.378731209
 20
54.6517857246
 11
49.378731209
 21
54.6517857246
  0
LINE
  5
30D
100
AcDbEntity
  8
0
100
AcDbLine
 62
7
  6
CONTINUOUS
 10
49.378731209
 20
55.1517857246
 11
19.378731209
 21
55.1517857246
  0
LINE
  5
30E
100
AcDbEntity
  8
0
100
AcDbLine
 62
7
  6
CONTINUOUS
 10
55.378731209
 20
55.6517857246
 11
13.378731209
 21
55.6517857246
  0
LINE
  5
30F
100
AcDbEntity
  8
0
100
AcDbLine
 62
7
  6
CONTINUOUS
 10
13.378731209
 20
56.2909145358
 11
55.378731209
 21
56.2909145358
  0
LINE
  5
310
100
AcDbEntity
  8
0
100
AcDbLine
 62
7
  6
CONTINUOUS
 10
43.9283299075
 20
83.8734821675
 11
43.9283299075
 21
75.1517857246
  0
LINE
  5
311
100
AcDbEntity
  8
0
100
AcDbLine
 62
7
  6
CONTINUOUS
 10
43.9873543227
 20
84.6899960888
 11
43.9873543227
 21
75.1517857246
  0
LINE
  5
312
100
AcDbEntity
  8
0
100
AcDbLine
 62
7
  6
CONTINUOUS
 10
44.2787340032
 20
7.7017857246
 11
44.2787340032
 21
7.9017857483
  0
LINE
  5
313
100
AcDbEntity
  8
0
100
AcDbLine
 62
7
  6
CONTINUOUS
 10
44.4672253838
 20
47.5517857246
 11
44.4672253838
 21
51.5517857246
  0
LINE
  5
314
100
AcDbEntity
  8
0
100
AcDbLine
 62
7
  6
CONTINUOUS
 10
44.6343822555
 20
75.1517857246
 11
44.6343822555
 21
84.77559645
  0
LINE
  5
315
100
AcDbEntity
  8
0
100
AcDbLine
 62
7
  6
CONTINUOUS
 10
44.8145037838
 20
75.1517857246
 11
44.8145037838
 21
83.8734821675
  0
LINE
  5
316
100
AcDbEntity
  8
0
100
AcDbLine
 62
7
  6
CONTINUOUS
 10
44.8787319619
 20
13.9017857246
 11
44.8787319619
 21
14.1017857246
  0
LINE
  5
317
100
AcDbEntity
  8
0
100
AcDbLine
 62
7
  6
CONTINUOUS
 10
44.9632142185
 20
51.5517857246
 11
44.9632142185
 21
47.5517857246
  0
LINE
  5
318
100
AcDbEntity
  8
0
100
AcDbLine
 62
7
  6
CONTINUOUS
 10
45.3787472193
 20
55.1517857246
 11
45.3787472193
 21
54.6517857246
  0
LINE
  5
319
100
AcDbEntity
  8
0
100
AcDbLine
 62
7
  6
CONTINUOUS
 10
45.3787472193
 20
53.6517857246
 11
45.3787472193
 21
53.0517857246
  0
LINE
  5
31A
100
AcDbEntity
  8
0
100
AcDbLine
 62
7
  6
CONTINUOUS
 10
45.3787562001
 20
47.5517857246
 11
45.3787562001
 21
42.4017857246
  0
LINE
  5
31B
100
AcDbEntity
  8
0
100
AcDbLine
 62
7
  6
CONTINUOUS
 10
45.7119181347
 20
83.8734821675
 11
45.7119181347
 21
75.1517857246
  0
LINE
  5
31C
100
AcDbEntity
  8
0
100
AcDbLine
 62
7
  6
CONTINUOUS
 10
45.7568915703
 20
84.6344305422
 11
45.7568915703
 21
75.1517857246
  0
LINE
  5
31D
100
AcDbEntity
  8
0
100
AcDbLine
 62
7
  6
CONTINUOUS
 10
45.8810933679
 20
53.6517857246
 11
45.8810933679
 21
54.6517857246
  0
LINE
  5
31E
100
AcDbEntity
  8
0
100
AcDbLine
 62
7
  6
CONTINUOUS
 10
46.3565296524
 20
75.1517857246
 11
46.3565296524
 21
84.7755964499
  0
LINE
  5
31F
100
AcDbEntity
  8
0
100
AcDbLine
 62
7
  6
CONTINUOUS
 10
46.3774277808
 20
47.5517857246
 11
46.3774277808
 21
51.5517857246
  0
LINE
  5
320
100
AcDbEntity
  8
0
100
AcDbLine
 62
7
  6
CONTINUOUS
 10
46.5397572753
 20
75.1517857246
 11
46.5397572753
 21
83.8734821675
  0
LINE
  5
321
100
AcDbEntity
  8
0
100
AcDbLine
 62
7
  6
CONTINUOUS
 10
50.878146619
 20
68.8290268684
 11
50.428731209
 21
67.1517857246
  0
LINE
  5
322
100
AcDbEntity
  8
0
100
AcDbLine
 62
7
  6
CONTINUOUS
 10
54.5274314021
 20
57.2798007331
 11
14.2300310159
 21
57.2798007331
  0
LINE
  5
323
100
AcDbEntity
  8
0
100
AcDbLine
 62
7
  6
CONTINUOUS
 10
18.3261315944
 20
57.8957557073
 11
50.4313308236
 21
57.8957557073
  0
LINE
  5
324
100
AcDbEntity
  8
0
100
AcDbLine
 62
7
  6
CONTINUOUS
 10
47.1005881134
 20
47.5517857246
 11
47.1005881134
 21
51.5517857246
  0
LINE
  5
325
100
AcDbEntity
  8
0
100
AcDbLine
 62
7
  6
CONTINUOUS
 10
47.1180952524
 20
86.5742093096
 11
47.1180952524
 21
86.3120218398
  0
LINE
  5
326
100
AcDbEntity
  8
0
100
AcDbLine
 62
7
  6
CONTINUOUS
 10
47.3636136477
 20
86.3120218398
 11
47.3636136477
 21
86.5561424701
  0
LINE
  5
327
100
AcDbEntity
  8
0
100
AcDbLine
 62
7
  6
CONTINUOUS
 10
47.3713375944
 20
83.8734821675
 11
47.3713375944
 21
75.1517857246
  0
LINE
  5
328
100
AcDbEntity
  8
0
100
AcDbLine
 62
7
  6
CONTINUOUS
 10
47.4039568975
 20
84.5769500666
 11
47.4039568975
 21
75.1517857246
  0
LINE
  5
329
100
AcDbEntity
  8
0
100
AcDbLine
 62
7
  6
CONTINUOUS
 10
47.708047895
 20
51.5517857246
 11
47.708047895
 21
47.5517857246
  0
LINE
  5
32A
100
AcDbEntity
  8
0
100
AcDbLine
 62
7
  6
CONTINUOUS
 10
47.947445783
 20
75.1517857246
 11
47.947445783
 21
84.7755964501
  0
LINE
  5
32B
100
AcDbEntity
  8
0
100
AcDbLine
 62
7
  6
CONTINUOUS
 10
48.1317720203
 20
75.1517857246
 11
48.1317720203
 21
83.8734821675
  0
LINE
  5
32C
100
AcDbEntity
  8
0
100
AcDbLine
 62
7
  6
CONTINUOUS
 10
48.428731209
 20
63.1517857246
 11
48.428731209
 21
65.1517857246
  0
LINE
  5
32D
100
AcDbEntity
  8
0
100
AcDbLine
 62
7
  6
CONTINUOUS
 10
48.7080478949
 20
47.5517857246
 11
48.7080478949
 21
51.5517857246
  0
LINE
  5
32E
100
AcDbEntity
  8
0
100
AcDbLine
 62
7
  6
CONTINUOUS
 10
48.728731209
 20
59.8735281029
 11
48.728731209
 21
63.1517857246
  0
LINE
  5
32F
100
AcDbEntity
  8
0
100
AcDbLine
 62
7
  6
CONTINUOUS
 10
48.728731209
 20
65.1517857246
 11
48.728731209
 21
67.1517857246
  0
LINE
  5
330
100
AcDbEntity
  8
0
100
AcDbLine
 62
7
  6
CONTINUOUS
 10
48.8669773188
 20
47.5517857246
 11
48.8669773188
 21
51.5517857246
  0
LINE
  5
331
100
AcDbEntity
  8
0
100
AcDbLine
 62
7
  6
CONTINUOUS
 10
48.8884073397
 20
83.8734821675
 11
48.8884073397
 21
75.1517857246
  0
LINE
  5
332
100
AcDbEntity
  8
0
100
AcDbLine
 62
7
  6
CONTINUOUS
 10
48.910504712
 20
84.5177472122
 11
48.910504712
 21
75.1517857246
  0
LINE
  5
333
100
AcDbEntity
  8
0
100
AcDbLine
 62
7
  6
CONTINUOUS
 10
49.378731209
 20
55.6517857246
 11
49.378731209
 21
55.1517857246
  0
LINE
  5
334
100
AcDbEntity
  8
0
100
AcDbLine
 62
7
  6
CONTINUOUS
 10
49.378731209
 20
54.6517857246
 11
49.378731209
 21
53.6517857246
  0
LINE
  5
335
100
AcDbEntity
  8
0
100
AcDbLine
 62
7
  6
CONTINUOUS
 10
49.3897002373
 20
75.1517857246
 11
49.3897002373
 21
84.7755964501
  0
LINE
  5
336
100
AcDbEntity
  8
0
100
AcDbLine
 62
7
  6
CONTINUOUS
 10
49.544510667
 20
51.5517857246
 11
49.544510667
 21
47.5517857246
  0
LINE
  5
337
100
AcDbEntity
  8
0
100
AcDbLine
 62
7
  6
CONTINUOUS
 10
49.5731055722
 20
75.1517857246
 11
49.5731055722
 21
83.8734821675
  0
LINE
  5
338
100
AcDbEntity
  8
0
100
AcDbLine
 62
7
  6
CONTINUOUS
 10
49.5853626847
 20
86.3327998298
 11
49.5853626847
 21
86.3120218398
  0
LINE
  5
339
100
AcDbEntity
  8
0
100
AcDbLine
 62
7
  6
CONTINUOUS
 10
25.5266367714
 20
13.9017857246
 11
20.2919070781
 21
7.9017857602
  0
LINE
  5
33A
100
AcDbEntity
  8
0
100
AcDbLine
 62
7
  6
CONTINUOUS
 10
14.2300310159
 20
57.2798007331
 11
18.3261315944
 21
57.8957557073
  0
LINE
  5
33B
100
AcDbEntity
  8
0
100
AcDbLine
 62
7
  6
CONTINUOUS
 10
48.728731209
 20
59.8735281029
 11
20.028731209
 21
59.8735281029
  0
LINE
  5
33C
100
AcDbEntity
  8
0
100
AcDbLine
 62
7
  6
CONTINUOUS
 10
54.5274314021
 20
57.2798007331
 11
50.4313308236
 21
57.8957557073
  0
LINE
  5
33D
100
AcDbEntity
  8
0
100
AcDbLine
 62
7
  6
CONTINUOUS
 10
50.0621487572
 20
47.5517857246
 11
50.0621487572
 21
51.5517857246
  0
LINE
  5
33E
100
AcDbEntity
  8
0
100
AcDbLine
 62
7
  6
CONTINUOUS
 10
50.246506037
 20
83.8734821675
 11
50.246506037
 21
75.1517857246
  0
LINE
  5
33F
100
AcDbEntity
  8
0
100
AcDbLine
 62
7
  6
CONTINUOUS
 10
50.2600289607
 20
84.4569931688
 11
50.2600289607
 21
75.1517857246
  0
LINE
  5
340
100
AcDbEntity
  8
0
100
AcDbLine
 62
7
  6
CONTINUOUS
 10
50.3474506317
 20
51.5517857246
 11
50.3474506317
 21
47.5517857246
  0
LINE
  5
341
100
AcDbEntity
  8
0
100
AcDbLine
 62
7
  6
CONTINUOUS
 10
50.378731209
 20
53.0517857246
 11
50.378731209
 21
47.5517857246
  0
LINE
  5
342
100
AcDbEntity
  8
0
100
AcDbLine
 62
7
  6
CONTINUOUS
 10
50.6674913737
 20
75.1517857246
 11
50.6674913737
 21
84.7755964499
  0
LINE
  5
343
100
AcDbEntity
  8
0
100
AcDbLine
 62
7
  6
CONTINUOUS
 10
50.8479663789
 20
75.1517857246
 11
50.8479663789
 21
83.8734821675
  0
LINE
  5
344
100
AcDbEntity
  8
0
100
AcDbLine
 62
7
  6
CONTINUOUS
 10
50.878146619
 20
68.8290268684
 11
50.878146619
 21
68.9786987217
  0
LINE
  5
345
100
AcDbEntity
  8
0
100
AcDbLine
 62
7
  6
CONTINUOUS
 10
50.8787778746
 20
13.9017857246
 11
50.8787778746
 21
14.1017857246
  0
LINE
  5
346
100
AcDbEntity
  8
0
100
AcDbLine
 62
7
  6
CONTINUOUS
 10
51.328731209
 20
17.8017857246
 11
51.328731209
 21
13.9017857086
  0
LINE
  5
347
100
AcDbEntity
  8
0
100
AcDbLine
 62
7
  6
CONTINUOUS
 10
51.4307540726
 20
83.8734821675
 11
51.4307540726
 21
75.1517857246
  0
LINE
  5
348
100
AcDbEntity
  8
0
100
AcDbLine
 62
7
  6
CONTINUOUS
 10
51.4377439733
 20
84.3948505365
 11
51.4377439733
 21
75.1517857246
  0
LINE
  5
349
100
AcDbEntity
  8
0
100
AcDbLine
 62
7
  6
CONTINUOUS
 10
51.4392034755
 20
21.8606641821
 11
51.4392034755
 21
17.8017857246
  0
LINE
  5
34A
100
AcDbEntity
  8
0
100
AcDbLine
 62
7
  6
CONTINUOUS
 10
51.478731209
 20
17.8017857246
 11
51.478731209
 21
16.6017857246
  0
LINE
  5
34B
100
AcDbEntity
  8
0
100
AcDbLine
 62
7
  6
CONTINUOUS
 10
51.4787340032
 20
7.7017857246
 11
51.4787340032
 21
7.9017857483
  0
LINE
  5
34C
100
AcDbEntity
  8
0
100
AcDbLine
 62
7
  6
CONTINUOUS
 10
51.7668194451
 20
75.1517857246
 11
51.7668194451
 21
84.7755964499
  0
LINE
  5
34D
100
AcDbEntity
  8
0
100
AcDbLine
 62
7
  6
CONTINUOUS
 10
51.9423867987
 20
75.1517857246
 11
51.9423867987
 21
83.8734821675
  0
LINE
  5
34E
100
AcDbEntity
  8
0
100
AcDbLine
 62
7
  6
CONTINUOUS
 10
52.078731209
 20
7.9017857483
 11
52.078731209
 21
12.3552342557
  0
LINE
  5
34F
100
AcDbEntity
  8
0
100
AcDbLine
 62
7
  6
CONTINUOUS
 10
52.078731209
 20
39.9017921551
 11
52.078731209
 21
42.4017857246
  0
LINE
  5
350
100
AcDbEntity
  8
0
100
AcDbLine
 62
7
  6
CONTINUOUS
 10
52.4307464579
 20
84.331579907
 11
52.4307464579
 21
75.1517857246
  0
LINE
  5
351
100
AcDbEntity
  8
0
100
AcDbLine
 62
7
  6
CONTINUOUS
 10
52.675639983
 20
75.1517857246
 11
52.675639983
 21
84.77559645
  0
LINE
  5
352
100
AcDbEntity
  8
0
100
AcDbLine
 62
7
  6
CONTINUOUS
 10
52.678731209
 20
16.6017857246
 11
52.678731209
 21
29.9017857246
  0
LINE
  5
353
100
AcDbEntity
  8
0
100
AcDbLine
 62
7
  6
CONTINUOUS
 10
52.728731209
 20
31.5017857246
 11
52.728731209
 21
29.9017857246
  0
LINE
  5
354
100
AcDbEntity
  8
0
100
AcDbLine
 62
7
  6
CONTINUOUS
 10
20.028731209
 20
63.1517857246
 11
48.728731209
 21
63.1517857246
  0
LINE
  5
355
100
AcDbEntity
  8
0
100
AcDbLine
 62
7
  6
CONTINUOUS
 10
48.728731209
 20
65.1517857246
 11
20.028731209
 21
65.1517857246
  0
LINE
  5
356
100
AcDbEntity
  8
0
100
AcDbLine
 62
7
  6
CONTINUOUS
 10
52.8443761325
 20
75.1517857246
 11
52.8443761325
 21
83.8734821675
  0
LINE
  5
357
100
AcDbEntity
  8
0
100
AcDbLine
 62
7
  6
CONTINUOUS
 10
52.8787778745
 20
13.9017857246
 11
52.8787778745
 21
14.1017857246
  0
LINE
  5
358
100
AcDbEntity
  8
0
100
AcDbLine
 62
7
  6
CONTINUOUS
 10
53.2281568714
 20
84.2673187808
 11
53.2281568714
 21
75.1517857246
  0
LINE
  5
359
100
AcDbEntity
  8
0
100
AcDbLine
 62
7
  6
CONTINUOUS
 10
53.3839957596
 20
75.1517857246
 11
53.3839957596
 21
84.7755964499
  0
LINE
  5
35A
100
AcDbEntity
  8
0
100
AcDbLine
 62
7
  6
CONTINUOUS
 10
53.4787340032
 20
7.7017857246
 11
53.4787340032
 21
7.9017857337
  0
LINE
  5
35B
100
AcDbEntity
  8
0
100
AcDbLine
 62
7
  6
CONTINUOUS
 10
53.5440519962
 20
75.1517857246
 11
53.5440519962
 21
83.8734821675
  0
LINE
  5
35C
100
AcDbEntity
  8
0
100
AcDbLine
 62
7
  6
CONTINUOUS
 10
53.8209997446
 20
83.8734821674
 11
53.8209997446
 21
75.1517857246
  0
LINE
  5
35D
100
AcDbEntity
  8
0
100
AcDbLine
 62
7
  6
CONTINUOUS
 10
53.8212386185
 20
84.2022481958
 11
53.8212386185
 21
83.9043410517
  0
LINE
  5
35E
100
AcDbEntity
  8
0
100
AcDbLine
 62
7
  6
CONTINUOUS
 10
53.878731209
 20
31.5017857246
 11
53.878731209
 21
36.0598823578
  0
LINE
  5
35F
100
AcDbEntity
  8
0
100
AcDbLine
 62
7
  6
CONTINUOUS
 10
53.8841258806
 20
75.1517857246
 11
53.8841258806
 21
84.77559645
  0
LINE
  5
360
100
AcDbEntity
  8
0
100
AcDbLine
 62
7
  6
CONTINUOUS
 10
54.0337485949
 20
75.1517857246
 11
54.0337485949
 21
83.8734821675
  0
LINE
  5
361
100
AcDbEntity
  8
0
100
AcDbLine
 62
7
  6
CONTINUOUS
 10
54.078731209
 20
7.9017860715
 11
54.078731209
 21
12.3552303324
  0
LINE
  5
362
100
AcDbEntity
  8
0
100
AcDbLine
 62
7
  6
CONTINUOUS
 10
54.1705508159
 20
84.4762003721
 11
54.1705508159
 21
84.77559645
  0
LINE
  5
363
100
AcDbEntity
  8
0
100
AcDbLine
 62
7
  6
CONTINUOUS
 10
54.2011403447
 20
83.8734821675
 11
54.2011403447
 21
75.1517857246
  0
LINE
  5
364
100
AcDbEntity
  8
0
100
AcDbLine
 62
7
  6
CONTINUOUS
 10
54.2034937713
 20
84.136430459
 11
54.2034937713
 21
83.9717211228
  0
LINE
  5
365
100
AcDbEntity
  8
0
100
AcDbLine
 62
7
  6
CONTINUOUS
 10
54.3081007099
 20
75.1517857246
 11
54.3081007099
 21
83.8734821675
  0
LINE
  5
366
100
AcDbEntity
  8
0
100
AcDbLine
 62
7
  6
CONTINUOUS
 10
54.3641024822
 20
83.8734821674
 11
54.3641024822
 21
75.1517857246
  0
LINE
  5
367
100
AcDbEntity
  8
0
100
AcDbLine
 62
7
  6
CONTINUOUS
 10
54.3706504009
 20
74.9286331515
 11
54.3706504009
 21
75.1517857246
  0
LINE
  5
368
100
AcDbEntity
  8
0
100
AcDbLine
 62
7
  6
CONTINUOUS
 10
54.3707342625
 20
84.0705692636
 11
54.3707342625
 21
84.0357054549
  0
LINE
  5
369
100
AcDbEntity
  8
0
100
AcDbLine
 62
7
  6
CONTINUOUS
 10
54.378731209
 20
13.9017857108
 11
54.378731209
 21
29.9017857246
  0
LINE
  5
36A
100
AcDbEntity
  8
0
100
AcDbLine
 62
7
  6
CONTINUOUS
 10
55.378731209
 20
14.9017857246
 11
55.378731209
 21
13.7017857246
  0
LINE
  5
36B
100
AcDbEntity
  8
0
100
AcDbLine
 62
7
  6
CONTINUOUS
 10
55.378731209
 20
55.6517857246
 11
55.378731209
 21
56.2909145358
  0
LINE
  5
36C
100
AcDbEntity
  8
0
100
AcDbLine
 62
7
  6
CONTINUOUS
 10
50.428731209
 20
67.1517857246
 11
18.328731209
 21
67.1517857246
  0
LINE
  5
36D
100
AcDbEntity
  8
0
100
AcDbLine
 62
7
  6
CONTINUOUS
 10
54.3787312093
 20
74.7731392369
 11
54.3706504009
 21
74.9286331513
  0
LINE
  5
36E
100
AcDbEntity
  8
0
100
AcDbLine
 62
7
  6
CONTINUOUS
 10
50.1493017676
 20
7.9017857246
 11
51.0685769945
 21
13.9017857246
  0
LINE
  5
36F
100
AcDbEntity
  8
0
100
AcDbLine
 62
7
  6
CONTINUOUS
 10
52.3935456669
 20
7.9017857246
 11
53.3134883163
 21
13.9017857246
  0
LINE
  5
370
100
AcDbEntity
  8
0
100
AcDbLine
 62
7
  6
CONTINUOUS
 10
52.3166500909
 20
13.9017853194
 11
51.3936243516
 21
7.9017855943
  0
LINE
  5
371
100
AcDbEntity
  8
0
100
AcDbLine
 62
7
  6
CONTINUOUS
 10
52.7603661097
 20
13.9017857086
 11
52.7956315087
 21
14.1017857246
  0
LINE
  5
372
100
AcDbEntity
  8
0
100
AcDbLine
 62
7
  6
CONTINUOUS
 10
50.878146619
 20
68.8290268684
 11
17.879315799
 21
68.8290268684
  0
LINE
  5
373
100
AcDbEntity
  8
0
100
AcDbLine
 62
7
  6
CONTINUOUS
 10
17.879315799
 20
68.9786987217
 11
50.878146619
 21
68.9786987217
  0
LINE
  5
374
100
AcDbEntity
  8
0
100
AcDbLine
 62
7
  6
CONTINUOUS
 10
53.3936204165
 20
7.9017861816
 11
54.3166529152
 21
13.9017852608
  0
LINE
  5
375
100
AcDbEntity
  8
0
100
AcDbLine
 62
7
  6
CONTINUOUS
 10
52.1068023943
 20
71.8798583607
 11
16.6506600237
 21
71.8798583607
  0
LINE
  5
376
100
AcDbEntity
  8
0
100
AcDbLine
 62
7
  6
CONTINUOUS
 10
14.8180933156
 20
73.7124252188
 11
53.9393691024
 21
73.7124252188
  0
LINE
  5
377
100
AcDbEntity
  8
0
100
AcDbLine
 62
7
  6
CONTINUOUS
 10
54.3706504009
 20
74.9286331515
 11
14.3868120171
 21
74.9286331515
  0
LINE
  5
378
100
AcDbEntity
  8
0
100
AcDbLine
 62
7
  6
CONTINUOUS
 10
14.3868120171
 20
75.1517857246
 11
14.3933862219
 21
75.1517857246
  0
LINE
  5
379
100
AcDbEntity
  8
0
100
AcDbLine
 62
7
  6
CONTINUOUS
 10
14.4493617081
 20
75.1517857246
 11
14.5563220733
 21
75.1517857246
  0
LINE
  5
37A
100
AcDbEntity
  8
0
100
AcDbLine
 62
7
  6
CONTINUOUS
 10
14.7237138232
 20
75.1517857246
 11
14.9364626734
 21
75.1517857246
  0
LINE
  5
37B
100
AcDbEntity
  8
0
100
AcDbLine
 62
7
  6
CONTINUOUS
 10
15.2134104218
 20
75.1517857246
 11
15.5287571683
 21
75.1517857246
  0
LINE
  5
37C
100
AcDbEntity
  8
0
100
AcDbLine
 62
7
  6
CONTINUOUS
 10
15.9130862856
 20
75.1517857246
 11
16.3292858406
 21
75.1517857246
  0
LINE
  5
37D
100
AcDbEntity
  8
0
100
AcDbLine
 62
7
  6
CONTINUOUS
 10
16.8150756194
 20
75.1517857246
 11
17.3263286612
 21
75.1517857246
  0
LINE
  5
37E
100
AcDbEntity
  8
0
100
AcDbLine
 62
7
  6
CONTINUOUS
 10
17.9094960391
 20
75.1517857246
 11
18.5109563809
 21
75.1517857246
  0
LINE
  5
37F
100
AcDbEntity
  8
0
100
AcDbLine
 62
7
  6
CONTINUOUS
 10
19.1843568458
 20
75.1517857246
 11
19.8690550783
 21
75.1517857246
  0
LINE
  5
380
100
AcDbEntity
  8
0
100
AcDbLine
 62
7
  6
CONTINUOUS
 10
20.6256903977
 20
75.1517857246
 11
21.3861248234
 21
75.1517857246
  0
LINE
  5
381
100
AcDbEntity
  8
0
100
AcDbLine
 62
7
  6
CONTINUOUS
 10
22.2181619628
 20
75.1517857246
 11
23.0455442832
 21
75.1517857246
  0
LINE
  5
382
100
AcDbEntity
  8
0
100
AcDbLine
 62
7
  6
CONTINUOUS
 10
23.9429586341
 20
75.1517857246
 11
24.8291325104
 21
75.1517857246
  0
LINE
  5
383
100
AcDbEntity
  8
0
100
AcDbLine
 62
7
  6
CONTINUOUS
 10
25.7825486338
 20
75.1517857246
 11
26.7173481395
 21
75.1517857246
  0
LINE
  5
384
100
AcDbEntity
  8
0
100
AcDbLine
 62
7
  6
CONTINUOUS
 10
27.7163202086
 20
75.1517857246
 11
28.6895034847
 21
75.1517857246
  0
LINE
  5
385
100
AcDbEntity
  8
0
100
AcDbLine
 62
7
  6
CONTINUOUS
 10
29.7230865527
 20
75.1517857246
 11
30.7239911994
 21
75.1517857246
  0
LINE
  5
386
100
AcDbEntity
  8
0
100
AcDbLine
 62
7
  6
CONTINUOUS
 10
31.7808611135
 20
75.1517857246
 11
32.798563733
 21
75.1517857246
  0
LINE
  5
387
100
AcDbEntity
  8
0
100
AcDbLine
 62
7
  6
CONTINUOUS
 10
33.8670984829
 20
75.1517857246
 11
34.8903639351
 21
75.1517857246
  0
LINE
  5
388
100
AcDbEntity
  8
0
100
AcDbLine
 62
7
  6
CONTINUOUS
 10
35.9589414077
 20
75.1517857246
 11
36.9766013045
 21
75.1517857246
  0
LINE
  5
389
100
AcDbEntity
  8
0
100
AcDbLine
 62
7
  6
CONTINUOUS
 10
38.0334712187
 20
75.1517857246
 11
39.0343758654
 21
75.1517857246
  0
LINE
  5
38A
100
AcDbEntity
  8
0
100
AcDbLine
 62
7
  6
CONTINUOUS
 10
40.0679589333
 20
75.1517857246
 11
41.0411422094
 21
75.1517857246
  0
LINE
  5
38B
100
AcDbEntity
  8
0
100
AcDbLine
 62
7
  6
CONTINUOUS
 10
42.0401142785
 20
75.1517857246
 11
42.9749137842
 21
75.1517857246
  0
LINE
  5
38C
100
AcDbEntity
  8
0
100
AcDbLine
 62
7
  6
CONTINUOUS
 10
43.9283299076
 20
75.1517857246
 11
44.8145037839
 21
75.1517857246
  0
LINE
  5
38D
100
AcDbEntity
  8
0
100
AcDbLine
 62
7
  6
CONTINUOUS
 10
45.7119181348
 20
75.1517857246
 11
46.5397572752
 21
75.1517857246
  0
LINE
  5
38E
100
AcDbEntity
  8
0
100
AcDbLine
 62
7
  6
CONTINUOUS
 10
47.3713375944
 20
75.1517857246
 11
48.1317720203
 21
75.1517857246
  0
LINE
  5
38F
100
AcDbEntity
  8
0
100
AcDbLine
 62
7
  6
CONTINUOUS
 10
48.8881445095
 20
75.1517857246
 11
49.5743067483
 21
75.1517857246
  0
LINE
  5
390
100
AcDbEntity
  8
0
100
AcDbLine
 62
7
  6
CONTINUOUS
 10
50.2465060371
 20
75.1517857246
 11
50.8479663789
 21
75.1517857246
  0
LINE
  5
391
100
AcDbEntity
  8
0
100
AcDbLine
 62
7
  6
CONTINUOUS
 10
51.4307540726
 20
75.1517857246
 11
51.9423867987
 21
75.1517857246
  0
LINE
  5
392
100
AcDbEntity
  8
0
100
AcDbLine
 62
7
  6
CONTINUOUS
 10
52.4281765775
 20
75.1517857246
 11
52.8443761324
 21
75.1517857246
  0
LINE
  5
393
100
AcDbEntity
  8
0
100
AcDbLine
 62
7
  6
CONTINUOUS
 10
53.2287052497
 20
75.1517857246
 11
53.5440519962
 21
75.1517857246
  0
LINE
  5
394
100
AcDbEntity
  8
0
100
AcDbLine
 62
7
  6
CONTINUOUS
 10
53.8209997446
 20
75.1517857246
 11
54.0335200476
 21
75.1517857246
  0
LINE
  5
395
100
AcDbEntity
  8
0
100
AcDbLine
 62
7
  6
CONTINUOUS
 10
54.2011403447
 20
75.1517857246
 11
54.3081007099
 21
75.1517857246
  0
LINE
  5
396
100
AcDbEntity
  8
0
100
AcDbLine
 62
7
  6
CONTINUOUS
 10
54.3641024822
 20
75.1517857246
 11
54.3699228191
 21
75.1517857246
  0
LINE
  5
397
100
AcDbEntity
  8
0
100
AcDbLine
 62
7
  6
CONTINUOUS
 10
37.0282738943
 20
86.25522398
 11
36.9934375617
 21
86.2920845397
  0
LINE
  5
398
100
AcDbEntity
  8
0
100
AcDbLine
 62
7
  6
CONTINUOUS
 10
54.0871966854
 20
12.4102512009
 11
55.378731209
 21
13.7017857246
  0
LINE
  5
399
100
AcDbEntity
  8
0
100
AcDbLine
 62
7
  6
CONTINUOUS
 10
14.3933599358
 20
83.8734821675
 11
14.4493617081
 21
83.8734821675
  0
LINE
  5
39A
100
AcDbEntity
  8
0
100
AcDbLine
 62
7
  6
CONTINUOUS
 10
14.5563220733
 20
83.8734821675
 11
14.7237138232
 21
83.8734821675
  0
LINE
  5
39B
100
AcDbEntity
  8
0
100
AcDbLine
 62
7
  6
CONTINUOUS
 10
14.9364626735
 20
83.8734821675
 11
15.2134104218
 21
83.8734821675
  0
LINE
  5
39C
100
AcDbEntity
  8
0
100
AcDbLine
 62
7
  6
CONTINUOUS
 10
15.5296168362
 20
83.8734821675
 11
15.9130862856
 21
83.8734821675
  0
LINE
  5
39D
100
AcDbEntity
  8
0
100
AcDbLine
 62
7
  6
CONTINUOUS
 10
16.3292858405
 20
83.8734821675
 11
16.8150756193
 21
83.8734821675
  0
LINE
  5
39E
100
AcDbEntity
  8
0
100
AcDbLine
 62
7
  6
CONTINUOUS
 10
17.3267083453
 20
83.8734821675
 11
17.9094960391
 21
83.8734821675
  0
LINE
  5
39F
100
AcDbEntity
  8
0
100
AcDbLine
 62
7
  6
CONTINUOUS
 10
18.510956381
 20
83.8734821675
 11
19.1843568458
 21
83.8734821675
  0
LINE
  5
3A0
100
AcDbEntity
  8
0
100
AcDbLine
 62
7
  6
CONTINUOUS
 10
19.8690550783
 20
83.8734821675
 11
20.6256903977
 21
83.8734821675
  0
LINE
  5
3A1
100
AcDbEntity
  8
0
100
AcDbLine
 62
7
  6
CONTINUOUS
 10
21.3861248235
 20
83.8734821675
 11
22.2177051427
 21
83.8734821675
  0
LINE
  5
3A2
100
AcDbEntity
  8
0
100
AcDbLine
 62
7
  6
CONTINUOUS
 10
23.0455442832
 20
83.8734821675
 11
23.9429586342
 21
83.8734821675
  0
LINE
  5
3A3
100
AcDbEntity
  8
0
100
AcDbLine
 62
7
  6
CONTINUOUS
 10
24.8291325106
 20
83.8734821675
 11
25.7825486338
 21
83.8734821675
  0
LINE
  5
3A4
100
AcDbEntity
  8
0
100
AcDbLine
 62
7
  6
CONTINUOUS
 10
26.7173481396
 20
83.8734821675
 11
27.7163202086
 21
83.8734821675
  0
LINE
  5
3A5
100
AcDbEntity
  8
0
100
AcDbLine
 62
7
  6
CONTINUOUS
 10
28.6895034847
 20
83.8734821675
 11
29.7230865525
 21
83.8734821675
  0
LINE
  5
3A6
100
AcDbEntity
  8
0
100
AcDbLine
 62
7
  6
CONTINUOUS
 10
30.7239911994
 20
83.8734821675
 11
31.7808611135
 21
83.8734821675
  0
LINE
  5
3A7
100
AcDbEntity
  8
0
100
AcDbLine
 62
7
  6
CONTINUOUS
 10
32.7985210104
 20
83.8734821675
 11
33.8670984829
 21
83.8734821675
  0
LINE
  5
3A8
100
AcDbEntity
  8
0
100
AcDbLine
 62
7
  6
CONTINUOUS
 10
34.8903639351
 20
83.8734821675
 11
35.9589414076
 21
83.8734821675
  0
LINE
  5
3A9
100
AcDbEntity
  8
0
100
AcDbLine
 62
7
  6
CONTINUOUS
 10
36.9766013045
 20
83.8734821675
 11
38.0334712186
 21
83.8734821675
  0
LINE
  5
3AA
100
AcDbEntity
  8
0
100
AcDbLine
 62
7
  6
CONTINUOUS
 10
39.0343758655
 20
83.8734821675
 11
40.0679589333
 21
83.8734821675
  0
LINE
  5
3AB
100
AcDbEntity
  8
0
100
AcDbLine
 62
7
  6
CONTINUOUS
 10
41.0411422094
 20
83.8734821675
 11
42.0401142784
 21
83.8734821675
  0
LINE
  5
3AC
100
AcDbEntity
  8
0
100
AcDbLine
 62
7
  6
CONTINUOUS
 10
42.9749137842
 20
83.8734821675
 11
43.9283299075
 21
83.8734821675
  0
LINE
  5
3AD
100
AcDbEntity
  8
0
100
AcDbLine
 62
7
  6
CONTINUOUS
 10
44.8145037838
 20
83.8734821675
 11
45.7119181347
 21
83.8734821675
  0
LINE
  5
3AE
100
AcDbEntity
  8
0
100
AcDbLine
 62
7
  6
CONTINUOUS
 10
46.5397572753
 20
83.8734821675
 11
47.3713375945
 21
83.8734821675
  0
LINE
  5
3AF
100
AcDbEntity
  8
0
100
AcDbLine
 62
7
  6
CONTINUOUS
 10
48.1317720203
 20
83.8734821675
 11
48.8884073397
 21
83.8734821675
  0
LINE
  5
3B0
100
AcDbEntity
  8
0
100
AcDbLine
 62
7
  6
CONTINUOUS
 10
49.5731055722
 20
83.8734821675
 11
50.246506037
 21
83.8734821675
  0
LINE
  5
3B1
100
AcDbEntity
  8
0
100
AcDbLine
 62
7
  6
CONTINUOUS
 10
50.8479663789
 20
83.8734821675
 11
51.4307540727
 21
83.8734821675
  0
LINE
  5
3B2
100
AcDbEntity
  8
0
100
AcDbLine
 62
7
  6
CONTINUOUS
 10
51.9423867987
 20
83.8734821675
 11
52.4281765775
 21
83.8734821675
  0
LINE
  5
3B3
100
AcDbEntity
  8
0
100
AcDbLine
 62
7
  6
CONTINUOUS
 10
52.8443761325
 20
83.8734821675
 11
53.2278455818
 21
83.8734821675
  0
LINE
  5
3B4
100
AcDbEntity
  8
0
100
AcDbLine
 62
7
  6
CONTINUOUS
 10
53.5440519962
 20
83.8734821675
 11
53.8209997445
 21
83.8734821675
  0
LINE
  5
3B5
100
AcDbEntity
  8
0
100
AcDbLine
 62
7
  6
CONTINUOUS
 10
54.0337485949
 20
83.8734821675
 11
54.2011403447
 21
83.8734821675
  0
LINE
  5
3B6
100
AcDbEntity
  8
0
100
AcDbLine
 62
7
  6
CONTINUOUS
 10
54.3081007099
 20
83.8734821675
 11
54.3641024822
 21
83.8734821675
  0
LINE
  5
3B7
100
AcDbEntity
  8
0
100
AcDbLine
 62
7
  6
CONTINUOUS
 10
16.1354501384
 20
86.0387111785
 11
52.6220122796
 21
86.0387111785
  0
LINE
  5
3B8
100
AcDbEntity
  8
0
100
AcDbLine
 62
7
  6
CONTINUOUS
 10
36.9923893581
 20
86.2723580806
 11
34.6719632364
 21
86.2723580806
  0
LINE
  5
3B9
100
AcDbEntity
  8
0
100
AcDbLine
 62
7
  6
CONTINUOUS
 10
49.7272713059
 20
86.3120218398
 11
37.157322966
 21
86.3120218398
  0
LINE
  5
3BA
100
AcDbEntity
  8
0
100
AcDbLine
 62
7
  6
CONTINUOUS
 10
23.279025032
 20
86.3120218398
 11
18.528731209
 21
86.3120218398
  0
LINE
  5
3BB
100
AcDbEntity
  8
0
100
AcDbLine
 62
7
  6
CONTINUOUS
 10
21.228731209
 20
86.5742093096
 11
25.1853410176
 21
86.5742093096
  0
LINE
  5
3BC
100
AcDbEntity
  8
0
100
AcDbLine
 62
7
  6
CONTINUOUS
 10
31.9031363826
 20
86.5742093118
 11
47.1180952524
 21
86.5742093096
  0
LINE
  5
3BD
100
AcDbEntity
  8
0
100
AcDbLine
 62
7
  6
CONTINUOUS
 10
18.528731209
 20
86.3123651832
 11
16.1355334617
 21
86.0387213841
  0
LINE
  5
3BE
100
AcDbEntity
  8
0
100
AcDbLine
 62
7
  6
CONTINUOUS
 10
34.378731209
 20
87.1517857639
 11
21.228731209
 21
86.5744979845
  0
ARC
  5
3BF
100
AcDbEntity
  8
0
100
AcDbCircle
 62
7
  6
CONTINUOUS
 10
-301.21902
 20
-198.3812332252
 40
421.1750058023
100
AcDbArc
 50
32.4030636723
 51
32.8208896783
  0
ARC
  5
3C0
100
AcDbEntity
  8
0
100
AcDbCircle
 62
7
  6
CONTINUOUS
 10
14.5791234782
 20
19.2013934414
 40
0.2003926053
100
AcDbArc
 50
90.0039797783
 51
179.9956576115
  0
ARC
  5
3C1
100
AcDbEntity
  8
0
100
AcDbCircle
 62
7
  6
CONTINUOUS
 10
14.5787451717
 20
14.3017996873
 40
0.2000139632
100
AcDbArc
 50
180.0039997414
 51
269.9960002586
  0
ARC
  5
3C2
100
AcDbEntity
  8
0
100
AcDbCircle
 62
7
  6
CONTINUOUS
 10
12.678717484
 20
39.9017921551
 40
4.000013725
100
AcDbArc
 50
309.7922234835
 51
360.0
  0
ARC
  5
3C3
100
AcDbEntity
  8
0
100
AcDbCircle
 62
7
  6
CONTINUOUS
 10
15.8787927309
 20
36.0598823578
 40
1.0000615224
100
AcDbArc
 50
129.7922234806
 51
180.0
  0
ARC
  5
3C4
100
AcDbEntity
  8
0
100
AcDbCircle
 62
7
  6
CONTINUOUS
 10
14.3787357072
 20
56.2909145358
 40
1.0000044982
100
AcDbArc
 50
98.551830234
 51
180.0
  0
ARC
  5
3C5
100
AcDbEntity
  8
0
100
AcDbCircle
 62
7
  6
CONTINUOUS
 10
14.2366498224
 20
91.8524500564
 40
26.049782062
100
AcDbArc
 50
342.1637935442
 51
342.5783398518
  0
ARC
  5
3C6
100
AcDbEntity
  8
0
100
AcDbCircle
 62
7
  6
CONTINUOUS
 10
16.4745503072
 20
78.4564734953
 40
18.2166054741
100
AcDbArc
 50
17.2994989839
 51
17.892271124
  0
ARC
  5
3C7
100
AcDbEntity
  8
0
100
AcDbCircle
 62
7
  6
CONTINUOUS
 10
13.8801184482
 20
68.9948886162
 40
3.9998688789
100
AcDbArc
 50
359.7680549707
 51
46.1591094659
  0
ARC
  5
3C8
100
AcDbEntity
  8
0
100
AcDbCircle
 62
7
  6
CONTINUOUS
 10
17.3880673331
 20
84.2533468401
 40
2.2075846194
100
AcDbArc
 50
185.203607728
 51
189.9083422949
  0
ARC
  5
3C9
100
AcDbEntity
  8
0
100
AcDbCircle
 62
7
  6
CONTINUOUS
 10
16.6259217541
 20
83.9644875146
 40
2.1944156724
100
AcDbArc
 50
158.3075627602
 51
165.031758436
  0
ARC
  5
3CA
100
AcDbEntity
  8
0
100
AcDbCircle
 62
7
  6
CONTINUOUS
 10
16.794743391
 20
84.1745845331
 40
2.0928034083
100
AcDbArc
 50
183.327012658
 51
188.2721459773
  0
ARC
  5
3CB
100
AcDbEntity
  8
0
100
AcDbCircle
 62
7
  6
CONTINUOUS
 10
16.4662942492
 20
84.0256928687
 40
2.0882569495
100
AcDbArc
 50
157.175374765
 51
158.9547567747
  0
ARC
  5
3CC
100
AcDbEntity
  8
0
100
AcDbCircle
 62
7
  6
CONTINUOUS
 10
16.5149649127
 20
83.9956052248
 40
2.0791869716
100
AcDbArc
 50
165.0704351724
 51
172.0292974873
  0
ARC
  5
3CD
100
AcDbEntity
  8
0
100
AcDbCircle
 62
7
  6
CONTINUOUS
 10
16.4946062988
 20
84.0004768746
 40
2.0583817522
100
AcDbArc
 50
175.969206254
 51
178.5342408576
  0
ARC
  5
3CE
100
AcDbEntity
  8
0
100
AcDbCircle
 62
7
  6
CONTINUOUS
 10
16.4820473051
 20
84.0013297646
 40
2.0457938726
100
AcDbArc
 50
172.0602352542
 51
175.968309367
  0
ARC
  5
3CF
100
AcDbEntity
  8
0
100
AcDbCircle
 62
7
  6
CONTINUOUS
 10
16.4501160126
 20
84.1025473069
 40
2.013824378
100
AcDbArc
 50
181.4061436908
 51
186.5313207781
  0
ARC
  5
3D0
100
AcDbEntity
  8
0
100
AcDbCircle
 62
7
  6
CONTINUOUS
 10
16.378733382
 20
84.0531092356
 40
2.0000041519
100
AcDbArc
 50
96.9828694469
 51
143.1300475177
  0
ARC
  5
3D1
100
AcDbEntity
  8
0
100
AcDbCircle
 62
7
  6
CONTINUOUS
 10
16.3630851406
 20
84.0352522899
 40
1.9763569907
100
AcDbArc
 50
179.9956319742
 51
184.6950659855
  0
ARC
  5
3D2
100
AcDbEntity
  8
0
100
AcDbCircle
 62
7
  6
CONTINUOUS
 10
16.8988087926
 20
83.9038122064
 40
1.9625849997
100
AcDbArc
 50
178.5507107727
 51
179.9952961225
  0
ARC
  5
3D3
100
AcDbEntity
  8
0
100
AcDbCircle
 62
7
  6
CONTINUOUS
 10
16.5154024138
 20
83.9695385274
 40
1.9614338135
100
AcDbArc
 50
179.9875296247
 51
182.8070415916
  0
ARC
  5
3D4
100
AcDbEntity
  8
0
100
AcDbCircle
 62
7
  6
CONTINUOUS
 10
16.3456962063
 20
84.0722931653
 40
1.9589687539
100
AcDbArc
 50
158.9601548082
 51
180.0485469782
  0
ARC
  5
3D5
100
AcDbEntity
  8
0
100
AcDbCircle
 62
7
  6
CONTINUOUS
 10
16.891031448
 20
84.2020466774
 40
1.9548076552
100
AcDbArc
 50
179.9952341482
 51
184.3696253421
  0
ARC
  5
3D6
100
AcDbEntity
  8
0
100
AcDbCircle
 62
7
  6
CONTINUOUS
 10
16.8866931025
 20
83.9045206269
 40
1.9504553092
100
AcDbArc
 50
175.6308949735
 51
178.5625127652
  0
ARC
  5
3D7
100
AcDbEntity
  8
0
100
AcDbCircle
 62
7
  6
CONTINUOUS
 10
16.8740683575
 20
83.9039082659
 40
1.9378445589
100
AcDbArc
 50
179.9982027886
 51
180.8996380292
  0
ARC
  5
3D8
100
AcDbEntity
  8
0
100
AcDbCircle
 62
7
  6
CONTINUOUS
 10
16.4551799414
 20
83.9703493538
 40
1.9012113333
100
AcDbArc
 50
177.5050743074
 51
180.0115614568
  0
ARC
  5
3D9
100
AcDbEntity
  8
0
100
AcDbCircle
 62
7
  6
CONTINUOUS
 10
16.4495137601
 20
84.1357484772
 40
1.8955451385
100
AcDbArc
 50
179.9906647856
 51
182.4986430446
  0
ARC
  5
3DA
100
AcDbEntity
  8
0
100
AcDbCircle
 62
7
  6
CONTINUOUS
 10
16.3039166382
 20
84.0930478042
 40
1.8476955819
100
AcDbArc
 50
157.196799577
 51
158.3210508393
  0
ARC
  5
3DB
100
AcDbEntity
  8
0
100
AcDbCircle
 62
7
  6
CONTINUOUS
 10
16.436712218
 20
84.1410340754
 40
1.687250112
100
AcDbArc
 50
155.4295041096
 51
157.9081378764
  0
ARC
  5
3DC
100
AcDbEntity
  8
0
100
AcDbCircle
 62
7
  6
CONTINUOUS
 10
16.8082288131
 20
84.1879729515
 40
1.5504334329
100
AcDbArc
 50
153.5761653942
 51
157.7278769545
  0
ARC
  5
3DD
100
AcDbEntity
  8
0
100
AcDbCircle
 62
7
  6
CONTINUOUS
 10
15.8788074205
 20
74.7731392369
 40
1.5000762118
100
AcDbArc
 50
180.0
 51
224.9999976554
  0
ARC
  5
3DE
100
AcDbEntity
  8
0
100
AcDbCircle
 62
7
  6
CONTINUOUS
 10
18.0287222116
 20
59.8735281029
 40
2.0000089974
100
AcDbArc
 50
278.551830234
 51
360.0
  0
ARC
  5
3DF
100
AcDbEntity
  8
0
100
AcDbCircle
 62
7
  6
CONTINUOUS
 10
22.3147659251
 20
84.7174897814
 40
3.2421921373
100
AcDbArc
 50
191.8242824459
 51
195.0890535221
  0
ARC
  5
3E0
100
AcDbEntity
  8
0
100
AcDbCircle
 62
7
  6
CONTINUOUS
 10
20.6844352241
 20
84.5665479458
 40
2.8601796541
100
AcDbArc
 50
190.3409711252
 51
194.0232416935
  0
ARC
  5
3E1
100
AcDbEntity
  8
0
100
AcDbCircle
 62
7
  6
CONTINUOUS
 10
19.3282767855
 20
84.4443553638
 40
2.5772225958
100
AcDbArc
 50
188.7313358482
 51
192.79756978
  0
ARC
  5
3E2
100
AcDbEntity
  8
0
100
AcDbCircle
 62
7
  6
CONTINUOUS
 10
22.3430677763
 20
83.5083697214
 40
2.5008090547
100
AcDbArc
 50
167.4189229547
 51
171.6049401929
  0
ARC
  5
3E3
100
AcDbEntity
  8
0
100
AcDbCircle
 62
7
  6
CONTINUOUS
 10
18.2316559199
 20
84.3419071874
 40
2.3654147942
100
AcDbArc
 50
187.0123565361
 51
191.4218300332
  0
ARC
  5
3E4
100
AcDbEntity
  8
0
100
AcDbCircle
 62
7
  6
CONTINUOUS
 10
20.8048775975
 20
83.6055247031
 40
2.3095185105
100
AcDbArc
 50
168.8256713552
 51
173.3373614195
  0
ARC
  5
3E5
100
AcDbEntity
  8
0
100
AcDbCircle
 62
7
  6
CONTINUOUS
 10
19.4865087332
 20
83.6904225151
 40
2.1675443598
100
AcDbArc
 50
170.3679131228
 51
175.1553221527
  0
ARC
  5
3E6
100
AcDbEntity
  8
0
100
AcDbCircle
 62
7
  6
CONTINUOUS
 10
18.3921474492
 20
83.7666925936
 40
2.0656238839
100
AcDbArc
 50
172.0300170571
 51
177.0365753562
  0
ARC
  5
3E7
100
AcDbEntity
  8
0
100
AcDbCircle
 62
7
  6
CONTINUOUS
 10
17.5251587173
 20
83.8372421205
 40
1.9958709227
100
AcDbArc
 50
173.7898921525
 51
178.959594116
  0
ARC
  5
3E8
100
AcDbEntity
  8
0
100
AcDbCircle
 62
7
  6
CONTINUOUS
 10
29.0823334435
 20
-37.9704911681
 40
124.5609912438
100
AcDbArc
 50
93.6169637988
 51
93.8126095038
  0
ARC
  5
3E9
100
AcDbEntity
  8
0
100
AcDbCircle
 62
7
  6
CONTINUOUS
 10
26.7560964186
 20
-11.931406035
 40
98.5227665049
100
AcDbArc
 50
84.4828485399
 51
85.5626326611
  0
ARC
  5
3EA
100
AcDbEntity
  8
0
100
AcDbCircle
 62
7
  6
CONTINUOUS
 10
26.7742801315
 20
-11.6955972111
 40
98.2862576561
100
AcDbArc
 50
85.5625655347
 51
87.2573841797
  0
ARC
  5
3EB
100
AcDbEntity
  8
0
100
AcDbCircle
 62
7
  6
CONTINUOUS
 10
29.8283794178
 20
87.4801873677
 40
11.7785555915
100
AcDbArc
 50
342.1690570132
 51
343.0845973741
  0
ARC
  5
3EC
100
AcDbEntity
  8
0
100
AcDbCircle
 62
7
  6
CONTINUOUS
 10
26.5052326636
 20
81.0263025332
 40
9.873147466
100
AcDbArc
 50
16.7607596816
 51
17.8527411903
  0
ARC
  5
3ED
100
AcDbEntity
  8
0
100
AcDbCircle
 62
7
  6
CONTINUOUS
 10
33.1892717216
 20
86.2272651451
 40
7.7717334749
100
AcDbArc
 50
196.2452336933
 51
197.6297393697
  0
ARC
  5
3EE
100
AcDbEntity
  8
0
100
AcDbCircle
 62
7
  6
CONTINUOUS
 10
31.595511343
 20
82.0231766951
 40
6.6985787821
100
AcDbArc
 50
16.0349453496
 51
17.6404218391
  0
ARC
  5
3EF
100
AcDbEntity
  8
0
100
AcDbCircle
 62
7
  6
CONTINUOUS
 10
29.4048678545
 20
85.5706128421
 40
5.7195021511
100
AcDbArc
 50
195.3860602377
 51
197.2611243635
  0
ARC
  5
3F0
100
AcDbEntity
  8
0
100
AcDbCircle
 62
7
  6
CONTINUOUS
 10
33.7319600861
 20
82.506791513
 40
5.2243862722
100
AcDbArc
 50
162.7836820581
 51
164.8350782433
  0
ARC
  5
3F1
100
AcDbEntity
  8
0
100
AcDbCircle
 62
7
  6
CONTINUOUS
 10
33.3222588271
 20
82.7910252416
 40
5.0729893138
100
AcDbArc
 50
41.9037687313
 51
43.0684249897
  0
ARC
  5
3F2
100
AcDbEntity
  8
0
100
AcDbCircle
 62
7
  6
CONTINUOUS
 10
26.5616995358
 20
85.1778039713
 40
4.5355862526
100
AcDbArc
 50
194.3572284056
 51
196.7128381195
  0
ARC
  5
3F3
100
AcDbEntity
  8
0
100
AcDbCircle
 62
7
  6
CONTINUOUS
 10
30.8183349841
 20
82.8427475893
 40
4.2285348373
100
AcDbArc
 50
163.3672865398
 51
165.8916172293
  0
ARC
  5
3F4
100
AcDbEntity
  8
0
100
AcDbCircle
 62
7
  6
CONTINUOUS
 10
24.2509445138
 20
84.9121483764
 40
3.7711132176
100
AcDbArc
 50
193.1669506155
 51
195.9874591605
  0
ARC
  5
3F5
100
AcDbEntity
  8
0
100
AcDbCircle
 62
7
  6
CONTINUOUS
 10
28.3047724161
 20
83.077957811
 40
3.5655198436
100
AcDbArc
 50
164.1278371998
 51
167.1078859061
  0
ARC
  5
3F6
100
AcDbEntity
  8
0
100
AcDbCircle
 62
7
  6
CONTINUOUS
 10
26.0809125076
 20
83.2545000531
 40
3.097837813
100
AcDbArc
 50
165.0608818957
 51
168.4740921373
  0
ARC
  5
3F7
100
AcDbEntity
  8
0
100
AcDbCircle
 62
7
  6
CONTINUOUS
 10
24.0999420064
 20
83.3938903919
 40
2.7558686422
100
AcDbArc
 50
166.1605417769
 51
169.9780392323
  0
ARC
  5
3F8
100
AcDbEntity
  8
0
100
AcDbCircle
 62
7
  6
CONTINUOUS
 10
24.2534300904
 20
84.840154473
 40
2.3905942414
100
AcDbArc
 50
358.4525387522
 51
359.4146727901
  0
ARC
  5
3F9
100
AcDbEntity
  8
0
100
AcDbCircle
 62
7
  6
CONTINUOUS
 10
24.6525769833
 20
84.8355665813
 40
1.9914213734
100
AcDbArc
 50
359.4293485601
 51
359.9944928624
  0
ARC
  5
3FA
100
AcDbEntity
  8
0
100
AcDbCircle
 62
7
  6
CONTINUOUS
 10
26.0092758666
 20
84.6912548514
 40
1.2391684604
100
AcDbArc
 50
176.0972568505
 51
180.0604307761
  0
ARC
  5
3FB
100
AcDbEntity
  8
0
100
AcDbCircle
 62
7
  6
CONTINUOUS
 10
27.8467258806
 20
84.7436979905
 40
1.2039960527
100
AcDbArc
 50
178.4818380272
 51
180.0090689834
  0
ARC
  5
3FC
100
AcDbEntity
  8
0
100
AcDbCircle
 62
7
  6
CONTINUOUS
 10
369.9764793918
 20
-198.3812312838
 40
421.175002207
100
AcDbArc
 50
147.1791103205
 51
147.5969363301
  0
ARC
  5
3FD
100
AcDbEntity
  8
0
100
AcDbCircle
 62
7
  6
CONTINUOUS
 10
34.378731209
 20
-62.9083466138
 40
150.0601323777
100
AcDbArc
 50
84.7316957093
 51
90.0
  0
ARC
  5
3FE
100
AcDbEntity
  8
0
100
AcDbCircle
 62
7
  6
CONTINUOUS
 10
34.378731209
 20
-62.9083466138
 40
150.0601323777
100
AcDbArc
 50
83.0171305531
 51
84.1273557466
  0
ARC
  5
3FF
100
AcDbEntity
  8
0
100
AcDbCircle
 62
7
  6
CONTINUOUS
 10
34.4568624368
 20
-52.9988811191
 40
140.1505934193
100
AcDbArc
 50
83.8031555132
 51
84.7160290781
  0
ARC
  5
400
100
AcDbEntity
  8
0
100
AcDbCircle
 62
7
  6
CONTINUOUS
 10
34.7284776527
 20
11.0387290058
 40
76.1178080161
100
AcDbArc
 50
97.2010983774
 51
98.4368682473
  0
ARC
  5
401
100
AcDbEntity
  8
0
100
AcDbCircle
 62
7
  6
CONTINUOUS
 10
38.9521127271
 20
87.487492197
 40
11.8027158744
100
AcDbArc
 50
196.9166799871
 51
197.8304673246
  0
ARC
  5
402
100
AcDbEntity
  8
0
100
AcDbCircle
 62
7
  6
CONTINUOUS
 10
42.2698095
 20
81.0209128156
 40
9.8915346413
100
AcDbArc
 50
162.148906068
 51
163.2387122299
  0
ARC
  5
403
100
AcDbEntity
  8
0
100
AcDbCircle
 62
7
  6
CONTINUOUS
 10
35.7594219444
 20
86.1689665345
 40
7.5718274524
100
AcDbArc
 50
342.352427997
 51
343.7733003324
  0
ARC
  5
404
100
AcDbEntity
  8
0
100
AcDbCircle
 62
7
  6
CONTINUOUS
 10
37.3227133194
 20
81.9745848162
 40
6.8665089213
100
AcDbArc
 50
162.3799037828
 51
163.9459045407
  0
ARC
  5
405
100
AcDbEntity
  8
0
100
AcDbCircle
 62
7
  6
CONTINUOUS
 10
39.4408269854
 20
85.5447281142
 40
5.6275630026
100
AcDbArc
 50
342.7239906021
 51
344.6296892945
  0
ARC
  5
406
100
AcDbEntity
  8
0
100
AcDbCircle
 62
7
  6
CONTINUOUS
 10
35.1079589374
 20
82.5306887066
 40
5.1385498185
100
AcDbArc
 50
15.1482577107
 51
17.2342034571
  0
ARC
  5
407
100
AcDbEntity
  8
0
100
AcDbCircle
 62
7
  6
CONTINUOUS
 10
42.2389691284
 20
85.1657611888
 40
4.4907420047
100
AcDbArc
 50
343.2757943176
 51
345.6546174193
  0
ARC
  5
408
100
AcDbEntity
  8
0
100
AcDbCircle
 62
7
  6
CONTINUOUS
 10
37.9845444699
 20
82.8551977249
 40
4.1814530582
100
AcDbArc
 50
14.0946272728
 51
16.6477105727
  0
ARC
  5
409
100
AcDbEntity
  8
0
100
AcDbCircle
 62
7
  6
CONTINUOUS
 10
44.5271170067
 20
84.9067668413
 40
3.7498286607
100
AcDbArc
 50
344.0048986107
 51
346.8410479006
  0
ARC
  5
40A
100
AcDbEntity
  8
0
100
AcDbCircle
 62
7
  6
CONTINUOUS
 10
40.4781984238
 20
83.0844708658
 40
3.5392013349
100
AcDbArc
 50
12.8814692872
 51
15.8841327787
  0
ARC
  5
40B
100
AcDbEntity
  8
0
100
AcDbCircle
 62
7
  6
CONTINUOUS
 10
42.6906309531
 20
83.2577881758
 40
3.0833837461
100
AcDbArc
 50
11.5183213724
 51
14.9480032781
  0
ARC
  5
40C
100
AcDbEntity
  8
0
100
AcDbCircle
 62
7
  6
CONTINUOUS
 10
44.6648692507
 20
83.3954241427
 40
2.7483650359
100
AcDbArc
 50
10.0171354453
 51
13.8455836292
  0
ARC
  5
40D
100
AcDbEntity
  8
0
100
AcDbCircle
 62
7
  6
CONTINUOUS
 10
44.356738193
 20
84.8372217221
 40
2.2432748698
100
AcDbArc
 50
180.0467676518
 51
181.5741769552
  0
ARC
  5
40E
100
AcDbEntity
  8
0
100
AcDbCircle
 62
7
  6
CONTINUOUS
 10
42.7488962454
 20
84.6912794091
 40
1.2384587422
100
AcDbArc
 50
359.9406287465
 51
3.903845148
  0
ARC
  5
40F
100
AcDbEntity
  8
0
100
AcDbCircle
 62
7
  6
CONTINUOUS
 10
40.9094199369
 20
84.7436804284
 40
1.2053126567
100
AcDbArc
 50
359.9899290857
 51
1.5173388773
  0
ARC
  5
410
100
AcDbEntity
  8
0
100
AcDbCircle
 62
7
  6
CONTINUOUS
 10
54.178731209
 20
19.2017857246
 40
0.2
100
AcDbArc
 50
0.0
 51
90.0
  0
ARC
  5
411
100
AcDbEntity
  8
0
100
AcDbCircle
 62
7
  6
CONTINUOUS
 10
54.178731209
 20
14.3017857246
 40
0.2
100
AcDbArc
 50
270.0
 51
360.0
  0
ARC
  5
412
100
AcDbEntity
  8
0
100
AcDbCircle
 62
7
  6
CONTINUOUS
 10
50.7287402064
 20
59.8735281029
 40
2.0000089974
100
AcDbArc
 50
180.0
 51
261.448169766
  0
ARC
  5
413
100
AcDbEntity
  8
0
100
AcDbCircle
 62
7
  6
CONTINUOUS
 10
46.450872449
 20
84.7155144007
 40
3.2337838452
100
AcDbArc
 50
344.9070292144
 51
348.179863097
  0
ARC
  5
414
100
AcDbEntity
  8
0
100
AcDbCircle
 62
7
  6
CONTINUOUS
 10
48.074155015
 20
84.5662897679
 40
2.8590228844
100
AcDbArc
 50
345.9763012865
 51
349.6595812057
  0
ARC
  5
415
100
AcDbEntity
  8
0
100
AcDbCircle
 62
7
  6
CONTINUOUS
 10
49.4263785992
 20
84.4448778529
 40
2.5800756364
100
AcDbArc
 50
347.2049233604
 51
351.2661295671
  0
ARC
  5
416
100
AcDbEntity
  8
0
100
AcDbCircle
 62
7
  6
CONTINUOUS
 10
46.4178616988
 20
83.5089958251
 40
2.4972877402
100
AcDbArc
 50
8.3924623515
 51
12.5849581573
  0
ARC
  5
417
100
AcDbEntity
  8
0
100
AcDbCircle
 62
7
  6
CONTINUOUS
 10
50.5265115083
 20
84.3417845241
 40
2.3646994552
100
AcDbArc
 50
348.5777004047
 51
352.9878515953
  0
ARC
  5
418
100
AcDbEntity
  8
0
100
AcDbCircle
 62
7
  6
CONTINUOUS
 10
47.9539897748
 20
83.6057322343
 40
2.3080989666
100
AcDbArc
 50
6.6615681151
 51
11.1766491459
  0
ARC
  5
419
100
AcDbEntity
  8
0
100
AcDbCircle
 62
7
  6
CONTINUOUS
 10
49.2715091989
 20
83.6904825663
 40
2.1669857588
100
AcDbArc
 50
4.8443362192
 51
9.6336256996
  0
ARC
  5
41A
100
AcDbEntity
  8
0
100
AcDbCircle
 62
7
  6
CONTINUOUS
 10
50.3658431176
 20
83.7667348277
 40
2.065094258
100
AcDbArc
 50
2.9630119904
 51
7.9715275083
  0
ARC
  5
41B
100
AcDbEntity
  8
0
100
AcDbCircle
 62
7
  6
CONTINUOUS
 10
51.2326640215
 20
83.8372585666
 40
1.9955103627
100
AcDbArc
 50
1.0401216095
 51
6.2109399892
  0
ARC
  5
41C
100
AcDbEntity
  8
0
100
AcDbCircle
 62
7
  6
CONTINUOUS
 10
56.078744934
 20
39.9017921551
 40
4.000013725
100
AcDbArc
 50
180.0
 51
230.2077765168
  0
ARC
  5
41D
100
AcDbEntity
  8
0
100
AcDbCircle
 62
7
  6
CONTINUOUS
 10
52.8786696871
 20
36.0598823578
 40
1.0000615224
100
AcDbArc
 50
0.0
 51
50.207776518
  0
ARC
  5
41E
100
AcDbEntity
  8
0
100
AcDbCircle
 62
7
  6
CONTINUOUS
 10
54.3787267108
 20
56.2909145358
 40
1.0000044982
100
AcDbArc
 50
0.0
 51
81.448169766
  0
ARC
  5
41F
100
AcDbEntity
  8
0
100
AcDbCircle
 62
7
  6
CONTINUOUS
 10
54.6375470411
 20
91.8897726734
 40
26.1723375898
100
AcDbArc
 50
197.4230503113
 51
197.8357102646
  0
ARC
  5
420
100
AcDbEntity
  8
0
100
AcDbCircle
 62
7
  6
CONTINUOUS
 10
52.3423054324
 20
78.4378005709
 40
18.2788647472
100
AcDbArc
 50
162.1093043282
 51
162.6999786797
  0
ARC
  5
421
100
AcDbEntity
  8
0
100
AcDbCircle
 62
7
  6
CONTINUOUS
 10
54.8773439698
 20
68.9948886162
 40
3.9998688789
100
AcDbArc
 50
133.8408905341
 51
180.2319450886
  0
ARC
  5
422
100
AcDbEntity
  8
0
100
AcDbCircle
 62
7
  6
CONTINUOUS
 10
51.363824553
 20
84.2540800956
 40
2.2131982485
100
AcDbArc
 50
350.0977729438
 51
354.7899572516
  0
ARC
  5
423
100
AcDbEntity
  8
0
100
AcDbCircle
 62
7
  6
CONTINUOUS
 10
52.1530010191
 20
83.9716811562
 40
2.1718165216
100
AcDbArc
 50
14.959452519
 51
21.7253628722
  0
ARC
  5
424
100
AcDbEntity
  8
0
100
AcDbCircle
 62
7
  6
CONTINUOUS
 10
51.9572116335
 20
84.1751405302
 40
2.0983335101
100
AcDbArc
 50
351.7344664171
 51
356.6659170416
  0
ARC
  5
425
100
AcDbEntity
  8
0
100
AcDbCircle
 62
7
  6
CONTINUOUS
 10
52.2835058231
 20
84.0227002939
 40
2.0964828482
100
AcDbArc
 50
21.0463742636
 51
22.8194358169
  0
ARC
  5
426
100
AcDbEntity
  8
0
100
AcDbCircle
 62
7
  6
CONTINUOUS
 10
52.2426277243
 20
83.9955457918
 40
2.0790670719
100
AcDbArc
 50
8.0046245155
 51
14.9616569949
  0
ARC
  5
427
100
AcDbEntity
  8
0
100
AcDbCircle
 62
7
  6
CONTINUOUS
 10
52.2876760232
 20
84.001734972
 40
2.0335958291
100
AcDbArc
 50
4.0536149942
 51
8.0086882532
  0
ARC
  5
428
100
AcDbEntity
  8
0
100
AcDbCircle
 62
7
  6
CONTINUOUS
 10
52.3073394077
 20
84.1025464571
 40
2.0138312336
100
AcDbArc
 50
353.4687258896
 51
358.5932182494
  0
ARC
  5
429
100
AcDbEntity
  8
0
100
AcDbCircle
 62
7
  6
CONTINUOUS
 10
52.3685120316
 20
84.0354894484
 40
2.0022222425
100
AcDbArc
 50
358.5133742913
 51
0.0061812634
  0
ARC
  5
42A
100
AcDbEntity
  8
0
100
AcDbCircle
 62
7
  6
CONTINUOUS
 10
52.378729036
 20
84.0531092356
 40
2.0000041519
100
AcDbArc
 50
36.8699524823
 51
83.0171305531
  0
ARC
  5
42B
100
AcDbEntity
  8
0
100
AcDbCircle
 62
7
  6
CONTINUOUS
 10
52.2063891267
 20
83.9704163821
 40
1.9971050707
100
AcDbArc
 50
357.217920825
 51
0.0374322527
  0
ARC
  5
42C
100
AcDbEntity
  8
0
100
AcDbCircle
 62
7
  6
CONTINUOUS
 10
52.3326588059
 20
84.0051710727
 40
1.9884826958
100
AcDbArc
 50
1.3813186514
 51
4.0464785228
  0
ARC
  5
42D
100
AcDbEntity
  8
0
100
AcDbCircle
 62
7
  6
CONTINUOUS
 10
52.401795631
 20
84.0348975324
 40
1.9689345084
100
AcDbArc
 50
355.2975529706
 51
358.5054655307
  0
ARC
  5
42E
100
AcDbEntity
  8
0
100
AcDbCircle
 62
7
  6
CONTINUOUS
 10
51.8597499173
 20
83.9040942664
 40
1.9614887167
100
AcDbArc
 50
359.1057734524
 51
0.0072086856
  0
ARC
  5
42F
100
AcDbEntity
  8
0
100
AcDbCircle
 62
7
  6
CONTINUOUS
 10
52.4118072201
 20
84.0723006183
 40
1.9589278075
100
AcDbArc
 50
359.949360396
 51
21.0400726316
  0
ARC
  5
430
100
AcDbEntity
  8
0
100
AcDbCircle
 62
7
  6
CONTINUOUS
 10
51.8682492743
 20
84.2020343149
 40
1.9529893649
100
AcDbArc
 50
355.6274247193
 51
0.0083371767
  0
ARC
  5
431
100
AcDbEntity
  8
0
100
AcDbCircle
 62
7
  6
CONTINUOUS
 10
51.8691413187
 20
83.904269855
 40
1.9520973017
100
AcDbArc
 50
359.9974563529
 51
4.3735675172
  0
ARC
  5
432
100
AcDbEntity
  8
0
100
AcDbCircle
 62
7
  6
CONTINUOUS
 10
52.2954602663
 20
84.1360805426
 40
1.9080336382
100
AcDbArc
 50
357.508490195
 51
0.0214082245
  0
ARC
  5
433
100
AcDbEntity
  8
0
100
AcDbCircle
 62
7
  6
CONTINUOUS
 10
52.4173409066
 20
84.0786338148
 40
1.8866642258
100
AcDbArc
 50
21.6795619844
 51
22.7456565496
  0
ARC
  5
434
100
AcDbEntity
  8
0
100
AcDbCircle
 62
7
  6
CONTINUOUS
 10
52.3271476127
 20
83.9708858932
 40
1.8763461614
100
AcDbArc
 50
0.0031408135
 51
2.512372391
  0
ARC
  5
435
100
AcDbEntity
  8
0
100
AcDbCircle
 62
7
  6
CONTINUOUS
 10
52.2899994271
 20
84.1288951336
 40
1.7203086184
100
AcDbArc
 50
22.0812901208
 51
24.5127435066
  0
ARC
  5
436
100
AcDbEntity
  8
0
100
AcDbCircle
 62
7
  6
CONTINUOUS
 10
51.9318265099
 20
84.1816295573
 40
1.5689462066
100
AcDbArc
 50
22.245564394
 51
26.3575393593
  0
ARC
  5
437
100
AcDbEntity
  8
0
100
AcDbCircle
 62
7
  6
CONTINUOUS
 10
52.8786549975
 20
74.7731392369
 40
1.5000762118
100
AcDbArc
 50
315.0000023446
 51
360.0
  0
SPLINE
  5
438
100
AcDbEntity
  8
0
100
AcDbSpline
 62
7
  6
CONTINUOUS
 70
0
 71
3
 72
17
 73
13
 74
0
 42
0.0000001
 43
0.0000001
 44
0.0000000001
 40
0.0
 40
0.0
 40
0.0
 40
0.0
 40
0.0077122984
 40
0.0296549173
 40
0.0640372233
 40
0.1090698976
 40
0.1629694279
 40
0.2239628535
 40
0.3612327432
 40
0.5121747709
 40
0.67073251
 40
1.0
 40
1.0
 40
1.0
 40
1.0
 10
53.978731209
 20
85.2532437319
 30
0.0
 10
53.9795748635
 20
85.2523390574
 30
0.0
 10
53.9820175111
 20
85.2482082541
 30
0.0
 10
53.9882377888
 20
85.240056943
 30
0.0
 10
53.997508536
 20
85.2266857068
 30
0.0
 10
54.0099432314
 20
85.2092961313
 30
0.0
 10
54.0245656583
 20
85.1882176065
 30
0.0
 10
54.0471838776
 20
85.1546866616
 30
0.0
 10
54.0771212681
 20
85.1073318
 30
0.0
 10
54.1134139716
 20
85.0455272741
 30
0.0
 10
54.1622198481
 20
84.9554269239
 30
0.0
 10
54.1954156974
 20
84.8844536216
 30
0.0
 10
54.2159004094
 20
84.835775626
 30
0.0
  0
SPLINE
  5
439
100
AcDbEntity
  8
0
100
AcDbSpline
 62
7
  6
CONTINUOUS
 70
0
 71
3
 72
12
 73
8
 74
0
 42
0.0000001
 43
0.0000001
 44
0.0000000001
 40
0.0
 40
0.0
 40
0.0
 40
0.0
 40
0.4145101884
 40
0.7249449546
 40
0.9198709733
 40
0.9730120233
 40
1.0
 40
1.0
 40
1.0
 40
1.0
 10
25.1869389489
 20
86.5561424785
 30
0.0
 10
25.1952121707
 20
86.5571898359
 30
0.0
 10
25.2097056095
 20
86.5591885667
 30
0.0
 10
25.2278126957
 20
86.5623000742
 30
0.0
 10
25.2389826583
 20
86.5650358309
 30
0.0
 10
25.2439008517
 20
86.5670226522
 30
0.0
 10
25.2453324997
 20
86.5682793808
 30
0.0
 10
25.2453324997
 20
86.5688223339
 30
0.0
  0
SPLINE
  5
43A
100
AcDbEntity
  8
0
100
AcDbSpline
 62
7
  6
CONTINUOUS
 70
0
 71
3
 72
9
 73
5
 74
0
 42
0.0000001
 43
0.0000001
 44
0.0000000001
 40
0.0
 40
0.0
 40
0.0
 40
0.0
 40
0.5008386819
 40
1.0
 40
1.0
 40
1.0
 40
1.0
 10
23.2790250319
 20
86.3120218398
 30
0.0
 10
23.3261670102
 20
86.3120351238
 30
0.0
 10
23.4202254757
 20
86.317257047
 30
0.0
 10
23.5140279836
 20
86.3259208413
 30
0.0
 10
23.5605057721
 20
86.3327998302
 30
0.0
  0
SPLINE
  5
43B
100
AcDbEntity
  8
0
100
AcDbSpline
 62
7
  6
CONTINUOUS
 70
0
 71
3
 72
18
 73
14
 74
0
 42
0.0000001
 43
0.0000001
 44
0.0000000001
 40
0.0
 40
0.0
 40
0.0
 40
0.0
 40
0.3181751885
 40
0.4888055616
 40
0.6502707902
 40
0.7904050303
 40
0.8492168913
 40
0.899076101
 40
0.9392424488
 40
0.9691287645
 40
0.9802080053
 40
0.9888299485
 40
1.0
 40
1.0
 40
1.0
 40
1.0
 10
36.2284416484
 20
86.1349500505
 30
0.0
 10
36.3216045718
 20
86.1259536323
 30
0.0
 10
36.4653870247
 20
86.1188619388
 30
0.0
 10
36.6566720839
 20
86.1172864882
 30
0.0
 10
36.7955748897
 20
86.1205420654
 30
0.0
 10
36.901443775
 20
86.1269542376
 30
0.0
 10
36.9742547623
 20
86.1345193807
 30
0.0
 10
37.0176185719
 20
86.1406384078
 30
0.0
 10
37.0522633023
 20
86.1474474076
 30
0.0
 10
37.0752691473
 20
86.1538440856
 30
0.0
 10
37.0887390398
 20
86.1597795311
 30
0.0
 10
37.0963749817
 20
86.164284124
 30
0.0
 10
37.1008176025
 20
86.1694606239
 30
0.0
 10
37.1008176025
 20
86.1727464722
 30
0.0
  0
SPLINE
  5
43C
100
AcDbEntity
  8
0
100
AcDbSpline
 62
7
  6
CONTINUOUS
 70
0
 71
3
 72
13
 73
9
 74
0
 42
0.0000001
 43
0.0000001
 44
0.0000000001
 40
0.0
 40
0.0
 40
0.0
 40
0.0
 40
0.0280253264
 40
0.0850682841
 40
0.1740720348
 40
0.2936894833
 40
0.6113425515
 40
1.0
 40
1.0
 40
1.0
 40
1.0
 10
36.9923893581
 20
86.2942704057
 30
0.0
 10
36.9923893581
 20
86.2958385013
 30
0.0
 10
36.997061
 20
86.2992726491
 30
0.0
 10
37.0058872233
 20
86.301773666
 30
0.0
 10
37.0207385067
 20
86.3048686586
 30
0.0
 10
37.0498308312
 20
86.3084062213
 30
0.0
 10
37.0960870326
 20
86.3113223176
 30
0.0
 10
37.1355764909
 20
86.3120211973
 30
0.0
 10
37.157322966
 20
86.3120218398
 30
0.0
  0
SPLINE
  5
43D
100
AcDbEntity
  8
0
100
AcDbSpline
 62
7
  6
CONTINUOUS
 70
0
 71
3
 72
10
 73
6
 74
0
 42
0.0000001
 43
0.0000001
 44
0.0000000001
 40
0.0
 40
0.0
 40
0.0
 40
0.0
 40
0.735929373
 40
0.9235047665
 40
1.0
 40
1.0
 40
1.0
 40
1.0
 10
49.7272713059
 20
86.3120218398
 30
0.0
 10
49.7288316856
 20
86.3120231092
 30
0.0
 10
49.7309415185
 20
86.3120707836
 30
0.0
 10
49.7328084897
 20
86.3122800975
 30
0.0
 10
49.7335165051
 20
86.312524771
 30
0.0
 10
49.7335165051
 20
86.3126869627
 30
0.0
  0
SPLINE
  5
43E
100
AcDbEntity
  8
0
100
AcDbSpline
 62
7
  6
CONTINUOUS
 70
0
 71
3
 72
14
 73
10
 74
0
 42
0.0000001
 43
0.0000001
 44
0.0000000001
 40
0.0
 40
0.0
 40
0.0
 40
0.0
 40
0.0295466321
 40
0.0531944494
 40
0.0839158963
 40
0.167498916
 40
0.2807043258
 40
0.591393023
 40
1.0
 40
1.0
 40
1.0
 40
1.0
 10
31.2496104942
 20
86.514288054
 30
0.0
 10
31.2496104942
 20
86.5119846243
 30
0.0
 10
31.253026992
 20
86.5084246668
 30
0.0
 10
31.258613801
 20
86.5054111981
 30
0.0
 10
31.2686879319
 20
86.501336746
 30
0.0
 10
31.2858630056
 20
86.4969539758
 30
0.0
 10
31.3248321207
 20
86.4898907735
 30
0.0
 10
31.3894293543
 20
86.4831300541
 30
0.0
 10
31.4454002578
 20
86.4796036698
 30
0.0
 10
31.4772184208
 20
86.4780795774
 30
0.0
  0
SPLINE
  5
43F
100
AcDbEntity
  8
0
100
AcDbSpline
 62
7
  6
CONTINUOUS
 70
0
 71
3
 72
18
 73
14
 74
0
 42
0.0000001
 43
0.0000001
 44
0.0000000001
 40
0.0
 40
0.0
 40
0.0
 40
0.0
 40
0.0175223577
 40
0.0471799178
 40
0.0873468729
 40
0.1362679138
 40
0.192312155
 40
0.2538570054
 40
0.3888492936
 40
0.5343933881
 40
0.6862835684
 40
0.8420111985
 40
1.0
 40
1.0
 40
1.0
 40
1.0
 10
53.8691691164
 20
85.2500057763
 30
0.0
 10
53.8691691164
 20
85.2469400511
 30
0.0
 10
53.8720479486
 20
85.2389517274
 30
0.0
 10
53.8780918932
 20
85.2250633169
 30
0.0
 10
53.8875910203
 20
85.2065081074
 30
0.0
 10
53.8995748984
 20
85.1841483586
 30
0.0
 10
53.9135817295
 20
85.158594565
 30
0.0
 10
53.9347496984
 20
85.1198059858
 30
0.0
 10
53.9628999865
 20
85.0669828973
 30
0.0
 10
53.9969724747
 20
84.9994230948
 30
0.0
 10
54.0306324317
 20
84.9276220931
 30
0.0
 10
54.0627090894
 20
84.8527235114
 30
0.0
 10
54.082566351
 20
84.8015391115
 30
0.0
 10
54.0921083837
 20
84.7755964613
 30
0.0
  0
SPLINE
  5
440
100
AcDbEntity
  8
0
100
AcDbSpline
 62
7
  6
CONTINUOUS
 70
0
 71
3
 72
9
 73
5
 74
0
 42
0.0000001
 43
0.0000001
 44
0.0000000001
 40
0.0
 40
0.0
 40
0.0
 40
0.0
 40
0.5044057343
 40
1.0
 40
1.0
 40
1.0
 40
1.0
 10
54.0921083924
 20
84.7755964613
 30
0.0
 10
54.1299121972
 20
84.6728163819
 30
0.0
 10
54.1857833505
 20
84.461559838
 30
0.0
 10
54.2034937713
 20
84.244029367
 30
0.0
 10
54.2034937713
 20
84.136430459
 30
0.0
  0
SPLINE
  5
441
100
AcDbEntity
  8
0
100
AcDbSpline
 62
7
  6
CONTINUOUS
 70
0
 71
3
 72
15
 73
11
 74
0
 42
0.0000001
 43
0.0000001
 44
0.0000000001
 40
0.0
 40
0.0
 40
0.0
 40
0.0
 40
0.026524717
 40
0.0624197585
 40
0.1573726109
 40
0.2748572465
 40
0.4069813259
 40
0.5481286631
 40
0.6953657211
 40
1.0
 40
1.0
 40
1.0
 40
1.0
 10
53.5416832237
 20
85.2408833891
 30
0.0
 10
53.5416832237
 20
85.2364456375
 30
0.0
 10
53.5435413178
 20
85.2260599022
 30
0.0
 10
53.5511809636
 20
85.2008826276
 30
0.0
 10
53.566982279
 20
85.1623669269
 30
0.0
 10
53.590441969
 20
85.1097389867
 30
0.0
 10
53.6175447628
 20
85.0502356714
 30
0.0
 10
53.6460687185
 20
84.9859234497
 30
0.0
 10
53.6846447702
 20
84.8945087095
 30
0.0
 10
53.7113992545
 20
84.8237496378
 30
0.0
 10
53.7281004479
 20
84.7755964614
 30
0.0
  0
SPLINE
  5
442
100
AcDbEntity
  8
0
100
AcDbSpline
 62
7
  6
CONTINUOUS
 70
0
 71
3
 72
9
 73
5
 74
0
 42
0.0000001
 43
0.0000001
 44
0.0000000001
 40
0.0
 40
0.0
 40
0.0
 40
0.0
 40
0.5035024205
 40
1.0
 40
1.0
 40
1.0
 40
1.0
 10
53.7281004584
 20
84.7755964613
 30
0.0
 10
53.7601578046
 20
84.6831681535
 30
0.0
 10
53.8068645931
 20
84.4933472937
 30
0.0
 10
53.8212386185
 20
84.2987169439
 30
0.0
 10
53.8212386185
 20
84.2022481958
 30
0.0
  0
SPLINE
  5
443
100
AcDbEntity
  8
0
100
AcDbSpline
 62
7
  6
CONTINUOUS
 70
0
 71
3
 72
13
 73
9
 74
0
 42
0.0000001
 43
0.0000001
 44
0.0000000001
 40
0.0
 40
0.0
 40
0.0
 40
0.0
 40
0.0758003071
 40
0.176078174
 40
0.2936034448
 40
0.4231072233
 40
0.7036931927
 40
1.0
 40
1.0
 40
1.0
 40
1.0
 10
52.9998615349
 20
85.2258494408
 30
0.0
 10
52.9998615349
 20
85.2138213496
 30
0.0
 10
53.0053713958
 20
85.1860959001
 30
0.0
 10
53.0190047483
 20
85.1416391905
 30
0.0
 10
53.0377854737
 20
85.0897730194
 30
0.0
 10
53.0676975866
 20
85.0115947992
 30
0.0
 10
53.1077725314
 20
84.9068971855
 30
0.0
 10
53.1376843091
 20
84.8203514167
 30
0.0
 10
53.1520967736
 20
84.7755964614
 30
0.0
  0
SPLINE
  5
444
100
AcDbEntity
  8
0
100
AcDbSpline
 62
7
  6
CONTINUOUS
 70
0
 71
3
 72
9
 73
5
 74
0
 42
0.0000001
 43
0.0000001
 44
0.0000000001
 40
0.0
 40
0.0
 40
0.0
 40
0.0
 40
0.5025658553
 40
1.0
 40
1.0
 40
1.0
 40
1.0
 10
53.1520967858
 20
84.7755964614
 30
0.0
 10
53.1785677671
 20
84.6933962531
 30
0.0
 10
53.2166804201
 20
84.5248770858
 30
0.0
 10
53.2281568714
 20
84.3527943065
 30
0.0
 10
53.2281568714
 20
84.2673187808
 30
0.0
  0
SPLINE
  5
445
100
AcDbEntity
  8
0
100
AcDbSpline
 62
7
  6
CONTINUOUS
 70
0
 71
3
 72
12
 73
8
 74
0
 42
0.0000001
 43
0.0000001
 44
0.0000000001
 40
0.0
 40
0.0
 40
0.0
 40
0.0
 40
0.0874708932
 40
0.1934083356
 40
0.439031702
 40
0.7120145202
 40
1.0
 40
1.0
 40
1.0
 40
1.0
 10
52.2496403618
 20
85.2056104699
 30
0.0
 10
52.2496403618
 20
85.1925632328
 30
0.0
 10
52.2532339999
 20
85.1637704322
 30
0.0
 10
52.2678674981
 20
85.0999367781
 30
0.0
 10
52.2958527504
 20
85.0109774663
 30
0.0
 10
52.3335575852
 20
84.8967636479
 30
0.0
 10
52.3583033815
 20
84.8168118313
 30
0.0
 10
52.3704081777
 20
84.7755964613
 30
0.0
  0
SPLINE
  5
446
100
AcDbEntity
  8
0
100
AcDbSpline
 62
7
  6
CONTINUOUS
 70
0
 71
3
 72
9
 73
5
 74
0
 42
0.0000001
 43
0.0000001
 44
0.0000000001
 40
0.0
 40
0.0
 40
0.0
 40
0.0
 40
0.2520276698
 40
1.0
 40
1.0
 40
1.0
 40
1.0
 10
52.3704081914
 20
84.7755964613
 30
0.0
 10
52.381037701
 20
84.7394042641
 30
0.0
 10
52.4172385236
 20
84.594051549
 30
0.0
 10
52.4307464579
 20
84.4435285001
 30
0.0
 10
52.4307464579
 20
84.331579907
 30
0.0
  0
SPLINE
  5
447
100
AcDbEntity
  8
0
100
AcDbSpline
 62
7
  6
CONTINUOUS
 70
0
 71
3
 72
12
 73
8
 74
0
 42
0.0000001
 43
0.0000001
 44
0.0000000001
 40
0.0
 40
0.0
 40
0.0
 40
0.0
 40
0.0966362457
 40
0.206054266
 40
0.4510238375
 40
0.7188493625
 40
1.0
 40
1.0
 40
1.0
 40
1.0
 10
51.2992392847
 20
85.1766301876
 30
0.0
 10
51.2992392847
 20
85.1633498896
 30
0.0
 10
51.3015922892
 20
85.1350420107
 30
0.0
 10
51.3121470641
 20
85.0739393069
 30
0.0
 10
51.33288346
 20
84.9909075266
 30
0.0
 10
51.3619921351
 20
84.8857741828
 30
0.0
 10
51.3818019251
 20
84.8129710344
 30
0.0
 10
51.3915990038
 20
84.7755964614
 30
0.0
  0
SPLINE
  5
448
100
AcDbEntity
  8
0
100
AcDbSpline
 62
7
  6
CONTINUOUS
 70
0
 71
3
 72
9
 73
5
 74
0
 42
0.0000001
 43
0.0000001
 44
0.0000000001
 40
0.0
 40
0.0
 40
0.0
 40
0.0
 40
0.2512811897
 40
1.0
 40
1.0
 40
1.0
 40
1.0
 10
51.3915990189
 20
84.7755964614
 30
0.0
 10
51.3997580966
 20
84.7444706477
 30
0.0
 10
51.4275367524
 20
84.6193759859
 30
0.0
 10
51.4377439733
 20
84.4907265754
 30
0.0
 10
51.4377439733
 20
84.3948505365
 30
0.0
  0
SPLINE
  5
449
100
AcDbEntity
  8
0
100
AcDbSpline
 62
7
  6
CONTINUOUS
 70
0
 71
3
 72
10
 73
6
 74
0
 42
0.0000001
 43
0.0000001
 44
0.0000000001
 40
0.0
 40
0.0
 40
0.0
 40
0.0
 40
0.2170339195
 40
0.4621725391
 40
1.0
 40
1.0
 40
1.0
 40
1.0
 10
50.1590710965
 20
85.141685385
 30
0.0
 10
50.1590710965
 20
85.1147178243
 30
0.0
 10
50.1653209279
 20
85.0573782919
 30
0.0
 10
50.188718078
 20
84.9353768786
 30
0.0
 10
50.2115524001
 20
84.8407554973
 30
0.0
 10
50.2263932903
 20
84.7755964613
 30
0.0
  0
SPLINE
  5
44A
100
AcDbEntity
  8
0
100
AcDbSpline
 62
7
  6
CONTINUOUS
 70
0
 71
3
 72
9
 73
5
 74
0
 42
0.0000001
 43
0.0000001
 44
0.0000000001
 40
0.0
 40
0.0
 40
0.0
 40
0.0
 40
0.2505761
 40
1.0
 40
1.0
 40
1.0
 40
1.0
 10
50.2263933066
 20
84.7755964613
 30
0.0
 10
50.2323433626
 20
84.7494726974
 30
0.0
 10
50.2526381572
 20
84.6444338412
 30
0.0
 10
50.2600289607
 20
84.5371251755
 30
0.0
 10
50.2600289607
 20
84.4569931688
 30
0.0
  0
SPLINE
  5
44B
100
AcDbEntity
  8
0
100
AcDbSpline
 62
7
  6
CONTINUOUS
 70
0
 71
3
 72
10
 73
6
 74
0
 42
0.0000001
 43
0.0000001
 44
0.0000000001
 40
0.0
 40
0.0
 40
0.0
 40
0.0
 40
0.2263019577
 40
0.4719287768
 40
1.0
 40
1.0
 40
1.0
 40
1.0
 10
48.8416277185
 20
85.0992827835
 30
0.0
 10
48.8416277185
 20
85.0745929575
 30
0.0
 10
48.8453436739
 20
85.0231229201
 30
0.0
 10
48.8606887161
 20
84.9150923057
 30
0.0
 10
48.8767570247
 20
84.8321883229
 30
0.0
 10
48.8875572746
 20
84.7755964614
 30
0.0
  0
SPLINE
  5
44C
100
AcDbEntity
  8
0
100
AcDbSpline
 62
7
  6
CONTINUOUS
 70
0
 71
3
 72
9
 73
5
 74
0
 42
0.0000001
 43
0.0000001
 44
0.0000000001
 40
0.0
 40
0.0
 40
0.0
 40
0.0
 40
0.7493589252
 40
1.0
 40
1.0
 40
1.0
 40
1.0
 10
48.8875572919
 20
84.7755964614
 30
0.0
 10
48.8996883924
 20
84.712031121
 30
0.0
 10
48.9088171145
 20
84.6257263344
 30
0.0
 10
48.910504712
 20
84.5393918826
 30
0.0
 10
48.910504712
 20
84.5177472122
 30
0.0
  0
SPLINE
  5
44D
100
AcDbEntity
  8
0
100
AcDbSpline
 62
7
  6
CONTINUOUS
 70
0
 71
3
 72
9
 73
5
 74
0
 42
0.0000001
 43
0.0000001
 44
0.0000000001
 40
0.0
 40
0.0
 40
0.0
 40
0.0
 40
0.48019199
 40
1.0
 40
1.0
 40
1.0
 40
1.0
 10
47.3613433362
 20
85.0487790019
 30
0.0
 10
47.3613433362
 20
85.004790118
 30
0.0
 10
47.3693989912
 20
84.9132812052
 30
0.0
 10
47.3826110669
 20
84.8226748204
 30
0.0
 10
47.3897595244
 20
84.7755964614
 30
0.0
  0
SPLINE
  5
44E
100
AcDbEntity
  8
0
100
AcDbSpline
 62
7
  6
CONTINUOUS
 70
0
 71
3
 72
9
 73
5
 74
0
 42
0.0000001
 43
0.0000001
 44
0.0000000001
 40
0.0
 40
0.0
 40
0.0
 40
0.0
 40
0.7491780687
 40
1.0
 40
1.0
 40
1.0
 40
1.0
 10
47.3897595426
 20
84.7755964613
 30
0.0
 10
47.3972293863
 20
84.7264015148
 30
0.0
 10
47.4028996096
 20
84.6600163688
 30
0.0
 10
47.4039568975
 20
84.5936091318
 30
0.0
 10
47.4039568975
 20
84.5769500666
 30
0.0
  0
SPLINE
  5
44F
100
AcDbEntity
  8
0
100
AcDbSpline
 62
7
  6
CONTINUOUS
 70
0
 71
3
 72
9
 73
5
 74
0
 42
0.0000001
 43
0.0000001
 44
0.0000000001
 40
0.0
 40
0.0
 40
0.0
 40
0.0
 40
0.4873081108
 40
1.0
 40
1.0
 40
1.0
 40
1.0
 10
45.7344362548
 20
84.9891696468
 30
0.0
 10
45.7344362548
 20
84.9543802039
 30
0.0
 10
45.7381631209
 20
84.8830011448
 30
0.0
 10
45.7453649942
 20
84.8119738517
 30
0.0
 10
45.7494102252
 20
84.7755964614
 30
0.0
  0
SPLINE
  5
450
100
AcDbEntity
  8
0
100
AcDbSpline
 62
7
  6
CONTINUOUS
 70
0
 71
3
 72
9
 73
5
 74
0
 42
0.0000001
 43
0.0000001
 44
0.0000000001
 40
0.0
 40
0.0
 40
0.0
 40
0.0
 40
0.7491534274
 40
1.0
 40
1.0
 40
1.0
 40
1.0
 10
45.7494102441
 20
84.7755964614
 30
0.0
 10
45.7533128178
 20
84.7405019405
 30
0.0
 10
45.7563223946
 20
84.6933845899
 30
0.0
 10
45.7568915703
 20
84.646254026
 30
0.0
 10
45.7568915703
 20
84.6344305422
 30
0.0
  0
SPLINE
  5
451
100
AcDbEntity
  8
0
100
AcDbSpline
 62
7
  6
CONTINUOUS
 70
0
 71
3
 72
9
 73
5
 74
0
 42
0.0000001
 43
0.0000001
 44
0.0000000001
 40
0.0
 40
0.0
 40
0.0
 40
0.0
 40
0.2446165988
 40
1.0
 40
1.0
 40
1.0
 40
1.0
 10
43.978731209
 20
84.91875982
 30
0.0
 10
43.978731209
 20
84.9070755521
 30
0.0
 10
43.9793606236
 20
84.85930932
 30
0.0
 10
43.9819868399
 20
84.8115914957
 30
0.0
 10
43.9844813873
 20
84.7755964613
 30
0.0
  0
SPLINE
  5
452
100
AcDbEntity
  8
0
100
AcDbSpline
 62
7
  6
CONTINUOUS
 70
0
 71
3
 72
9
 73
5
 74
0
 42
0.0000001
 43
0.0000001
 44
0.0000000001
 40
0.0
 40
0.0
 40
0.0
 40
0.0
 40
0.2550995843
 40
1.0
 40
1.0
 40
1.0
 40
1.0
 10
24.7729810307
 20
84.7755964446
 30
0.0
 10
24.7738225439
 20
84.7877391774
 30
0.0
 10
24.7768753359
 20
84.8353527383
 30
0.0
 10
24.778731209
 20
84.8830675799
 30
0.0
 10
24.778731209
 20
84.9186098618
 30
0.0
  0
SPLINE
  5
453
100
AcDbEntity
  8
0
100
AcDbSpline
 62
7
  6
CONTINUOUS
 70
0
 71
3
 72
8
 73
4
 74
0
 42
0.0000001
 43
0.0000001
 44
0.0000000001
 40
0.0
 40
0.0
 40
0.0
 40
0.0
 40
1.0
 40
1.0
 40
1.0
 40
1.0
 10
23.0005708478
 20
84.6345674532
 30
0.0
 10
23.0005708478
 20
84.6816432177
 30
0.0
 10
23.0028500695
 20
84.7288089983
 30
0.0
 10
23.0080521739
 20
84.7755964508
 30
0.0
  0
SPLINE
  5
454
100
AcDbEntity
  8
0
100
AcDbSpline
 62
7
  6
CONTINUOUS
 70
0
 71
3
 72
9
 73
5
 74
0
 42
0.0000001
 43
0.0000001
 44
0.0000000001
 40
0.0
 40
0.0
 40
0.0
 40
0.0
 40
0.5127260323
 40
1.0
 40
1.0
 40
1.0
 40
1.0
 10
23.0080521928
 20
84.7755964503
 30
0.0
 10
23.0120932996
 20
84.8119419513
 30
0.0
 10
23.0192989596
 20
84.8829009487
 30
0.0
 10
23.0230261632
 20
84.9542126263
 30
0.0
 10
23.0230261632
 20
84.9889667613
 30
0.0
  0
SPLINE
  5
455
100
AcDbEntity
  8
0
100
AcDbSpline
 62
7
  6
CONTINUOUS
 70
0
 71
3
 72
9
 73
5
 74
0
 42
0.0000001
 43
0.0000001
 44
0.0000000001
 40
0.0
 40
0.0
 40
0.0
 40
0.0
 40
0.2507802529
 40
1.0
 40
1.0
 40
1.0
 40
1.0
 10
21.3535055205
 20
84.5771298636
 30
0.0
 10
21.3535055205
 20
84.593771156
 30
0.0
 10
21.3545697173
 20
84.6601185371
 30
0.0
 10
21.3602388758
 20
84.7264431578
 30
0.0
 10
21.3677028753
 20
84.7755964508
 30
0.0
  0
SPLINE
  5
456
100
AcDbEntity
  8
0
100
AcDbSpline
 62
7
  6
CONTINUOUS
 70
0
 71
3
 72
9
 73
5
 74
0
 42
0.0000001
 43
0.0000001
 44
0.0000000001
 40
0.0
 40
0.0
 40
0.0
 40
0.0
 40
0.5197338052
 40
1.0
 40
1.0
 40
1.0
 40
1.0
 10
21.3677028936
 20
84.7755964502
 30
0.0
 10
21.3748489788
 20
84.8226561559
 30
0.0
 10
21.388081889
 20
84.9132366265
 30
0.0
 10
21.3961190818
 20
85.0047240697
 30
0.0
 10
21.3961190818
 20
85.0487086621
 30
0.0
  0
SPLINE
  5
457
100
AcDbEntity
  8
0
100
AcDbSpline
 62
7
  6
CONTINUOUS
 70
0
 71
3
 72
9
 73
5
 74
0
 42
0.0000001
 43
0.0000001
 44
0.0000000001
 40
0.0
 40
0.0
 40
0.0
 40
0.0
 40
0.2506034658
 40
1.0
 40
1.0
 40
1.0
 40
1.0
 10
19.8469577061
 20
84.517932828
 30
0.0
 10
19.8469577061
 20
84.5395587802
 30
0.0
 10
19.8486561196
 20
84.6258314103
 30
0.0
 10
19.8577813951
 20
84.7120734946
 30
0.0
 10
19.8699051261
 20
84.7755964509
 30
0.0
  0
SPLINE
  5
458
100
AcDbEntity
  8
0
100
AcDbSpline
 62
7
  6
CONTINUOUS
 70
0
 71
3
 72
10
 73
6
 74
0
 42
0.0000001
 43
0.0000001
 44
0.0000000001
 40
0.0
 40
0.0
 40
0.0
 40
0.0
 40
0.5281007877
 40
0.7737413316
 40
1.0
 40
1.0
 40
1.0
 40
1.0
 10
19.8699051435
 20
84.7755964501
 30
0.0
 10
19.880706684
 20
84.832191717
 30
0.0
 10
19.8967735066
 20
84.9151015808
 30
0.0
 10
19.9121115735
 20
85.0231334897
 30
0.0
 10
19.9158346995
 20
85.0746001479
 30
0.0
 10
19.9158346995
 20
85.0992854058
 30
0.0
  0
SPLINE
  5
459
100
AcDbEntity
  8
0
100
AcDbSpline
 62
7
  6
CONTINUOUS
 70
0
 71
3
 72
9
 73
5
 74
0
 42
0.0000001
 43
0.0000001
 44
0.0000000001
 40
0.0
 40
0.0
 40
0.0
 40
0.0
 40
0.749404787
 40
1.0
 40
1.0
 40
1.0
 40
1.0
 10
18.4974334574
 20
84.4571180687
 30
0.0
 10
18.4974334574
 20
84.5372167423
 30
0.0
 10
18.5048485281
 20
84.6444805754
 30
0.0
 10
18.525120808
 20
84.7494809227
 30
0.0
 10
18.5310691114
 20
84.7755964509
 30
0.0
  0
SPLINE
  5
45A
100
AcDbEntity
  8
0
100
AcDbSpline
 62
7
  6
CONTINUOUS
 70
0
 71
3
 72
10
 73
6
 74
0
 42
0.0000001
 43
0.0000001
 44
0.0000000001
 40
0.0
 40
0.0
 40
0.0
 40
0.0
 40
0.5377111972
 40
0.7828429176
 40
1.0
 40
1.0
 40
1.0
 40
1.0
 10
18.5310691277
 20
84.77559645
 30
0.0
 10
18.5459073304
 20
84.8407423375
 30
0.0
 10
18.568797985
 20
84.9353369434
 30
0.0
 10
18.59215383
 20
85.057349419
 30
0.0
 10
18.5983913215
 20
85.1147047087
 30
0.0
 10
18.5983913215
 20
85.1416879888
 30
0.0
  0
SPLINE
  5
45B
100
AcDbEntity
  8
0
100
AcDbSpline
 62
7
  6
CONTINUOUS
 70
0
 71
3
 72
9
 73
5
 74
0
 42
0.0000001
 43
0.0000001
 44
0.0000000001
 40
0.0
 40
0.0
 40
0.0
 40
0.0
 40
0.7487146116
 40
1.0
 40
1.0
 40
1.0
 40
1.0
 10
17.3197184448
 20
84.3948730793
 30
0.0
 10
17.3197184448
 20
84.4907429368
 30
0.0
 10
17.3299324561
 20
84.619383566
 30
0.0
 10
17.3577031671
 20
84.7444723422
 30
0.0
 10
17.3658633991
 20
84.775596451
 30
0.0
  0
SPLINE
  5
45C
100
AcDbEntity
  8
0
100
AcDbSpline
 62
7
  6
CONTINUOUS
 70
0
 71
3
 72
12
 73
8
 74
0
 42
0.0000001
 43
0.0000001
 44
0.0000000001
 40
0.0
 40
0.0
 40
0.0
 40
0.0
 40
0.2810843644
 40
0.548932862
 40
0.7939763101
 40
0.9033867935
 40
1.0
 40
1.0
 40
1.0
 40
1.0
 10
17.3658634142
 20
84.7755964499
 30
0.0
 10
17.3756598281
 20
84.8129611537
 30
0.0
 10
17.3955147119
 20
84.8857445541
 30
0.0
 10
17.4246230348
 20
84.9908812858
 30
0.0
 10
17.4453043397
 20
85.0739373302
 30
0.0
 10
17.4558659696
 20
85.1350431839
 30
0.0
 10
17.4582231333
 20
85.1633462835
 30
0.0
 10
17.4582231333
 20
85.1766232065
 30
0.0
  0
SPLINE
  5
45D
100
AcDbEntity
  8
0
100
AcDbSpline
 62
7
  6
CONTINUOUS
 70
0
 71
3
 72
9
 73
5
 74
0
 42
0.0000001
 43
0.0000001
 44
0.0000000001
 40
0.0
 40
0.0
 40
0.0
 40
0.0
 40
0.2494065143
 40
1.0
 40
1.0
 40
1.0
 40
1.0
 10
16.3267159602
 20
84.3316907785
 30
0.0
 10
16.3267159602
 20
84.3690015283
 30
0.0
 10
16.331215856
 20
84.5185120299
 30
0.0
 10
16.3554086232
 20
84.6678606023
 30
0.0
 10
16.3870542266
 20
84.775596451
 30
0.0
  0
SPLINE
  5
45E
100
AcDbEntity
  8
0
100
AcDbSpline
 62
7
  6
CONTINUOUS
 70
0
 71
3
 72
12
 73
8
 74
0
 42
0.0000001
 43
0.0000001
 44
0.0000000001
 40
0.0
 40
0.0
 40
0.0
 40
0.0
 40
0.2881814204
 40
0.5618129343
 40
0.8074536371
 40
0.912817907
 40
1.0
 40
1.0
 40
1.0
 40
1.0
 10
16.3870542403
 20
84.7755964498
 30
0.0
 10
16.3991419162
 20
84.816748328
 30
0.0
 10
16.4239675568
 20
84.8966125406
 30
0.0
 10
16.4615344712
 20
85.0107294047
 30
0.0
 10
16.4893927612
 20
85.0995187232
 30
0.0
 10
16.5041967746
 20
85.1630316988
 30
0.0
 10
16.5078220562
 20
85.1916318634
 30
0.0
 10
16.5078220562
 20
85.204607292
 30
0.0
  0
SPLINE
  5
45F
100
AcDbEntity
  8
0
100
AcDbSpline
 62
7
  6
CONTINUOUS
 70
0
 71
3
 72
9
 73
5
 74
0
 42
0.0000001
 43
0.0000001
 44
0.0000000001
 40
0.0
 40
0.0
 40
0.0
 40
0.0
 40
0.24891432
 40
1.0
 40
1.0
 40
1.0
 40
1.0
 10
15.5293055467
 20
84.2673670467
 30
0.0
 10
15.5293055467
 20
84.3100972638
 30
0.0
 10
15.5350479654
 20
84.4816537403
 30
0.0
 10
15.5658399787
 20
84.652868078
 30
0.0
 10
15.6053656322
 20
84.775596451
 30
0.0
  0
SPLINE
  5
460
100
AcDbEntity
  8
0
100
AcDbSpline
 62
7
  6
CONTINUOUS
 70
0
 71
3
 72
13
 73
9
 74
0
 42
0.0000001
 43
0.0000001
 44
0.0000000001
 40
0.0
 40
0.0
 40
0.0
 40
0.0
 40
0.2962638692
 40
0.5766338662
 40
0.7060786358
 40
0.8236493595
 40
0.9240926892
 40
1.0
 40
1.0
 40
1.0
 40
1.0
 10
15.6053656444
 20
84.77559645
 30
0.0
 10
15.6197822856
 20
84.8203605654
 30
0.0
 10
15.6495798446
 20
84.906938208
 30
0.0
 10
15.689830281
 20
85.0115593006
 30
0.0
 10
15.7197647905
 20
85.0897220836
 30
0.0
 10
15.7385019745
 20
85.1416513668
 30
0.0
 10
15.7520914184
 20
85.1861913771
 30
0.0
 10
15.7576008831
 20
85.2139695968
 30
0.0
 10
15.7576008831
 20
85.2260189752
 30
0.0
  0
SPLINE
  5
461
100
AcDbEntity
  8
0
100
AcDbSpline
 62
7
  6
CONTINUOUS
 70
0
 71
3
 72
9
 73
5
 74
0
 42
0.0000001
 43
0.0000001
 44
0.0000000001
 40
0.0
 40
0.0
 40
0.0
 40
0.0
 40
0.4965431199
 40
1.0
 40
1.0
 40
1.0
 40
1.0
 10
14.9362237996
 20
84.2022117148
 30
0.0
 10
14.9362237996
 20
84.2986940233
 30
0.0
 10
14.9506883653
 20
84.493323021
 30
0.0
 10
14.9973047623
 20
84.6831724003
 30
0.0
 10
15.0293619596
 20
84.775596451
 30
0.0
  0
SPLINE
  5
462
100
AcDbEntity
  8
0
100
AcDbSpline
 62
7
  6
CONTINUOUS
 70
0
 71
3
 72
15
 73
11
 74
0
 42
0.0000001
 43
0.0000001
 44
0.0000000001
 40
0.0
 40
0.0
 40
0.0
 40
0.0
 40
0.304480139
 40
0.4517075386
 40
0.5928309852
 40
0.7247856239
 40
0.8421316018
 40
0.9373185424
 40
0.9733938748
 40
1.0
 40
1.0
 40
1.0
 40
1.0
 10
15.0293619701
 20
84.7755964499
 30
0.0
 10
15.0460632777
 20
84.8237479612
 30
0.0
 10
15.0729036531
 20
84.8944837968
 30
0.0
 10
15.1114598675
 20
84.9859227973
 30
0.0
 10
15.1399254212
 20
85.0502606777
 30
0.0
 10
15.167036781
 20
85.1097331966
 30
0.0
 10
15.1905713144
 20
85.1623442847
 30
0.0
 10
15.2063312979
 20
85.2009514737
 30
0.0
 10
15.2139246379
 20
85.2262425871
 30
0.0
 10
15.2157791943
 20
85.2366770737
 30
0.0
 10
15.2157791943
 20
85.2411305647
 30
0.0
  0
SPLINE
  5
463
100
AcDbEntity
  8
0
100
AcDbSpline
 62
7
  6
CONTINUOUS
 70
0
 71
3
 72
9
 73
5
 74
0
 42
0.0000001
 43
0.0000001
 44
0.0000000001
 40
0.0
 40
0.0
 40
0.0
 40
0.0
 40
0.4955795682
 40
1.0
 40
1.0
 40
1.0
 40
1.0
 10
14.5539686468
 20
84.1361344858
 30
0.0
 10
14.5539686468
 20
84.2437786628
 30
0.0
 10
14.571654914
 20
84.4614073723
 30
0.0
 10
14.6275291159
 20
84.6727681791
 30
0.0
 10
14.6653540256
 20
84.7755964511
 30
0.0
  0
SPLINE
  5
464
100
AcDbEntity
  8
0
100
AcDbSpline
 62
7
  6
CONTINUOUS
 70
0
 71
3
 72
18
 73
14
 74
0
 42
0.0000001
 43
0.0000001
 44
0.0000000001
 40
0.0
 40
0.0
 40
0.0
 40
0.0
 40
0.1579590467
 40
0.3136439542
 40
0.4654812104
 40
0.6110349235
 40
0.7460546389
 40
0.8075540339
 40
0.8635242234
 40
0.9124065976
 40
0.9526312418
 40
0.9824087687
 40
1.0
 40
1.0
 40
1.0
 40
1.0
 10
14.6653540343
 20
84.77559645
 30
0.0
 10
14.6748970327
 20
84.8015394077
 30
0.0
 10
14.6947651564
 20
84.8527186198
 30
0.0
 10
14.7268684194
 20
84.927600731
 30
0.0
 10
14.7605555706
 20
84.9993905001
 30
0.0
 10
14.7946063477
 20
85.0669751518
 30
0.0
 10
14.8226975519
 20
85.1198425309
 30
0.0
 10
14.843869391
 20
85.1586214058
 30
0.0
 10
14.8578925638
 20
85.1841415478
 30
0.0
 10
14.8698958861
 20
85.2064863081
 30
0.0
 10
14.8793950087
 20
85.2250738723
 30
0.0
 10
14.8854198542
 20
85.2390227991
 30
0.0
 10
14.8882933016
 20
85.2470479278
 30
0.0
 10
14.8882933016
 20
85.2501263523
 30
0.0
  0
SPLINE
  5
465
100
AcDbEntity
  8
0
100
AcDbSpline
 62
7
  6
CONTINUOUS
 70
0
 71
3
 72
22
 73
18
 74
0
 42
0.0000001
 43
0.0000001
 44
0.0000000001
 40
0.0
 40
0.0
 40
0.0
 40
0.0
 40
0.1660518142
 40
0.3293554451
 40
0.4879292606
 40
0.6388948152
 40
0.7097276307
 40
0.7761987374
 40
0.8372088945
 40
0.8911098575
 40
0.9361172017
 40
0.9547254038
 40
0.9704408745
 40
0.9830448249
 40
0.9923184995
 40
0.998043143
 40
1.0
 40
1.0
 40
1.0
 40
1.0
 10
14.5415550952
 20
84.8357522964
 30
0.0
 10
14.5518866498
 20
84.8602976196
 30
0.0
 10
14.5733125989
 20
84.9085964693
 30
0.0
 10
14.6079318274
 20
84.9787976468
 30
0.0
 10
14.6440423089
 20
85.0455002762
 30
0.0
 10
14.6749222931
 20
85.0981252474
 30
0.0
 10
14.6993371516
 20
85.1373871401
 30
0.0
 10
14.7166082401
 20
85.164096758
 30
0.0
 10
14.732874473
 20
85.1882158438
 30
0.0
 10
14.7475176834
 20
85.2092713865
 30
0.0
 10
14.7584430631
 20
85.2246327377
 30
0.0
 10
14.7658126558
 20
85.234997671
 30
0.0
 10
14.7702157658
 20
85.2411156576
 30
0.0
 10
14.7736179131
 20
85.2460566497
 30
0.0
 10
14.7764138287
 20
85.2495893085
 30
0.0
 10
14.7775796092
 20
85.2519357237
 30
0.0
 10
14.778731209
 20
85.2527994211
 30
0.0
 10
14.778731209
 20
85.253113258
 30
0.0
  0
SPLINE
  5
466
100
AcDbEntity
  8
0
100
AcDbSpline
 62
7
  6
CONTINUOUS
 70
0
 71
3
 72
24
 73
20
 74
0
 42
0.0000001
 43
0.0000001
 44
0.0000000001
 40
0.0
 40
0.0
 40
0.0
 40
0.0
 40
0.1669070535
 40
0.3318542889
 40
0.4130189578
 40
0.4928889209
 40
0.571019264
 40
0.6466514742
 40
0.7868257905
 40
0.8484347434
 40
0.9019095508
 40
0.9249266922
 40
0.9450594295
 40
0.9620107634
 40
0.9755004642
 40
0.9853777644
 40
0.9917694324
 40
0.9955428881
 40
1.0
 40
1.0
 40
1.0
 40
1.0
 10
54.1572797926
 20
84.8080956535
 30
0.0
 10
54.1457195191
 20
84.8356679378
 30
0.0
 10
54.1214252829
 20
84.8899513849
 30
0.0
 10
54.0878149378
 20
84.955897361
 30
0.0
 10
54.0593068297
 20
85.0068640632
 30
0.0
 10
54.0374327151
 20
85.0437055591
 30
0.0
 10
54.0151260564
 20
85.0791216306
 30
0.0
 10
53.9858879251
 20
85.1229137532
 30
0.0
 10
53.9566206114
 20
85.1631185511
 30
0.0
 10
53.9279300207
 20
85.1987290305
 30
0.0
 10
53.9116845642
 20
85.2173980614
 30
0.0
 10
53.8998245949
 20
85.2300054069
 30
0.0
 10
53.8922206943
 20
85.2376326601
 30
0.0
 10
53.8855691724
 20
85.2437786147
 30
0.0
 10
53.8800321106
 20
85.2484440627
 30
0.0
 10
53.8755802937
 20
85.2513640986
 30
0.0
 10
53.8723935844
 20
85.2530987895
 30
0.0
 10
53.8693744396
 20
85.2526091362
 30
0.0
 10
53.8691691164
 20
85.2508073306
 30
0.0
 10
53.8691691164
 20
85.2500089385
 30
0.0
  0
SPLINE
  5
467
100
AcDbEntity
  8
0
100
AcDbSpline
 62
7
  6
CONTINUOUS
 70
0
 71
3
 72
10
 73
6
 74
0
 42
0.0000001
 43
0.0000001
 44
0.0000000001
 40
0.0
 40
0.0
 40
0.0
 40
0.0
 40
0.2476025742
 40
0.4988449419
 40
1.0
 40
1.0
 40
1.0
 40
1.0
 10
24.1230801751
 20
84.7755964614
 30
0.0
 10
24.1042301639
 20
84.7158470655
 30
0.0
 10
24.0638212323
 20
84.5962446105
 30
0.0
 10
23.9816515813
 20
84.3569569241
 30
0.0
 10
23.9235495458
 20
84.1754935511
 30
0.0
 10
23.8903527513
 20
84.0531056645
 30
0.0
  0
SPLINE
  5
468
100
AcDbEntity
  8
0
100
AcDbSpline
 62
7
  6
CONTINUOUS
 70
0
 71
3
 72
9
 73
5
 74
0
 42
0.0000001
 43
0.0000001
 44
0.0000000001
 40
0.0
 40
0.0
 40
0.0
 40
0.0
 40
0.5064412022
 40
1.0
 40
1.0
 40
1.0
 40
1.0
 10
23.0877806854
 20
84.0530994586
 30
0.0
 10
23.062544667
 20
84.1493027538
 30
0.0
 10
23.0196052505
 20
84.3411896745
 30
0.0
 10
23.0005708478
 20
84.5376468526
 30
0.0
 10
23.0005708478
 20
84.6345751084
 30
0.0
  0
SPLINE
  5
469
100
AcDbEntity
  8
0
100
AcDbSpline
 62
7
  6
CONTINUOUS
 70
0
 71
3
 72
19
 73
15
 74
0
 42
0.0000001
 43
0.0000001
 44
0.0000000001
 40
0.0
 40
0.0
 40
0.0
 40
0.0
 40
0.0527864649
 40
0.1002892314
 40
0.1428339246
 40
0.1834134978
 40
0.2794994208
 40
0.3414511162
 40
0.4097638756
 40
0.4817165812
 40
0.555411159
 40
0.7040852444
 40
0.8524072697
 40
1.0
 40
1.0
 40
1.0
 40
1.0
 10
48.8416277185
 20
85.0992829628
 30
0.0
 10
48.8416277185
 20
85.1149441248
 30
0.0
 10
48.8429991931
 20
85.1447536918
 30
0.0
 10
48.8515990246
 20
85.1865021223
 30
0.0
 10
48.8691517448
 20
85.2218664433
 30
0.0
 10
48.9118621989
 20
85.2569677867
 30
0.0
 10
48.9771632199
 20
85.2535689862
 30
0.0
 10
49.0390356102
 20
85.2289824926
 30
0.0
 10
49.0910334612
 20
85.1981972377
 30
0.0
 10
49.1410511585
 20
85.1589794238
 30
0.0
 10
49.2039162412
 20
85.0981679734
 30
0.0
 10
49.2723127
 20
85.011384026
 30
0.0
 10
49.3388663939
 20
84.8971351967
 30
0.0
 10
49.3741078855
 20
84.816515479
 30
0.0
 10
49.3897002373
 20
84.7755964501
 30
0.0
  0
SPLINE
  5
46A
100
AcDbEntity
  8
0
100
AcDbSpline
 62
7
  6
CONTINUOUS
 70
0
 71
3
 72
19
 73
15
 74
0
 42
0.0000001
 43
0.0000001
 44
0.0000000001
 40
0.0
 40
0.0
 40
0.0
 40
0.0
 40
0.1135554475
 40
0.1651277704
 40
0.2135202878
 40
0.2612402827
 40
0.3126583562
 40
0.3713487312
 40
0.4370412045
 40
0.5067491706
 40
0.5780684133
 40
0.7201642474
 40
0.8605563677
 40
1.0
 40
1.0
 40
1.0
 40
1.0
 10
23.0230261632
 20
84.9889667613
 30
0.0
 10
23.0230261632
 20
85.0286429639
 30
0.0
 10
23.019919536
 20
85.0868352197
 30
0.0
 10
22.9993678494
 20
85.158987841
 30
0.0
 10
22.9734447362
 20
85.2044326553
 30
0.0
 10
22.9332652369
 20
85.238828274
 30
0.0
 10
22.8790190545
 20
85.2549339793
 30
0.0
 10
22.8167975701
 20
85.2516472289
 30
0.0
 10
22.7516743507
 20
85.230799299
 30
0.0
 10
22.6881496733
 20
85.1956513398
 30
0.0
 10
22.6100402946
 20
85.1344467192
 30
0.0
 10
22.5280373972
 20
85.0404581153
 30
0.0
 10
22.4532941113
 20
84.9126948615
 30
0.0
 10
22.4166639961
 20
84.8217084416
 30
0.0
 10
22.4009327656
 20
84.7755964613
 30
0.0
  0
SPLINE
  5
46B
100
AcDbEntity
  8
0
100
AcDbSpline
 62
7
  6
CONTINUOUS
 70
0
 71
3
 72
10
 73
6
 74
0
 42
0.0000001
 43
0.0000001
 44
0.0000000001
 40
0.0
 40
0.0
 40
0.0
 40
0.0
 40
0.2488890163
 40
0.5004410286
 40
1.0
 40
1.0
 40
1.0
 40
1.0
 10
22.4009327765
 20
84.7755964613
 30
0.0
 10
22.3805920897
 20
84.7159730675
 30
0.0
 10
22.3381838115
 20
84.596604098
 30
0.0
 10
22.2549613344
 20
84.3575948286
 30
0.0
 10
22.1987187595
 20
84.175728297
 30
0.0
 10
22.167766266
 20
84.0531293181
 30
0.0
  0
SPLINE
  5
46C
100
AcDbEntity
  8
0
100
AcDbSpline
 62
7
  6
CONTINUOUS
 70
0
 71
3
 72
9
 73
5
 74
0
 42
0.0000001
 43
0.0000001
 44
0.0000000001
 40
0.0
 40
0.0
 40
0.0
 40
0.0
 40
0.4935714611
 40
1.0
 40
1.0
 40
1.0
 40
1.0
 10
54.051993499
 20
84.0531058803
 30
0.0
 10
54.0450220986
 20
84.1753550817
 30
0.0
 10
54.0082340393
 20
84.4221497308
 30
0.0
 10
53.9313800243
 20
84.6591841687
 30
0.0
 10
53.8841258834
 20
84.7755964512
 30
0.0
  0
SPLINE
  5
46D
100
AcDbEntity
  8
0
100
AcDbSpline
 62
7
  6
CONTINUOUS
 70
0
 71
3
 72
9
 73
5
 74
0
 42
0.0000001
 43
0.0000001
 44
0.0000000001
 40
0.0
 40
0.0
 40
0.0
 40
0.0
 40
0.2542432903
 40
1.0
 40
1.0
 40
1.0
 40
1.0
 10
21.4240768443
 20
84.0531002278
 30
0.0
 10
21.4135447582
 20
84.0967092694
 30
0.0
 10
21.3752569298
 20
84.2688723494
 30
0.0
 10
21.3535055205
 20
84.4455270641
 30
0.0
 10
21.3535055205
 20
84.5771205275
 30
0.0
  0
SPLINE
  5
46E
100
AcDbEntity
  8
0
100
AcDbSpline
 62
7
  6
CONTINUOUS
 70
0
 71
3
 72
21
 73
17
 74
0
 42
0.0000001
 43
0.0000001
 44
0.0000000001
 40
0.0
 40
0.0
 40
0.0
 40
0.0
 40
0.1689177757
 40
0.3359013322
 40
0.498905687
 40
0.6537580588
 40
0.7258427253
 40
0.792580074
 40
0.8520029852
 40
0.90211021
 40
0.9406792766
 40
0.9550711846
 40
0.9661481591
 40
0.9745563846
 40
0.9818128521
 40
1.0
 40
1.0
 40
1.0
 40
1.0
 10
53.8552549333
 20
84.8426436486
 30
0.0
 10
53.8427364621
 20
84.8700812289
 30
0.0
 10
53.8163602127
 20
84.9239833919
 30
0.0
 10
53.7725196609
 20
85.0015823719
 30
0.0
 10
53.7255080603
 20
85.0743228009
 30
0.0
 10
53.6841010311
 20
85.1303760324
 30
0.0
 10
53.6503222527
 20
85.1705006904
 30
0.0
 10
53.6262768104
 20
85.1964895114
 30
0.0
 10
53.6037491254
 20
85.2184969539
 30
0.0
 10
53.5836799848
 20
85.2357221584
 30
0.0
 10
53.5686271097
 20
85.2464423519
 30
0.0
 10
53.5583239155
 20
85.2514896367
 30
0.0
 10
53.5524683756
 20
85.2531492207
 30
0.0
 10
53.5475280686
 20
85.2529561036
 30
0.0
 10
53.5422789688
 20
85.2493164978
 30
0.0
 10
53.5416832237
 20
85.2441423774
 30
0.0
 10
53.5416832237
 20
85.2408952565
 30
0.0
  0
SPLINE
  5
46F
100
AcDbEntity
  8
0
100
AcDbSpline
 62
7
  6
CONTINUOUS
 70
0
 71
3
 72
10
 73
6
 74
0
 42
0.0000001
 43
0.0000001
 44
0.0000000001
 40
0.0
 40
0.0
 40
0.0
 40
0.0
 40
0.2501607478
 40
0.5019633848
 40
1.0
 40
1.0
 40
1.0
 40
1.0
 10
20.8100166441
 20
84.7755964614
 30
0.0
 10
20.7884171197
 20
84.7161140872
 30
0.0
 10
20.7444737087
 20
84.5969702949
 30
0.0
 10
20.6610723098
 20
84.358170625
 30
0.0
 10
20.6073199014
 20
84.1758859779
 30
0.0
 10
20.5789721341
 20
84.053129318
 30
0.0
  0
SPLINE
  5
470
100
AcDbEntity
  8
0
100
AcDbSpline
 62
7
  6
CONTINUOUS
 70
0
 71
3
 72
9
 73
5
 74
0
 42
0.0000001
 43
0.0000001
 44
0.0000000001
 40
0.0
 40
0.0
 40
0.0
 40
0.0
 40
0.2534260306
 40
1.0
 40
1.0
 40
1.0
 40
1.0
 10
19.902306262
 20
84.0530982394
 30
0.0
 10
19.8938261015
 20
84.0917572571
 30
0.0
 10
19.8632550595
 20
84.24486621
 30
0.0
 10
19.8469577061
 20
84.4012673692
 30
0.0
 10
19.8469577061
 20
84.5178617184
 30
0.0
  0
SPLINE
  5
471
100
AcDbEntity
  8
0
100
AcDbSpline
 62
7
  6
CONTINUOUS
 70
0
 71
3
 72
21
 73
17
 74
0
 42
0.0000001
 43
0.0000001
 44
0.0000000001
 40
0.0
 40
0.0
 40
0.0
 40
0.0
 40
0.0526285866
 40
0.100063495
 40
0.1426398547
 40
0.1629310999
 40
0.183441242
 40
0.2280371043
 40
0.2811842953
 40
0.3432971206
 40
0.4115693349
 40
0.4835400696
 40
0.5570314004
 40
0.7052695992
 40
0.8530184437
 40
1.0
 40
1.0
 40
1.0
 40
1.0
 10
19.9158346995
 20
85.0992854058
 30
0.0
 10
19.9158346995
 20
85.1149261929
 30
0.0
 10
19.9144832485
 20
85.1447231275
 30
0.0
 10
19.9059086821
 20
85.1864751811
 30
0.0
 10
19.8909241809
 20
85.2164056724
 30
0.0
 10
19.8734976484
 20
85.2343052781
 30
0.0
 10
19.8518646137
 20
85.2480122149
 30
0.0
 10
19.8164089851
 20
85.255607178
 30
0.0
 10
19.768805823
 20
85.248536136
 30
0.0
 10
19.7176984181
 20
85.2286214895
 30
0.0
 10
19.6658179555
 20
85.1977947272
 30
0.0
 10
19.6156644777
 20
85.1585795778
 30
0.0
 10
19.553028403
 20
85.0976025964
 30
0.0
 10
19.4848758293
 20
85.0108706539
 30
0.0
 10
19.4182831643
 20
84.8969370933
 30
0.0
 10
19.3833162298
 20
84.8164151371
 30
0.0
 10
19.3677621807
 20
84.7755964614
 30
0.0
  0
SPLINE
  5
472
100
AcDbEntity
  8
0
100
AcDbSpline
 62
7
  6
CONTINUOUS
 70
0
 71
3
 72
9
 73
5
 74
0
 42
0.0000001
 43
0.0000001
 44
0.0000000001
 40
0.0
 40
0.0
 40
0.0
 40
0.0
 40
0.4935669814
 40
1.0
 40
1.0
 40
1.0
 40
1.0
 10
53.567878967
 20
84.0531059003
 30
0.0
 10
53.5569282239
 20
84.1756199573
 30
0.0
 10
53.5126490116
 20
84.4221980652
 30
0.0
 10
53.4318598424
 20
84.6588158685
 30
0.0
 10
53.3839957604
 20
84.7755964512
 30
0.0
  0
SPLINE
  5
473
100
AcDbEntity
  8
0
100
AcDbSpline
 62
7
  6
CONTINUOUS
 70
0
 71
3
 72
9
 73
5
 74
0
 42
0.0000001
 43
0.0000001
 44
0.0000000001
 40
0.0
 40
0.0
 40
0.0
 40
0.0
 40
0.5033319998
 40
1.0
 40
1.0
 40
1.0
 40
1.0
 10
19.367762188
 20
84.7755964613
 30
0.0
 10
19.3224931063
 20
84.6567962727
 30
0.0
 10
19.2343024203
 20
84.420032806
 30
0.0
 10
19.1667829405
 20
84.1759782531
 30
0.0
 10
19.1413710504
 20
84.0531293182
 30
0.0
  0
SPLINE
  5
474
100
AcDbEntity
  8
0
100
AcDbSpline
 62
7
  6
CONTINUOUS
 70
0
 71
3
 72
23
 73
19
 74
0
 42
0.0000001
 43
0.0000001
 44
0.0000000001
 40
0.0
 40
0.0
 40
0.0
 40
0.0
 40
0.0846478396
 40
0.1690290299
 40
0.2529659057
 40
0.336197776
 40
0.4591309166
 40
0.5779496355
 40
0.6892122255
 40
0.7884299029
 40
0.8313973118
 40
0.8687886175
 40
0.8999179535
 40
0.9244626805
 40
0.9431050569
 40
0.95915189
 40
0.9772667031
 40
1.0
 40
1.0
 40
1.0
 40
1.0
 10
53.3376666748
 20
84.8781965892
 30
0.0
 10
53.3308942204
 20
84.8918394743
 30
0.0
 10
53.3169482476
 20
84.9188753387
 30
0.0
 10
53.294759173
 20
84.9586281617
 30
0.0
 10
53.271370055
 20
84.9973908379
 30
0.0
 10
53.2428804073
 20
85.0411424687
 30
0.0
 10
53.2088463796
 20
85.0887300523
 30
0.0
 10
53.1690025556
 20
85.1382566432
 30
0.0
 10
53.1285770698
 20
85.1816600392
 30
0.0
 10
53.0945124834
 20
85.2121243043
 30
0.0
 10
53.0685435285
 20
85.2313924538
 30
0.0
 10
53.0515547688
 20
85.2421000495
 30
0.0
 10
53.0364514757
 20
85.2494775961
 30
0.0
 10
53.0235923562
 20
85.2533156924
 30
0.0
 10
53.0124981834
 20
85.2531065333
 30
0.0
 10
53.0043609747
 20
85.2471444469
 30
0.0
 10
53.000452613
 20
85.2373257577
 30
0.0
 10
52.9998615349
 20
85.2299515646
 30
0.0
 10
52.9998615349
 20
85.2258609803
 30
0.0
  0
SPLINE
  5
475
100
AcDbEntity
  8
0
100
AcDbSpline
 62
7
  6
CONTINUOUS
 70
0
 71
3
 72
9
 73
5
 74
0
 42
0.0000001
 43
0.0000001
 44
0.0000000001
 40
0.0
 40
0.0
 40
0.0
 40
0.0
 40
0.2526359278
 40
1.0
 40
1.0
 40
1.0
 40
1.0
 10
18.539142746
 20
84.0530974158
 30
0.0
 10
18.5326025364
 20
84.0866899426
 30
0.0
 10
18.5092102473
 20
84.2201045302
 30
0.0
 10
18.4974334574
 20
84.3557703418
 30
0.0
 10
18.4974334574
 20
84.4570118498
 30
0.0
  0
SPLINE
  5
476
100
AcDbEntity
  8
0
100
AcDbSpline
 62
7
  6
CONTINUOUS
 70
0
 71
3
 72
9
 73
5
 74
0
 42
0.0000001
 43
0.0000001
 44
0.0000000001
 40
0.0
 40
0.0
 40
0.0
 40
0.0
 40
0.4995363375
 40
1.0
 40
1.0
 40
1.0
 40
1.0
 10
53.2281568714
 20
84.2673250297
 30
0.0
 10
53.2281568714
 20
84.2315958699
 30
0.0
 10
53.2263228442
 20
84.1600484203
 30
0.0
 10
53.2202142656
 20
84.0887494005
 30
0.0
 10
53.2164613861
 20
84.0531511879
 30
0.0
  0
SPLINE
  5
477
100
AcDbEntity
  8
0
100
AcDbSpline
 62
7
  6
CONTINUOUS
 70
0
 71
3
 72
19
 73
15
 74
0
 42
0.0000001
 43
0.0000001
 44
0.0000000001
 40
0.0
 40
0.0
 40
0.0
 40
0.0
 40
0.048406842
 40
0.0903673555
 40
0.1273413812
 40
0.1647508742
 40
0.2094603714
 40
0.2642678818
 40
0.3277992356
 40
0.3972771919
 40
0.5449514712
 40
0.6965849344
 40
0.8485261442
 40
1.0
 40
1.0
 40
1.0
 40
1.0
 10
18.5983913215
 20
85.1416879888
 30
0.0
 10
18.5983913215
 20
85.1549566073
 30
0.0
 10
18.596991061
 20
85.1797909529
 30
0.0
 10
18.5880514778
 20
85.2139229493
 30
0.0
 10
18.5688528261
 20
85.2408591036
 30
0.0
 10
18.5375664324
 20
85.2544861388
 30
0.0
 10
18.4992489893
 20
85.2527481185
 30
0.0
 10
18.4564788074
 20
85.2387980753
 30
0.0
 10
18.4109832969
 20
85.2142610187
 30
0.0
 10
18.3484666685
 20
85.1691584849
 30
0.0
 10
18.2761347166
 20
85.0977011546
 30
0.0
 10
18.2016391199
 20
84.9985605617
 30
0.0
 10
18.1392094222
 20
84.8902756785
 30
0.0
 10
18.1052207805
 20
84.8142144667
 30
0.0
 10
18.0899710443
 20
84.7755964614
 30
0.0
  0
SPLINE
  5
478
100
AcDbEntity
  8
0
100
AcDbSpline
 62
7
  6
CONTINUOUS
 70
0
 71
3
 72
9
 73
5
 74
0
 42
0.0000001
 43
0.0000001
 44
0.0000000001
 40
0.0
 40
0.0
 40
0.0
 40
0.0
 40
0.5045143704
 40
1.0
 40
1.0
 40
1.0
 40
1.0
 10
18.0899710496
 20
84.7755964614
 30
0.0
 10
18.0432775303
 20
84.6573510992
 30
0.0
 10
17.9556298498
 20
84.4208865688
 30
0.0
 10
17.8928935835
 20
84.175999176
 30
0.0
 10
17.8707136732
 20
84.053129318
 30
0.0
  0
SPLINE
  5
479
100
AcDbEntity
  8
0
100
AcDbSpline
 62
7
  6
CONTINUOUS
 70
0
 71
3
 72
9
 73
5
 74
0
 42
0.0000001
 43
0.0000001
 44
0.0000000001
 40
0.0
 40
0.0
 40
0.0
 40
0.0
 40
0.277120741
 40
1.0
 40
1.0
 40
1.0
 40
1.0
 10
28.2348689445
 20
36.7568849449
 30
0.0
 10
28.2398246631
 20
36.7623286775
 30
0.0
 10
28.2565443326
 20
36.7827013779
 30
0.0
 10
28.2684886529
 20
36.8090968324
 30
0.0
 10
28.2682059807
 20
36.8282977842
 30
0.0
  0
SPLINE
  5
47A
100
AcDbEntity
  8
0
100
AcDbSpline
 62
7
  6
CONTINUOUS
 70
0
 71
3
 72
9
 73
5
 74
0
 42
0.0000001
 43
0.0000001
 44
0.0000000001
 40
0.0
 40
0.0
 40
0.0
 40
0.0
 40
0.2518937423
 40
1.0
 40
1.0
 40
1.0
 40
1.0
 10
17.3495213553
 20
84.0530979875
 30
0.0
 10
17.3447519936
 20
84.0815245902
 30
0.0
 10
17.327817119
 20
84.1946913089
 30
0.0
 10
17.3197184448
 20
84.3092685735
 30
0.0
 10
17.3197184448
 20
84.3948735481
 30
0.0
  0
SPLINE
  5
47B
100
AcDbEntity
  8
0
100
AcDbSpline
 62
7
  6
CONTINUOUS
 70
0
 71
3
 72
12
 73
8
 74
0
 42
0.0000001
 43
0.0000001
 44
0.0000000001
 40
0.0
 40
0.0
 40
0.0
 40
0.0
 40
0.2828149305
 40
0.5521116253
 40
0.7950637522
 40
0.9030153217
 40
1.0
 40
1.0
 40
1.0
 40
1.0
 10
28.3454899574
 20
39.9017857246
 30
0.0
 10
28.3454899574
 20
39.6119281885
 30
0.0
 10
28.3394124287
 20
39.0460495957
 30
0.0
 10
28.3145461654
 20
38.2315291377
 30
0.0
 10
28.2864408233
 20
37.596496521
 30
0.0
 10
28.2694717441
 20
37.1377748852
 30
0.0
 10
28.2667427974
 20
36.9276867874
 30
0.0
 10
28.2682059807
 20
36.8282977842
 30
0.0
  0
SPLINE
  5
47C
100
AcDbEntity
  8
0
100
AcDbSpline
 62
7
  6
CONTINUOUS
 70
0
 71
3
 72
12
 73
8
 74
0
 42
0.0000001
 43
0.0000001
 44
0.0000000001
 40
0.0
 40
0.0
 40
0.0
 40
0.0
 40
0.0969862631
 40
0.2049388565
 40
0.4478855015
 40
0.7171882799
 40
1.0
 40
1.0
 40
1.0
 40
1.0
 10
40.4892564373
 20
36.8282977842
 30
0.0
 10
40.4907196445
 20
36.9276884111
 30
0.0
 10
40.4879931241
 20
37.1377792132
 30
0.0
 10
40.4710198797
 20
37.5964977875
 30
0.0
 10
40.4429225317
 20
38.2315323518
 30
0.0
 10
40.4180490514
 20
39.0460498963
 30
0.0
 10
40.4119724606
 20
39.6119314799
 30
0.0
 10
40.4119724606
 20
39.9017857246
 30
0.0
  0
SPLINE
  5
47D
100
AcDbEntity
  8
0
100
AcDbSpline
 62
7
  6
CONTINUOUS
 70
0
 71
3
 72
20
 73
16
 74
0
 42
0.0000001
 43
0.0000001
 44
0.0000000001
 40
0.0
 40
0.0
 40
0.0
 40
0.0
 40
0.0427642672
 40
0.0781719746
 40
0.1099006224
 40
0.145756904
 40
0.192205956
 40
0.2492499973
 40
0.314414141
 40
0.3851536886
 40
0.4591483261
 40
0.5351908462
 40
0.6895892942
 40
0.8449078246
 40
1.0
 40
1.0
 40
1.0
 40
1.0
 10
17.4582231333
 20
85.1766232065
 30
0.0
 10
17.4582231333
 20
85.1874454602
 30
0.0
 10
17.4568988516
 20
85.2072592852
 30
0.0
 10
17.4475197308
 20
85.2342816298
 30
0.0
 10
17.4263463736
 20
85.2520272235
 30
0.0
 10
17.3962844713
 20
85.2545750754
 30
0.0
 10
17.3621742155
 20
85.2444795566
 30
0.0
 10
17.3239133808
 20
85.2252390352
 30
0.0
 10
17.2834282353
 20
85.1977503122
 30
0.0
 10
17.2425766783
 20
85.1636852159
 30
0.0
 10
17.2029238488
 20
85.1242350694
 30
0.0
 10
17.1524092384
 20
85.0659930213
 30
0.0
 10
17.0957317017
 20
84.9862032714
 30
0.0
 10
17.0378055259
 20
84.8836461403
 30
0.0
 10
17.0053542643
 20
84.8119839245
 30
0.0
 10
16.9906429729
 20
84.7755964613
 30
0.0
  0
SPLINE
  5
47E
100
AcDbEntity
  8
0
100
AcDbSpline
 62
7
  6
CONTINUOUS
 70
0
 71
3
 72
9
 73
5
 74
0
 42
0.0000001
 43
0.0000001
 44
0.0000000001
 40
0.0
 40
0.0
 40
0.0
 40
0.0
 40
0.505453641
 40
1.0
 40
1.0
 40
1.0
 40
1.0
 10
16.9906429762
 20
84.7755964613
 30
0.0
 10
16.9430516497
 20
84.6578822781
 30
0.0
 10
16.8567903933
 20
84.4215588927
 30
0.0
 10
16.7996141931
 20
84.1759457518
 30
0.0
 10
16.7809215905
 20
84.053129318
 30
0.0
  0
SPLINE
  5
47F
100
AcDbEntity
  8
0
100
AcDbSpline
 62
7
  6
CONTINUOUS
 70
0
 71
3
 72
9
 73
5
 74
0
 42
0.0000001
 43
0.0000001
 44
0.0000000001
 40
0.0
 40
0.0
 40
0.0
 40
0.0
 40
0.2512254113
 40
1.0
 40
1.0
 40
1.0
 40
1.0
 10
16.3464757463
 20
84.0531001941
 30
0.0
 10
16.3432578217
 20
84.0762692212
 30
0.0
 10
16.3319053278
 20
84.1686862129
 30
0.0
 10
16.3267159602
 20
84.261888003
 30
0.0
 10
16.3267159602
 20
84.3316058951
 30
0.0
  0
SPLINE
  5
480
100
AcDbEntity
  8
0
100
AcDbSpline
 62
7
  6
CONTINUOUS
 70
0
 71
3
 72
20
 73
16
 74
0
 42
0.0000001
 43
0.0000001
 44
0.0000000001
 40
0.0
 40
0.0
 40
0.0
 40
0.0
 40
0.1590150864
 40
0.3177980945
 40
0.4750185016
 40
0.5521473142
 40
0.6271489701
 40
0.6989265875
 40
0.7654164153
 40
0.8243016996
 40
0.8727735907
 40
0.909111355
 40
0.9365906036
 40
0.9643663772
 40
1.0
 40
1.0
 40
1.0
 40
1.0
 10
52.675639983
 20
84.77559645
 30
0.0
 10
52.661540788
 20
84.8100406556
 30
0.0
 10
52.6309281882
 20
84.8779245319
 30
0.0
 10
52.5770213226
 20
84.9753075446
 30
0.0
 10
52.5253207443
 20
85.0516104659
 30
0.0
 10
52.4802672322
 20
85.1083299722
 30
0.0
 10
52.4452713519
 20
85.1473896209
 30
0.0
 10
52.409403309
 20
85.1821732466
 30
0.0
 10
52.3737950212
 20
85.2116035578
 30
0.0
 10
52.3399327649
 20
85.2343567692
 30
0.0
 10
52.3095484674
 20
85.2490456299
 30
0.0
 10
52.2833985046
 20
85.2548824745
 30
0.0
 10
52.2612956908
 20
85.2479903477
 30
0.0
 10
52.2506622507
 20
85.2278440074
 30
0.0
 10
52.2496403618
 20
85.2129449166
 30
0.0
 10
52.2496403618
 20
85.2046047175
 30
0.0
  0
SPLINE
  5
481
100
AcDbEntity
  8
0
100
AcDbSpline
 62
7
  6
CONTINUOUS
 70
0
 71
3
 72
20
 73
16
 74
0
 42
0.0000001
 43
0.0000001
 44
0.0000000001
 40
0.0
 40
0.0
 40
0.0
 40
0.0
 40
0.1327898901
 40
0.2661457426
 40
0.3340517477
 40
0.4030200556
 40
0.4723973295
 40
0.5401067752
 40
0.6026992918
 40
0.6592980462
 40
0.7124112956
 40
0.7655965074
 40
0.820679133
 40
0.8781814139
 40
1.0
 40
1.0
 40
1.0
 40
1.0
 10
25.9575906183
 20
84.7755964613
 30
0.0
 10
25.9726736121
 20
84.8282683238
 30
0.0
 10
26.0092412898
 20
84.9322645214
 30
0.0
 10
26.078987595
 20
85.0525890359
 30
0.0
 10
26.1524647312
 20
85.1369325277
 30
0.0
 10
26.2182722667
 20
85.1915670389
 30
0.0
 10
26.2933706296
 20
85.2328031369
 30
0.0
 10
26.3738350021
 20
85.2544224612
 30
0.0
 10
26.4522657452
 20
85.2527369768
 30
0.0
 10
26.5199682386
 20
85.2259486117
 30
0.0
 10
26.5699521604
 20
85.1790449944
 30
0.0
 10
26.6033635638
 20
85.1206733709
 30
0.0
 10
26.6245518204
 20
85.0553078226
 30
0.0
 10
26.6413858152
 20
84.959875213
 30
0.0
 10
26.6439983475
 20
84.885637313
 30
0.0
 10
26.6439983475
 20
84.8353751705
 30
0.0
  0
SPLINE
  5
482
100
AcDbEntity
  8
0
100
AcDbSpline
 62
7
  6
CONTINUOUS
 70
0
 71
3
 72
20
 73
16
 74
0
 42
0.0000001
 43
0.0000001
 44
0.0000000001
 40
0.0
 40
0.0
 40
0.0
 40
0.0
 40
0.0351093571
 40
0.0624792076
 40
0.0902548376
 40
0.1265330113
 40
0.17505807
 40
0.2341784079
 40
0.3007488851
 40
0.372529662
 40
0.4475572843
 40
0.5247131708
 40
0.6820069266
 40
0.8409085823
 40
1.0
 40
1.0
 40
1.0
 40
1.0
 10
16.5078220562
 20
85.204607292
 30
0.0
 10
16.5078220562
 20
85.2128176644
 30
0.0
 10
16.5068390895
 20
85.2275811725
 30
0.0
 10
16.4958386265
 20
85.2471686878
 30
0.0
 10
16.474134917
 20
85.2545699412
 30
0.0
 10
16.4476854753
 20
85.2494556115
 30
0.0
 10
16.4173887984
 20
85.2344186095
 30
0.0
 10
16.3836636225
 20
85.2114191761
 30
0.0
 10
16.3480927192
 20
85.1818879809
 30
0.0
 10
16.3122093435
 20
85.1471527335
 30
0.0
 10
16.2771096872
 20
85.1082316162
 30
0.0
 10
16.231896921
 20
85.0516763476
 30
0.0
 10
16.1804095219
 20
84.9752468978
 30
0.0
 10
16.1266817674
 20
84.8778214817
 30
0.0
 10
16.0959178295
 20
84.8100266653
 30
0.0
 10
16.081822435
 20
84.7755964614
 30
0.0
  0
SPLINE
  5
483
100
AcDbEntity
  8
0
100
AcDbSpline
 62
7
  6
CONTINUOUS
 70
0
 71
3
 72
9
 73
5
 74
0
 42
0.0000001
 43
0.0000001
 44
0.0000000001
 40
0.0
 40
0.0
 40
0.0
 40
0.0
 40
0.5061079092
 40
1.0
 40
1.0
 40
1.0
 40
1.0
 10
16.0818224363
 20
84.7755964614
 30
0.0
 10
16.0338351111
 20
84.6583799203
 30
0.0
 10
15.9498336926
 20
84.4220117744
 30
0.0
 10
15.8989292688
 20
84.17581829
 30
0.0
 10
15.8839347927
 20
84.053129318
 30
0.0
  0
SPLINE
  5
484
100
AcDbEntity
  8
0
100
AcDbSpline
 62
7
  6
CONTINUOUS
 70
0
 71
3
 72
9
 73
5
 74
0
 42
0.0000001
 43
0.0000001
 44
0.0000000001
 40
0.0
 40
0.0
 40
0.0
 40
0.0
 40
0.2503979228
 40
1.0
 40
1.0
 40
1.0
 40
1.0
 10
15.5409997732
 20
84.0531449335
 30
0.0
 10
15.5390963678
 20
84.0709524281
 30
0.0
 10
15.5321322292
 20
84.1421366615
 30
0.0
 10
15.5293055467
 20
84.2137180629
 30
0.0
 10
15.5293055467
 20
84.2673310159
 30
0.0
  0
SPLINE
  5
485
100
AcDbEntity
  8
0
100
AcDbSpline
 62
7
  6
CONTINUOUS
 70
0
 71
3
 72
9
 73
5
 74
0
 42
0.0000001
 43
0.0000001
 44
0.0000000001
 40
0.0
 40
0.0
 40
0.0
 40
0.0
 40
0.2490428722
 40
1.0
 40
1.0
 40
1.0
 40
1.0
 10
52.4307464579
 20
84.3315904343
 30
0.0
 10
52.4307464579
 20
84.3084050327
 30
0.0
 10
52.4290042712
 20
84.2153115539
 30
0.0
 10
52.4206033509
 20
84.1223716312
 30
0.0
 10
52.4109825906
 20
84.0531241257
 30
0.0
  0
SPLINE
  5
486
100
AcDbEntity
  8
0
100
AcDbSpline
 62
7
  6
CONTINUOUS
 70
0
 71
3
 72
19
 73
15
 74
0
 42
0.0000001
 43
0.0000001
 44
0.0000000001
 40
0.0
 40
0.0
 40
0.0
 40
0.0
 40
0.0284512156
 40
0.0396291262
 40
0.0500779827
 40
0.0740967118
 40
0.108172159
 40
0.1535337898
 40
0.2096088965
 40
0.3458470894
 40
0.4999338233
 40
0.6630866902
 40
0.830615346
 40
1.0
 40
1.0
 40
1.0
 40
1.0
 10
15.7576008831
 20
85.2260189752
 30
0.0
 10
15.7576008831
 20
85.2311287555
 30
0.0
 10
15.7569581471
 20
85.2384886964
 30
0.0
 10
15.7524869207
 20
85.2464656282
 30
0.0
 10
15.745938593
 20
85.2517809434
 30
0.0
 10
15.7328530747
 20
85.2527969329
 30
0.0
 10
15.7150729602
 20
85.2471526893
 30
0.0
 10
15.6935133242
 20
85.2355673086
 30
0.0
 10
15.659169586
 20
85.2100868758
 30
0.0
 10
15.6142290862
 20
85.1667903475
 30
0.0
 10
15.5607365151
 20
85.1052915063
 30
0.0
 10
15.5092942634
 20
85.0349164794
 30
0.0
 10
15.461897563
 20
84.9585529705
 30
0.0
 10
15.4333197846
 20
84.9051668638
 30
0.0
 10
15.4197742496
 20
84.877927845
 30
0.0
  0
SPLINE
  5
487
100
AcDbEntity
  8
0
100
AcDbSpline
 62
7
  6
CONTINUOUS
 70
0
 71
3
 72
9
 73
5
 74
0
 42
0.0000001
 43
0.0000001
 44
0.0000000001
 40
0.0
 40
0.0
 40
0.0
 40
0.0
 40
0.5064435254
 40
1.0
 40
1.0
 40
1.0
 40
1.0
 10
15.3734666576
 20
84.7755964613
 30
0.0
 10
15.3256019431
 20
84.6588168528
 30
0.0
 10
15.2446845598
 20
84.4222245627
 30
0.0
 10
15.2007144172
 20
84.1756210577
 30
0.0
 10
15.1895808548
 20
84.0531293181
 30
0.0
  0
SPLINE
  5
488
100
AcDbEntity
  8
0
100
AcDbSpline
 62
7
  6
CONTINUOUS
 70
0
 71
3
 72
9
 73
5
 74
0
 42
0.0000001
 43
0.0000001
 44
0.0000000001
 40
0.0
 40
0.0
 40
0.0
 40
0.0
 40
0.4945567119
 40
1.0
 40
1.0
 40
1.0
 40
1.0
 10
51.9765364427
 20
84.0531059002
 30
0.0
 10
51.958009506
 20
84.1759533115
 30
0.0
 10
51.9005553126
 20
84.4215278221
 30
0.0
 10
51.8144113649
 20
84.6578817744
 30
0.0
 10
51.7668194418
 20
84.7755964511
 30
0.0
  0
SPLINE
  5
489
100
AcDbEntity
  8
0
100
AcDbSpline
 62
7
  6
CONTINUOUS
 70
0
 71
3
 72
20
 73
16
 74
0
 42
0.0000001
 43
0.0000001
 44
0.0000000001
 40
0.0
 40
0.0
 40
0.0
 40
0.0
 40
0.1551303357
 40
0.3104274531
 40
0.4648764953
 40
0.5409455433
 40
0.6149513622
 40
0.6857055448
 40
0.7508954851
 40
0.8079755614
 40
0.8544027836
 40
0.8903274367
 40
0.9221490769
 40
0.9573853544
 40
1.0
 40
1.0
 40
1.0
 40
1.0
 10
51.7668194451
 20
84.7755964499
 30
0.0
 10
51.7521062111
 20
84.8119884145
 30
0.0
 10
51.719817118
 20
84.8837182571
 30
0.0
 10
51.66168933
 20
84.9861877077
 30
0.0
 10
51.60480329
 20
85.0658055136
 30
0.0
 10
51.5545309318
 20
85.1242654963
 30
0.0
 10
51.5150373992
 20
85.1638893575
 30
0.0
 10
51.4742254584
 20
85.1980181774
 30
0.0
 10
51.4337051187
 20
85.2254888515
 30
0.0
 10
51.395427435
 20
85.2446845027
 30
0.0
 10
51.3612289129
 20
85.2546862937
 30
0.0
 10
51.3311864888
 20
85.2517792734
 30
0.0
 10
51.3100606734
 20
85.2340632108
 30
0.0
 10
51.3005612916
 20
85.207152875
 30
0.0
 10
51.2992392847
 20
85.1874125973
 30
0.0
 10
51.2992392847
 20
85.1766295145
 30
0.0
  0
SPLINE
  5
48A
100
AcDbEntity
  8
0
100
AcDbSpline
 62
7
  6
CONTINUOUS
 70
0
 71
3
 72
9
 73
5
 74
0
 42
0.0000001
 43
0.0000001
 44
0.0000000001
 40
0.0
 40
0.0
 40
0.0
 40
0.0
 40
0.2485020106
 40
1.0
 40
1.0
 40
1.0
 40
1.0
 10
51.4377439733
 20
84.3948628554
 30
0.0
 10
51.4377439733
 20
84.3664284602
 30
0.0
 10
51.4350294793
 20
84.2520098832
 30
0.0
 10
51.4221691872
 20
84.1379246296
 30
0.0
 10
51.4079361119
 20
84.0531219522
 30
0.0
  0
SPLINE
  5
48B
100
AcDbEntity
  8
0
100
AcDbSpline
 62
7
  6
CONTINUOUS
 70
0
 71
3
 72
22
 73
18
 74
0
 42
0.0000001
 43
0.0000001
 44
0.0000000001
 40
0.0
 40
0.0
 40
0.0
 40
0.0
 40
0.0175511982
 40
0.0245172672
 40
0.0329266291
 40
0.0441001513
 40
0.0584744256
 40
0.0966386849
 40
0.1463544283
 40
0.2059019766
 40
0.2730698397
 40
0.3455080487
 40
0.4216005228
 40
0.5004895701
 40
0.6635773492
 40
0.8308554493
 40
1.0
 40
1.0
 40
1.0
 40
1.0
 10
15.2157791943
 20
85.2411305647
 30
0.0
 10
15.2157791943
 20
85.2442593884
 30
0.0
 10
15.2152384816
 20
85.2493770681
 30
0.0
 10
15.2098522268
 20
85.2525203191
 30
0.0
 10
15.2049854627
 20
85.2524238254
 30
0.0
 10
15.1991461046
 20
85.2507614529
 30
0.0
 10
15.1888038607
 20
85.2459785838
 30
0.0
 10
15.1735864073
 20
85.2358007111
 30
0.0
 10
15.1534338244
 20
85.2188905965
 30
0.0
 10
15.131058261
 20
85.1967471828
 30
0.0
 10
15.1071772226
 20
85.1704631576
 30
0.0
 10
15.0825238449
 20
85.1409408053
 30
0.0
 10
15.0576838868
 20
85.1088895006
 30
0.0
 10
15.0245066584
 20
85.0628954419
 30
0.0
 10
14.9848852745
 20
85.0015663119
 30
0.0
 10
14.9412113769
 20
84.9239119407
 30
0.0
 10
14.9147822932
 20
84.8700355654
 30
0.0
 10
14.9022420136
 20
84.8426138158
 30
0.0
  0
SPLINE
  5
48C
100
AcDbEntity
  8
0
100
AcDbSpline
 62
7
  6
CONTINUOUS
 70
0
 71
3
 72
9
 73
5
 74
0
 42
0.0000001
 43
0.0000001
 44
0.0000000001
 40
0.0
 40
0.0
 40
0.0
 40
0.0
 40
0.5064386792
 40
1.0
 40
1.0
 40
1.0
 40
1.0
 10
14.8733365346
 20
84.7755964614
 30
0.0
 10
14.8260766092
 20
84.6591873633
 30
0.0
 10
14.7490986749
 20
84.422171886
 30
0.0
 10
14.712626969
 20
84.1753619034
 30
0.0
 10
14.7054672637
 20
84.0531293181
 30
0.0
  0
SPLINE
  5
48D
100
AcDbEntity
  8
0
100
AcDbSpline
 62
7
  6
CONTINUOUS
 70
0
 71
3
 72
10
 73
6
 74
0
 42
0.0000001
 43
0.0000001
 44
0.0000000001
 40
0.0
 40
0.0
 40
0.0
 40
0.0
 40
0.2723116671
 40
0.5341610876
 40
1.0
 40
1.0
 40
1.0
 40
1.0
 10
28.0538559371
 20
36.0598883434
 30
0.0
 10
28.0538559371
 20
36.126300655
 30
0.0
 10
28.0579987568
 20
36.2570036524
 30
0.0
 10
28.0908626919
 20
36.4974593992
 30
0.0
 10
28.1583882781
 20
36.6728728506
 30
0.0
 10
28.2348689445
 20
36.7568849449
 30
0.0
  0
SPLINE
  5
48E
100
AcDbEntity
  8
0
100
AcDbSpline
 62
7
  6
CONTINUOUS
 70
0
 71
3
 72
9
 73
5
 74
0
 42
0.0000001
 43
0.0000001
 44
0.0000000001
 40
0.0
 40
0.0
 40
0.0
 40
0.0
 40
0.228276415
 40
1.0
 40
1.0
 40
1.0
 40
1.0
 10
40.4892564373
 20
36.8282977842
 30
0.0
 10
40.489166844
 20
36.8222120172
 30
0.0
 10
40.4926891773
 20
36.7954401261
 30
0.0
 10
40.508741978
 20
36.7721004653
 30
0.0
 10
40.5225934735
 20
36.7568849449
 30
0.0
  0
SPLINE
  5
48F
100
AcDbEntity
  8
0
100
AcDbSpline
 62
7
  6
CONTINUOUS
 70
0
 71
3
 72
9
 73
5
 74
0
 42
0.0000001
 43
0.0000001
 44
0.0000000001
 40
0.0
 40
0.0
 40
0.0
 40
0.0
 40
0.4954956625
 40
1.0
 40
1.0
 40
1.0
 40
1.0
 10
50.886743533
 20
84.0531059002
 30
0.0
 10
50.8647170591
 20
84.1760092076
 30
0.0
 10
50.801727862
 20
84.420855833
 30
0.0
 10
50.7141808547
 20
84.6573486781
 30
0.0
 10
50.6674913684
 20
84.7755964512
 30
0.0
  0
SPLINE
  5
490
100
AcDbEntity
  8
0
100
AcDbSpline
 62
7
  6
CONTINUOUS
 70
0
 71
3
 72
24
 73
20
 74
0
 42
0.0000001
 43
0.0000001
 44
0.0000000001
 40
0.0
 40
0.0
 40
0.0
 40
0.0
 40
0.0043880798
 40
0.008170915
 40
0.0146855287
 40
0.0246687671
 40
0.0381657007
 40
0.0550768355
 40
0.075175157
 40
0.0981717634
 40
0.1516811408
 40
0.213260578
 40
0.2809664013
 40
0.3534259068
 40
0.4292962201
 40
0.5074019356
 40
0.6683411306
 40
0.8331764067
 40
1.0
 40
1.0
 40
1.0
 40
1.0
 10
14.8882933016
 20
85.2501263523
 30
0.0
 10
14.8882933016
 20
85.2509104763
 30
0.0
 10
14.888064776
 20
85.2527194576
 30
0.0
 10
14.8849932413
 20
85.2530238169
 30
0.0
 10
14.8818512456
 20
85.2512175295
 30
0.0
 10
14.8773966666
 20
85.2482188991
 30
0.0
 10
14.8718969401
 20
85.2435297741
 30
0.0
 10
14.8652734919
 20
85.2373997785
 30
0.0
 10
14.8576826954
 20
85.2298222013
 30
0.0
 10
14.8458020191
 20
85.2172967654
 30
0.0
 10
14.8294854288
 20
85.1987742587
 30
0.0
 10
14.8088938264
 20
85.1734079922
 30
0.0
 10
14.7872302521
 20
85.1445834696
 30
0.0
 10
14.7649765215
 20
85.1130328559
 30
0.0
 10
14.7425614397
 20
85.0793401594
 30
0.0
 10
14.7126092871
 20
85.0316943314
 30
0.0
 10
14.6765368238
 20
84.9691452523
 30
0.0
 10
14.6364800482
 20
84.8907236531
 30
0.0
 10
14.612187901
 20
84.8366341505
 30
0.0
 10
14.6006341634
 20
84.8091537841
 30
0.0
  0
SPLINE
  5
491
100
AcDbEntity
  8
0
100
AcDbSpline
 62
7
  6
CONTINUOUS
 70
0
 71
3
 72
19
 73
15
 74
0
 42
0.0000001
 43
0.0000001
 44
0.0000000001
 40
0.0
 40
0.0
 40
0.0
 40
0.0
 40
0.1510632481
 40
0.3026394043
 40
0.4540760061
 40
0.6017251416
 40
0.6714087193
 40
0.7351592315
 40
0.7904250627
 40
0.835401462
 40
0.8730141065
 40
0.9102024087
 40
0.9518935794
 40
1.0
 40
1.0
 40
1.0
 40
1.0
 10
50.6674913737
 20
84.7755964499
 30
0.0
 10
50.6523013557
 20
84.8140673337
 30
0.0
 10
50.6185732119
 20
84.8899081971
 30
0.0
 10
50.5563082516
 20
84.9978341565
 30
0.0
 10
50.4821152683
 20
85.0967751947
 30
0.0
 10
50.4102196426
 20
85.1685695835
 30
0.0
 10
50.3474303934
 20
85.2133471491
 30
0.0
 10
50.3017188037
 20
85.2378704211
 30
0.0
 10
50.2589502756
 20
85.2521926731
 30
0.0
 10
50.2203455912
 20
85.2547350038
 30
0.0
 10
50.1890416406
 20
85.2407377185
 30
0.0
 10
50.1695279057
 20
85.2141133931
 30
0.0
 10
50.1604396041
 20
85.1801043554
 30
0.0
 10
50.1590710965
 20
85.1554587265
 30
0.0
 10
50.1590710965
 20
85.142287175
 30
0.0
  0
LINE
  5
492
100
AcDbEntity
  8
0
100
AcDbLine
 62
7
  6
CONTINUOUS
 10
14.3867281556
 20
84.0353872818
 11
14.3867659215
 21
84.0531092355
  0
LINE
  5
493
100
AcDbEntity
  8
0
100
AcDbLine
 62
7
  6
CONTINUOUS
 10
14.3867659215
 20
84.0531092355
 11
14.3867281556
 21
84.0707960968
  0
SPLINE
  5
494
100
AcDbEntity
  8
0
100
AcDbSpline
 62
7
  6
CONTINUOUS
 70
0
 71
3
 72
10
 73
6
 74
0
 42
0.0000001
 43
0.0000001
 44
0.0000000001
 40
0.0
 40
0.0
 40
0.0
 40
0.0
 40
0.4658453988
 40
0.7276891922
 40
1.0
 40
1.0
 40
1.0
 40
1.0
 10
40.5225934735
 20
36.7568849449
 30
0.0
 10
40.5990752821
 20
36.6728715959
 30
0.0
 10
40.6665795649
 20
36.4974534222
 30
0.0
 10
40.6994942357
 20
36.2570041252
 30
0.0
 10
40.7036059713
 20
36.1263005125
 30
0.0
 10
40.7036059713
 20
36.0598883434
 30
0.0
  0
SPLINE
  5
495
100
AcDbEntity
  8
0
100
AcDbSpline
 62
7
  6
CONTINUOUS
 70
0
 71
3
 72
20
 73
16
 74
0
 42
0.0000001
 43
0.0000001
 44
0.0000000001
 40
0.0
 40
0.0
 40
0.0
 40
0.0
 40
0.1434427613
 40
0.2877663499
 40
0.4330653677
 40
0.5054396139
 40
0.5761659437
 40
0.6430397254
 40
0.703171197
 40
0.7548918001
 40
0.8003728911
 40
0.8448066375
 40
0.8922226663
 40
0.9440081395
 40
1.0
 40
1.0
 40
1.0
 40
1.0
 10
20.810016635
 20
84.7755964614
 30
0.0
 10
20.8257910873
 20
84.8190373196
 30
0.0
 10
20.8620016292
 20
84.9046554259
 30
0.0
 10
20.9326708943
 20
85.0254609904
 30
0.0
 10
21.0075615804
 20
85.1158807131
 30
0.0
 10
21.0776274723
 20
85.1772066567
 30
0.0
 10
21.1339662718
 20
85.2150622255
 30
0.0
 10
21.192070082
 20
85.2420070517
 30
0.0
 10
21.2487003121
 20
85.2551152298
 30
0.0
 10
21.300359811
 20
85.2518098829
 30
0.0
 10
21.3422806974
 20
85.2303822403
 30
0.0
 10
21.3703705054
 20
85.1948233045
 30
0.0
 10
21.3867090179
 20
85.1510443032
 30
0.0
 10
21.3947961365
 20
85.101511109
 30
0.0
 10
21.3961190818
 20
85.0667488452
 30
0.0
 10
21.3961190818
 20
85.0487086621
 30
0.0
  0
SPLINE
  5
496
100
AcDbEntity
  8
0
100
AcDbSpline
 62
7
  6
CONTINUOUS
 70
0
 71
3
 72
9
 73
5
 74
0
 42
0.0000001
 43
0.0000001
 44
0.0000000001
 40
0.0
 40
0.0
 40
0.0
 40
0.0
 40
0.2478691871
 40
1.0
 40
1.0
 40
1.0
 40
1.0
 10
50.2600289607
 20
84.4570018351
 30
0.0
 10
50.2600289607
 20
84.423423603
 30
0.0
 10
50.2560803107
 20
84.287957452
 30
0.0
 10
50.2377961561
 20
84.1531309246
 30
0.0
 10
50.2183138763
 20
84.0531215531
 30
0.0
  0
SPLINE
  5
497
100
AcDbEntity
  8
0
100
AcDbSpline
 62
7
  6
CONTINUOUS
 70
0
 71
3
 72
9
 73
5
 74
0
 42
0.0000001
 43
0.0000001
 44
0.0000000001
 40
0.0
 40
0.0
 40
0.0
 40
0.0
 40
0.4966774146
 40
1.0
 40
1.0
 40
1.0
 40
1.0
 10
49.6160853859
 20
84.0531059002
 30
0.0
 10
49.5908129734
 20
84.1759893386
 30
0.0
 10
49.5230624356
 20
84.4200010405
 30
0.0
 10
49.4349697932
 20
84.6567954782
 30
0.0
 10
49.38970023
 20
84.7755964512
 30
0.0
  0
SPLINE
  5
498
100
AcDbEntity
  8
0
100
AcDbSpline
 62
7
  6
CONTINUOUS
 70
0
 71
3
 72
9
 73
5
 74
0
 42
0.0000001
 43
0.0000001
 44
0.0000000001
 40
0.0
 40
0.0
 40
0.0
 40
0.0
 40
0.2471431011
 40
1.0
 40
1.0
 40
1.0
 40
1.0
 10
48.910504712
 20
84.5178025586
 30
0.0
 10
48.910504712
 20
84.4792053011
 30
0.0
 10
48.9050215372
 20
84.3230248653
 30
0.0
 10
48.880360212
 20
84.1679642711
 30
0.0
 10
48.8551495973
 20
84.0531224258
 30
0.0
  0
SPLINE
  5
499
100
AcDbEntity
  8
0
100
AcDbSpline
 62
7
  6
CONTINUOUS
 70
0
 71
3
 72
10
 73
6
 74
0
 42
0.0000001
 43
0.0000001
 44
0.0000000001
 40
0.0
 40
0.0
 40
0.0
 40
0.0
 40
0.4980453798
 40
0.749838741
 40
1.0
 40
1.0
 40
1.0
 40
1.0
 10
48.1784835977
 20
84.0531059003
 30
0.0
 10
48.15026036
 20
84.1758968704
 30
0.0
 10
48.0963424902
 20
84.3581474996
 30
0.0
 10
48.0129886008
 20
84.5969663931
 30
0.0
 10
47.9690442759
 20
84.7161118263
 30
0.0
 10
47.9474457739
 20
84.7755964512
 30
0.0
  0
SPLINE
  5
49A
100
AcDbEntity
  8
0
100
AcDbSpline
 62
7
  6
CONTINUOUS
 70
0
 71
3
 72
20
 73
16
 74
0
 42
0.0000001
 43
0.0000001
 44
0.0000000001
 40
0.0
 40
0.0
 40
0.0
 40
0.0
 40
0.1434461584
 40
0.2877731458
 40
0.4330758657
 40
0.5054523374
 40
0.5761815551
 40
0.6430594374
 40
0.7031958967
 40
0.7549209265
 40
0.8004044767
 40
0.8448377213
 40
0.892255129
 40
0.9440294916
 40
1.0
 40
1.0
 40
1.0
 40
1.0
 10
47.947445783
 20
84.7755964501
 30
0.0
 10
47.9316732071
 20
84.8190358407
 30
0.0
 10
47.8954625775
 20
84.904649563
 30
0.0
 10
47.8247983957
 20
85.0254508901
 30
0.0
 10
47.7499123999
 20
85.1158681003
 30
0.0
 10
47.6798510983
 20
85.1771940084
 30
0.0
 10
47.623515325
 20
85.2150511418
 30
0.0
 10
47.5654136158
 20
85.2419992874
 30
0.0
 10
47.5087844128
 20
85.255112878
 30
0.0
 10
47.4571242631
 20
85.251815494
 30
0.0
 10
47.4152004099
 20
85.2303968892
 30
0.0
 10
47.3871029309
 20
85.1948460499
 30
0.0
 10
47.3707631795
 20
85.1510740411
 30
0.0
 10
47.3626694382
 20
85.1015558672
 30
0.0
 10
47.3613433362
 20
85.0668062623
 30
0.0
 10
47.3613433362
 20
85.0487741739
 30
0.0
  0
SPLINE
  5
49B
100
AcDbEntity
  8
0
100
AcDbSpline
 62
7
  6
CONTINUOUS
 70
0
 71
3
 72
9
 73
5
 74
0
 42
0.0000001
 43
0.0000001
 44
0.0000000001
 40
0.0
 40
0.0
 40
0.0
 40
0.0
 40
0.246307312
 40
1.0
 40
1.0
 40
1.0
 40
1.0
 10
47.4039568975
 20
84.5770344902
 30
0.0
 10
47.4039568975
 20
84.5335681475
 30
0.0
 10
47.3965938004
 20
84.3570733208
 30
0.0
 10
47.3645571158
 20
84.1824239928
 30
0.0
 10
47.3333783393
 20
84.0531243896
 30
0.0
  0
LINE
  5
49C
100
AcDbEntity
  8
0
100
AcDbLine
 62
7
  6
CONTINUOUS
 10
54.3706961772
 20
84.05313234
 11
54.3707342625
 21
84.035567856
  0
LINE
  5
49D
100
AcDbEntity
  8
0
100
AcDbLine
 62
7
  6
CONTINUOUS
 10
54.3707342625
 20
84.0706798638
 11
54.3706961772
 21
84.05313234
  0
SPLINE
  5
49E
100
AcDbEntity
  8
0
100
AcDbSpline
 62
7
  6
CONTINUOUS
 70
0
 71
3
 72
10
 73
6
 74
0
 42
0.0000001
 43
0.0000001
 44
0.0000000001
 40
0.0
 40
0.0
 40
0.0
 40
0.0
 40
0.4995668246
 40
0.7511106271
 40
1.0
 40
1.0
 40
1.0
 40
1.0
 10
46.5896888346
 20
84.0531059002
 30
0.0
 10
46.5588456054
 20
84.1757378356
 30
0.0
 10
46.5024584268
 20
84.3575723482
 30
0.0
 10
46.4192777777
 20
84.5966001108
 30
0.0
 10
46.3768728639
 20
84.7159721052
 30
0.0
 10
46.3565296415
 20
84.7755964511
 30
0.0
  0
SPLINE
  5
49F
100
AcDbEntity
  8
0
100
AcDbSpline
 62
7
  6
CONTINUOUS
 70
0
 71
3
 72
18
 73
14
 74
0
 42
0.0000001
 43
0.0000001
 44
0.0000000001
 40
0.0
 40
0.0
 40
0.0
 40
0.0
 40
0.1395330458
 40
0.2800056528
 40
0.4222346824
 40
0.562937199
 40
0.6287710336
 40
0.6873608055
 40
0.7389446325
 40
0.7865220081
 40
0.834885731
 40
0.8865742417
 40
1.0
 40
1.0
 40
1.0
 40
1.0
 10
46.3565296524
 20
84.7755964499
 30
0.0
 10
46.3407992517
 20
84.8217009871
 30
0.0
 10
46.3042184309
 20
84.9126881738
 30
0.0
 10
46.2292970287
 20
85.0403659034
 30
0.0
 10
46.1320287918
 20
85.1531005902
 30
0.0
 10
46.0291893976
 20
85.2224078357
 30
0.0
 10
45.9406882891
 20
85.2518081794
 30
0.0
 10
45.8783144459
 20
85.2550530402
 30
0.0
 10
45.8243706041
 20
85.2384295055
 30
0.0
 10
45.7839697624
 20
85.2044447439
 30
0.0
 10
45.75810097
 20
85.1589715956
 30
0.0
 10
45.7376582754
 20
85.086893145
 30
0.0
 10
45.7344362548
 20
85.028758403
 30
0.0
 10
45.7344362548
 20
84.9891588536
 30
0.0
  0
SPLINE
  5
4A0
100
AcDbEntity
  8
0
100
AcDbSpline
 62
7
  6
CONTINUOUS
 70
0
 71
3
 72
9
 73
5
 74
0
 42
0.0000001
 43
0.0000001
 44
0.0000000001
 40
0.0
 40
0.0
 40
0.0
 40
0.0
 40
0.4935504358
 40
1.0
 40
1.0
 40
1.0
 40
1.0
 10
45.7568915703
 20
84.6344992438
 30
0.0
 10
45.7568915703
 20
84.5375884566
 30
0.0
 10
45.7379123236
 20
84.3411506439
 30
0.0
 10
45.6948267425
 20
84.1493334174
 30
0.0
 10
45.6696739503
 20
84.0531234173
 30
0.0
  0
SPLINE
  5
4A1
100
AcDbEntity
  8
0
100
AcDbSpline
 62
7
  6
CONTINUOUS
 70
0
 71
3
 72
10
 73
6
 74
0
 42
0.0000001
 43
0.0000001
 44
0.0000000001
 40
0.0
 40
0.0
 40
0.0
 40
0.0
 40
0.5011608826
 40
0.752396658
 40
1.0
 40
1.0
 40
1.0
 40
1.0
 10
44.8671082644
 20
84.0531059004
 30
0.0
 10
44.834004649
 20
84.1755203731
 30
0.0
 10
44.7757676215
 20
84.3569458076
 30
0.0
 10
44.6936373805
 20
84.5962447197
 30
0.0
 10
44.6532335373
 20
84.7158473447
 30
0.0
 10
44.634382243
 20
84.7755964512
 30
0.0
  0
SPLINE
  5
4A2
100
AcDbEntity
  8
0
100
AcDbSpline
 62
7
  6
CONTINUOUS
 70
0
 71
3
 72
19
 73
15
 74
0
 42
0.0000001
 43
0.0000001
 44
0.0000000001
 40
0.0
 40
0.0
 40
0.0
 40
0.0
 40
0.1359814451
 40
0.2727979863
 40
0.4120190469
 40
0.4823485679
 40
0.551117244
 40
0.6153955898
 40
0.6726600634
 40
0.7247182684
 40
0.7750003007
 40
0.8269807786
 40
0.8819659255
 40
1.0
 40
1.0
 40
1.0
 40
1.0
 10
44.6343822555
 20
84.77559645
 30
0.0
 10
44.618866636
 20
84.8247731475
 30
0.0
 10
44.5820403356
 20
84.9218930913
 30
0.0
 10
44.5028843418
 20
85.0574457038
 30
0.0
 10
44.4130175344
 20
85.1556857854
 30
0.0
 10
44.3245029076
 20
85.2142005896
 30
0.0
 10
44.2529393828
 20
85.244156567
 30
0.0
 10
44.1809425422
 20
85.2569766958
 30
0.0
 10
44.1144993258
 20
85.2462642098
 30
0.0
 10
44.0611410761
 20
85.2147849537
 30
0.0
 10
44.0238855571
 20
85.1683455268
 30
0.0
 10
44.0003392678
 20
85.1130225269
 30
0.0
 10
43.9817666909
 20
85.0294638356
 30
0.0
 10
43.978731209
 20
84.963514266
 30
0.0
 10
43.978731209
 20
84.9187539015
 30
0.0
  0
SPLINE
  5
4A3
100
AcDbEntity
  8
0
100
AcDbSpline
 62
7
  6
CONTINUOUS
 70
0
 71
3
 72
9
 73
5
 74
0
 42
0.0000001
 43
0.0000001
 44
0.0000000001
 40
0.0
 40
0.0
 40
0.0
 40
0.0
 40
0.4923435522
 40
1.0
 40
1.0
 40
1.0
 40
1.0
 10
43.9873543227
 20
84.6900265056
 30
0.0
 10
43.9873543227
 20
84.583852908
 30
0.0
 10
43.9630478048
 20
84.3682100643
 30
0.0
 10
43.9116707569
 20
84.1585770759
 30
0.0
 10
43.8822629354
 20
84.05312503
 30
0.0
  0
SPLINE
  5
4A4
100
AcDbEntity
  8
0
100
AcDbSpline
 62
7
  6
CONTINUOUS
 70
0
 71
3
 72
10
 73
6
 74
0
 42
0.0000001
 43
0.0000001
 44
0.0000000001
 40
0.0
 40
0.0
 40
0.0
 40
0.0
 40
0.5027663649
 40
0.7536473898
 40
1.0
 40
1.0
 40
1.0
 40
1.0
 10
43.0296148405
 20
84.0531059003
 30
0.0
 10
42.9946349614
 20
84.1752548155
 30
0.0
 10
42.9351736349
 20
84.3562906971
 30
0.0
 10
42.8549674079
 20
84.5959138902
 30
0.0
 10
42.8170117181
 20
84.7157441876
 30
0.0
 10
42.7998717856
 20
84.7755964511
 30
0.0
  0
SPLINE
  5
4A5
100
AcDbEntity
  8
0
100
AcDbSpline
 62
7
  6
CONTINUOUS
 70
0
 71
3
 72
20
 73
16
 74
0
 42
0.0000001
 43
0.0000001
 44
0.0000000001
 40
0.0
 40
0.0
 40
0.0
 40
0.0
 40
0.132701884
 40
0.2659885315
 40
0.3339237193
 40
0.4027947787
 40
0.4723408232
 40
0.5399232766
 40
0.6026951015
 40
0.6592025208
 40
0.7124508209
 40
0.7656847466
 40
0.8207507093
 40
0.878269688
 40
1.0
 40
1.0
 40
1.0
 40
1.0
 10
42.7998717997
 20
84.7755964498
 30
0.0
 10
42.7847990431
 20
84.8282301811
 30
0.0
 10
42.7481994115
 20
84.9321396298
 30
0.0
 10
42.6785418953
 20
85.0524281363
 30
0.0
 10
42.6052478819
 20
85.1368357214
 30
0.0
 10
42.5394974127
 20
85.1916267764
 30
0.0
 10
42.4642342304
 20
85.2325425851
 30
0.0
 10
42.3837787675
 20
85.254223588
 30
0.0
 10
42.3052865372
 20
85.2529630862
 30
0.0
 10
42.2376553784
 20
85.2257944956
 30
0.0
 10
42.1874475206
 20
85.1791054211
 30
0.0
 10
42.1541736683
 20
85.1205484402
 30
0.0
 10
42.1328687906
 20
85.0552238737
 30
0.0
 10
42.1161239328
 20
84.9598049427
 30
0.0
 10
42.1134640705
 20
84.8856128943
 30
0.0
 10
42.1134640705
 20
84.8353900769
 30
0.0
  0
SPLINE
  5
4A6
100
AcDbEntity
  8
0
100
AcDbSpline
 62
7
  6
CONTINUOUS
 70
0
 71
3
 72
18
 73
14
 74
0
 42
0.0000001
 43
0.0000001
 44
0.0000000001
 40
0.0
 40
0.0
 40
0.0
 40
0.0
 40
0.0056280228
 40
0.0197910832
 40
0.0426718227
 40
0.0741465009
 40
0.1140508496
 40
0.162196412
 40
0.2817923805
 40
0.4296472466
 40
0.6022275747
 40
0.7943975128
 40
1.0
 40
1.0
 40
1.0
 40
1.0
 10
49.7335165051
 20
86.3126869627
 30
0.0
 10
49.7335165051
 20
86.3129677763
 30
0.0
 10
49.7322556496
 20
86.3133647664
 30
0.0
 10
49.7305122753
 20
86.313953481
 30
0.0
 10
49.7270057574
 20
86.3146834639
 30
0.0
 10
49.7224550228
 20
86.3155543778
 30
0.0
 10
49.7165465543
 20
86.3165440256
 30
0.0
 10
49.7063205312
 20
86.3181304733
 30
0.0
 10
49.6907174081
 20
86.3203160975
 30
0.0
 10
49.6689469847
 20
86.3231374921
 30
0.0
 10
49.6435563938
 20
86.3262288349
 30
0.0
 10
49.6152877234
 20
86.329504666
 30
0.0
 10
49.5955613693
 20
86.3316921654
 30
0.0
 10
49.5853626847
 20
86.3327998308
 30
0.0
  0
SPLINE
  5
4A7
100
AcDbEntity
  8
0
100
AcDbSpline
 62
7
  6
CONTINUOUS
 70
0
 71
3
 72
10
 73
6
 74
0
 42
0.0000001
 43
0.0000001
 44
0.0000000001
 40
0.0
 40
0.0
 40
0.0
 40
0.0
 40
0.2431708409
 40
0.4914078272
 40
1.0
 40
1.0
 40
1.0
 40
1.0
 10
42.1147325751
 20
84.7434774419
 30
0.0
 10
42.1147325751
 20
84.6864580224
 30
0.0
 10
42.1069669077
 20
84.5711966512
 30
0.0
 10
42.0698336449
 20
84.3394834264
 30
0.0
 10
42.0242884954
 20
84.1675635599
 30
0.0
 10
41.9907291954
 20
84.0531266138
 30
0.0
  0
SPLINE
  5
4A8
100
AcDbEntity
  8
0
100
AcDbSpline
 62
7
  6
CONTINUOUS
 70
0
 71
3
 72
10
 73
6
 74
0
 42
0.0000001
 43
0.0000001
 44
0.0000000001
 40
0.0
 40
0.0
 40
0.0
 40
0.0
 40
0.5043210603
 40
0.7548135483
 40
1.0
 40
1.0
 40
1.0
 40
1.0
 10
41.0973405251
 20
84.0531059003
 30
0.0
 10
41.0608862028
 20
84.1749526288
 30
0.0
 10
41.0008287161
 20
84.3556310663
 30
0.0
 10
40.9234068261
 20
84.5956209723
 30
0.0
 10
40.8883251816
 20
84.7156680578
 30
0.0
 10
40.8730975498
 20
84.7755964512
 30
0.0
  0
SPLINE
  5
4A9
100
AcDbEntity
  8
0
100
AcDbSpline
 62
7
  6
CONTINUOUS
 70
0
 71
3
 72
20
 73
16
 74
0
 42
0.0000001
 43
0.0000001
 44
0.0000000001
 40
0.0
 40
0.0
 40
0.0
 40
0.0
 40
0.1298992947
 40
0.2598458146
 40
0.3261340105
 40
0.3938270657
 40
0.4624629313
 40
0.5297451953
 40
0.5923389275
 40
0.6499607992
 40
0.7050872924
 40
0.7605442281
 40
0.8175914002
 40
0.8765546585
 40
1.0
 40
1.0
 40
1.0
 40
1.0
 10
40.8730975652
 20
84.77559645
 30
0.0
 10
40.8591218241
 20
84.8305980239
 30
0.0
 10
40.824344365
 20
84.9391471294
 30
0.0
 10
40.754005499
 20
85.0648704703
 30
0.0
 10
40.6769296054
 20
85.1513202595
 30
0.0
 10
40.6059171194
 20
85.2052879564
 30
0.0
 10
40.5242478738
 20
85.2424313555
 30
0.0
 10
40.4375537328
 20
85.2577731451
 30
0.0
 10
40.3550424841
 20
85.2442147337
 30
0.0
 10
40.2868479113
 20
85.2060941758
 30
0.0
 10
40.2372413376
 20
85.1503695055
 30
0.0
 10
40.2039810904
 20
85.0845153722
 30
0.0
 10
40.1822031289
 20
85.0125826139
 30
0.0
 10
40.1641883563
 20
84.9093660024
 30
0.0
 10
40.1602631993
 20
84.8295191722
 30
0.0
 10
40.1593858739
 20
84.7755964613
 30
0.0
  0
SPLINE
  5
4AA
100
AcDbEntity
  8
0
100
AcDbSpline
 62
7
  6
CONTINUOUS
 70
0
 71
3
 72
11
 73
7
 74
0
 42
0.0000001
 43
0.0000001
 44
0.0000000001
 40
0.0
 40
0.0
 40
0.0
 40
0.0
 40
0.3191769645
 40
0.6217833013
 40
0.8611613564
 40
1.0
 40
1.0
 40
1.0
 40
1.0
 10
47.3636136477
 20
86.5561424815
 30
0.0
 10
47.3375299745
 20
86.5585541975
 30
0.0
 10
47.2866942963
 20
86.5629870505
 30
0.0
 10
47.2162402347
 20
86.5686861888
 30
0.0
 10
47.1604991067
 20
86.5723314815
 30
0.0
 10
47.1294897734
 20
86.5742087493
 30
0.0
 10
47.1180952524
 20
86.5742093096
 30
0.0
  0
SPLINE
  5
4AB
100
AcDbEntity
  8
0
100
AcDbSpline
 62
7
  6
CONTINUOUS
 70
0
 71
3
 72
9
 73
5
 74
0
 42
0.0000001
 43
0.0000001
 44
0.0000000001
 40
0.0
 40
0.0
 40
0.0
 40
0.0
 40
0.5144220342
 40
1.0
 40
1.0
 40
1.0
 40
1.0
 10
31.9031363826
 20
86.5742093096
 30
0.0
 10
31.8391018794
 20
86.5742090758
 30
0.0
 10
31.7146196271
 20
86.5721717493
 30
0.0
 10
31.5902455301
 20
86.5663917441
 30
0.0
 10
31.5299407582
 20
86.5622910176
 30
0.0
  0
SPLINE
  5
4AC
100
AcDbEntity
  8
0
100
AcDbSpline
 62
7
  6
CONTINUOUS
 70
0
 71
3
 72
14
 73
10
 74
0
 42
0.0000001
 43
0.0000001
 44
0.0000000001
 40
0.0
 40
0.0
 40
0.0
 40
0.0
 40
0.4046039686
 40
0.7167923795
 40
0.831690403
 40
0.9166963844
 40
0.9478439512
 40
0.9716267574
 40
1.0
 40
1.0
 40
1.0
 40
1.0
 10
31.5299407582
 20
86.5622910176
 30
0.0
 10
31.4911979414
 20
86.5596565047
 30
0.0
 10
31.4226233285
 20
86.5539820232
 30
0.0
 10
31.3433553789
 20
86.5443200584
 30
0.0
 10
31.2950151848
 20
86.5350815188
 30
0.0
 10
31.2735909817
 20
86.5295578978
 30
0.0
 10
31.2609260332
 20
86.5246023469
 30
0.0
 10
31.2540958806
 20
86.5210778604
 30
0.0
 10
31.2496104942
 20
86.5170112055
 30
0.0
 10
31.2496104942
 20
86.514288054
 30
0.0
  0
SPLINE
  5
4AD
100
AcDbEntity
  8
0
100
AcDbSpline
 62
7
  6
CONTINUOUS
 70
0
 71
3
 72
10
 73
6
 74
0
 42
0.0000001
 43
0.0000001
 44
0.0000000001
 40
0.0
 40
0.0
 40
0.0
 40
0.0
 40
0.2423195754
 40
0.4906173666
 40
1.0
 40
1.0
 40
1.0
 40
1.0
 10
40.1593858935
 20
84.7755964613
 30
0.0
 10
40.1584153099
 20
84.7159418603
 30
0.0
 10
40.1476592815
 20
84.5952819378
 30
0.0
 10
40.1032710902
 20
84.3529204298
 30
0.0
 10
40.0523215068
 20
84.1731101085
 30
0.0
 10
40.0157964257
 20
84.0531293217
 30
0.0
  0
SPLINE
  5
4AE
100
AcDbEntity
  8
0
100
AcDbSpline
 62
7
  6
CONTINUOUS
 70
0
 71
3
 72
10
 73
6
 74
0
 42
0.0000001
 43
0.0000001
 44
0.0000000001
 40
0.0
 40
0.0
 40
0.0
 40
0.0
 40
0.5057630769
 40
0.7558474245
 40
1.0
 40
1.0
 40
1.0
 40
1.0
 10
39.0914557201
 20
84.0531059002
 30
0.0
 10
39.053940672
 20
84.1746261507
 30
0.0
 10
38.9939122732
 20
84.3549912904
 30
0.0
 10
38.9201140286
 20
84.595378856
 30
0.0
 10
38.8883064427
 20
84.7156237541
 30
0.0
 10
38.8751696774
 20
84.7755964512
 30
0.0
  0
SPLINE
  5
4AF
100
AcDbEntity
  8
0
100
AcDbSpline
 62
7
  6
CONTINUOUS
 70
0
 71
3
 72
20
 73
16
 74
0
 42
0.0000001
 43
0.0000001
 44
0.0000000001
 40
0.0
 40
0.0
 40
0.0
 40
0.0
 40
0.1275230698
 40
0.2541745079
 40
0.3186109543
 40
0.3846416386
 40
0.4523935825
 40
0.5202149876
 40
0.5848784548
 40
0.6452351508
 40
0.7027449735
 40
0.7597741671
 40
0.8176617646
 40
0.8769250451
 40
1.0
 40
1.0
 40
1.0
 40
1.0
 10
38.875169694
 20
84.7755964499
 30
0.0
 10
38.8631594618
 20
84.8304262347
 30
0.0
 10
38.8327711062
 20
84.9385363362
 30
0.0
 10
38.7678691543
 20
85.0647224547
 30
0.0
 10
38.6942514387
 20
85.1514279986
 30
0.0
 10
38.6249050496
 20
85.2055816717
 30
0.0
 10
38.5433922478
 20
85.242747575
 30
0.0
 10
38.4551887787
 20
85.2577765392
 30
0.0
 10
38.369829054
 20
85.2439658276
 30
0.0
 10
38.2974197372
 20
85.2061655673
 30
0.0
 10
38.2424228907
 20
85.1508309719
 30
0.0
 10
38.203597846
 20
85.084981252
 30
0.0
 10
38.1766099974
 20
85.0129364533
 30
0.0
 10
38.1522253455
 20
84.9098575945
 30
0.0
 10
38.1443201463
 20
84.8296742283
 30
0.0
 10
38.1411277453
 20
84.7755964614
 30
0.0
  0
SPLINE
  5
4B0
100
AcDbEntity
  8
0
100
AcDbSpline
 62
7
  6
CONTINUOUS
 70
0
 71
3
 72
10
 73
6
 74
0
 42
0.0000001
 43
0.0000001
 44
0.0000000001
 40
0.0
 40
0.0
 40
0.0
 40
0.0
 40
0.2421481312
 40
0.4907176625
 40
1.0
 40
1.0
 40
1.0
 40
1.0
 10
38.1411277648
 20
84.7755964614
 30
0.0
 10
38.1375984252
 20
84.7158111136
 30
0.0
 10
38.1221554335
 20
84.5951356076
 30
0.0
 10
38.07055705
 20
84.3531161238
 30
0.0
 10
38.0166473137
 20
84.1733625447
 30
0.0
 10
37.9791035946
 20
84.0531293217
 30
0.0
  0
LINE
  5
4B1
100
AcDbEntity
  8
0
100
AcDbLine
 62
7
  6
CONTINUOUS
 10
36.9766013045
 20
83.8734821675
 11
37.0339373191
 21
84.0531059003
  0
SPLINE
  5
4B2
100
AcDbEntity
  8
0
100
AcDbSpline
 62
7
  6
CONTINUOUS
 70
0
 71
3
 72
10
 73
6
 74
0
 42
0.0000001
 43
0.0000001
 44
0.0000000001
 40
0.0
 40
0.0
 40
0.0
 40
0.0
 40
0.5070326245
 40
0.7567041488
 40
1.0
 40
1.0
 40
1.0
 40
1.0
 10
37.0339373191
 20
84.0531059003
 30
0.0
 10
36.9957812623
 20
84.1742881314
 30
0.0
 10
36.936400807
 20
84.3543959612
 30
0.0
 10
36.8670355349
 20
84.5951994153
 30
0.0
 10
36.8388698933
 20
84.7156146538
 30
0.0
 10
36.8279778842
 20
84.7755964511
 30
0.0
  0
SPLINE
  5
4B3
100
AcDbEntity
  8
0
100
AcDbSpline
 62
7
  6
CONTINUOUS
 70
0
 71
3
 72
20
 73
16
 74
0
 42
0.0000001
 43
0.0000001
 44
0.0000000001
 40
0.0
 40
0.0
 40
0.0
 40
0.0
 40
0.1256015626
 40
0.2492145939
 40
0.3117543673
 40
0.3759003915
 40
0.4423623053
 40
0.5101903269
 40
0.5764005065
 40
0.6391560344
 40
0.6989955986
 40
0.7577679516
 40
0.8167809282
 40
0.8766671061
 40
1.0
 40
1.0
 40
1.0
 40
1.0
 10
36.8279779018
 20
84.7755964499
 30
0.0
 10
36.8180554649
 20
84.8302388567
 30
0.0
 10
36.7923832377
 20
84.93777677
 30
0.0
 10
36.733735151
 20
85.0644135063
 30
0.0
 10
36.6643789851
 20
85.1514573307
 30
0.0
 10
36.5974734702
 20
85.205828008
 30
0.0
 10
36.5169773513
 20
85.2430410161
 30
0.0
 10
36.4281661185
 20
85.2577789493
 30
0.0
 10
36.3407724142
 20
85.2437107403
 30
0.0
 10
36.264901227
 20
85.206121982
 30
0.0
 10
36.2052299007
 20
85.1511372774
 30
0.0
 10
36.1613365889
 20
85.0853633669
 30
0.0
 10
36.1294440381
 20
85.0132643355
 30
0.0
 10
36.0989806967
 20
84.9103701422
 30
0.0
 10
36.0871350243
 20
84.8298525979
 30
0.0
 10
36.081648013
 20
84.7755964613
 30
0.0
  0
SPLINE
  5
4B4
100
AcDbEntity
  8
0
100
AcDbSpline
 62
7
  6
CONTINUOUS
 70
0
 71
3
 72
10
 73
6
 74
0
 42
0.0000001
 43
0.0000001
 44
0.0000000001
 40
0.0
 40
0.0
 40
0.0
 40
0.0
 40
0.2422646433
 40
0.4911637562
 40
1.0
 40
1.0
 40
1.0
 40
1.0
 10
36.081648032
 20
84.7755964613
 30
0.0
 10
36.0755916537
 20
84.7157103649
 30
0.0
 10
36.0556477371
 20
84.5950750301
 30
0.0
 10
35.9974412364
 20
84.3534417146
 30
0.0
 10
35.9411304894
 20
84.1736529189
 30
0.0
 10
35.9029643303
 20
84.0531293217
 30
0.0
  0
SPLINE
  5
4B5
100
AcDbEntity
  8
0
100
AcDbSpline
 62
7
  6
CONTINUOUS
 70
0
 71
3
 72
10
 73
6
 74
0
 42
0.0000001
 43
0.0000001
 44
0.0000000001
 40
0.0
 40
0.0
 40
0.0
 40
0.0
 40
0.5080739106
 40
0.7573437897
 40
1.0
 40
1.0
 40
1.0
 40
1.0
 10
34.9473279244
 20
84.0531059003
 30
0.0
 10
34.9089514721
 20
84.1739515008
 30
0.0
 10
34.8508269197
 20
84.3538689986
 30
0.0
 10
34.786666188
 20
84.5950930126
 30
0.0
 10
34.7624734687
 20
84.7156428079
 30
0.0
 10
34.7539516318
 20
84.7755964512
 30
0.0
  0
SPLINE
  5
4B6
100
AcDbEntity
  8
0
100
AcDbSpline
 62
7
  6
CONTINUOUS
 70
0
 71
3
 72
19
 73
15
 74
0
 42
0.0000001
 43
0.0000001
 44
0.0000000001
 40
0.0
 40
0.0
 40
0.0
 40
0.0
 40
0.1606107546
 40
0.3134180695
 40
0.3843269239
 40
0.4497862403
 40
0.5091111636
 40
0.5629925197
 40
0.6135274352
 40
0.6632259306
 40
0.7139543277
 40
0.7666804049
 40
0.8789623122
 40
1.0
 40
1.0
 40
1.0
 40
1.0
 10
17.3182589425
 20
21.860664182
 30
0.0
 10
17.245203207
 20
21.79119221
 30
0.0
 10
17.0961367649
 20
21.6622858953
 30
0.0
 10
16.8927095921
 20
21.5298417711
 30
0.0
 10
16.7254460345
 20
21.4580582755
 30
0.0
 10
16.6059562324
 20
21.4270421914
 30
0.0
 10
16.4930224742
 20
21.4208405106
 30
0.0
 10
16.390980426
 20
21.4412543736
 30
0.0
 10
16.3041098817
 20
21.4866918092
 30
0.0
 10
16.2342628072
 20
21.5521773781
 30
0.0
 10
16.1802113562
 20
21.6324373779
 30
0.0
 10
16.1251189332
 20
21.7567032564
 30
0.0
 10
16.0865325508
 20
21.9336470212
 30
0.0
 10
16.078731209
 20
22.0802462012
 30
0.0
 10
16.078731209
 20
22.1562206474
 30
0.0
  0
SPLINE
  5
4B7
100
AcDbEntity
  8
0
100
AcDbSpline
 62
7
  6
CONTINUOUS
 70
0
 71
3
 72
19
 73
15
 74
0
 42
0.0000001
 43
0.0000001
 44
0.0000000001
 40
0.0
 40
0.0
 40
0.0
 40
0.0
 40
0.1244955751
 40
0.1854424543
 40
0.2459686408
 40
0.3067613896
 40
0.3689874596
 40
0.5000601643
 40
0.6310550742
 40
0.6932700931
 40
0.7540409964
 40
0.8145593163
 40
0.8755053595
 40
1.0
 40
1.0
 40
1.0
 40
1.0
 10
34.7539516502
 20
84.7755964499
 30
0.0
 10
34.7462123871
 20
84.830044455
 30
0.0
 10
34.7305184886
 20
84.9108725709
 30
0.0
 10
34.6943245008
 20
85.0135556482
 30
0.0
 10
34.6579070803
 20
85.0856558552
 30
0.0
 10
34.6094936569
 20
85.1514172072
 30
0.0
 10
34.5237605315
 20
85.2251102538
 30
0.0
 10
34.3786972168
 20
85.271774612
 30
0.0
 10
34.2335863869
 20
85.2251206177
 30
0.0
 10
34.1480162562
 20
85.1513263022
 30
0.0
 10
34.0995302446
 20
85.08565082
 30
0.0
 10
34.0631247793
 20
85.0135519219
 30
0.0
 10
34.0269398999
 20
84.9108727942
 30
0.0
 10
34.0112504325
 20
84.8300439923
 30
0.0
 10
34.0035107678
 20
84.7755964614
 30
0.0
  0
SPLINE
  5
4B8
100
AcDbEntity
  8
0
100
AcDbSpline
 62
7
  6
CONTINUOUS
 70
0
 71
3
 72
10
 73
6
 74
0
 42
0.0000001
 43
0.0000001
 44
0.0000000001
 40
0.0
 40
0.0
 40
0.0
 40
0.0
 40
0.2426541254
 40
0.4919283214
 40
1.0
 40
1.0
 40
1.0
 40
1.0
 10
34.0035107862
 20
84.7755964614
 30
0.0
 10
33.9949887478
 20
84.7156450332
 30
0.0
 10
33.9707851137
 20
84.5951003166
 30
0.0
 10
33.9066408317
 20
84.3538792873
 30
0.0
 10
33.8485055575
 20
84.1739695006
 30
0.0
 10
33.8101252489
 20
84.0531293217
 30
0.0
  0
SPLINE
  5
4B9
100
AcDbEntity
  8
0
100
AcDbSpline
 62
7
  6
CONTINUOUS
 70
0
 71
3
 72
19
 73
15
 74
0
 42
0.0000001
 43
0.0000001
 44
0.0000000001
 40
0.0
 40
0.0
 40
0.0
 40
0.0
 40
0.1210376876
 40
0.2333196175
 40
0.2860457191
 40
0.3367741613
 40
0.3864726846
 40
0.437007593
 40
0.4908889406
 40
0.550213865
 40
0.6156731526
 40
0.6865819863
 40
0.8393892751
 40
1.0
 40
1.0
 40
1.0
 40
1.0
 10
52.678731209
 20
22.1562206428
 30
0.0
 10
52.678731209
 20
22.0802461972
 30
0.0
 10
52.6709298613
 20
21.9336470065
 30
0.0
 10
52.6323434872
 20
21.7567032059
 30
0.0
 10
52.5772510085
 20
21.6324372913
 30
0.0
 10
52.5231995241
 20
21.552177237
 30
0.0
 10
52.4533523607
 20
21.4866916976
 30
0.0
 10
52.3664817838
 20
21.4412543152
 30
0.0
 10
52.2644397346
 20
21.4208405124
 30
0.0
 10
52.1515060039
 20
21.4270422297
 30
0.0
 10
52.0320162394
 20
21.4580583312
 30
0.0
 10
51.8647527365
 20
21.5298418287
 30
0.0
 10
51.6613256093
 20
21.6622859294
 30
0.0
 10
51.5122591971
 20
21.7911922233
 30
0.0
 10
51.4392034755
 20
21.8606641821
 30
0.0
  0
SPLINE
  5
4BA
100
AcDbEntity
  8
0
100
AcDbSpline
 62
7
  6
CONTINUOUS
 70
0
 71
3
 72
12
 73
8
 74
0
 42
0.0000001
 43
0.0000001
 44
0.0000000001
 40
0.0
 40
0.0
 40
0.0
 40
0.0
 40
0.2493955061
 40
0.3743191004
 40
0.4993308019
 40
0.7495378973
 40
1.0
 40
1.0
 40
1.0
 40
1.0
 10
42.7539880257
 20
27.8530716591
 30
0.0
 10
43.5767706866
 20
27.5343902446
 30
0.0
 10
44.7730304288
 20
26.9519580959
 30
0.0
 10
46.2819920566
 20
26.0327155432
 30
0.0
 10
47.7429564161
 20
25.0329702867
 30
0.0
 10
49.4829661376
 20
23.6605876817
 30
0.0
 10
50.7970725173
 20
22.4712952796
 30
0.0
 10
51.4392034755
 20
21.8606641821
 30
0.0
  0
SPLINE
  5
4BB
100
AcDbEntity
  8
0
100
AcDbSpline
 62
7
  6
CONTINUOUS
 70
0
 71
3
 72
9
 73
5
 74
0
 42
0.0000001
 43
0.0000001
 44
0.0000000001
 40
0.0
 40
0.0
 40
0.0
 40
0.0
 40
0.4999483898
 40
1.0
 40
1.0
 40
1.0
 40
1.0
 10
38.878731209
 20
29.9017857246
 30
0.0
 10
39.5626436529
 20
29.641757922
 30
0.0
 10
40.894544587
 20
29.0237448926
 30
0.0
 10
42.145733683
 20
28.2600095236
 30
0.0
 10
42.7539880257
 20
27.8530716591
 30
0.0
  0
SPLINE
  5
4BC
100
AcDbEntity
  8
0
100
AcDbSpline
 62
7
  6
CONTINUOUS
 70
0
 71
3
 72
10
 73
6
 74
0
 42
0.0000001
 43
0.0000001
 44
0.0000000001
 40
0.0
 40
0.0
 40
0.0
 40
0.0
 40
0.5088375386
 40
0.7577333727
 40
1.0
 40
1.0
 40
1.0
 40
1.0
 10
32.8544888651
 20
84.0531059002
 30
0.0
 10
32.8163086347
 20
84.1736290175
 30
0.0
 10
32.7600338992
 20
84.3534331647
 30
0.0
 10
32.7018027063
 20
84.5950676149
 30
0.0
 10
32.6818713507
 20
84.7157082582
 30
0.0
 10
32.675814386
 20
84.7755964511
 30
0.0
  0
SPLINE
  5
4BD
100
AcDbEntity
  8
0
100
AcDbSpline
 62
7
  6
CONTINUOUS
 70
0
 71
3
 72
20
 73
16
 74
0
 42
0.0000001
 43
0.0000001
 44
0.0000000001
 40
0.0
 40
0.0
 40
0.0
 40
0.0
 40
0.1233337635
 40
0.1832206111
 40
0.242242143
 40
0.301038301
 40
0.3608865983
 40
0.4236239311
 40
0.4899094659
 40
0.557666833
 40
0.624142351
 40
0.6882758305
 40
0.7507954134
 40
0.874399506
 40
1.0
 40
1.0
 40
1.0
 40
1.0
 10
32.675814405
 20
84.7755964499
 30
0.0
 10
32.6703270306
 20
84.8298528237
 30
0.0
 10
32.6584787289
 20
84.9103699757
 30
0.0
 10
32.6280071563
 20
85.013268291
 30
0.0
 10
32.5961015124
 20
85.0853715766
 30
0.0
 10
32.5522791109
 20
85.1512176604
 30
0.0
 10
32.4925218365
 20
85.2061482599
 30
0.0
 10
32.4165612393
 20
85.2435827407
 30
0.0
 10
32.3292181283
 20
85.2577805987
 30
0.0
 10
32.2403545541
 20
85.243171499
 30
0.0
 10
32.1599493007
 20
85.2058000302
 30
0.0
 10
32.093125275
 20
85.1513728442
 30
0.0
 10
32.0236814629
 20
85.0644253228
 30
0.0
 10
31.9650801664
 20
84.9377639481
 30
0.0
 10
31.9394059715
 20
84.8302384504
 30
0.0
 10
31.9294845162
 20
84.7755964613
 30
0.0
  0
LINE
  5
4BE
100
AcDbEntity
  8
0
100
AcDbLine
 62
7
  6
CONTINUOUS
 10
31.7235159334
 20
84.0531293217
 11
31.7808611135
 21
83.8734821675
  0
SPLINE
  5
4BF
100
AcDbEntity
  8
0
100
AcDbSpline
 62
7
  6
CONTINUOUS
 70
0
 71
3
 72
10
 73
6
 74
0
 42
0.0000001
 43
0.0000001
 44
0.0000000001
 40
0.0
 40
0.0
 40
0.0
 40
0.0
 40
0.243294574
 40
0.4929703139
 40
1.0
 40
1.0
 40
1.0
 40
1.0
 10
31.9294845338
 20
84.7755964613
 30
0.0
 10
31.9185938365
 20
84.7156164128
 30
0.0
 10
31.8904174254
 20
84.5952061469
 30
0.0
 10
31.8210582606
 20
84.3544084476
 30
0.0
 10
31.7616938632
 20
84.1743003192
 30
0.0
 10
31.7235159334
 20
84.0531293217
 30
0.0
  0
SPLINE
  5
4C0
100
AcDbEntity
  8
0
100
AcDbSpline
 62
7
  6
CONTINUOUS
 70
0
 71
3
 72
10
 73
6
 74
0
 42
0.0000001
 43
0.0000001
 44
0.0000000001
 40
0.0
 40
0.0
 40
0.0
 40
0.0
 40
0.5092832942
 40
0.7578488977
 40
1.0
 40
1.0
 40
1.0
 40
1.0
 10
30.7783497239
 20
84.0531059002
 30
0.0
 10
30.7407740988
 20
84.1733330676
 30
0.0
 10
30.6869263816
 20
84.3531092271
 30
0.0
 10
30.6352937257
 20
84.5951278481
 30
0.0
 10
30.6198637685
 20
84.7158086884
 30
0.0
 10
30.6163346532
 20
84.7755964512
 30
0.0
  0
SPLINE
  5
4C1
100
AcDbEntity
  8
0
100
AcDbSpline
 62
7
  6
CONTINUOUS
 70
0
 71
3
 72
20
 73
16
 74
0
 42
0.0000001
 43
0.0000001
 44
0.0000000001
 40
0.0
 40
0.0
 40
0.0
 40
0.0
 40
0.1230757003
 40
0.1823393721
 40
0.2402363239
 40
0.2972916769
 40
0.3548070897
 40
0.4151421813
 40
0.4798827671
 40
0.5476363712
 40
0.6154005697
 40
0.6814178799
 40
0.7458352903
 40
0.8724781997
 40
1.0
 40
1.0
 40
1.0
 40
1.0
 10
30.6163346727
 20
84.77559645
 30
0.0
 10
30.6131425943
 20
84.8296743742
 30
0.0
 10
30.6052347039
 20
84.9098570755
 30
0.0
 10
30.5808434079
 20
85.0129409579
 30
0.0
 10
30.5538405253
 20
85.0849910925
 30
0.0
 10
30.5150878521
 20
85.1509073733
 30
0.0
 10
30.4600045768
 20
85.2061916706
 30
0.0
 10
30.3875063403
 20
85.2438394861
 30
0.0
 10
30.3021975636
 20
85.257779851
 30
0.0
 10
30.2139397772
 20
85.2428789485
 30
0.0
 10
30.1325183736
 20
85.2055524717
 30
0.0
 10
30.0632509011
 20
85.1513423802
 30
0.0
 10
29.9895480239
 20
85.0647355675
 30
0.0
 10
29.9246897761
 20
84.9385241511
 30
0.0
 10
29.894302892
 20
84.8304254866
 30
0.0
 10
29.882292724
 20
84.7755964614
 30
0.0
  0
SPLINE
  5
4C2
100
AcDbEntity
  8
0
100
AcDbSpline
 62
7
  6
CONTINUOUS
 70
0
 71
3
 72
10
 73
6
 74
0
 42
0.0000001
 43
0.0000001
 44
0.0000000001
 40
0.0
 40
0.0
 40
0.0
 40
0.0
 40
0.2441512931
 40
0.4942409497
 40
1.0
 40
1.0
 40
1.0
 40
1.0
 10
29.8822927406
 20
84.7755964613
 30
0.0
 10
29.8691562866
 20
84.7156256957
 30
0.0
 10
29.8373400014
 20
84.5953853165
 30
0.0
 10
29.7635394084
 20
84.3550057348
 30
0.0
 10
29.7035526715
 20
84.1746326482
 30
0.0
 10
29.6659977121
 20
84.0531293216
 30
0.0
  0
SPLINE
  5
4C3
100
AcDbEntity
  8
0
100
AcDbSpline
 62
7
  6
CONTINUOUS
 70
0
 71
3
 72
11
 73
7
 74
0
 42
0.0000001
 43
0.0000001
 44
0.0000000001
 40
0.0
 40
0.0
 40
0.0
 40
0.0
 40
0.2504820937
 40
0.5007140383
 40
0.7505803093
 40
1.0
 40
1.0
 40
1.0
 40
1.0
 10
17.3182589425
 20
21.8606641819
 30
0.0
 10
17.9603808404
 20
22.4712866636
 30
0.0
 10
19.2750824008
 20
23.6599700801
 30
0.0
 10
21.3613761439
 20
25.3068257759
 30
0.0
 10
23.5860943508
 20
26.7571632744
 30
0.0
 10
25.1806892257
 20
27.5343892739
 30
0.0
 10
26.003474392
 20
27.8530716589
 30
0.0
  0
SPLINE
  5
4C4
100
AcDbEntity
  8
0
100
AcDbSpline
 62
7
  6
CONTINUOUS
 70
0
 71
3
 72
9
 73
5
 74
0
 42
0.0000001
 43
0.0000001
 44
0.0000000001
 40
0.0
 40
0.0
 40
0.0
 40
0.0
 40
0.5000516102
 40
1.0
 40
1.0
 40
1.0
 40
1.0
 10
26.003474392
 20
27.8530716589
 30
0.0
 10
26.6117287349
 20
28.2600095235
 30
0.0
 10
27.8629178309
 20
29.0237448926
 30
0.0
 10
29.1948187651
 20
29.641757922
 30
0.0
 10
29.878731209
 20
29.9017857246
 30
0.0
  0
SPLINE
  5
4C5
100
AcDbEntity
  8
0
100
AcDbSpline
 62
7
  6
CONTINUOUS
 70
0
 71
3
 72
10
 73
6
 74
0
 42
0.0000001
 43
0.0000001
 44
0.0000000001
 40
0.0
 40
0.0
 40
0.0
 40
0.0
 40
0.5093829393
 40
0.7576776949
 40
1.0
 40
1.0
 40
1.0
 40
1.0
 10
28.7416571156
 20
84.0531059002
 30
0.0
 10
28.705082613
 20
84.1730753841
 30
0.0
 10
28.6542196317
 20
84.3529148029
 30
0.0
 10
28.6097891845
 20
84.5952742324
 30
0.0
 10
28.5990471795
 20
84.7159395068
 30
0.0
 10
28.5980765245
 20
84.7755964512
 30
0.0
  0
SPLINE
  5
4C6
100
AcDbEntity
  8
0
100
AcDbSpline
 62
7
  6
CONTINUOUS
 70
0
 71
3
 72
20
 73
16
 74
0
 42
0.0000001
 43
0.0000001
 44
0.0000000001
 40
0.0
 40
0.0
 40
0.0
 40
0.0
 40
0.123446128
 40
0.1824096256
 40
0.2394667895
 40
0.2949526244
 40
0.3500807438
 40
0.4076767976
 40
0.4703490688
 40
0.5375667689
 40
0.6062141856
 40
0.6738937719
 40
0.740163699
 40
0.870102155
 40
1.0
 40
1.0
 40
1.0
 40
1.0
 10
28.5980765441
 20
84.7755964499
 30
0.0
 10
28.5971991877
 20
84.8295192174
 30
0.0
 10
28.5932723837
 20
84.9093652226
 30
0.0
 10
28.5752529023
 20
85.0125876701
 30
0.0
 10
28.553457687
 20
85.0845272948
 30
0.0
 10
28.520270615
 20
85.1504407529
 30
0.0
 10
28.4705784607
 20
85.2061205304
 30
0.0
 10
28.4022951579
 20
85.2440904929
 30
0.0
 10
28.319836106
 20
85.2577781028
 30
0.0
 10
28.233084911
 20
85.2425634777
 30
0.0
 10
28.1515075696
 20
85.2052572258
 30
0.0
 10
28.0805709649
 20
85.1512342815
 30
0.0
 10
28.003411982
 20
85.064884436
 30
0.0
 10
27.933115481
 20
84.9391353694
 30
0.0
 10
27.8983392356
 20
84.830597416
 30
0.0
 10
27.8843648528
 20
84.7755964614
 30
0.0
  0
SPLINE
  5
4C7
100
AcDbEntity
  8
0
100
AcDbSpline
 62
7
  6
CONTINUOUS
 70
0
 71
3
 72
10
 73
6
 74
0
 42
0.0000001
 43
0.0000001
 44
0.0000000001
 40
0.0
 40
0.0
 40
0.0
 40
0.0
 40
0.2451856415
 40
0.4956838996
 40
1.0
 40
1.0
 40
1.0
 40
1.0
 10
27.8843648682
 20
84.7755964614
 30
0.0
 10
27.8691389164
 20
84.7156695297
 30
0.0
 10
27.8340490169
 20
84.5956267897
 30
0.0
 10
27.7566145058
 20
84.3556477998
 30
0.0
 10
27.6966252285
 20
84.174953969
 30
0.0
 10
27.6601131853
 20
84.0531293217
 30
0.0
  0
SPLINE
  5
4C8
100
AcDbEntity
  8
0
100
AcDbSpline
 62
7
  6
CONTINUOUS
 70
0
 71
3
 72
10
 73
6
 74
0
 42
0.0000001
 43
0.0000001
 44
0.0000000001
 40
0.0
 40
0.0
 40
0.0
 40
0.0
 40
0.5086122669
 40
0.7568347194
 40
1.0
 40
1.0
 40
1.0
 40
1.0
 10
26.7667249946
 20
84.0531042981
 30
0.0
 10
26.7331001695
 20
84.1675321921
 30
0.0
 10
26.6876482993
 20
84.3394880336
 30
0.0
 10
26.6504954195
 20
84.5712054087
 30
0.0
 10
26.6427298429
 20
84.686467709
 30
0.0
 10
26.6427298429
 20
84.7434882434
 30
0.0
  0
SPLINE
  5
4C9
100
AcDbEntity
  8
0
100
AcDbSpline
 62
7
  6
CONTINUOUS
 70
0
 71
3
 72
10
 73
6
 74
0
 42
0.0000001
 43
0.0000001
 44
0.0000000001
 40
0.0
 40
0.0
 40
0.0
 40
0.0
 40
0.2541481159
 40
0.50608141
 40
1.0
 40
1.0
 40
1.0
 40
1.0
 10
52.6756399817
 20
84.775596451
 30
0.0
 10
52.6996208678
 20
84.7166705393
 30
0.0
 10
52.745089983
 20
84.5983380538
 30
0.0
 10
52.8203109509
 20
84.3595181999
 30
0.0
 10
52.8587949987
 20
84.1758605588
 30
0.0
 10
52.8735236959
 20
84.0531025114
 30
0.0
  0
SPLINE
  5
4CA
100
AcDbEntity
  8
0
100
AcDbSpline
 62
7
  6
CONTINUOUS
 70
0
 71
3
 72
10
 73
6
 74
0
 42
0.0000001
 43
0.0000001
 44
0.0000000001
 40
0.0
 40
0.0
 40
0.0
 40
0.0
 40
0.2463518955
 40
0.4972396563
 40
1.0
 40
1.0
 40
1.0
 40
1.0
 10
25.9575906324
 20
84.7755964613
 30
0.0
 10
25.9404519139
 20
84.715745729
 30
0.0
 10
25.9024898007
 20
84.5959192834
 30
0.0
 10
25.8222620607
 20
84.3563093908
 30
0.0
 10
25.7628945435
 20
84.1752515788
 30
0.0
 10
25.7278392434
 20
84.0531293218
 30
0.0
  0
SPLINE
  5
4CB
100
AcDbEntity
  8
0
100
AcDbSpline
 62
7
  6
CONTINUOUS
 70
0
 71
3
 72
9
 73
5
 74
0
 42
0.0000001
 43
0.0000001
 44
0.0000000001
 40
0.0
 40
0.0
 40
0.0
 40
0.0
 40
0.2523492356
 40
1.0
 40
1.0
 40
1.0
 40
1.0
 10
24.8751905148
 20
84.0530986917
 30
0.0
 10
24.8678763339
 20
84.0790779311
 30
0.0
 10
24.8397601616
 20
84.1822619757
 30
0.0
 10
24.8160278105
 20
84.2867031396
 30
0.0
 10
24.8019780755
 20
84.3654218144
 30
0.0
  0
SPLINE
  5
4CC
100
AcDbEntity
  8
0
100
AcDbSpline
 62
7
  6
CONTINUOUS
 70
0
 71
3
 72
9
 73
5
 74
0
 42
0.0000001
 43
0.0000001
 44
0.0000000001
 40
0.0
 40
0.0
 40
0.0
 40
0.0
 40
0.2532199523
 40
1.0
 40
1.0
 40
1.0
 40
1.0
 10
24.8019780755
 20
84.3654218144
 30
0.0
 10
24.7971161265
 20
84.3925272064
 30
0.0
 10
24.7796381729
 20
84.499842406
 30
0.0
 10
24.7701080954
 20
84.6086842446
 30
0.0
 10
24.7701080954
 20
84.6898975154
 30
0.0
  0
SPLINE
  5
4CD
100
AcDbEntity
  8
0
100
AcDbSpline
 62
7
  6
CONTINUOUS
 70
0
 71
3
 72
18
 73
14
 74
0
 42
0.0000001
 43
0.0000001
 44
0.0000000001
 40
0.0
 40
0.0
 40
0.0
 40
0.0
 40
0.1181372777
 40
0.1730514048
 40
0.2251713885
 40
0.2757503537
 40
0.3276245285
 40
0.3850111008
 40
0.4493301616
 40
0.5877516033
 40
0.7270265522
 40
0.863943226
 40
1.0
 40
1.0
 40
1.0
 40
1.0
 10
24.778731209
 20
84.9186098618
 30
0.0
 10
24.778731209
 20
84.9633877522
 30
0.0
 10
24.7757615869
 20
85.0293199483
 30
0.0
 10
24.7570562787
 20
85.1128998962
 30
0.0
 10
24.7334306968
 20
85.1682387525
 30
0.0
 10
24.6966903301
 20
85.2152158841
 30
0.0
 10
24.6428855088
 20
85.2463777884
 30
0.0
 10
24.5764973665
 20
85.2561108102
 30
0.0
 10
24.4779246852
 20
85.2406976655
 30
0.0
 10
24.3622012722
 20
85.1740522662
 30
0.0
 10
24.2545551214
 20
85.0577393866
 30
0.0
 10
24.1754550568
 20
84.9218314822
 30
0.0
 10
24.1385958596
 20
84.8247769908
 30
0.0
 10
24.1230801625
 20
84.7755964614
 30
0.0
  0
ELLIPSE
  5
4CE
100
AcDbEntity
  8
0
100
AcDbEllipse
 62
7
  6
CONTINUOUS
 10
39.378731209
 20
-14.9463213359
 30
0.0
 11
0.0
 21
27.3015628521
 31
0.0
 40
0.1538373471
 41
-0.5792396658
 42
0.5792396658
  0
ELLIPSE
  5
4CF
100
AcDbEntity
  8
0
100
AcDbEllipse
 62
7
  6
CONTINUOUS
 10
29.378731209
 20
-14.9463213359
 30
0.0
 11
0.0
 21
27.3015628521
 31
0.0
 40
0.1538373471
 41
-0.5792396658
 42
0.5792396634
  0
ENDSEC
  0
SECTION
  2
OBJECTS
  0
DICTIONARY
  5
C
100
AcDbDictionary
280
0
281
1
  3
ACAD_GROUP
350
D
  3
ACAD_MLINESTYLE
350
17
  3
ACAD_LAYOUT
350
1A
  3
ACAD_PLOTSETTINGS
350
19
  3
ACAD_PLOTSTYLENAME
350
E
  0
DICTIONARY
  5
D
102
{ACAD_REACTORS
330
C
102
}
100
AcDbDictionary
280
0
281
1
  0
ACDBDICTIONARYWDFLT
  5
E
102
{ACAD_REACTORS
330
C
102
}
100
AcDbDictionary
281
1
  3
Normal
350
F
100
AcDbDictionaryWithDefault
340
F
  0
DICTIONARY
  5
17
102
{ACAD_REACTORS
330
C
102
}
100
AcDbDictionary
280
0
281
1
  3
Standard
350
18
  0
DICTIONARY
  5
19
102
{ACAD_REACTORS
330
C
102
}
100
AcDbDictionary
281
1
  0
DICTIONARY
  5
1A
102
{ACAD_REACTORS
330
C
102
}
100
AcDbDictionary
281
1
  3
Model
350
4D0
  3
Layout1
350
4D1
  0
ACDBPLACEHOLDER
  5
F
102
{ACAD_REACTORS
330
E
102
}
  0
MLINESTYLE
  5
18
102
{ACAD_REACTORS
330
17
102
}
100
AcDbMlineStyle
  2
STANDARD
 70
0
  3

 62
256
 51
90.0
 52
90.0
 71
2
 49
0.5
 62
256
  6
BYLAYER
 49
-0.5
 62
256
  6
BYLAYER
  0
LAYOUT
  5
4D0
102
{ACAD_REACTORS
330
1A
102
}
100
AcDbPlotSettings
  1

  2
none_device
  4

  6

 40
0.0
 41
0.0
 42
0.0
 43
0.0
 44
210.0
 45
297.0
 46
0.0
 47
0.0
 48
0.0
 49
0.0
140
0.0
141
0.0
142
1.0
143
1.0
 70
1024
 72
1
 73
0
 74
0
  7

 75
0
147
1.0
148
0.0
149
0.0
100
AcDbLayout
  1
Model
 70
0
 71
0
 10
0.0
 20
0.0
 11
210.0
 21
297.0
 12
0.0
 22
0.0
 32
0.0
 14
0.0
 24
0.0
 34
0.0
 15
0.0
 25
0.0
 35
0.0
146
0.0
 13
0.0
 23
0.0
 33
0.0
 16
1.0
 26
0.0
 36
0.0
 17
0.0
 27
1.0
 37
0.0
 76
0
330
210
345
0
346
0
  0
LAYOUT
  5
4D1
102
{ACAD_REACTORS
330
1A
102
}
100
AcDbPlotSettings
  1

  2
none_device
  4

  6

 40
0.0
 41
0.0
 42
0.0
 43
0.0
 44
210.0
 45
297.0
 46
0.0
 47
0.0
 48
0.0
 49
0.0
140
0.0
141
0.0
142
1.0
143
1.0
 70
0
 72
1
 73
0
 74
0
  7

 75
0
147
1.0
148
0.0
149
0.0
100
AcDbLayout
  1
Layout1
 70
0
 71
1
 10
0.0
 20
0.0
 11
210.0
 21
297.0
 12
0.0
 22
0.0
 32
0.0
 14
0.0
 24
0.0
 34
0.0
 15
0.0
 25
0.0
 35
0.0
146
0.0
 13
0.0
 23
0.0
 33
0.0
 16
1.0
 26
0.0
 36
0.0
 17
0.0
 27
1.0
 37
0.0
 76
0
330
211
345
0
346
0
  0
ENDSEC
  0
EOF
