999
DXF file: C:\Users\sesa63760\Dev\_Creo\CAD\MCADID0002166_3D-CAD\drw0001_3.dxf
999
Pro/ENGINEER 2019471 by Parametric Technology Corporation
  0
SECTION
  2
HEADER
  9
$ACADVER
  1
AC1024
  9
$DWGCODEPAGE
  3
ANSI_1252
  9
$EXTMAX
 10
58.8436141109
 20
83.221682814
 30
0.0
  9
$EXTMIN
 10
0.0
 20
0.0
 30
0.0
  9
$LIMMIN
 10
0.0
 20
0.0
  9
$LIMMAX
 10
58.8436141109
 20
83.221682814
  9
$VIEWCTR
 10
29.4218070555
 20
41.610841407
  9
$VIEWSIZE
 40
83.221682814
  9
$CLAYER
  8
0
  9
$LTSCALE
 40
5.4248208057
  9
$CELTYPE
  6
BYLAYER
  9
$DIMSCALE
 40
1.0
  9
$DIMASZ
 40
0.7005192156
  9
$DIMEXO
 40
1.0
  9
$DIMDLI
 40
3.7480580112
  9
$DIMEXE
 40
1.0
  9
$DIMCEN
 40
0.88769795
  9
$DIMLFAC
 40
1.0
  9
$DIMBLK
  1
_FILLED
  9
$DIMALT
 70
0
  9
$DIMALTF
 40
0.0393700787
  9
$DIMTXT
 40
0.9807269018
  9
$DIMTOL
 70
1
  9
$DIMLIM
 70
0
  9
$DIMTFAC
 40
1.0
  9
$DIMTP
 40
0.01
  9
$DIMTM
 40
0.01
  9
$DIMGAP
 40
0.625
  9
$DIMDSEP
 70
46
  9
$AUNITS
 70
0
  9
$PDMODE
 70
3
  9
$PDSIZE
 40
0.3125
  9
$HANDSEED
  5
458
  9
$TILEMODE
 70
1
  9
$MEASUREMENT
 70
1
  9
$INSUNITS
 70
4
  0
ENDSEC
  0
SECTION
  2
CLASSES
  0
CLASS
  1
ACDBDICTIONARYWDFLT
  2
AcDbDictionaryWithDefault
  3
AutoCAD 2000
 90
0
 91
1
280
0
281
0
  0
CLASS
  1
ACDBPLACEHOLDER
  2
AcDbPlaceHolder
  3
AutoCAD 2000
 90
0
 91
1
280
0
281
0
  0
CLASS
  1
LAYOUT
  2
AcDbLayout
  3
AutoCAD 2000
 90
0
 91
0
280
0
281
0
  0
ENDSEC
  0
SECTION
  2
TABLES
  0
TABLE
  2
VPORT
  5
8
100
AcDbSymbolTable
 70
2
  0
VPORT
  5
1F4
100
AcDbSymbolTableRecord
100
AcDbViewportTableRecord
  2
*ACTIVE
 70
0
 10
0.0
 20
0.0
 11
1.0
 21
1.0
 12
29.4218070555
 22
41.610841407
 13
0.0
 23
0.0
 14
1.0
 24
1.0
 15
0.0
 25
0.0
 16
0.0
 26
0.0
 36
1.0
 17
0.0
 27
0.0
 37
0.0
 40
83.221682814
 41
0.7070707071
 42
50.0
 43
0.0
 44
0.0
 50
0.0
 51
0.0
 71
0
 72
100
 73
1
 74
1
 75
0
 76
0
 77
0
 78
0
  0
ENDTAB
  0
TABLE
  2
LTYPE
  5
5
100
AcDbSymbolTable
 70
6
  0
LTYPE
  5
14
100
AcDbSymbolTableRecord
100
AcDbLinetypeTableRecord
  2
BYBLOCK
 70
0
  3

 72
65
 73
0
 40
0.0
  0
LTYPE
  5
15
100
AcDbSymbolTableRecord
100
AcDbLinetypeTableRecord
  2
BYLAYER
 70
0
  3

 72
65
 73
0
 40
0.0
  0
LTYPE
  5
16
100
AcDbSymbolTableRecord
100
AcDbLinetypeTableRecord
  2
CONTINUOUS
 70
64
  3
Solid line
 72
65
 73
0
 40
0.0
  0
LTYPE
  5
1F5
100
AcDbSymbolTableRecord
100
AcDbLinetypeTableRecord
  2
CENTER
 70
64
  3
____ _ ____ _ ____ _ ____ _ ____ _ ____ _ ____
 72
65
 73
4
 40
0.6
 49
0.375
 74
0
 49
-0.075
 74
0
 49
0.075
 74
0
 49
-0.075
 74
0
  0
LTYPE
  5
1F6
100
AcDbSymbolTableRecord
100
AcDbLinetypeTableRecord
  2
HIDDEN
 70
64
  3
- - - - - - - - - - - - - - - - - - - -
 72
65
 73
2
 40
0.2
 49
0.1
 74
0
 49
-0.1
 74
0
  0
LTYPE
  5
1F7
100
AcDbSymbolTableRecord
100
AcDbLinetypeTableRecord
  2
PHANTOM
 70
64
  3
_____ _ _ _____ _ _ _____ _ _ _____
 72
65
 73
6
 40
0.8
 49
0.45
 74
0
 49
-0.05
 74
0
 49
0.1
 74
0
 49
-0.05
 74
0
 49
0.1
 74
0
 49
-0.05
 74
0
  0
LTYPE
  5
1F8
100
AcDbSymbolTableRecord
100
AcDbLinetypeTableRecord
  2
DOT
 70
64
  3
. . . . . . . . . . . . . . . . . . . .
 72
65
 73
2
 40
0.2
 49
0.1
 74
0
 49
-0.1
 74
0
  0
LTYPE
  5
1F9
100
AcDbSymbolTableRecord
100
AcDbLinetypeTableRecord
  2
DASHED
 70
64
  3
- - - - - - - - - - - - - - - - - - - -
 72
65
 73
2
 40
0.2
 49
0.1
 74
0
 49
-0.1
 74
0
  0
ENDTAB
  0
TABLE
  2
LAYER
  5
2
100
AcDbSymbolTable
 70
36
  0
LAYER
  5
10
100
AcDbSymbolTableRecord
100
AcDbLayerTableRecord
  2
0
 70
0
 62
7
  6
CONTINUOUS
370
-3
390
F
  0
LAYER
  5
1FA
100
AcDbSymbolTableRecord
100
AcDbLayerTableRecord
  2
DEFAULT_1
 70
0
 62
7
  6
CENTER
370
-3
390
F
  0
LAYER
  5
1FB
100
AcDbSymbolTableRecord
100
AcDbLayerTableRecord
  2
DEFAULT_2
 70
0
 62
8
  6
HIDDEN
370
-3
390
F
  0
LAYER
  5
1FC
100
AcDbSymbolTableRecord
100
AcDbLayerTableRecord
  2
DEFAULT_3
 70
0
 62
7
  6
PHANTOM
370
-3
390
F
  0
LAYER
  5
1FD
100
AcDbSymbolTableRecord
100
AcDbLayerTableRecord
  2
00_COMPONENTS
 70
0
 62
7
  6
CONTINUOUS
370
-3
390
F
  0
LAYER
  5
1FE
100
AcDbSymbolTableRecord
100
AcDbLayerTableRecord
  2
01_1_DEFAULT_DATUMS
 70
0
 62
7
  6
CONTINUOUS
370
-3
390
F
  0
LAYER
  5
1FF
100
AcDbSymbolTableRecord
100
AcDbLayerTableRecord
  2
01_PLANES
 70
0
 62
7
  6
CONTINUOUS
370
-3
390
F
  0
LAYER
  5
200
100
AcDbSymbolTableRecord
100
AcDbLayerTableRecord
  2
02_COORD_SYS
 70
0
 62
7
  6
CONTINUOUS
370
-3
390
F
  0
LAYER
  5
201
100
AcDbSymbolTableRecord
100
AcDbLayerTableRecord
  2
03_AXES
 70
0
 62
7
  6
CONTINUOUS
370
-3
390
F
  0
LAYER
  5
202
100
AcDbSymbolTableRecord
100
AcDbLayerTableRecord
  2
04_POINTS
 70
0
 62
7
  6
CONTINUOUS
370
-3
390
F
  0
LAYER
  5
203
100
AcDbSymbolTableRecord
100
AcDbLayerTableRecord
  2
05_CURVES
 70
0
 62
7
  6
CONTINUOUS
370
-3
390
F
  0
LAYER
  5
204
100
AcDbSymbolTableRecord
100
AcDbLayerTableRecord
  2
06_SURFS
 70
0
 62
7
  6
CONTINUOUS
370
-3
390
F
  0
LAYER
  5
205
100
AcDbSymbolTableRecord
100
AcDbLayerTableRecord
  2
07_COSMETICS
 70
0
 62
7
  6
CONTINUOUS
370
-3
390
F
  0
LAYER
  5
206
100
AcDbSymbolTableRecord
100
AcDbLayerTableRecord
  2
10_NOTES
 70
0
 62
7
  6
CONTINUOUS
370
-3
390
F
  0
LAYER
  5
207
100
AcDbSymbolTableRecord
100
AcDbLayerTableRecord
  2
11_NOTES_PUB
 70
0
 62
7
  6
CONTINUOUS
370
-3
390
F
  0
LAYER
  5
208
100
AcDbSymbolTableRecord
100
AcDbLayerTableRecord
  2
13_REF_GTOL
 70
0
 62
7
  6
CONTINUOUS
370
-3
390
F
  0
LAYER
  5
209
100
AcDbSymbolTableRecord
100
AcDbLayerTableRecord
  2
16_MISC
 70
0
 62
7
  6
CONTINUOUS
370
-3
390
F
  0
LAYER
  5
20A
100
AcDbSymbolTableRecord
100
AcDbLayerTableRecord
  2
17_NO_PRINT
 70
0
 62
7
  6
CONTINUOUS
370
-3
390
F
  0
LAYER
  5
20B
100
AcDbSymbolTableRecord
100
AcDbLayerTableRecord
  2
18_DATUM_CAMS_JOINTS
 70
0
 62
7
  6
CONTINUOUS
370
-3
390
F
  0
LAYER
  5
20C
100
AcDbSymbolTableRecord
100
AcDbLayerTableRecord
  2
19_DATUM_FUNCTIONAL
 70
0
 62
7
  6
CONTINUOUS
370
-3
390
F
  0
LAYER
  5
20D
100
AcDbSymbolTableRecord
100
AcDbLayerTableRecord
  2
20_DATUM_KINEMATIC_SCHEME
 70
0
 62
7
  6
CONTINUOUS
370
-3
390
F
  0
ENDTAB
  0
TABLE
  2
STYLE
  5
3
100
AcDbSymbolTable
 70
1
  0
STYLE
  5
11
100
AcDbSymbolTableRecord
100
AcDbTextStyleTableRecord
  2
STANDARD
 70
0
 40
0.0
 41
0.8
 50
0.0
 71
0
 42
0.2
  3
txt
  4

  0
STYLE
  5
20E
100
AcDbSymbolTableRecord
100
AcDbTextStyleTableRecord
  2
TEXTSTYLE_1
 70
0
 40
0.0
 41
0.8
 50
0.0
 71
0
 42
0.2
  3
gdt
  4

  0
ENDTAB
  0
TABLE
  2
VIEW
  5
6
100
AcDbSymbolTable
 70
0
  0
ENDTAB
  0
TABLE
  2
UCS
  5
7
100
AcDbSymbolTable
 70
0
  0
ENDTAB
  0
TABLE
  2
APPID
  5
9
100
AcDbSymbolTable
 70
1
  0
APPID
  5
20F
100
AcDbSymbolTableRecord
100
AcDbRegAppTableRecord
  2
ACAD
 70
0
  0
ENDTAB
  0
TABLE
  2
BLOCK_RECORD
  5
1
100
AcDbSymbolTable
 70
0
  0
BLOCK_RECORD
  5
210
100
AcDbSymbolTableRecord
100
AcDbBlockTableRecord
  2
*Model_Space
  0
BLOCK_RECORD
  5
211
100
AcDbSymbolTableRecord
100
AcDbBlockTableRecord
  2
*Paper_Space
  0
BLOCK_RECORD
  5
212
100
AcDbSymbolTableRecord
100
AcDbBlockTableRecord
  2
_FILLED
  0
ENDTAB
  0
TABLE
  2
DIMSTYLE
  5
A
100
AcDbSymbolTable
 70
1
100
AcDbDimStyleTable
 71
0
  0
DIMSTYLE
105
213
100
AcDbSymbolTableRecord
100
AcDbDimStyleTableRecord
  2
STANDARD
 70
0
  3

  4

 40
1.0
 41
0.7005192156
 42
1.0
 43
0.38
 44
1.0
 45
0.0
 46
0.0
 47
0.01
 48
0.01
140
0.9807269018
141
0.09
142
0.0
143
25.4
144
1.0
145
0.0
146
1.0
147
0.625
 71
1
 72
0
 73
0
 74
0
 75
0
 76
0
 77
1
 78
8
 79
2
170
0
171
1
172
0
173
0
174
0
175
0
176
0
177
0
178
0
270
2
179
2
271
2
272
2
273
2
274
2
275
0
280
0
281
0
282
0
283
1
284
8
285
0
286
0
287
3
288
0
340
11
278
46
341
212
342
212
343
212
344
212
  0
ENDTAB
  0
ENDSEC
  0
SECTION
  2
BLOCKS
  0
BLOCK
  5
20
100
AcDbEntity
  8
0
100
AcDbBlockBegin
  2
*Model_Space
 70
0
 10
0.0
 20
0.0
 30
0.0
  3
*Model_Space
  1

  0
ENDBLK
  5
21
100
AcDbEntity
  8
0
100
AcDbBlockEnd
  0
BLOCK
  5
1C
100
AcDbEntity
  8
0
100
AcDbBlockBegin
  2
*Paper_Space
 70
0
 10
0.0
 20
0.0
 30
0.0
  3
*Paper_Space
  1

  0
ENDBLK
  5
1D
100
AcDbEntity
  8
0
100
AcDbBlockEnd
  0
BLOCK
  5
214
100
AcDbEntity
  8
0
100
AcDbBlockBegin
  2
_FILLED
 70
64
 10
0.0
 20
0.0
  3
_FILLED
  1

  0
SOLID
  5
215
100
AcDbEntity
  8
0
  6
BYBLOCK
 62
0
100
AcDbTrace
 10
0.0
 20
0.0
 11
-1.0
 21
0.25
 12
-1.0
 22
-0.25
 13
-1.0
 23
-0.25
  0
ENDBLK
  5
216
100
AcDbEntity
  8
0
  6
BYBLOCK
 62
0
100
AcDbBlockEnd
  0
ENDSEC
  0
SECTION
  2
ENTITIES
  0
LINE
  5
217
100
AcDbEntity
  8
0
100
AcDbLine
 62
7
  6
CONTINUOUS
 10
25.3367072544
 20
6.6719953786
 11
35.1367072544
 21
6.6719953786
  0
LINE
  5
218
100
AcDbEntity
  8
0
100
AcDbLine
 62
7
  6
CONTINUOUS
 10
45.2367072544
 20
6.7932135309
 11
35.4367072544
 21
6.7932135309
  0
LINE
  5
219
100
AcDbEntity
  8
0
100
AcDbLine
 62
7
  6
CONTINUOUS
 10
25.0367072544
 20
6.7932135309
 11
15.2367072544
 21
6.7932135309
  0
LINE
  5
21A
100
AcDbEntity
  8
0
100
AcDbLine
 62
7
  6
CONTINUOUS
 10
17.5108266934
 20
8.4532132553
 11
22.7625878154
 21
8.4532132553
  0
LINE
  5
21B
100
AcDbEntity
  8
0
100
AcDbLine
 62
7
  6
CONTINUOUS
 10
27.4665307968
 20
8.4532132553
 11
33.0068837119
 21
8.4532132553
  0
LINE
  5
21C
100
AcDbEntity
  8
0
100
AcDbLine
 62
7
  6
CONTINUOUS
 10
37.7108266934
 20
8.4532132553
 11
42.9625878154
 21
8.4532132553
  0
LINE
  5
21D
100
AcDbEntity
  8
0
100
AcDbLine
 62
7
  6
CONTINUOUS
 10
25.3367072544
 20
10.7932132553
 11
27.1367072544
 21
10.7932132553
  0
LINE
  5
21E
100
AcDbEntity
  8
0
100
AcDbLine
 62
7
  6
CONTINUOUS
 10
33.3367072544
 20
10.7932132553
 11
35.1367072544
 21
10.7932132553
  0
LINE
  5
21F
100
AcDbEntity
  8
0
100
AcDbLine
 62
7
  6
CONTINUOUS
 10
26.7367072544
 20
10.9032132553
 11
27.1367072544
 21
10.9032132553
  0
LINE
  5
220
100
AcDbEntity
  8
0
100
AcDbLine
 62
7
  6
CONTINUOUS
 10
33.3367072544
 20
10.9032132553
 11
33.7367072544
 21
10.9032132553
  0
LINE
  5
221
100
AcDbEntity
  8
0
100
AcDbLine
 62
7
  6
CONTINUOUS
 10
45.2367072544
 20
10.914429545
 11
43.4367072544
 21
10.914429545
  0
LINE
  5
222
100
AcDbEntity
  8
0
100
AcDbLine
 62
7
  6
CONTINUOUS
 10
37.2367072544
 20
10.914429545
 11
35.4367072544
 21
10.914429545
  0
LINE
  5
223
100
AcDbEntity
  8
0
100
AcDbLine
 62
7
  6
CONTINUOUS
 10
25.0367072544
 20
10.914429545
 11
23.2367072544
 21
10.914429545
  0
LINE
  5
224
100
AcDbEntity
  8
0
100
AcDbLine
 62
7
  6
CONTINUOUS
 10
17.0367072544
 20
10.914429545
 11
15.2367072544
 21
10.914429545
  0
LINE
  5
225
100
AcDbEntity
  8
0
100
AcDbLine
 62
7
  6
CONTINUOUS
 10
16.6367072544
 20
10.959822509
 11
17.0367072544
 21
10.959822509
  0
LINE
  5
226
100
AcDbEntity
  8
0
100
AcDbLine
 62
7
  6
CONTINUOUS
 10
23.2367072544
 20
10.959822509
 11
23.6367072544
 21
10.959822509
  0
LINE
  5
227
100
AcDbEntity
  8
0
100
AcDbLine
 62
7
  6
CONTINUOUS
 10
36.8367072544
 20
10.959822509
 11
37.2367072544
 21
10.959822509
  0
LINE
  5
228
100
AcDbEntity
  8
0
100
AcDbLine
 62
7
  6
CONTINUOUS
 10
43.4367072544
 20
10.959822509
 11
43.8367072544
 21
10.959822509
  0
LINE
  5
229
100
AcDbEntity
  8
0
100
AcDbLine
 62
7
  6
CONTINUOUS
 10
15.2367072544
 20
11.6732132553
 11
15.8867072544
 21
11.6732132553
  0
LINE
  5
22A
100
AcDbEntity
  8
0
100
AcDbLine
 62
7
  6
CONTINUOUS
 10
24.3867072544
 20
11.6732132553
 11
25.0367072544
 21
11.6732132553
  0
LINE
  5
22B
100
AcDbEntity
  8
0
100
AcDbLine
 62
7
  6
CONTINUOUS
 10
25.3367072544
 20
11.6732132553
 11
25.9867072544
 21
11.6732132553
  0
LINE
  5
22C
100
AcDbEntity
  8
0
100
AcDbLine
 62
7
  6
CONTINUOUS
 10
34.4867072544
 20
11.6732132553
 11
35.1367072544
 21
11.6732132553
  0
LINE
  5
22D
100
AcDbEntity
  8
0
100
AcDbLine
 62
7
  6
CONTINUOUS
 10
35.4367072544
 20
11.6732132553
 11
36.0867072544
 21
11.6732132553
  0
LINE
  5
22E
100
AcDbEntity
  8
0
100
AcDbLine
 62
7
  6
CONTINUOUS
 10
44.5867072544
 20
11.6732132553
 11
45.2367072544
 21
11.6732132553
  0
LINE
  5
22F
100
AcDbEntity
  8
0
100
AcDbLine
 62
7
  6
CONTINUOUS
 10
45.2367072544
 20
12.0190956082
 11
44.5867072544
 21
12.0190956082
  0
LINE
  5
230
100
AcDbEntity
  8
0
100
AcDbLine
 62
7
  6
CONTINUOUS
 10
36.0867072544
 20
12.0190956082
 11
35.4367072544
 21
12.0190956082
  0
LINE
  5
231
100
AcDbEntity
  8
0
100
AcDbLine
 62
7
  6
CONTINUOUS
 10
35.1367072544
 20
12.0190956082
 11
34.4867072544
 21
12.0190956082
  0
LINE
  5
232
100
AcDbEntity
  8
0
100
AcDbLine
 62
7
  6
CONTINUOUS
 10
25.9867072544
 20
12.0190956082
 11
25.3367072544
 21
12.0190956082
  0
LINE
  5
233
100
AcDbEntity
  8
0
100
AcDbLine
 62
7
  6
CONTINUOUS
 10
25.0367072544
 20
12.0190956082
 11
24.3867072544
 21
12.0190956082
  0
LINE
  5
234
100
AcDbEntity
  8
0
100
AcDbLine
 62
7
  6
CONTINUOUS
 10
15.8867072544
 20
12.0190956082
 11
15.2367072544
 21
12.0190956082
  0
LINE
  5
235
100
AcDbEntity
  8
0
100
AcDbLine
 62
7
  6
CONTINUOUS
 10
15.2367072544
 20
12.0232132553
 11
15.8867072544
 21
12.0232132553
  0
LINE
  5
236
100
AcDbEntity
  8
0
100
AcDbLine
 62
7
  6
CONTINUOUS
 10
24.3867072544
 20
12.0232132553
 11
25.0367072544
 21
12.0232132553
  0
LINE
  5
237
100
AcDbEntity
  8
0
100
AcDbLine
 62
7
  6
CONTINUOUS
 10
25.3367072544
 20
12.0232132553
 11
25.9867072544
 21
12.0232132553
  0
LINE
  5
238
100
AcDbEntity
  8
0
100
AcDbLine
 62
7
  6
CONTINUOUS
 10
34.4867072544
 20
12.0232132553
 11
35.1367072544
 21
12.0232132553
  0
LINE
  5
239
100
AcDbEntity
  8
0
100
AcDbLine
 62
7
  6
CONTINUOUS
 10
35.4367072544
 20
12.0232132553
 11
36.0867072544
 21
12.0232132553
  0
LINE
  5
23A
100
AcDbEntity
  8
0
100
AcDbLine
 62
7
  6
CONTINUOUS
 10
44.5867072544
 20
12.0232132553
 11
45.2367072544
 21
12.0232132553
  0
LINE
  5
23B
100
AcDbEntity
  8
0
100
AcDbLine
 62
7
  6
CONTINUOUS
 10
42.0467072544
 20
12.8278707895
 11
38.6267072544
 21
12.8278707895
  0
LINE
  5
23C
100
AcDbEntity
  8
0
100
AcDbLine
 62
7
  6
CONTINUOUS
 10
21.8467072544
 20
12.8278707895
 11
18.4267072544
 21
12.8278707895
  0
LINE
  5
23D
100
AcDbEntity
  8
0
100
AcDbLine
 62
7
  6
CONTINUOUS
 10
28.5267072544
 20
12.8278707895
 11
31.9467072544
 21
12.8278707895
  0
LINE
  5
23E
100
AcDbEntity
  8
0
100
AcDbLine
 62
7
  6
CONTINUOUS
 10
16.6367072544
 20
13.7132132553
 11
23.6367072544
 21
13.7132132553
  0
LINE
  5
23F
100
AcDbEntity
  8
0
100
AcDbLine
 62
7
  6
CONTINUOUS
 10
26.7367072544
 20
13.7132132553
 11
33.7367072544
 21
13.7132132553
  0
LINE
  5
240
100
AcDbEntity
  8
0
100
AcDbLine
 62
7
  6
CONTINUOUS
 10
36.8367072544
 20
13.7132132553
 11
43.8367072544
 21
13.7132132553
  0
LINE
  5
241
100
AcDbEntity
  8
0
100
AcDbLine
 62
7
  6
CONTINUOUS
 10
23.2367072544
 20
11.7372315201
 11
21.8467072544
 21
12.8278707895
  0
LINE
  5
242
100
AcDbEntity
  8
0
100
AcDbLine
 62
7
  6
CONTINUOUS
 10
17.0367072544
 20
9.2497864099
 11
17.5108266934
 21
8.4532132553
  0
LINE
  5
243
100
AcDbEntity
  8
0
100
AcDbLine
 62
7
  6
CONTINUOUS
 10
43.8367072544
 20
16.3332132553
 11
36.8367072544
 21
16.3332132553
  0
LINE
  5
244
100
AcDbEntity
  8
0
100
AcDbLine
 62
7
  6
CONTINUOUS
 10
33.7367072544
 20
16.3332132553
 11
26.7367072544
 21
16.3332132553
  0
LINE
  5
245
100
AcDbEntity
  8
0
100
AcDbLine
 62
7
  6
CONTINUOUS
 10
23.6367072544
 20
16.3332132553
 11
16.6367072544
 21
16.3332132553
  0
LINE
  5
246
100
AcDbEntity
  8
0
100
AcDbLine
 62
7
  6
CONTINUOUS
 10
25.9867072544
 20
16.6590181063
 11
34.4867072544
 21
16.6590181063
  0
LINE
  5
247
100
AcDbEntity
  8
0
100
AcDbLine
 62
7
  6
CONTINUOUS
 10
44.5867072544
 20
16.7802378306
 11
36.0867072544
 21
16.7802378306
  0
LINE
  5
248
100
AcDbEntity
  8
0
100
AcDbLine
 62
7
  6
CONTINUOUS
 10
24.3867072544
 20
16.7802378306
 11
15.8867072544
 21
16.7802378306
  0
LINE
  5
249
100
AcDbEntity
  8
0
100
AcDbLine
 62
7
  6
CONTINUOUS
 10
26.9822975142
 20
76.8499842148
 11
26.8760025764
 21
76.6773117743
  0
LINE
  5
24A
100
AcDbEntity
  8
0
100
AcDbLine
 62
7
  6
CONTINUOUS
 10
17.3767071209
 20
60.9732131927
 11
15.9867072544
 21
60.5592890785
  0
LINE
  5
24B
100
AcDbEntity
  8
0
100
AcDbLine
 62
7
  6
CONTINUOUS
 10
35.1367072544
 20
19.386947754
 11
34.4867072544
 21
19.386947754
  0
LINE
  5
24C
100
AcDbEntity
  8
0
100
AcDbLine
 62
7
  6
CONTINUOUS
 10
25.9867072544
 20
19.386947754
 11
25.3367072544
 21
19.386947754
  0
LINE
  5
24D
100
AcDbEntity
  8
0
100
AcDbLine
 62
7
  6
CONTINUOUS
 10
45.2367072544
 20
19.3952980515
 11
44.5867072544
 21
19.3952980515
  0
LINE
  5
24E
100
AcDbEntity
  8
0
100
AcDbLine
 62
7
  6
CONTINUOUS
 10
36.0867072544
 20
19.3952980515
 11
35.4367072544
 21
19.3952980515
  0
LINE
  5
24F
100
AcDbEntity
  8
0
100
AcDbLine
 62
7
  6
CONTINUOUS
 10
25.0367072544
 20
19.3952980515
 11
24.3867072544
 21
19.3952980515
  0
LINE
  5
250
100
AcDbEntity
  8
0
100
AcDbLine
 62
7
  6
CONTINUOUS
 10
15.8867072544
 20
19.3952980515
 11
15.2367072544
 21
19.3952980515
  0
LINE
  5
251
100
AcDbEntity
  8
0
100
AcDbLine
 62
7
  6
CONTINUOUS
 10
31.9467072544
 20
12.8278707895
 11
33.3367072544
 21
11.7372315201
  0
LINE
  5
252
100
AcDbEntity
  8
0
100
AcDbLine
 62
7
  6
CONTINUOUS
 10
27.1367072544
 20
9.0073535769
 11
27.4665307968
 21
8.4532132553
  0
LINE
  5
253
100
AcDbEntity
  8
0
100
AcDbLine
 62
7
  6
CONTINUOUS
 10
15.2367072544
 20
6.7932135309
 11
15.2367072544
 21
33.8732131361
  0
LINE
  5
254
100
AcDbEntity
  8
0
100
AcDbLine
 62
7
  6
CONTINUOUS
 10
25.3367072544
 20
26.2732132553
 11
26.3367072544
 21
26.2732132553
  0
LINE
  5
255
100
AcDbEntity
  8
0
100
AcDbLine
 62
7
  6
CONTINUOUS
 10
34.1367072544
 20
26.2732132553
 11
35.1367072544
 21
26.2732132553
  0
LINE
  5
256
100
AcDbEntity
  8
0
100
AcDbLine
 62
7
  6
CONTINUOUS
 10
15.2367072544
 20
26.4732132553
 11
15.8867072544
 21
26.4732132553
  0
LINE
  5
257
100
AcDbEntity
  8
0
100
AcDbLine
 62
7
  6
CONTINUOUS
 10
24.3867072544
 20
26.4732132553
 11
25.0367072544
 21
26.4732132553
  0
LINE
  5
258
100
AcDbEntity
  8
0
100
AcDbLine
 62
7
  6
CONTINUOUS
 10
35.4367072544
 20
26.4732132553
 11
36.0867072544
 21
26.4732132553
  0
LINE
  5
259
100
AcDbEntity
  8
0
100
AcDbLine
 62
7
  6
CONTINUOUS
 10
44.5867072544
 20
26.4732132553
 11
45.2367072544
 21
26.4732132553
  0
LINE
  5
25A
100
AcDbEntity
  8
0
100
AcDbLine
 62
7
  6
CONTINUOUS
 10
27.8367072544
 20
26.5593642365
 11
32.6367072544
 21
26.5593642365
  0
LINE
  5
25B
100
AcDbEntity
  8
0
100
AcDbLine
 62
7
  6
CONTINUOUS
 10
35.1367072544
 20
26.5732132553
 11
34.1367072544
 21
26.5732132553
  0
LINE
  5
25C
100
AcDbEntity
  8
0
100
AcDbLine
 62
7
  6
CONTINUOUS
 10
26.3367072544
 20
26.5732132553
 11
25.3367072544
 21
26.5732132553
  0
LINE
  5
25D
100
AcDbEntity
  8
0
100
AcDbLine
 62
7
  6
CONTINUOUS
 10
45.2367072544
 20
26.8490102624
 11
44.5867072544
 21
26.8490102624
  0
LINE
  5
25E
100
AcDbEntity
  8
0
100
AcDbLine
 62
7
  6
CONTINUOUS
 10
36.0867072544
 20
26.8490102624
 11
35.4367072544
 21
26.8490102624
  0
LINE
  5
25F
100
AcDbEntity
  8
0
100
AcDbLine
 62
7
  6
CONTINUOUS
 10
25.0367072544
 20
26.8490102624
 11
24.3867072544
 21
26.8490102624
  0
LINE
  5
260
100
AcDbEntity
  8
0
100
AcDbLine
 62
7
  6
CONTINUOUS
 10
15.8867072544
 20
26.8490102624
 11
15.2367072544
 21
26.8490102624
  0
LINE
  5
261
100
AcDbEntity
  8
0
100
AcDbLine
 62
7
  6
CONTINUOUS
 10
45.2367072544
 20
26.8532132553
 11
44.5867072544
 21
26.8532132553
  0
LINE
  5
262
100
AcDbEntity
  8
0
100
AcDbLine
 62
7
  6
CONTINUOUS
 10
36.0867072544
 20
26.8532132553
 11
35.4367072544
 21
26.8532132553
  0
LINE
  5
263
100
AcDbEntity
  8
0
100
AcDbLine
 62
7
  6
CONTINUOUS
 10
25.0367072544
 20
26.8532132553
 11
24.3867072544
 21
26.8532132553
  0
LINE
  5
264
100
AcDbEntity
  8
0
100
AcDbLine
 62
7
  6
CONTINUOUS
 10
15.8867072544
 20
26.8532132553
 11
15.2367072544
 21
26.8532132553
  0
LINE
  5
265
100
AcDbEntity
  8
0
100
AcDbLine
 62
7
  6
CONTINUOUS
 10
43.4367072544
 20
11.7372315201
 11
42.0467072544
 21
12.8278707895
  0
LINE
  5
266
100
AcDbEntity
  8
0
100
AcDbLine
 62
7
  6
CONTINUOUS
 10
15.5287750057
 20
41.6732132422
 11
15.486707165
 21
43.1732132553
  0
LINE
  5
267
100
AcDbEntity
  8
0
100
AcDbLine
 62
7
  6
CONTINUOUS
 10
15.3367074198
 20
26.9732131345
 11
15.3367074198
 21
35.1532132553
  0
LINE
  5
268
100
AcDbEntity
  8
0
100
AcDbLine
 62
7
  6
CONTINUOUS
 10
15.8867072544
 20
11.6732132553
 11
15.8867072544
 21
19.3952980515
  0
LINE
  5
269
100
AcDbEntity
  8
0
100
AcDbLine
 62
7
  6
CONTINUOUS
 10
15.8867072544
 20
26.4732132553
 11
15.8867072544
 21
26.9732131345
  0
LINE
  5
26A
100
AcDbEntity
  8
0
100
AcDbLine
 62
7
  6
CONTINUOUS
 10
15.9867072507
 20
51.8732132553
 11
15.9867072507
 21
60.5592890774
  0
LINE
  5
26B
100
AcDbEntity
  8
0
100
AcDbLine
 62
7
  6
CONTINUOUS
 10
16.3367075837
 20
26.9732131345
 11
16.3367075837
 21
35.1532132553
  0
LINE
  5
26C
100
AcDbEntity
  8
0
100
AcDbLine
 62
7
  6
CONTINUOUS
 10
16.6367072544
 20
16.3332132553
 11
16.6367072544
 21
10.959822509
  0
LINE
  5
26D
100
AcDbEntity
  8
0
100
AcDbLine
 62
7
  6
CONTINUOUS
 10
16.8367072544
 20
33.4732132553
 11
16.8367072544
 21
28.4732132553
  0
LINE
  5
26E
100
AcDbEntity
  8
0
100
AcDbLine
 62
7
  6
CONTINUOUS
 10
16.8378988089
 20
37.1832132553
 11
16.8378988089
 21
41.6732132422
  0
LINE
  5
26F
100
AcDbEntity
  8
0
100
AcDbLine
 62
7
  6
CONTINUOUS
 10
16.9859618476
 20
37.1832132553
 11
16.9859618476
 21
41.6732132422
  0
LINE
  5
270
100
AcDbEntity
  8
0
100
AcDbLine
 62
7
  6
CONTINUOUS
 10
17.0367072544
 20
11.7372315201
 11
17.0367072544
 21
9.2497864099
  0
LINE
  5
271
100
AcDbEntity
  8
0
100
AcDbLine
 62
7
  6
CONTINUOUS
 10
17.3367072544
 20
31.1732132553
 11
17.3367072544
 21
33.4732132553
  0
LINE
  5
272
100
AcDbEntity
  8
0
100
AcDbLine
 62
7
  6
CONTINUOUS
 10
17.5867073229
 20
43.1732132553
 11
17.5867073229
 21
43.7382132553
  0
LINE
  5
273
100
AcDbEntity
  8
0
100
AcDbLine
 62
7
  6
CONTINUOUS
 10
17.6367072544
 20
50.6732132553
 11
17.6367072544
 21
49.4232132553
  0
LINE
  5
274
100
AcDbEntity
  8
0
100
AcDbLine
 62
7
  6
CONTINUOUS
 10
17.7367072544
 20
31.1732132553
 11
17.7367072544
 21
33.0732132553
  0
LINE
  5
275
100
AcDbEntity
  8
0
100
AcDbLine
 62
7
  6
CONTINUOUS
 10
17.7624143612
 20
60.9732131927
 11
17.7624143612
 21
61.2034287735
  0
LINE
  5
276
100
AcDbEntity
  8
0
100
AcDbLine
 62
7
  6
CONTINUOUS
 10
17.5867073229
 20
43.7382132553
 11
17.5869602379
 21
43.7782132553
  0
LINE
  5
277
100
AcDbEntity
  8
0
100
AcDbLine
 62
7
  6
CONTINUOUS
 10
15.3367074198
 20
26.9732131345
 11
45.136707089
 21
26.9732131345
  0
LINE
  5
278
100
AcDbEntity
  8
0
100
AcDbLine
 62
7
  6
CONTINUOUS
 10
16.8367072544
 20
28.4732132553
 11
23.7367072544
 21
28.4732132553
  0
LINE
  5
279
100
AcDbEntity
  8
0
100
AcDbLine
 62
7
  6
CONTINUOUS
 10
25.2367072544
 20
28.4732132553
 11
35.2367072544
 21
28.4732132553
  0
LINE
  5
27A
100
AcDbEntity
  8
0
100
AcDbLine
 62
7
  6
CONTINUOUS
 10
36.7367072544
 20
28.4732132553
 11
43.6367072544
 21
28.4732132553
  0
LINE
  5
27B
100
AcDbEntity
  8
0
100
AcDbLine
 62
7
  6
CONTINUOUS
 10
16.8378988089
 20
40.3087398032
 11
16.3136503982
 21
41.6732132422
  0
LINE
  5
27C
100
AcDbEntity
  8
0
100
AcDbLine
 62
7
  6
CONTINUOUS
 10
19.7797348252
 20
48.6375627793
 11
19.7796067465
 21
49.4232132553
  0
LINE
  5
27D
100
AcDbEntity
  8
0
100
AcDbLine
 62
7
  6
CONTINUOUS
 10
18.0991693947
 20
37.1832132553
 11
18.0991693947
 21
41.6732132422
  0
LINE
  5
27E
100
AcDbEntity
  8
0
100
AcDbLine
 62
7
  6
CONTINUOUS
 10
18.4267072544
 20
12.8278707895
 11
18.4267072544
 21
8.4532132553
  0
LINE
  5
27F
100
AcDbEntity
  8
0
100
AcDbLine
 62
7
  6
CONTINUOUS
 10
19.2755257487
 20
46.0732132553
 11
19.2755257487
 21
44.173213279
  0
LINE
  5
280
100
AcDbEntity
  8
0
100
AcDbLine
 62
7
  6
CONTINUOUS
 10
19.3617072544
 20
46.7232132553
 11
19.3617072544
 21
49.4232132553
  0
LINE
  5
281
100
AcDbEntity
  8
0
100
AcDbLine
 62
7
  6
CONTINUOUS
 10
19.883567634
 20
46.4732132553
 11
19.883567634
 21
46.0732132553
  0
LINE
  5
282
100
AcDbEntity
  8
0
100
AcDbLine
 62
7
  6
CONTINUOUS
 10
20.0441789113
 20
35.2532132553
 11
20.0441789113
 21
36.7532132553
  0
LINE
  5
283
100
AcDbEntity
  8
0
100
AcDbLine
 62
7
  6
CONTINUOUS
 10
20.0878992527
 20
37.1832132553
 11
20.0878992527
 21
40.3075980692
  0
LINE
  5
284
100
AcDbEntity
  8
0
100
AcDbLine
 62
7
  6
CONTINUOUS
 10
20.2150230281
 20
36.7532132553
 11
20.2150230281
 21
35.2532132553
  0
LINE
  5
285
100
AcDbEntity
  8
0
100
AcDbLine
 62
7
  6
CONTINUOUS
 10
20.2367072544
 20
36.9532126813
 11
20.2367072544
 21
37.1732132031
  0
LINE
  5
286
100
AcDbEntity
  8
0
100
AcDbLine
 62
7
  6
CONTINUOUS
 10
20.3498473382
 20
35.2532132553
 11
20.3498473382
 21
35.1532132553
  0
LINE
  5
287
100
AcDbEntity
  8
0
100
AcDbLine
 62
7
  6
CONTINUOUS
 10
19.7797348252
 20
48.6375627793
 11
19.7796248432
 21
48.6270404828
  0
LINE
  5
288
100
AcDbEntity
  8
0
100
AcDbLine
 62
7
  6
CONTINUOUS
 10
45.2367072544
 20
30.2732132553
 11
45.136707089
 21
30.2732132553
  0
LINE
  5
289
100
AcDbEntity
  8
0
100
AcDbLine
 62
7
  6
CONTINUOUS
 10
15.3367074198
 20
30.2732132553
 11
15.2367072544
 21
30.2732132553
  0
LINE
  5
28A
100
AcDbEntity
  8
0
100
AcDbLine
 62
7
  6
CONTINUOUS
 10
45.2367072544
 20
30.2932134877
 11
45.136707089
 21
30.2932134877
  0
LINE
  5
28B
100
AcDbEntity
  8
0
100
AcDbLine
 62
7
  6
CONTINUOUS
 10
15.3367074198
 20
30.2932134877
 11
15.2367072544
 21
30.2932134877
  0
LINE
  5
28C
100
AcDbEntity
  8
0
100
AcDbLine
 62
7
  6
CONTINUOUS
 10
45.2367072544
 20
30.3932134877
 11
45.136707089
 21
30.3932134877
  0
LINE
  5
28D
100
AcDbEntity
  8
0
100
AcDbLine
 62
7
  6
CONTINUOUS
 10
15.3367074198
 20
30.3932134877
 11
15.2367072544
 21
30.3932134877
  0
LINE
  5
28E
100
AcDbEntity
  8
0
100
AcDbLine
 62
7
  6
CONTINUOUS
 10
45.2367072544
 20
30.5005937352
 11
45.136707089
 21
30.5005937352
  0
LINE
  5
28F
100
AcDbEntity
  8
0
100
AcDbLine
 62
7
  6
CONTINUOUS
 10
15.3367074198
 20
30.5005937352
 11
15.2367072544
 21
30.5005937352
  0
LINE
  5
290
100
AcDbEntity
  8
0
100
AcDbLine
 62
7
  6
CONTINUOUS
 10
45.2367072544
 20
30.7005938306
 11
45.136707089
 21
30.7005938306
  0
LINE
  5
291
100
AcDbEntity
  8
0
100
AcDbLine
 62
7
  6
CONTINUOUS
 10
15.3367074198
 20
30.7005938306
 11
15.2367072544
 21
30.7005938306
  0
LINE
  5
292
100
AcDbEntity
  8
0
100
AcDbLine
 62
7
  6
CONTINUOUS
 10
15.2367072544
 20
30.8505939542
 11
15.3367074198
 21
30.8505939542
  0
LINE
  5
293
100
AcDbEntity
  8
0
100
AcDbLine
 62
7
  6
CONTINUOUS
 10
45.136707089
 20
30.8505939542
 11
45.2367072544
 21
30.8505939542
  0
LINE
  5
294
100
AcDbEntity
  8
0
100
AcDbLine
 62
7
  6
CONTINUOUS
 10
45.2367072544
 20
31.0469195469
 11
45.136707089
 21
31.0469195469
  0
LINE
  5
295
100
AcDbEntity
  8
0
100
AcDbLine
 62
7
  6
CONTINUOUS
 10
15.3367074198
 20
31.0469195469
 11
15.2367072544
 21
31.0469195469
  0
LINE
  5
296
100
AcDbEntity
  8
0
100
AcDbLine
 62
7
  6
CONTINUOUS
 10
43.6367072544
 20
31.1732132553
 11
36.7367072544
 21
31.1732132553
  0
LINE
  5
297
100
AcDbEntity
  8
0
100
AcDbLine
 62
7
  6
CONTINUOUS
 10
35.2367072544
 20
31.1732132553
 11
25.2367072544
 21
31.1732132553
  0
LINE
  5
298
100
AcDbEntity
  8
0
100
AcDbLine
 62
7
  6
CONTINUOUS
 10
23.7367072544
 20
31.1732132553
 11
16.8367072544
 21
31.1732132553
  0
LINE
  5
299
100
AcDbEntity
  8
0
100
AcDbLine
 62
7
  6
CONTINUOUS
 10
27.8367072544
 20
31.2732132553
 11
32.6367072544
 21
31.2732132553
  0
LINE
  5
29A
100
AcDbEntity
  8
0
100
AcDbLine
 62
7
  6
CONTINUOUS
 10
15.2367072544
 20
31.3459075379
 11
15.3367074198
 21
31.3459075379
  0
LINE
  5
29B
100
AcDbEntity
  8
0
100
AcDbLine
 62
7
  6
CONTINUOUS
 10
45.136707089
 20
31.3459075379
 11
45.2367072544
 21
31.3459075379
  0
LINE
  5
29C
100
AcDbEntity
  8
0
100
AcDbLine
 62
7
  6
CONTINUOUS
 10
42.7367072544
 20
31.3732132553
 11
37.9367072544
 21
31.3732132553
  0
LINE
  5
29D
100
AcDbEntity
  8
0
100
AcDbLine
 62
7
  6
CONTINUOUS
 10
22.5367072544
 20
31.3732132553
 11
17.7367072544
 21
31.3732132553
  0
LINE
  5
29E
100
AcDbEntity
  8
0
100
AcDbLine
 62
7
  6
CONTINUOUS
 10
45.2367072544
 20
31.4936225358
 11
45.136707089
 21
31.4936225358
  0
LINE
  5
29F
100
AcDbEntity
  8
0
100
AcDbLine
 62
7
  6
CONTINUOUS
 10
15.3367074198
 20
31.4936225358
 11
15.2367072544
 21
31.4936225358
  0
LINE
  5
2A0
100
AcDbEntity
  8
0
100
AcDbLine
 62
7
  6
CONTINUOUS
 10
45.2367072544
 20
31.8132177322
 11
45.136707089
 21
31.8132177322
  0
LINE
  5
2A1
100
AcDbEntity
  8
0
100
AcDbLine
 62
7
  6
CONTINUOUS
 10
15.3367074198
 20
31.8132177322
 11
15.2367072544
 21
31.8132177322
  0
LINE
  5
2A2
100
AcDbEntity
  8
0
100
AcDbLine
 62
7
  6
CONTINUOUS
 10
37.2367072544
 20
9.2497864099
 11
37.7108266934
 21
8.4532132553
  0
LINE
  5
2A3
100
AcDbEntity
  8
0
100
AcDbLine
 62
7
  6
CONTINUOUS
 10
21.3516154022
 20
35.2532132553
 11
21.3516154022
 21
36.7532132553
  0
LINE
  5
2A4
100
AcDbEntity
  8
0
100
AcDbLine
 62
7
  6
CONTINUOUS
 10
21.7367072581
 20
36.9532126813
 11
21.7367072581
 21
36.7532132553
  0
LINE
  5
2A5
100
AcDbEntity
  8
0
100
AcDbLine
 62
7
  6
CONTINUOUS
 10
21.8467072544
 20
12.8278707895
 11
21.8467072544
 21
8.4532132553
  0
LINE
  5
2A6
100
AcDbEntity
  8
0
100
AcDbLine
 62
7
  6
CONTINUOUS
 10
21.8617072544
 20
35.2532132553
 11
21.8617072544
 21
35.1532132553
  0
LINE
  5
2A7
100
AcDbEntity
  8
0
100
AcDbLine
 62
7
  6
CONTINUOUS
 10
21.8617072544
 20
36.7532132553
 11
21.8617072544
 21
38.7732133457
  0
LINE
  5
2A8
100
AcDbEntity
  8
0
100
AcDbLine
 62
7
  6
CONTINUOUS
 10
22.098501942
 20
48.6375627793
 11
22.0985378546
 21
49.4232132553
  0
LINE
  5
2A9
100
AcDbEntity
  8
0
100
AcDbLine
 62
7
  6
CONTINUOUS
 10
22.5367072544
 20
33.0732132553
 11
22.5367072544
 21
31.1732132553
  0
LINE
  5
2AA
100
AcDbEntity
  8
0
100
AcDbLine
 62
7
  6
CONTINUOUS
 10
42.7367072544
 20
32.5732132553
 11
37.9367072544
 21
32.5732132553
  0
LINE
  5
2AB
100
AcDbEntity
  8
0
100
AcDbLine
 62
7
  6
CONTINUOUS
 10
22.5367072544
 20
32.5732132553
 11
17.7367072544
 21
32.5732132553
  0
LINE
  5
2AC
100
AcDbEntity
  8
0
100
AcDbLine
 62
7
  6
CONTINUOUS
 10
42.7367072544
 20
33.0732132553
 11
37.9367072544
 21
33.0732132553
  0
LINE
  5
2AD
100
AcDbEntity
  8
0
100
AcDbLine
 62
7
  6
CONTINUOUS
 10
22.5367072544
 20
33.0732132553
 11
17.7367072544
 21
33.0732132553
  0
LINE
  5
2AE
100
AcDbEntity
  8
0
100
AcDbLine
 62
7
  6
CONTINUOUS
 10
27.8367072544
 20
33.0732132553
 11
32.6367072544
 21
33.0732132553
  0
LINE
  5
2AF
100
AcDbEntity
  8
0
100
AcDbLine
 62
7
  6
CONTINUOUS
 10
16.3367075837
 20
33.4732130358
 11
44.1367069251
 21
33.4732130358
  0
LINE
  5
2B0
100
AcDbEntity
  8
0
100
AcDbLine
 62
7
  6
CONTINUOUS
 10
15.2367072544
 20
33.8178845345
 11
15.3367074198
 21
33.8178845345
  0
LINE
  5
2B1
100
AcDbEntity
  8
0
100
AcDbLine
 62
7
  6
CONTINUOUS
 10
45.136707089
 20
33.8178845345
 11
45.2367072544
 21
33.8178845345
  0
LINE
  5
2B2
100
AcDbEntity
  8
0
100
AcDbLine
 62
7
  6
CONTINUOUS
 10
45.2367072544
 20
33.8732131361
 11
45.136707089
 21
33.8732131361
  0
LINE
  5
2B3
100
AcDbEntity
  8
0
100
AcDbLine
 62
7
  6
CONTINUOUS
 10
15.3367074198
 20
33.8732131361
 11
15.2367072544
 21
33.8732131361
  0
LINE
  5
2B4
100
AcDbEntity
  8
0
100
AcDbLine
 62
7
  6
CONTINUOUS
 10
19.7796248432
 20
48.6270404828
 11
19.8162611479
 21
48.4385105651
  0
LINE
  5
2B5
100
AcDbEntity
  8
0
100
AcDbLine
 62
7
  6
CONTINUOUS
 10
23.1367072544
 20
33.4732132553
 11
23.1367072544
 21
31.1732132553
  0
LINE
  5
2B6
100
AcDbEntity
  8
0
100
AcDbLine
 62
7
  6
CONTINUOUS
 10
23.2367072544
 20
9.2497864099
 11
23.2367072544
 21
11.7372315201
  0
LINE
  5
2B7
100
AcDbEntity
  8
0
100
AcDbLine
 62
7
  6
CONTINUOUS
 10
23.6367072544
 20
10.959822509
 11
23.6367072544
 21
16.3332132553
  0
LINE
  5
2B8
100
AcDbEntity
  8
0
100
AcDbLine
 62
7
  6
CONTINUOUS
 10
23.7367072544
 20
28.4732132553
 11
23.7367072544
 21
33.4732132553
  0
LINE
  5
2B9
100
AcDbEntity
  8
0
100
AcDbLine
 62
7
  6
CONTINUOUS
 10
24.3867072544
 20
26.9732131345
 11
24.3867072544
 21
26.4732132553
  0
LINE
  5
2BA
100
AcDbEntity
  8
0
100
AcDbLine
 62
7
  6
CONTINUOUS
 10
24.3867072544
 20
19.3952980515
 11
24.3867072544
 21
11.6732132553
  0
LINE
  5
2BB
100
AcDbEntity
  8
0
100
AcDbLine
 62
7
  6
CONTINUOUS
 10
25.0367072544
 20
6.7932135309
 11
25.0367072544
 21
26.9732131345
  0
LINE
  5
2BC
100
AcDbEntity
  8
0
100
AcDbLine
 62
7
  6
CONTINUOUS
 10
25.2367072544
 20
33.4732132553
 11
25.2367072544
 21
28.4732132553
  0
LINE
  5
2BD
100
AcDbEntity
  8
0
100
AcDbLine
 62
7
  6
CONTINUOUS
 10
25.2527329366
 20
35.1532132553
 11
25.2527329366
 21
33.4732132553
  0
LINE
  5
2BE
100
AcDbEntity
  8
0
100
AcDbLine
 62
7
  6
CONTINUOUS
 10
25.3367072544
 20
6.6719953786
 11
25.3367072544
 21
26.9732131345
  0
LINE
  5
2BF
100
AcDbEntity
  8
0
100
AcDbLine
 62
7
  6
CONTINUOUS
 10
26.0247035699
 20
75.2695189404
 11
26.0248669398
 21
75.2757005487
  0
LINE
  5
2C0
100
AcDbEntity
  8
0
100
AcDbLine
 62
7
  6
CONTINUOUS
 10
15.3367074198
 20
35.1532132553
 11
28.3984618315
 21
35.1532132553
  0
LINE
  5
2C1
100
AcDbEntity
  8
0
100
AcDbLine
 62
7
  6
CONTINUOUS
 10
32.0797032859
 20
35.1532132553
 11
45.136707089
 21
35.1532132553
  0
LINE
  5
2C2
100
AcDbEntity
  8
0
100
AcDbLine
 62
7
  6
CONTINUOUS
 10
40.4292355975
 20
35.2532132553
 11
32.8467072544
 21
35.2532132553
  0
LINE
  5
2C3
100
AcDbEntity
  8
0
100
AcDbLine
 62
7
  6
CONTINUOUS
 10
27.6267072544
 20
35.2532132553
 11
20.0442277451
 21
35.2532132553
  0
LINE
  5
2C4
100
AcDbEntity
  8
0
100
AcDbLine
 62
7
  6
CONTINUOUS
 10
20.0441789113
 20
36.7532132553
 11
27.6267072544
 21
36.7532132553
  0
LINE
  5
2C5
100
AcDbEntity
  8
0
100
AcDbLine
 62
7
  6
CONTINUOUS
 10
32.8467072544
 20
36.7532132553
 11
40.4291867637
 21
36.7532132553
  0
LINE
  5
2C6
100
AcDbEntity
  8
0
100
AcDbLine
 62
7
  6
CONTINUOUS
 10
38.6117072544
 20
36.7732130179
 11
32.0797032859
 21
36.7732132553
  0
LINE
  5
2C7
100
AcDbEntity
  8
0
100
AcDbLine
 62
7
  6
CONTINUOUS
 10
28.3984059227
 20
36.7732132553
 11
21.8617072544
 21
36.7732130179
  0
LINE
  5
2C8
100
AcDbEntity
  8
0
100
AcDbLine
 62
7
  6
CONTINUOUS
 10
40.2367072544
 20
36.9532126813
 11
38.7367077163
 21
36.9532126813
  0
LINE
  5
2C9
100
AcDbEntity
  8
0
100
AcDbLine
 62
7
  6
CONTINUOUS
 10
21.7367072581
 20
36.9532126813
 11
20.2367072544
 21
36.9532126813
  0
LINE
  5
2CA
100
AcDbEntity
  8
0
100
AcDbLine
 62
7
  6
CONTINUOUS
 10
20.2652467295
 20
47.4008494406
 11
19.8162611479
 21
48.4385105651
  0
LINE
  5
2CB
100
AcDbEntity
  8
0
100
AcDbLine
 62
7
  6
CONTINUOUS
 10
25.6323614811
 20
44.1732133028
 11
25.6323614811
 21
46.0732132553
  0
LINE
  5
2CC
100
AcDbEntity
  8
0
100
AcDbLine
 62
7
  6
CONTINUOUS
 10
25.9867072544
 20
11.6732132553
 11
25.9867072544
 21
19.386947754
  0
LINE
  5
2CD
100
AcDbEntity
  8
0
100
AcDbLine
 62
7
  6
CONTINUOUS
 10
26.0247035699
 20
61.7071375351
 11
26.0247035699
 21
75.269534255
  0
LINE
  5
2CE
100
AcDbEntity
  8
0
100
AcDbLine
 62
7
  6
CONTINUOUS
 10
26.0847167412
 20
61.2034391466
 11
26.0847167412
 21
61.7071375306
  0
LINE
  5
2CF
100
AcDbEntity
  8
0
100
AcDbLine
 62
7
  6
CONTINUOUS
 10
26.2448614544
 20
38.7732133457
 11
26.2448614544
 21
36.7732130179
  0
LINE
  5
2D0
100
AcDbEntity
  8
0
100
AcDbLine
 62
7
  6
CONTINUOUS
 10
26.3367072544
 20
26.2732132553
 11
26.3367072544
 21
26.9732131345
  0
LINE
  5
2D1
100
AcDbEntity
  8
0
100
AcDbLine
 62
7
  6
CONTINUOUS
 10
26.7367072544
 20
16.3332132553
 11
26.7367072544
 21
10.9032132553
  0
LINE
  5
2D2
100
AcDbEntity
  8
0
100
AcDbLine
 62
7
  6
CONTINUOUS
 10
26.8844621404
 20
35.2532132553
 11
26.8844621404
 21
36.7532132553
  0
LINE
  5
2D3
100
AcDbEntity
  8
0
100
AcDbLine
 62
7
  6
CONTINUOUS
 10
27.1367072544
 20
11.7372315201
 11
27.1367072544
 21
9.0073535769
  0
LINE
  5
2D4
100
AcDbEntity
  8
0
100
AcDbLine
 62
7
  6
CONTINUOUS
 10
27.3367072544
 20
31.1732132553
 11
27.3367072544
 21
33.4732132553
  0
LINE
  5
2D5
100
AcDbEntity
  8
0
100
AcDbLine
 62
7
  6
CONTINUOUS
 10
27.3661672355
 20
46.0732132553
 11
27.3661672355
 21
46.1732132553
  0
LINE
  5
2D6
100
AcDbEntity
  8
0
100
AcDbLine
 62
7
  6
CONTINUOUS
 10
27.6267072544
 20
35.2532132553
 11
27.6267072544
 21
36.7532132553
  0
LINE
  5
2D7
100
AcDbEntity
  8
0
100
AcDbLine
 62
7
  6
CONTINUOUS
 10
27.7367072544
 20
40.3075983748
 11
27.7367072544
 21
38.7732133457
  0
LINE
  5
2D8
100
AcDbEntity
  8
0
100
AcDbLine
 62
7
  6
CONTINUOUS
 10
27.8367072544
 20
26.5593642365
 11
27.8367072544
 21
26.9732131345
  0
LINE
  5
2D9
100
AcDbEntity
  8
0
100
AcDbLine
 62
7
  6
CONTINUOUS
 10
27.8367072544
 20
31.1732132553
 11
27.8367072544
 21
33.0732132553
  0
LINE
  5
2DA
100
AcDbEntity
  8
0
100
AcDbLine
 62
7
  6
CONTINUOUS
 10
42.2315087161
 20
37.1732132031
 11
38.6117072544
 21
37.1732132031
  0
LINE
  5
2DB
100
AcDbEntity
  8
0
100
AcDbLine
 62
7
  6
CONTINUOUS
 10
21.8617072544
 20
37.1732132031
 11
18.2419057927
 21
37.1732132031
  0
LINE
  5
2DC
100
AcDbEntity
  8
0
100
AcDbLine
 62
7
  6
CONTINUOUS
 10
43.635515711
 20
37.1832132553
 11
39.2067386864
 21
37.1832132553
  0
LINE
  5
2DD
100
AcDbEntity
  8
0
100
AcDbLine
 62
7
  6
CONTINUOUS
 10
21.2666753225
 20
37.1832132553
 11
16.8378988089
 21
37.1832132553
  0
LINE
  5
2DE
100
AcDbEntity
  8
0
100
AcDbLine
 62
7
  6
CONTINUOUS
 10
39.3898830308
 20
37.3706072114
 11
38.6117072544
 21
37.3706072114
  0
LINE
  5
2DF
100
AcDbEntity
  8
0
100
AcDbLine
 62
7
  6
CONTINUOUS
 10
21.8617072544
 20
37.3706072114
 11
21.0835311146
 21
37.3706072114
  0
LINE
  5
2E0
100
AcDbEntity
  8
0
100
AcDbLine
 62
7
  6
CONTINUOUS
 10
21.8617072544
 20
38.7732133457
 11
38.6117072544
 21
38.7732133457
  0
LINE
  5
2E1
100
AcDbEntity
  8
0
100
AcDbLine
 62
7
  6
CONTINUOUS
 10
24.3001201393
 20
44.1499812699
 11
24.2804291402
 21
44.173213279
  0
LINE
  5
2E2
100
AcDbEntity
  8
0
100
AcDbLine
 62
7
  6
CONTINUOUS
 10
28.3984510459
 20
36.7732132553
 11
28.3984510459
 21
35.1532132553
  0
LINE
  5
2E3
100
AcDbEntity
  8
0
100
AcDbLine
 62
7
  6
CONTINUOUS
 10
28.5267072544
 20
12.8278707895
 11
28.5267072544
 21
8.4532132553
  0
LINE
  5
2E4
100
AcDbEntity
  8
0
100
AcDbLine
 62
7
  6
CONTINUOUS
 10
28.5867072544
 20
33.0732132553
 11
28.5867072544
 21
33.4732132553
  0
LINE
  5
2E5
100
AcDbEntity
  8
0
100
AcDbLine
 62
7
  6
CONTINUOUS
 10
29.1234997072
 20
38.7732133457
 11
29.1234997072
 21
41.6732132422
  0
LINE
  5
2E6
100
AcDbEntity
  8
0
100
AcDbLine
 62
7
  6
CONTINUOUS
 10
31.2913796433
 20
43.7858241289
 11
31.2838064484
 21
43.7782132553
  0
LINE
  5
2E7
100
AcDbEntity
  8
0
100
AcDbLine
 62
7
  6
CONTINUOUS
 10
30.3167072544
 20
43.7782132553
 11
30.7117072544
 21
44.1732132553
  0
LINE
  5
2E8
100
AcDbEntity
  8
0
100
AcDbLine
 62
7
  6
CONTINUOUS
 10
44.9445169765
 20
41.6732132422
 11
15.5288975323
 21
41.6732132422
  0
LINE
  5
2E9
100
AcDbEntity
  8
0
100
AcDbLine
 62
7
  6
CONTINUOUS
 10
31.3499148015
 20
38.7732133457
 11
31.3499148015
 21
41.6732132422
  0
LINE
  5
2EA
100
AcDbEntity
  8
0
100
AcDbLine
 62
7
  6
CONTINUOUS
 10
31.8867072544
 20
33.0732132553
 11
31.8867072544
 21
33.4732132553
  0
LINE
  5
2EB
100
AcDbEntity
  8
0
100
AcDbLine
 62
7
  6
CONTINUOUS
 10
31.9467072544
 20
12.8278707895
 11
31.9467072544
 21
8.4532132553
  0
LINE
  5
2EC
100
AcDbEntity
  8
0
100
AcDbLine
 62
7
  6
CONTINUOUS
 10
32.0797032859
 20
35.1532132553
 11
32.0797032859
 21
36.7732132553
  0
LINE
  5
2ED
100
AcDbEntity
  8
0
100
AcDbLine
 62
7
  6
CONTINUOUS
 10
32.6367072544
 20
26.5593642365
 11
32.6367072544
 21
26.9732131345
  0
LINE
  5
2EE
100
AcDbEntity
  8
0
100
AcDbLine
 62
7
  6
CONTINUOUS
 10
32.6367072544
 20
31.1732132553
 11
32.6367072544
 21
33.0732132553
  0
LINE
  5
2EF
100
AcDbEntity
  8
0
100
AcDbLine
 62
7
  6
CONTINUOUS
 10
32.7367072544
 20
38.7732133457
 11
32.7367072544
 21
40.3075983771
  0
LINE
  5
2F0
100
AcDbEntity
  8
0
100
AcDbLine
 62
7
  6
CONTINUOUS
 10
32.8467072544
 20
35.2532132553
 11
32.8467072544
 21
36.7532132553
  0
LINE
  5
2F1
100
AcDbEntity
  8
0
100
AcDbLine
 62
7
  6
CONTINUOUS
 10
33.1072472733
 20
46.1732132553
 11
33.1072472733
 21
46.0732132553
  0
LINE
  5
2F2
100
AcDbEntity
  8
0
100
AcDbLine
 62
7
  6
CONTINUOUS
 10
15.4868298433
 20
43.1732132553
 11
44.9865846655
 21
43.1732132553
  0
LINE
  5
2F3
100
AcDbEntity
  8
0
100
AcDbLine
 62
7
  6
CONTINUOUS
 10
42.845290572
 20
43.7782132553
 11
42.8313456532
 21
43.7782132553
  0
LINE
  5
2F4
100
AcDbEntity
  8
0
100
AcDbLine
 62
7
  6
CONTINUOUS
 10
42.7081679929
 20
43.7782132553
 11
42.6803842844
 21
43.7782132553
  0
LINE
  5
2F5
100
AcDbEntity
  8
0
100
AcDbLine
 62
7
  6
CONTINUOUS
 10
42.476130067
 20
43.7782132553
 11
42.4347190198
 21
43.7782132553
  0
LINE
  5
2F6
100
AcDbEntity
  8
0
100
AcDbLine
 62
7
  6
CONTINUOUS
 10
42.1509427432
 20
43.7782132553
 11
42.0962195203
 21
43.7782132553
  0
LINE
  5
2F7
100
AcDbEntity
  8
0
100
AcDbLine
 62
7
  6
CONTINUOUS
 10
41.7350808933
 20
43.7782132553
 11
41.6674619714
 21
43.7782132553
  0
LINE
  5
2F8
100
AcDbEntity
  8
0
100
AcDbLine
 62
7
  6
CONTINUOUS
 10
41.2317094771
 20
43.7782132553
 11
41.1517094771
 21
43.7782132553
  0
LINE
  5
2F9
100
AcDbEntity
  8
0
100
AcDbLine
 62
7
  6
CONTINUOUS
 10
40.644659455
 20
43.7782132553
 11
40.5528872252
 21
43.7782132553
  0
LINE
  5
2FA
100
AcDbEntity
  8
0
100
AcDbLine
 62
7
  6
CONTINUOUS
 10
39.9783986322
 20
43.7782132553
 11
39.8755526146
 21
43.7782132553
  0
LINE
  5
2FB
100
AcDbEntity
  8
0
100
AcDbLine
 62
7
  6
CONTINUOUS
 10
39.2379976558
 20
43.7782132553
 11
39.1248605708
 21
43.7782132553
  0
LINE
  5
2FC
100
AcDbEntity
  8
0
100
AcDbLine
 62
7
  6
CONTINUOUS
 10
38.4290914243
 20
43.7782132553
 11
38.3065243134
 21
43.7782132553
  0
LINE
  5
2FD
100
AcDbEntity
  8
0
100
AcDbLine
 62
7
  6
CONTINUOUS
 10
37.5578362026
 20
43.7782132553
 11
37.4267718755
 21
43.7782132553
  0
LINE
  5
2FE
100
AcDbEntity
  8
0
100
AcDbLine
 62
7
  6
CONTINUOUS
 10
36.6308627689
 20
43.7782132553
 11
36.4922987043
 21
43.7782132553
  0
LINE
  5
2FF
100
AcDbEntity
  8
0
100
AcDbLine
 62
7
  6
CONTINUOUS
 10
35.6552259509
 20
43.7782132553
 11
35.510216705
 21
43.7782132553
  0
LINE
  5
300
100
AcDbEntity
  8
0
100
AcDbLine
 62
7
  6
CONTINUOUS
 10
34.6383509339
 20
43.7782132553
 11
34.4880001146
 21
43.7782132553
  0
LINE
  5
301
100
AcDbEntity
  8
0
100
AcDbLine
 62
7
  6
CONTINUOUS
 10
33.5879767506
 20
43.7782132553
 11
33.4334286184
 21
43.7782132553
  0
LINE
  5
302
100
AcDbEntity
  8
0
100
AcDbLine
 62
7
  6
CONTINUOUS
 10
32.512097383
 20
43.7782132553
 11
32.3545281425
 21
43.7782132553
  0
LINE
  5
303
100
AcDbEntity
  8
0
100
AcDbLine
 62
7
  6
CONTINUOUS
 10
31.4189009225
 20
43.7782132553
 11
31.2838064484
 21
43.7782132553
  0
LINE
  5
304
100
AcDbEntity
  8
0
100
AcDbLine
 62
7
  6
CONTINUOUS
 10
29.1896080603
 20
43.7782132553
 11
29.0545135863
 21
43.7782132553
  0
LINE
  5
305
100
AcDbEntity
  8
0
100
AcDbLine
 62
7
  6
CONTINUOUS
 10
28.1188863573
 20
43.7782132553
 11
27.9613171258
 21
43.7782132553
  0
LINE
  5
306
100
AcDbEntity
  8
0
100
AcDbLine
 62
7
  6
CONTINUOUS
 10
27.0399858769
 20
43.7782132553
 11
26.8854377581
 21
43.7782132553
  0
LINE
  5
307
100
AcDbEntity
  8
0
100
AcDbLine
 62
7
  6
CONTINUOUS
 10
25.9854143764
 20
43.7782132553
 11
25.8350635749
 21
43.7782132553
  0
LINE
  5
308
100
AcDbEntity
  8
0
100
AcDbLine
 62
7
  6
CONTINUOUS
 10
24.9631977818
 20
43.7782132553
 11
24.8181885578
 21
43.7782132553
  0
LINE
  5
309
100
AcDbEntity
  8
0
100
AcDbLine
 62
7
  6
CONTINUOUS
 10
23.9811157785
 20
43.7782132553
 11
23.8425517398
 21
43.7782132553
  0
LINE
  5
30A
100
AcDbEntity
  8
0
100
AcDbLine
 62
7
  6
CONTINUOUS
 10
23.0466426035
 20
43.7782132553
 11
22.9155783062
 21
43.7782132553
  0
LINE
  5
30B
100
AcDbEntity
  8
0
100
AcDbLine
 62
7
  6
CONTINUOUS
 10
22.166890162
 20
43.7782132553
 11
22.0443230845
 21
43.7782132553
  0
LINE
  5
30C
100
AcDbEntity
  8
0
100
AcDbLine
 62
7
  6
CONTINUOUS
 10
21.3485539013
 20
43.7782132553
 11
21.235416853
 21
43.7782132553
  0
LINE
  5
30D
100
AcDbEntity
  8
0
100
AcDbLine
 62
7
  6
CONTINUOUS
 10
20.5978618544
 20
43.7782132553
 11
20.4950158766
 21
43.7782132553
  0
LINE
  5
30E
100
AcDbEntity
  8
0
100
AcDbLine
 62
7
  6
CONTINUOUS
 10
19.920527241
 20
43.7782132553
 11
19.8287550538
 21
43.7782132553
  0
LINE
  5
30F
100
AcDbEntity
  8
0
100
AcDbLine
 62
7
  6
CONTINUOUS
 10
19.3217049867
 20
43.7782132553
 11
19.2417050317
 21
43.7782132553
  0
LINE
  5
310
100
AcDbEntity
  8
0
100
AcDbLine
 62
7
  6
CONTINUOUS
 10
18.8059524903
 20
43.7782132553
 11
18.7383336155
 21
43.7782132553
  0
LINE
  5
311
100
AcDbEntity
  8
0
100
AcDbLine
 62
7
  6
CONTINUOUS
 10
18.3771949397
 20
43.7782132553
 11
18.3224717656
 21
43.7782132553
  0
LINE
  5
312
100
AcDbEntity
  8
0
100
AcDbLine
 62
7
  6
CONTINUOUS
 10
18.0386954388
 20
43.7782132553
 11
17.9972844417
 21
43.7782132553
  0
LINE
  5
313
100
AcDbEntity
  8
0
100
AcDbLine
 62
7
  6
CONTINUOUS
 10
17.7930301732
 20
43.7782132553
 11
17.7652465159
 21
43.7782132553
  0
LINE
  5
314
100
AcDbEntity
  8
0
100
AcDbLine
 62
7
  6
CONTINUOUS
 10
17.6420688038
 20
43.7782132553
 11
17.6281239367
 21
43.7782132553
  0
LINE
  5
315
100
AcDbEntity
  8
0
100
AcDbLine
 62
7
  6
CONTINUOUS
 10
17.5956284548
 20
44.1732133028
 11
24.2804291603
 21
44.1732133028
  0
LINE
  5
316
100
AcDbEntity
  8
0
100
AcDbLine
 62
7
  6
CONTINUOUS
 10
24.3275299625
 20
44.1732133028
 11
25.1194455096
 21
44.1732133028
  0
LINE
  5
317
100
AcDbEntity
  8
0
100
AcDbLine
 62
7
  6
CONTINUOUS
 10
25.3248527474
 20
44.1732133028
 11
25.9974073107
 21
44.1732133028
  0
LINE
  5
318
100
AcDbEntity
  8
0
100
AcDbLine
 62
7
  6
CONTINUOUS
 10
26.3595577111
 20
44.1732133028
 11
26.9076327442
 21
44.1732133028
  0
LINE
  5
319
100
AcDbEntity
  8
0
100
AcDbLine
 62
7
  6
CONTINUOUS
 10
27.4237701238
 20
44.1732133028
 11
27.8431944448
 21
44.1732133028
  0
LINE
  5
31A
100
AcDbEntity
  8
0
100
AcDbLine
 62
7
  6
CONTINUOUS
 10
28.5093906865
 20
44.1732133028
 11
28.7969722231
 21
44.1732133028
  0
LINE
  5
31B
100
AcDbEntity
  8
0
100
AcDbLine
 62
7
  6
CONTINUOUS
 10
29.6081571239
 20
44.1732133028
 11
29.7617072544
 21
44.1732133028
  0
LINE
  5
31C
100
AcDbEntity
  8
0
100
AcDbLine
 62
7
  6
CONTINUOUS
 10
30.7117072544
 20
44.1732133028
 11
30.8652573849
 21
44.1732133028
  0
LINE
  5
31D
100
AcDbEntity
  8
0
100
AcDbLine
 62
7
  6
CONTINUOUS
 10
31.6764422859
 20
44.1732133028
 11
31.9640238693
 21
44.1732133028
  0
LINE
  5
31E
100
AcDbEntity
  8
0
100
AcDbLine
 62
7
  6
CONTINUOUS
 10
32.6302201104
 20
44.1732133028
 11
33.0496444314
 21
44.1732133028
  0
LINE
  5
31F
100
AcDbEntity
  8
0
100
AcDbLine
 62
7
  6
CONTINUOUS
 10
33.56578181
 20
44.1732133028
 11
34.113856843
 21
44.1732133028
  0
LINE
  5
320
100
AcDbEntity
  8
0
100
AcDbLine
 62
7
  6
CONTINUOUS
 10
34.476007198
 20
44.1732133028
 11
35.1485618052
 21
44.1732133028
  0
LINE
  5
321
100
AcDbEntity
  8
0
100
AcDbLine
 62
7
  6
CONTINUOUS
 10
35.3539689992
 20
44.1732133028
 11
36.1458845883
 21
44.1732133028
  0
LINE
  5
322
100
AcDbEntity
  8
0
100
AcDbLine
 62
7
  6
CONTINUOUS
 10
36.1929853886
 20
44.1732133028
 11
42.8710819124
 21
44.1732133028
  0
LINE
  5
323
100
AcDbEntity
  8
0
100
AcDbLine
 62
7
  6
CONTINUOUS
 10
29.7617072544
 20
44.1732132553
 11
30.1567072544
 21
43.7782132553
  0
LINE
  5
324
100
AcDbEntity
  8
0
100
AcDbLine
 62
7
  6
CONTINUOUS
 10
29.1896080603
 20
43.7782132553
 11
29.182030989
 21
43.7858242968
  0
LINE
  5
325
100
AcDbEntity
  8
0
100
AcDbLine
 62
7
  6
CONTINUOUS
 10
33.1367072544
 20
33.4732132553
 11
33.1367072544
 21
31.1732132553
  0
LINE
  5
326
100
AcDbEntity
  8
0
100
AcDbLine
 62
7
  6
CONTINUOUS
 10
33.3367072544
 20
9.0073535769
 11
33.3367072544
 21
11.7372315201
  0
LINE
  5
327
100
AcDbEntity
  8
0
100
AcDbLine
 62
7
  6
CONTINUOUS
 10
33.5889523684
 20
35.2532132553
 11
33.5889523684
 21
36.7532132553
  0
LINE
  5
328
100
AcDbEntity
  8
0
100
AcDbLine
 62
7
  6
CONTINUOUS
 10
33.7367072544
 20
10.9032132553
 11
33.7367072544
 21
16.3332132553
  0
LINE
  5
329
100
AcDbEntity
  8
0
100
AcDbLine
 62
7
  6
CONTINUOUS
 10
34.1367072544
 20
26.9732131345
 11
34.1367072544
 21
26.2732132553
  0
LINE
  5
32A
100
AcDbEntity
  8
0
100
AcDbLine
 62
7
  6
CONTINUOUS
 10
34.2445783373
 20
36.7732130179
 11
34.2445783373
 21
38.7732133457
  0
LINE
  5
32B
100
AcDbEntity
  8
0
100
AcDbLine
 62
7
  6
CONTINUOUS
 10
34.3884769864
 20
61.707137541
 11
34.3884769864
 21
61.2033214283
  0
LINE
  5
32C
100
AcDbEntity
  8
0
100
AcDbLine
 62
7
  6
CONTINUOUS
 10
34.4347706498
 20
61.7071375349
 11
34.4347706498
 21
75.2632034762
  0
LINE
  5
32D
100
AcDbEntity
  8
0
100
AcDbLine
 62
7
  6
CONTINUOUS
 10
34.4867072544
 20
19.386947754
 11
34.4867072544
 21
11.6732132553
  0
LINE
  5
32E
100
AcDbEntity
  8
0
100
AcDbLine
 62
7
  6
CONTINUOUS
 10
34.8410530277
 20
46.0732132553
 11
34.8410530277
 21
44.1732133028
  0
LINE
  5
32F
100
AcDbEntity
  8
0
100
AcDbLine
 62
7
  6
CONTINUOUS
 10
35.1367072544
 20
6.6719953786
 11
35.1367072544
 21
26.9732131345
  0
LINE
  5
330
100
AcDbEntity
  8
0
100
AcDbLine
 62
7
  6
CONTINUOUS
 10
35.2367072544
 20
28.4732132553
 11
35.2367071426
 21
35.1532132553
  0
LINE
  5
331
100
AcDbEntity
  8
0
100
AcDbLine
 62
7
  6
CONTINUOUS
 10
35.4367072544
 20
6.7932135309
 11
35.4367072544
 21
26.9732131345
  0
LINE
  5
332
100
AcDbEntity
  8
0
100
AcDbLine
 62
7
  6
CONTINUOUS
 10
36.1929853886
 20
44.1732133028
 11
36.173353181
 21
44.1499836039
  0
LINE
  5
333
100
AcDbEntity
  8
0
100
AcDbLine
 62
7
  6
CONTINUOUS
 10
19.2755257487
 20
46.0732132553
 11
27.3661672355
 21
46.0732132553
  0
LINE
  5
334
100
AcDbEntity
  8
0
100
AcDbLine
 62
7
  6
CONTINUOUS
 10
33.1072472733
 20
46.0732132553
 11
41.19788876
 21
46.0732132553
  0
LINE
  5
335
100
AcDbEntity
  8
0
100
AcDbLine
 62
7
  6
CONTINUOUS
 10
33.1072472733
 20
46.1732132553
 11
27.3661672355
 21
46.1732132553
  0
LINE
  5
336
100
AcDbEntity
  8
0
100
AcDbLine
 62
7
  6
CONTINUOUS
 10
40.8617072544
 20
46.4732132553
 11
19.6117072544
 21
46.4732132553
  0
LINE
  5
337
100
AcDbEntity
  8
0
100
AcDbLine
 62
7
  6
CONTINUOUS
 10
41.1117072544
 20
46.7232132553
 11
19.3617072544
 21
46.7232132553
  0
LINE
  5
338
100
AcDbEntity
  8
0
100
AcDbLine
 62
7
  6
CONTINUOUS
 10
20.7356337177
 20
46.8132132557
 11
20.9039861944
 21
46.8132132557
  0
LINE
  5
339
100
AcDbEntity
  8
0
100
AcDbLine
 62
7
  6
CONTINUOUS
 10
39.5694290897
 20
46.8132132557
 11
39.7377815259
 21
46.8132132557
  0
LINE
  5
33A
100
AcDbEntity
  8
0
100
AcDbLine
 62
7
  6
CONTINUOUS
 10
36.0867072544
 20
11.6732132553
 11
36.0867072544
 21
19.3952980515
  0
LINE
  5
33B
100
AcDbEntity
  8
0
100
AcDbLine
 62
7
  6
CONTINUOUS
 10
36.0867072544
 20
26.4732132553
 11
36.0867072544
 21
26.9732131345
  0
LINE
  5
33C
100
AcDbEntity
  8
0
100
AcDbLine
 62
7
  6
CONTINUOUS
 10
36.7367072544
 20
33.4732132553
 11
36.7367072544
 21
28.4732132553
  0
LINE
  5
33D
100
AcDbEntity
  8
0
100
AcDbLine
 62
7
  6
CONTINUOUS
 10
36.8367072544
 20
16.3332132553
 11
36.8367072544
 21
10.959822509
  0
LINE
  5
33E
100
AcDbEntity
  8
0
100
AcDbLine
 62
7
  6
CONTINUOUS
 10
37.2367072544
 20
11.7372315201
 11
37.2367072544
 21
9.2497864099
  0
LINE
  5
33F
100
AcDbEntity
  8
0
100
AcDbLine
 62
7
  6
CONTINUOUS
 10
37.3367072544
 20
31.1732132553
 11
37.3367072544
 21
33.4732132553
  0
LINE
  5
340
100
AcDbEntity
  8
0
100
AcDbLine
 62
7
  6
CONTINUOUS
 10
37.9367072544
 20
31.1732132553
 11
37.9367072544
 21
33.0732132553
  0
LINE
  5
341
100
AcDbEntity
  8
0
100
AcDbLine
 62
7
  6
CONTINUOUS
 10
40.2081677793
 20
47.4008494406
 11
40.6571533608
 21
48.4385105651
  0
LINE
  5
342
100
AcDbEntity
  8
0
100
AcDbLine
 62
7
  6
CONTINUOUS
 10
19.8162611479
 20
48.4385105651
 11
22.0573207861
 21
48.4385105651
  0
LINE
  5
343
100
AcDbEntity
  8
0
100
AcDbLine
 62
7
  6
CONTINUOUS
 10
38.4160937242
 20
48.4385105651
 11
40.6571533608
 21
48.4385105651
  0
LINE
  5
344
100
AcDbEntity
  8
0
100
AcDbLine
 62
7
  6
CONTINUOUS
 10
40.6936796836
 20
48.6375627793
 11
38.3749484888
 21
48.6375627793
  0
LINE
  5
345
100
AcDbEntity
  8
0
100
AcDbLine
 62
7
  6
CONTINUOUS
 10
22.0984660199
 20
48.6375627793
 11
19.7797348252
 21
48.6375627793
  0
LINE
  5
346
100
AcDbEntity
  8
0
100
AcDbLine
 62
7
  6
CONTINUOUS
 10
42.8367072544
 20
49.4232132553
 11
17.6367072544
 21
49.4232132553
  0
LINE
  5
347
100
AcDbEntity
  8
0
100
AcDbLine
 62
7
  6
CONTINUOUS
 10
40.6936796836
 20
48.6375627793
 11
40.6937896656
 21
48.6270404828
  0
LINE
  5
348
100
AcDbEntity
  8
0
100
AcDbLine
 62
7
  6
CONTINUOUS
 10
38.3748766541
 20
49.4232132553
 11
38.3749125667
 21
48.6375627793
  0
LINE
  5
349
100
AcDbEntity
  8
0
100
AcDbLine
 62
7
  6
CONTINUOUS
 10
38.6117072544
 20
35.1532132553
 11
38.6117072544
 21
35.2532132553
  0
LINE
  5
34A
100
AcDbEntity
  8
0
100
AcDbLine
 62
7
  6
CONTINUOUS
 10
38.6117072544
 20
36.7532132553
 11
38.6117072544
 21
38.7732133457
  0
LINE
  5
34B
100
AcDbEntity
  8
0
100
AcDbLine
 62
7
  6
CONTINUOUS
 10
38.6267072544
 20
12.8278707895
 11
38.6267072544
 21
8.4532132553
  0
LINE
  5
34C
100
AcDbEntity
  8
0
100
AcDbLine
 62
7
  6
CONTINUOUS
 10
38.7367077163
 20
36.7532132553
 11
38.7367077163
 21
36.9532126813
  0
LINE
  5
34D
100
AcDbEntity
  8
0
100
AcDbLine
 62
7
  6
CONTINUOUS
 10
39.1217991065
 20
36.7532132553
 11
39.1217991065
 21
35.2532132553
  0
LINE
  5
34E
100
AcDbEntity
  8
0
100
AcDbLine
 62
7
  6
CONTINUOUS
 10
40.123567219
 20
35.1532132553
 11
40.123567219
 21
35.2532132553
  0
LINE
  5
34F
100
AcDbEntity
  8
0
100
AcDbLine
 62
7
  6
CONTINUOUS
 10
40.2367072544
 20
37.1732132031
 11
40.2367072544
 21
36.9532126813
  0
LINE
  5
350
100
AcDbEntity
  8
0
100
AcDbLine
 62
7
  6
CONTINUOUS
 10
40.2583914806
 20
35.2532132553
 11
40.2583914806
 21
36.7532132553
  0
LINE
  5
351
100
AcDbEntity
  8
0
100
AcDbLine
 62
7
  6
CONTINUOUS
 10
40.385515711
 20
40.3075983771
 11
40.385515711
 21
37.1832132553
  0
LINE
  5
352
100
AcDbEntity
  8
0
100
AcDbLine
 62
7
  6
CONTINUOUS
 10
40.4291867637
 20
36.7532132553
 11
40.4291867637
 21
35.2532132553
  0
LINE
  5
353
100
AcDbEntity
  8
0
100
AcDbLine
 62
7
  6
CONTINUOUS
 10
40.5898468748
 20
46.0732132553
 11
40.5898468748
 21
46.4732132553
  0
LINE
  5
354
100
AcDbEntity
  8
0
100
AcDbLine
 62
7
  6
CONTINUOUS
 10
40.6936796836
 20
48.6375627793
 11
40.6938077623
 21
49.4232132553
  0
LINE
  5
355
100
AcDbEntity
  8
0
100
AcDbLine
 62
7
  6
CONTINUOUS
 10
40.6937896656
 20
48.6270404828
 11
40.6571533608
 21
48.4385105651
  0
LINE
  5
356
100
AcDbEntity
  8
0
100
AcDbLine
 62
7
  6
CONTINUOUS
 10
44.4398222371
 20
50.6732134602
 11
16.033592273
 21
50.6732134602
  0
LINE
  5
357
100
AcDbEntity
  8
0
100
AcDbLine
 62
7
  6
CONTINUOUS
 10
44.4867052027
 20
51.8732132553
 11
44.4479703969
 21
51.8732132553
  0
LINE
  5
358
100
AcDbEntity
  8
0
100
AcDbLine
 62
7
  6
CONTINUOUS
 10
16.0254441119
 20
51.8732132553
 11
15.9867093061
 21
51.8732132553
  0
LINE
  5
359
100
AcDbEntity
  8
0
100
AcDbLine
 62
7
  6
CONTINUOUS
 10
42.8864542708
 20
43.7782132553
 11
42.8867071858
 21
43.7382132553
  0
LINE
  5
35A
100
AcDbEntity
  8
0
100
AcDbLine
 62
7
  6
CONTINUOUS
 10
41.1117072544
 20
49.4232132553
 11
41.1117072544
 21
46.7232132553
  0
LINE
  5
35B
100
AcDbEntity
  8
0
100
AcDbLine
 62
7
  6
CONTINUOUS
 10
41.19788876
 20
44.1732133028
 11
41.19788876
 21
46.0732132553
  0
LINE
  5
35C
100
AcDbEntity
  8
0
100
AcDbLine
 62
7
  6
CONTINUOUS
 10
42.0467072544
 20
12.8278707895
 11
42.0467072544
 21
8.4532132553
  0
LINE
  5
35D
100
AcDbEntity
  8
0
100
AcDbLine
 62
7
  6
CONTINUOUS
 10
42.374245114
 20
37.1832132553
 11
42.374245114
 21
41.6732132422
  0
LINE
  5
35E
100
AcDbEntity
  8
0
100
AcDbLine
 62
7
  6
CONTINUOUS
 10
42.7117070175
 20
60.9732131927
 11
42.7117070175
 21
61.203213547
  0
LINE
  5
35F
100
AcDbEntity
  8
0
100
AcDbLine
 62
7
  6
CONTINUOUS
 10
42.7367072544
 20
33.0732132553
 11
42.7367072544
 21
31.1732132553
  0
LINE
  5
360
100
AcDbEntity
  8
0
100
AcDbLine
 62
7
  6
CONTINUOUS
 10
42.8367072544
 20
49.4232132553
 11
42.8367072544
 21
50.6732132553
  0
LINE
  5
361
100
AcDbEntity
  8
0
100
AcDbLine
 62
7
  6
CONTINUOUS
 10
42.8867071858
 20
43.1732132553
 11
42.8867071858
 21
43.7382132553
  0
LINE
  5
362
100
AcDbEntity
  8
0
100
AcDbLine
 62
7
  6
CONTINUOUS
 10
43.1367072544
 20
33.4732132553
 11
43.1367072544
 21
31.1732132553
  0
LINE
  5
363
100
AcDbEntity
  8
0
100
AcDbLine
 62
7
  6
CONTINUOUS
 10
43.635515711
 20
40.3087398321
 11
44.1597641106
 21
41.6732132422
  0
LINE
  5
364
100
AcDbEntity
  8
0
100
AcDbLine
 62
7
  6
CONTINUOUS
 10
22.7625878154
 20
8.4532132553
 11
23.2367072544
 21
9.2497864099
  0
LINE
  5
365
100
AcDbEntity
  8
0
100
AcDbLine
 62
7
  6
CONTINUOUS
 10
43.4367072544
 20
9.2497864099
 11
43.4367072544
 21
11.7372315201
  0
LINE
  5
366
100
AcDbEntity
  8
0
100
AcDbLine
 62
7
  6
CONTINUOUS
 10
43.4874526612
 20
37.1832132553
 11
43.4874526612
 21
41.6732132422
  0
LINE
  5
367
100
AcDbEntity
  8
0
100
AcDbLine
 62
7
  6
CONTINUOUS
 10
43.635515711
 20
41.6732132422
 11
43.635515711
 21
37.1832132553
  0
LINE
  5
368
100
AcDbEntity
  8
0
100
AcDbLine
 62
7
  6
CONTINUOUS
 10
43.6367072544
 20
28.4732132553
 11
43.6367072544
 21
33.4732132553
  0
LINE
  5
369
100
AcDbEntity
  8
0
100
AcDbLine
 62
7
  6
CONTINUOUS
 10
43.8367072544
 20
10.959822509
 11
43.8367072544
 21
16.3332132553
  0
LINE
  5
36A
100
AcDbEntity
  8
0
100
AcDbLine
 62
7
  6
CONTINUOUS
 10
44.1367069251
 20
26.9732131345
 11
44.1367069251
 21
35.1532132553
  0
LINE
  5
36B
100
AcDbEntity
  8
0
100
AcDbLine
 62
7
  6
CONTINUOUS
 10
44.4867072581
 20
51.8732132553
 11
44.4867072581
 21
60.5592890774
  0
LINE
  5
36C
100
AcDbEntity
  8
0
100
AcDbLine
 62
7
  6
CONTINUOUS
 10
44.5867072544
 20
26.9732131345
 11
44.5867072544
 21
26.4732132553
  0
LINE
  5
36D
100
AcDbEntity
  8
0
100
AcDbLine
 62
7
  6
CONTINUOUS
 10
44.5867072544
 20
19.3952980515
 11
44.5867072544
 21
11.6732132553
  0
LINE
  5
36E
100
AcDbEntity
  8
0
100
AcDbLine
 62
7
  6
CONTINUOUS
 10
45.136707089
 20
26.9732131345
 11
45.136707089
 21
35.1532132553
  0
LINE
  5
36F
100
AcDbEntity
  8
0
100
AcDbLine
 62
7
  6
CONTINUOUS
 10
45.2367072544
 20
6.7932135309
 11
45.2367072544
 21
33.8732131361
  0
LINE
  5
370
100
AcDbEntity
  8
0
100
AcDbLine
 62
7
  6
CONTINUOUS
 10
44.9446395031
 20
41.6732132422
 11
44.9867073438
 21
43.1732132553
  0
LINE
  5
371
100
AcDbEntity
  8
0
100
AcDbLine
 62
7
  6
CONTINUOUS
 10
18.4267072544
 20
12.8278707895
 11
17.0367072544
 21
11.7372315201
  0
LINE
  5
372
100
AcDbEntity
  8
0
100
AcDbLine
 62
7
  6
CONTINUOUS
 10
34.4140727175
 20
75.3328439849
 11
34.4347706498
 21
75.2632154817
  0
LINE
  5
373
100
AcDbEntity
  8
0
100
AcDbLine
 62
7
  6
CONTINUOUS
 10
33.0068837119
 20
8.4532132553
 11
33.3367072544
 21
9.0073535769
  0
LINE
  5
374
100
AcDbEntity
  8
0
100
AcDbLine
 62
7
  6
CONTINUOUS
 10
15.9867072507
 20
60.5592890785
 11
44.4867072581
 21
60.5592890785
  0
LINE
  5
375
100
AcDbEntity
  8
0
100
AcDbLine
 62
7
  6
CONTINUOUS
 10
27.4846088061
 20
60.5638822602
 11
32.9879119864
 21
60.5638680658
  0
LINE
  5
376
100
AcDbEntity
  8
0
100
AcDbLine
 62
7
  6
CONTINUOUS
 10
17.376716226
 20
60.9732131927
 11
26.024219709
 21
60.9732131927
  0
LINE
  5
377
100
AcDbEntity
  8
0
100
AcDbLine
 62
7
  6
CONTINUOUS
 10
34.4342035449
 20
60.9732131927
 11
43.0966978277
 21
60.9732131927
  0
LINE
  5
378
100
AcDbEntity
  8
0
100
AcDbLine
 62
7
  6
CONTINUOUS
 10
34.4341823329
 20
60.9771375349
 11
26.0243489897
 21
60.9771375349
  0
LINE
  5
379
100
AcDbEntity
  8
0
100
AcDbLine
 62
7
  6
CONTINUOUS
 10
17.7624143612
 20
61.203213547
 11
42.7117070175
 21
61.203213547
  0
LINE
  5
37A
100
AcDbEntity
  8
0
100
AcDbLine
 62
7
  6
CONTINUOUS
 10
21.1221041805
 20
61.7035288041
 11
26.0847167412
 21
61.7032126977
  0
LINE
  5
37B
100
AcDbEntity
  8
0
100
AcDbLine
 62
7
  6
CONTINUOUS
 10
34.3884769864
 20
61.7032126977
 11
39.3513103282
 21
61.7035288041
  0
LINE
  5
37C
100
AcDbEntity
  8
0
100
AcDbLine
 62
7
  6
CONTINUOUS
 10
34.4346970103
 20
61.7071375342
 11
26.0247754517
 21
61.7071375348
  0
LINE
  5
37D
100
AcDbEntity
  8
0
100
AcDbLine
 62
7
  6
CONTINUOUS
 10
27.1367072544
 20
11.7372315201
 11
28.5267072544
 21
12.8278707895
  0
LINE
  5
37E
100
AcDbEntity
  8
0
100
AcDbLine
 62
7
  6
CONTINUOUS
 10
17.7617074913
 20
61.203213547
 11
21.1221041805
 21
61.7035288041
  0
LINE
  5
37F
100
AcDbEntity
  8
0
100
AcDbLine
 62
7
  6
CONTINUOUS
 10
42.7117070175
 20
61.203213547
 11
39.3513103282
 21
61.7035288041
  0
LINE
  5
380
100
AcDbEntity
  8
0
100
AcDbLine
 62
7
  6
CONTINUOUS
 10
43.0967073879
 20
60.9732131927
 11
44.4867072544
 21
60.5592890785
  0
LINE
  5
381
100
AcDbEntity
  8
0
100
AcDbLine
 62
7
  6
CONTINUOUS
 10
33.4938393847
 20
76.8456997004
 11
33.4911169899
 21
76.8500677303
  0
LINE
  5
382
100
AcDbEntity
  8
0
100
AcDbLine
 62
7
  6
CONTINUOUS
 10
33.5623981118
 20
76.7342547542
 11
33.4911170853
 21
76.8500656081
  0
LINE
  5
383
100
AcDbEntity
  8
0
100
AcDbLine
 62
7
  6
CONTINUOUS
 10
42.9625878154
 20
8.4532132553
 11
43.4367072544
 21
9.2497864099
  0
LINE
  5
384
100
AcDbEntity
  8
0
100
AcDbLine
 62
7
  6
CONTINUOUS
 10
38.6267072544
 20
12.8278707895
 11
37.2367072544
 21
11.7372315201
  0
LINE
  5
385
100
AcDbEntity
  8
0
100
AcDbLine
 62
7
  6
CONTINUOUS
 10
26.4778881644
 20
74.629586408
 11
33.9971085954
 21
74.629586408
  0
LINE
  5
386
100
AcDbEntity
  8
0
100
AcDbLine
 62
7
  6
CONTINUOUS
 10
34.2022857317
 20
75.0258601111
 11
26.2687838644
 21
75.0258601111
  0
LINE
  5
387
100
AcDbEntity
  8
0
100
AcDbLine
 62
7
  6
CONTINUOUS
 10
34.3682274632
 20
75.144029556
 11
26.0977612287
 21
75.144029556
  0
LINE
  5
388
100
AcDbEntity
  8
0
100
AcDbLine
 62
7
  6
CONTINUOUS
 10
26.9822975249
 20
76.8500357965
 11
28.9867072544
 21
76.9410199607
  0
LINE
  5
389
100
AcDbEntity
  8
0
100
AcDbLine
 62
7
  6
CONTINUOUS
 10
29.0367072544
 20
76.9422630958
 11
30.2374143612
 21
76.9571375349
  0
LINE
  5
38A
100
AcDbEntity
  8
0
100
AcDbLine
 62
7
  6
CONTINUOUS
 10
33.4911169931
 20
76.8501283485
 11
31.4867072544
 21
76.9410558075
  0
ARC
  5
38B
100
AcDbEntity
  8
0
100
AcDbCircle
 62
7
  6
CONTINUOUS
 10
-368.7857102992
 20
86.9903871598
 40
402.9724066368
100
AcDbArc
 50
357.8665585532
 51
358.2422671235
  0
ARC
  5
38C
100
AcDbEntity
  8
0
100
AcDbCircle
 62
7
  6
CONTINUOUS
 10
-111.8466089984
 20
-98.3911562371
 40
202.4996236406
100
AcDbArc
 50
44.5934994866
 51
44.750658481
  0
ARC
  5
38D
100
AcDbEntity
  8
0
100
AcDbCircle
 62
7
  6
CONTINUOUS
 10
-87.7129690482
 20
2.0724898491
 40
142.4152162465
100
AcDbArc
 50
30.9582813447
 51
31.6180450304
  0
ARC
  5
38E
100
AcDbEntity
  8
0
100
AcDbCircle
 62
7
  6
CONTINUOUS
 10
-61.777603755
 20
-48.345409539
 40
132.4835935592
100
AcDbArc
 50
44.0558099077
 51
44.2939914111
  0
ARC
  5
38F
100
AcDbEntity
  8
0
100
AcDbCircle
 62
7
  6
CONTINUOUS
 10
-35.8938540945
 20
-22.5126553483
 40
96.6854935454
100
AcDbArc
 50
43.2854937091
 51
43.607907603
  0
ARC
  5
390
100
AcDbEntity
  8
0
100
AcDbCircle
 62
7
  6
CONTINUOUS
 10
-19.7319536267
 20
-6.4374625571
 40
74.6546145945
100
AcDbArc
 50
42.2711454171
 51
42.6821730939
  0
ARC
  5
391
100
AcDbEntity
  8
0
100
AcDbCircle
 62
7
  6
CONTINUOUS
 10
-8.4826845178
 20
4.6846558325
 40
59.590732063
100
AcDbArc
 50
40.9981140318
 51
41.5032656042
  0
ARC
  5
392
100
AcDbEntity
  8
0
100
AcDbCircle
 62
7
  6
CONTINUOUS
 10
30.2165551189
 20
26.8036334973
 40
50.1535083753
100
AcDbArc
 50
88.9243498178
 51
89.9761702298
  0
ARC
  5
393
100
AcDbEntity
  8
0
100
AcDbCircle
 62
7
  6
CONTINUOUS
 10
-0.0948698019
 20
12.904128398
 40
48.5909735439
100
AcDbArc
 50
39.4487116942
 51
40.0545257939
  0
ARC
  5
394
100
AcDbEntity
  8
0
100
AcDbCircle
 62
7
  6
CONTINUOUS
 10
6.448698626
 20
19.2420283587
 40
40.2112599505
100
AcDbArc
 50
37.6026600958
 51
38.3165044949
  0
ARC
  5
395
100
AcDbEntity
  8
0
100
AcDbCircle
 62
7
  6
CONTINUOUS
 10
11.7059994367
 20
24.2653167207
 40
33.6533367894
100
AcDbArc
 50
35.4379226745
 51
36.2676381831
  0
ARC
  5
396
100
AcDbEntity
  8
0
100
AcDbCircle
 62
7
  6
CONTINUOUS
 10
16.0056831175
 20
28.3171156916
 40
28.4396942263
100
AcDbArc
 50
32.9321162179
 51
33.8854310122
  0
ARC
  5
397
100
AcDbEntity
  8
0
100
AcDbCircle
 62
7
  6
CONTINUOUS
 10
19.5515618915
 20
31.6214388819
 40
24.2660839226
100
AcDbArc
 50
30.0647255767
 51
31.1483601603
  0
ARC
  5
398
100
AcDbEntity
  8
0
100
AcDbCircle
 62
7
  6
CONTINUOUS
 10
22.4748542826
 20
34.3355377282
 40
20.9281877158
100
AcDbArc
 50
26.8203241757
 51
28.0387237032
  0
ARC
  5
399
100
AcDbEntity
  8
0
100
AcDbCircle
 62
7
  6
CONTINUOUS
 10
24.8622499246
 20
36.5779634292
 40
18.2827445833
100
AcDbArc
 50
23.1928758999
 51
24.5465682865
  0
ARC
  5
39A
100
AcDbEntity
  8
0
100
AcDbCircle
 62
7
  6
CONTINUOUS
 10
26.7718999141
 20
38.4444530516
 40
16.2260213639
100
AcDbArc
 50
19.1908879788
 51
20.6745972651
  0
ARC
  5
39B
100
AcDbEntity
  8
0
100
AcDbCircle
 62
7
  6
CONTINUOUS
 10
28.2429126291
 20
40.017265977
 40
14.6816924454
100
AcDbArc
 50
14.8426743978
 51
16.4435201117
  0
ARC
  5
39C
100
AcDbEntity
  8
0
100
AcDbCircle
 62
7
  6
CONTINUOUS
 10
29.3011560087
 20
41.3708217141
 40
13.5940900133
100
AcDbArc
 50
10.2003667539
 51
11.8966976263
  0
ARC
  5
39D
100
AcDbEntity
  8
0
100
AcDbCircle
 62
7
  6
CONTINUOUS
 10
29.9628519748
 20
42.5751765133
 40
12.9246054854
100
AcDbArc
 50
5.3408866163
 51
7.102396363
  0
ARC
  5
39E
100
AcDbEntity
  8
0
100
AcDbCircle
 62
7
  6
CONTINUOUS
 10
18.2516892153
 20
37.4772980777
 40
0.3042422165
100
AcDbArc
 50
262.2125394461
 51
268.1572397081
  0
ARC
  5
39F
100
AcDbEntity
  8
0
100
AcDbCircle
 62
7
  6
CONTINUOUS
 10
-110.2548409608
 20
184.2197299325
 40
200.2653696739
100
AcDbArc
 50
315.4704444749
 51
315.6287524823
  0
ARC
  5
3A0
100
AcDbEntity
  8
0
100
AcDbCircle
 62
7
  6
CONTINUOUS
 10
-92.5923537543
 20
166.5623116432
 40
175.0993557894
100
AcDbArc
 50
315.5002066921
 51
315.6556197522
  0
ARC
  5
3A1
100
AcDbEntity
  8
0
100
AcDbCircle
 62
7
  6
CONTINUOUS
 10
-60.2004187741
 20
134.2177651131
 40
130.2903514284
100
AcDbArc
 50
316.0413918279
 51
316.2822119313
  0
ARC
  5
3A2
100
AcDbEntity
  8
0
100
AcDbCircle
 62
7
  6
CONTINUOUS
 10
-48.6066890165
 20
122.6350356608
 40
113.6158991051
100
AcDbArc
 50
316.1366220627
 51
316.3232958448
  0
ARC
  5
3A3
100
AcDbEntity
  8
0
100
AcDbCircle
 62
7
  6
CONTINUOUS
 10
-34.3516296406
 20
108.4589043117
 40
94.5685424187
100
AcDbArc
 50
316.8464680166
 51
317.1736392483
  0
ARC
  5
3A4
100
AcDbEntity
  8
0
100
AcDbCircle
 62
7
  6
CONTINUOUS
 10
-25.8571194719
 20
99.984123631
 40
82.1884656793
100
AcDbArc
 50
317.0463577948
 51
317.2297579498
  0
ARC
  5
3A5
100
AcDbEntity
  8
0
100
AcDbCircle
 62
7
  6
CONTINUOUS
 10
-18.2398655411
 20
92.4803406212
 40
72.6400584864
100
AcDbArc
 50
317.8975564583
 51
318.3161025686
  0
ARC
  5
3A6
100
AcDbEntity
  8
0
100
AcDbCircle
 62
7
  6
CONTINUOUS
 10
-11.6819983227
 20
85.9509788977
 40
62.910761591
100
AcDbArc
 50
318.249899934
 51
318.3882315744
  0
ARC
  5
3A7
100
AcDbEntity
  8
0
100
AcDbCircle
 62
7
  6
CONTINUOUS
 10
-7.0538684712
 20
81.4728711132
 40
57.699592499
100
AcDbArc
 50
319.2097650266
 51
319.7258385173
  0
ARC
  5
3A8
100
AcDbEntity
  8
0
100
AcDbCircle
 62
7
  6
CONTINUOUS
 10
1.2587370572
 20
73.3817818602
 40
46.8401096595
100
AcDbArc
 50
320.8011889505
 51
321.4219407356
  0
ARC
  5
3A9
100
AcDbEntity
  8
0
100
AcDbCircle
 62
7
  6
CONTINUOUS
 10
7.716096372
 20
67.181670162
 40
38.6135968315
100
AcDbArc
 50
322.6924167834
 51
323.4257422703
  0
ARC
  5
3AA
100
AcDbEntity
  8
0
100
AcDbCircle
 62
7
  6
CONTINUOUS
 10
12.8770487306
 20
62.3011328434
 40
32.2179791157
100
AcDbArc
 50
324.9056243975
 51
325.7597194704
  0
ARC
  5
3AB
100
AcDbEntity
  8
0
100
AcDbCircle
 62
7
  6
CONTINUOUS
 10
17.0711014127
 20
58.3925438437
 40
27.172098271
100
AcDbArc
 50
327.4630577636
 51
328.445705032
  0
ARC
  5
3AC
100
AcDbEntity
  8
0
100
AcDbCircle
 62
7
  6
CONTINUOUS
 10
20.5029516784
 20
55.2274203263
 40
23.1683563231
100
AcDbArc
 50
330.384680243
 51
331.5021869211
  0
ARC
  5
3AD
100
AcDbEntity
  8
0
100
AcDbCircle
 62
7
  6
CONTINUOUS
 10
23.304737568
 20
52.6441957285
 40
19.999549171
100
AcDbArc
 50
333.6847928196
 51
334.9405340945
  0
ARC
  5
3AE
100
AcDbEntity
  8
0
100
AcDbCircle
 62
7
  6
CONTINUOUS
 10
25.5641106174
 20
50.5202743111
 40
17.5201503117
100
AcDbArc
 50
337.3675869182
 51
338.7602030453
  0
ARC
  5
3AF
100
AcDbEntity
  8
0
100
AcDbCircle
 62
7
  6
CONTINUOUS
 10
27.3402219316
 20
48.7562631795
 40
15.624929824
100
AcDbArc
 50
341.4219240078
 51
342.9433846678
  0
ARC
  5
3B0
100
AcDbEntity
  8
0
100
AcDbCircle
 62
7
  6
CONTINUOUS
 10
28.6732139567
 20
47.2667425361
 40
14.2369354038
100
AcDbArc
 50
345.8161733607
 51
347.4501480825
  0
ARC
  5
3B1
100
AcDbEntity
  8
0
100
AcDbCircle
 62
7
  6
CONTINUOUS
 10
29.5900183891
 20
45.9747206699
 40
13.3007704231
100
AcDbArc
 50
350.4945531184
 51
352.2157144544
  0
ARC
  5
3B2
100
AcDbEntity
  8
0
100
AcDbCircle
 62
7
  6
CONTINUOUS
 10
30.107940644
 20
44.8082345819
 40
12.7789290288
100
AcDbArc
 50
355.3767670811
 51
357.1516366648
  0
ARC
  5
3B3
100
AcDbEntity
  8
0
100
AcDbCircle
 62
7
  6
CONTINUOUS
 10
30.2371777747
 20
43.6982029378
 40
12.6504705076
100
AcDbArc
 50
177.8481046552
 51
179.6376194805
  0
ARC
  5
3B4
100
AcDbEntity
  8
0
100
AcDbCircle
 62
7
  6
CONTINUOUS
 10
30.2362374949
 20
43.6982029505
 40
12.6504697467
100
AcDbArc
 50
0.3623804836
 51
2.1518953089
  0
ARC
  5
3B5
100
AcDbEntity
  8
0
100
AcDbCircle
 62
7
  6
CONTINUOUS
 10
21.6451943212
 20
48.6275222884
 40
0.4533953861
100
AcDbArc
 50
335.3431267996
 51
359.9391140006
  0
ARC
  5
3B6
100
AcDbEntity
  8
0
100
AcDbCircle
 62
7
  6
CONTINUOUS
 10
19.6117072544
 20
46.7232132553
 40
0.25
100
AcDbArc
 50
180.0
 51
270.0
  0
ARC
  5
3B7
100
AcDbEntity
  8
0
100
AcDbCircle
 62
7
  6
CONTINUOUS
 10
29.2697553949
 20
43.8381186538
 40
0.1000612454
100
AcDbArc
 50
216.7759413769
 51
226.7443826491
  0
ARC
  5
3B8
100
AcDbEntity
  8
0
100
AcDbCircle
 62
7
  6
CONTINUOUS
 10
30.2367072544
 20
43.8382132553
 40
0.1
100
AcDbArc
 50
216.8698976458
 51
323.1301023542
  0
ARC
  5
3B9
100
AcDbEntity
  8
0
100
AcDbCircle
 62
7
  6
CONTINUOUS
 10
29.1342239428
 20
43.837635009
 40
0.0994217606
100
AcDbArc
 50
216.7034569736
 51
323.2635339622
  0
ARC
  5
3BA
100
AcDbEntity
  8
0
100
AcDbCircle
 62
7
  6
CONTINUOUS
 10
-1349.8256206286
 20
509.9808341653
 40
1467.4058595682
100
AcDbArc
 50
341.2117369005
 51
341.332815267
  0
ARC
  5
3BB
100
AcDbEntity
  8
0
100
AcDbCircle
 62
7
  6
CONTINUOUS
 10
30.1184077306
 20
564.3373708119
 40
487.3983227645
100
AcDbArc
 50
269.8873634766
 51
270.0139924028
  0
ARC
  5
3BC
100
AcDbEntity
  8
0
100
AcDbCircle
 62
7
  6
CONTINUOUS
 10
96.2037846315
 20
-22.3578036166
 40
96.4603143601
100
AcDbArc
 50
136.3917160383
 51
136.7148826237
  0
ARC
  5
3BD
100
AcDbEntity
  8
0
100
AcDbCircle
 62
7
  6
CONTINUOUS
 10
80.0430368215
 20
-6.2888349092
 40
74.434521414
100
AcDbArc
 50
137.3172191845
 51
137.7294622715
  0
ARC
  5
3BE
100
AcDbEntity
  8
0
100
AcDbCircle
 62
7
  6
CONTINUOUS
 10
68.7979338471
 20
4.8233663481
 40
59.3803610383
100
AcDbArc
 50
138.4958395464
 51
139.0027807973
  0
ARC
  5
3BF
100
AcDbEntity
  8
0
100
AcDbCircle
 62
7
  6
CONTINUOUS
 10
60.4165547304
 20
13.0303278168
 40
48.3936234341
100
AcDbArc
 50
139.9442389033
 51
140.5525235842
  0
ARC
  5
3C0
100
AcDbEntity
  8
0
100
AcDbCircle
 62
7
  6
CONTINUOUS
 10
53.8812748153
 20
19.3539339477
 40
40.0293343876
100
AcDbArc
 50
141.6818733059
 51
142.3989620748
  0
ARC
  5
3C1
100
AcDbEntity
  8
0
100
AcDbCircle
 62
7
  6
CONTINUOUS
 10
48.6338478673
 20
24.3618355998
 40
33.4885500741
100
AcDbArc
 50
143.7303203534
 51
144.5641187556
  0
ARC
  5
3C2
100
AcDbEntity
  8
0
100
AcDbCircle
 62
7
  6
CONTINUOUS
 10
44.3454258835
 20
28.3977882005
 40
28.2931841667
100
AcDbArc
 50
146.1121005683
 51
147.070352125
  0
ARC
  5
3C3
100
AcDbEntity
  8
0
100
AcDbCircle
 62
7
  6
CONTINUOUS
 10
40.812026361
 20
31.6864068834
 40
24.1384861795
100
AcDbArc
 50
148.8487756145
 51
149.9381386049
  0
ARC
  5
3C4
100
AcDbEntity
  8
0
100
AcDbCircle
 62
7
  6
CONTINUOUS
 10
37.9022875615
 20
34.3855036971
 40
20.8197271835
100
AcDbArc
 50
151.9581024839
 51
153.1828495882
  0
ARC
  5
3C5
100
AcDbEntity
  8
0
100
AcDbCircle
 62
7
  6
CONTINUOUS
 10
35.5293783818
 20
36.6141543953
 40
18.1933150174
100
AcDbArc
 50
155.4501044397
 51
156.8104513194
  0
ARC
  5
3C6
100
AcDbEntity
  8
0
100
AcDbCircle
 62
7
  6
CONTINUOUS
 10
33.6350109984
 20
38.4685700065
 40
16.1552858477
100
AcDbArc
 50
159.3221544348
 51
160.8123603809
  0
ARC
  5
3C7
100
AcDbEntity
  8
0
100
AcDbCircle
 62
7
  6
CONTINUOUS
 10
32.1799460528
 20
40.0314224268
 40
14.6291971421
100
AcDbArc
 50
163.5536073078
 51
165.1601980541
  0
ARC
  5
3C8
100
AcDbEntity
  8
0
100
AcDbCircle
 62
7
  6
CONTINUOUS
 10
31.1381764144
 20
41.3774765694
 40
13.5593681074
100
AcDbArc
 50
168.1011302049
 51
169.8018053468
  0
ARC
  5
3C9
100
AcDbEntity
  8
0
100
AcDbCircle
 62
7
  6
CONTINUOUS
 10
30.4933506091
 20
42.5770529049
 40
12.9072936317
100
AcDbArc
 50
172.896422235
 51
174.6602947857
  0
ARC
  5
3CA
100
AcDbEntity
  8
0
100
AcDbCircle
 62
7
  6
CONTINUOUS
 10
42.2217252935
 20
37.4772980777
 40
0.3042422165
100
AcDbArc
 50
271.8427602919
 51
277.7874605539
  0
ARC
  5
3CB
100
AcDbEntity
  8
0
100
AcDbCircle
 62
7
  6
CONTINUOUS
 10
94.61770294
 20
108.2656235214
 40
94.2850866302
100
AcDbArc
 50
222.8258689352
 51
223.1540237867
  0
ARC
  5
3CC
100
AcDbEntity
  8
0
100
AcDbCircle
 62
7
  6
CONTINUOUS
 10
86.4378702371
 20
100.083733888
 40
82.3349007176
100
AcDbArc
 50
222.7704051358
 51
222.9534791305
  0
ARC
  5
3CD
100
AcDbEntity
  8
0
100
AcDbCircle
 62
7
  6
CONTINUOUS
 10
78.5179591076
 20
92.3051311903
 40
72.3776700466
100
AcDbArc
 50
221.6831387361
 51
222.1032022201
  0
ARC
  5
3CE
100
AcDbEntity
  8
0
100
AcDbCircle
 62
7
  6
CONTINUOUS
 10
72.1554151501
 20
85.9509810071
 40
62.9107647255
100
AcDbArc
 50
221.6117684307
 51
221.7501000931
  0
ARC
  5
3CF
100
AcDbEntity
  8
0
100
AcDbCircle
 62
7
  6
CONTINUOUS
 10
67.3436860703
 20
81.3158860097
 40
57.4580330664
100
AcDbArc
 50
220.2730766884
 51
220.7913197884
  0
ARC
  5
3D0
100
AcDbEntity
  8
0
100
AcDbCircle
 62
7
  6
CONTINUOUS
 10
59.0431427137
 20
73.2434279257
 40
46.6197360095
100
AcDbArc
 50
218.5765921199
 51
219.200278219
  0
ARC
  5
3D1
100
AcDbEntity
  8
0
100
AcDbCircle
 62
7
  6
CONTINUOUS
 10
31.2184273013
 20
120.9890785233
 40
44.0491525461
100
AcDbArc
 50
270.1539566001
 51
270.2994496022
  0
ARC
  5
3D2
100
AcDbEntity
  8
0
100
AcDbCircle
 62
7
  6
CONTINUOUS
 10
52.5984528902
 20
67.0622132367
 40
38.4148344174
100
AcDbArc
 50
216.5723605886
 51
217.3094803871
  0
ARC
  5
3D3
100
AcDbEntity
  8
0
100
AcDbCircle
 62
7
  6
CONTINUOUS
 10
47.4508854072
 20
62.2005201373
 40
32.0411014537
100
AcDbArc
 50
214.2379230824
 51
215.096733084
  0
ARC
  5
3D4
100
AcDbEntity
  8
0
100
AcDbCircle
 62
7
  6
CONTINUOUS
 10
43.2709563069
 20
58.3103175228
 40
27.017133766
100
AcDbArc
 50
211.5514767216
 51
212.5397604432
  0
ARC
  5
3D5
100
AcDbEntity
  8
0
100
AcDbCircle
 62
7
  6
CONTINUOUS
 10
39.853936974
 20
55.1626785115
 40
23.0350593685
100
AcDbArc
 50
208.4945796943
 51
209.6185531866
  0
ARC
  5
3D6
100
AcDbEntity
  8
0
100
AcDbCircle
 62
7
  6
CONTINUOUS
 10
37.0676331727
 20
52.5955941444
 40
19.8874312025
100
AcDbArc
 50
205.0559261237
 51
206.3187470127
  0
ARC
  5
3D7
100
AcDbEntity
  8
0
100
AcDbCircle
 62
7
  6
CONTINUOUS
 10
34.824311038
 20
50.4860451693
 40
17.4285305928
100
AcDbArc
 50
201.2361364341
 51
202.6360736584
  0
ARC
  5
3D8
100
AcDbEntity
  8
0
100
AcDbCircle
 62
7
  6
CONTINUOUS
 10
33.0647219666
 20
48.734256795
 40
15.5530160599
100
AcDbArc
 50
197.0530978252
 51
198.5815936215
  0
ARC
  5
3D9
100
AcDbEntity
  8
0
100
AcDbCircle
 62
7
  6
CONTINUOUS
 10
31.7486195672
 20
47.2544857596
 40
14.1839235847
100
AcDbArc
 50
192.5467981714
 51
194.1868803198
  0
ARC
  5
3DA
100
AcDbEntity
  8
0
100
AcDbCircle
 62
7
  6
CONTINUOUS
 10
30.8489509273
 20
45.9694837273
 40
13.265933341
100
AcDbArc
 50
187.7820255284
 51
189.5077069679
  0
ARC
  5
3DB
100
AcDbEntity
  8
0
100
AcDbCircle
 62
7
  6
CONTINUOUS
 10
30.3482912689
 20
44.8071126523
 40
12.7617119121
100
AcDbArc
 50
182.8471659807
 51
184.6244302734
  0
ARC
  5
3DC
100
AcDbEntity
  8
0
100
AcDbCircle
 62
7
  6
CONTINUOUS
 10
38.8282200118
 20
48.6275222564
 40
0.4533952104
100
AcDbArc
 50
180.0608819841
 51
204.6569089874
  0
ARC
  5
3DD
100
AcDbEntity
  8
0
100
AcDbCircle
 62
7
  6
CONTINUOUS
 10
42.4265507142
 20
43.8135131327
 40
0.2838210735
100
AcDbArc
 50
351.8065172126
 51
352.8554107379
  0
ARC
  5
3DE
100
AcDbEntity
  8
0
100
AcDbCircle
 62
7
  6
CONTINUOUS
 10
40.8617072544
 20
46.7232132553
 40
0.25
100
AcDbArc
 50
270.0
 51
360.0
  0
ARC
  5
3DF
100
AcDbEntity
  8
0
100
AcDbCircle
 62
7
  6
CONTINUOUS
 10
31.2036726468
 20
43.8381069666
 40
0.1000434088
100
AcDbArc
 50
313.4219733333
 51
323.2247797884
  0
ARC
  5
3E0
100
AcDbEntity
  8
0
100
AcDbCircle
 62
7
  6
CONTINUOUS
 10
31.3391905661
 20
43.8376350088
 40
0.0994217604
100
AcDbArc
 50
216.7364661018
 51
323.2965430913
  0
ARC
  5
3E1
100
AcDbEntity
  8
0
100
AcDbCircle
 62
7
  6
CONTINUOUS
 10
172.173186332
 20
-98.2459902941
 40
202.2931430682
100
AcDbArc
 50
135.249261305
 51
135.4065807212
  0
ARC
  5
3E2
100
AcDbEntity
  8
0
100
AcDbCircle
 62
7
  6
CONTINUOUS
 10
147.8608733764
 20
2.2493919107
 40
142.0452541189
100
AcDbArc
 50
148.4008483264
 51
149.0622866409
  0
ARC
  5
3E3
100
AcDbEntity
  8
0
100
AcDbCircle
 62
7
  6
CONTINUOUS
 10
122.0910601761
 20
-48.1899933677
 40
132.2605676395
100
AcDbArc
 50
135.7058077585
 51
135.9443909131
  0
ARC
  5
3E4
100
AcDbEntity
  8
0
100
AcDbCircle
 62
7
  6
CONTINUOUS
 10
170.4864551581
 20
183.9825245221
 40
199.9266462203
100
AcDbArc
 50
224.3711134197
 51
224.5296896294
  0
ARC
  5
3E5
100
AcDbEntity
  8
0
100
AcDbCircle
 62
7
  6
CONTINUOUS
 10
153.2862321686
 20
166.7783723984
 40
175.4080407561
100
AcDbArc
 50
224.3445170075
 51
224.499656559
  0
ARC
  5
3E6
100
AcDbEntity
  8
0
100
AcDbCircle
 62
7
  6
CONTINUOUS
 10
120.4526053007
 20
134.0053317949
 40
129.9836442092
100
AcDbArc
 50
223.7175039628
 51
223.9588922876
  0
ARC
  5
3E7
100
AcDbEntity
  8
0
100
AcDbCircle
 62
7
  6
CONTINUOUS
 10
109.2392858744
 20
122.7875263489
 40
113.8363357208
100
AcDbArc
 50
223.6768849126
 51
223.8631971964
  0
ARC
  5
3E8
100
AcDbEntity
  8
0
100
AcDbCircle
 62
7
  6
CONTINUOUS
 10
1410.3126764229
 20
509.9851205983
 40
1467.4201548659
100
AcDbArc
 50
198.6671728322
 51
198.7882499976
  0
SPLINE
  5
3E9
100
AcDbEntity
  8
0
100
AcDbSpline
 62
7
  6
CONTINUOUS
 70
0
 71
3
 72
12
 73
8
 74
0
 42
0.0000001
 43
0.0000001
 44
0.0000000001
 40
0.0
 40
0.0
 40
0.0
 40
0.0
 40
0.0294918816
 40
0.0839531859
 40
0.2809599999
 40
0.5915954448
 40
1.0
 40
1.0
 40
1.0
 40
1.0
 10
17.6348443918
 20
43.7382132553
 30
0.0
 10
17.6352495027
 20
43.7382132553
 30
0.0
 10
17.6362085481
 20
43.7391536366
 30
0.0
 10
17.637592617
 20
43.7426499303
 30
0.0
 10
17.6392490637
 20
43.7503308663
 30
0.0
 10
17.6408360566
 20
43.762752879
 30
0.0
 10
17.6416765542
 20
43.7726169954
 30
0.0
 10
17.6420688038
 20
43.7782132553
 30
0.0
  0
SPLINE
  5
3EA
100
AcDbEntity
  8
0
100
AcDbSpline
 62
7
  6
CONTINUOUS
 70
0
 71
3
 72
12
 73
8
 74
0
 42
0.0000001
 43
0.0000001
 44
0.0000000001
 40
0.0
 40
0.0
 40
0.0
 40
0.0
 40
0.1101847279
 40
0.1980080878
 40
0.3110060007
 40
0.6112875951
 40
1.0
 40
1.0
 40
1.0
 40
1.0
 10
17.7788892463
 20
43.7382132553
 30
0.0
 10
17.7804960996
 20
43.7382132553
 30
0.0
 10
17.7829708022
 20
43.7405972248
 30
0.0
 10
17.7850710086
 20
43.7444635291
 30
0.0
 10
17.7878240812
 20
43.7513170467
 30
0.0
 10
17.7906335445
 20
43.7626651971
 30
0.0
 10
17.7922722935
 20
43.7725954494
 30
0.0
 10
17.7930301732
 20
43.7782132553
 30
0.0
  0
SPLINE
  5
3EB
100
AcDbEntity
  8
0
100
AcDbSpline
 62
7
  6
CONTINUOUS
 70
0
 71
3
 72
12
 73
8
 74
0
 42
0.0000001
 43
0.0000001
 44
0.0000000001
 40
0.0
 40
0.0
 40
0.0
 40
0.0
 40
0.1383980255
 40
0.2315351742
 40
0.3448819322
 40
0.6340902445
 40
1.0
 40
1.0
 40
1.0
 40
1.0
 10
18.017745618
 20
43.7382132553
 30
0.0
 10
18.0199248449
 20
43.7382132553
 30
0.0
 10
18.023459097
 20
43.7402167689
 30
0.0
 10
18.0268892366
 20
43.7443769757
 30
0.0
 10
18.0309051823
 20
43.751125698
 30
0.0
 10
18.0351398201
 20
43.7625229013
 30
0.0
 10
18.0375725775
 20
43.7725620836
 30
0.0
 10
18.0386954388
 20
43.7782132553
 30
0.0
  0
SPLINE
  5
3EC
100
AcDbEntity
  8
0
100
AcDbSpline
 62
7
  6
CONTINUOUS
 70
0
 71
3
 72
11
 73
7
 74
0
 42
0.0000001
 43
0.0000001
 44
0.0000000001
 40
0.0
 40
0.0
 40
0.0
 40
0.0
 40
0.1624921221
 40
0.3749750024
 40
0.6551090983
 40
1.0
 40
1.0
 40
1.0
 40
1.0
 10
18.3495956659
 20
43.7382132553
 30
0.0
 10
18.3523680796
 20
43.7382132553
 30
0.0
 10
18.3587251158
 20
43.7407787256
 30
0.0
 10
18.3660413518
 20
43.7494825151
 30
0.0
 10
18.3724792349
 20
43.7623139732
 30
0.0
 10
18.3757090257
 20
43.772519481
 30
0.0
 10
18.3771949397
 20
43.7782132553
 30
0.0
  0
SPLINE
  5
3ED
100
AcDbEntity
  8
0
100
AcDbSpline
 62
7
  6
CONTINUOUS
 70
0
 71
3
 72
11
 73
7
 74
0
 42
0.0000001
 43
0.0000001
 44
0.0000000001
 40
0.0
 40
0.0
 40
0.0
 40
0.0
 40
0.181869203
 40
0.4009414899
 40
0.6737299184
 40
1.0
 40
1.0
 40
1.0
 40
1.0
 10
18.7719138105
 20
43.7382132553
 30
0.0
 10
18.7752760235
 20
43.7382132553
 30
0.0
 10
18.7827247865
 20
43.7405202426
 30
0.0
 10
18.7920159534
 20
43.749168635
 30
0.0
 10
18.8000435649
 20
43.7621114909
 30
0.0
 10
18.8041075866
 20
43.7724705786
 30
0.0
 10
18.8059524903
 20
43.7782132553
 30
0.0
  0
SPLINE
  5
3EE
100
AcDbEntity
  8
0
100
AcDbSpline
 62
7
  6
CONTINUOUS
 70
0
 71
3
 72
11
 73
7
 74
0
 42
0.0000001
 43
0.0000001
 44
0.0000000001
 40
0.0
 40
0.0
 40
0.0
 40
0.0
 40
0.1972418892
 40
0.422301112
 40
0.689448308
 40
1.0
 40
1.0
 40
1.0
 40
1.0
 10
19.2814859559
 20
43.7382132553
 30
0.0
 10
19.285422158
 20
43.7382132553
 30
0.0
 10
19.2939148445
 20
43.7403586071
 30
0.0
 10
19.305023301
 20
43.7488991287
 30
0.0
 10
19.3146155146
 20
43.7619046426
 30
0.0
 10
19.3195080684
 20
43.7724182765
 30
0.0
 10
19.3217049867
 20
43.7782132553
 30
0.0
  0
SPLINE
  5
3EF
100
AcDbEntity
  8
0
100
AcDbSpline
 62
7
  6
CONTINUOUS
 70
0
 71
3
 72
11
 73
7
 74
0
 42
0.0000001
 43
0.0000001
 44
0.0000000001
 40
0.0
 40
0.0
 40
0.0
 40
0.0
 40
0.2093722711
 40
0.4396079791
 40
0.7024687949
 40
1.0
 40
1.0
 40
1.0
 40
1.0
 10
19.8744339503
 20
43.7382132553
 30
0.0
 10
19.8789202209
 20
43.7382132553
 30
0.0
 10
19.8884137193
 20
43.7402542812
 30
0.0
 10
19.9011931036
 20
43.7486798178
 30
0.0
 10
19.9122822815
 20
43.7617054747
 30
0.0
 10
19.9179887718
 20
43.7723651541
 30
0.0
 10
19.920527241
 20
43.7782132553
 30
0.0
  0
SPLINE
  5
3F0
100
AcDbEntity
  8
0
100
AcDbSpline
 62
7
  6
CONTINUOUS
 70
0
 71
3
 72
11
 73
7
 74
0
 42
0.0000001
 43
0.0000001
 44
0.0000000001
 40
0.0
 40
0.0
 40
0.0
 40
0.0
 40
0.2189444868
 40
0.453534986
 40
0.7131429292
 40
1.0
 40
1.0
 40
1.0
 40
1.0
 10
20.5462451014
 20
43.7382132553
 30
0.0
 10
20.5512513492
 20
43.7382132553
 30
0.0
 10
20.5616963564
 20
43.7401846742
 30
0.0
 10
20.5760101867
 20
43.7485055643
 30
0.0
 10
20.5885028654
 20
43.7615224367
 30
0.0
 10
20.5949961147
 20
43.7723133183
 30
0.0
 10
20.5978618544
 20
43.7782132553
 30
0.0
  0
SPLINE
  5
3F1
100
AcDbEntity
  8
0
100
AcDbSpline
 62
7
  6
CONTINUOUS
 70
0
 71
3
 72
11
 73
7
 74
0
 42
0.0000001
 43
0.0000001
 44
0.0000000001
 40
0.0
 40
0.0
 40
0.0
 40
0.0
 40
0.2265125352
 40
0.4647082932
 40
0.7218395679
 40
1.0
 40
1.0
 40
1.0
 40
1.0
 10
21.2918065208
 20
43.7382132553
 30
0.0
 10
21.2972975491
 20
43.7382132553
 30
0.0
 10
21.308635499
 20
43.7401367359
 30
0.0
 10
21.3243519052
 20
43.7483685313
 30
0.0
 10
21.3381393051
 20
43.7613598929
 30
0.0
 10
21.345379076
 20
43.7722643652
 30
0.0
 10
21.3485539013
 20
43.7782132553
 30
0.0
  0
SPLINE
  5
3F2
100
AcDbEntity
  8
0
100
AcDbSpline
 62
7
  6
CONTINUOUS
 70
0
 71
3
 72
10
 73
6
 74
0
 42
0.0000001
 43
0.0000001
 44
0.0000000001
 40
0.0
 40
0.0
 40
0.0
 40
0.0
 40
0.2333452681
 40
0.4753645409
 40
1.0
 40
1.0
 40
1.0
 40
1.0
 10
22.1054440359
 20
43.7382132553
 30
0.0
 10
22.1113802489
 20
43.7382132553
 30
0.0
 10
22.1235478291
 20
43.7401089361
 30
0.0
 10
22.1467387846
 20
43.7512218408
 30
0.0
 10
22.1602148938
 20
43.766655987
 30
0.0
 10
22.166890162
 20
43.7782132553
 30
0.0
  0
SPLINE
  5
3F3
100
AcDbEntity
  8
0
100
AcDbSpline
 62
7
  6
CONTINUOUS
 70
0
 71
3
 72
10
 73
6
 74
0
 42
0.0000001
 43
0.0000001
 44
0.0000000001
 40
0.0
 40
0.0
 40
0.0
 40
0.0
 40
0.2381022761
 40
0.4825214299
 40
1.0
 40
1.0
 40
1.0
 40
1.0
 10
22.9809653739
 20
43.7382132553
 30
0.0
 10
22.9873033264
 20
43.7382132553
 30
0.0
 10
23.0002197788
 20
43.7400862231
 30
0.0
 10
23.0247680639
 20
43.7510216789
 30
0.0
 10
23.0394089449
 20
43.7664909368
 30
0.0
 10
23.0466426035
 20
43.7782132553
 30
0.0
  0
SPLINE
  5
3F4
100
AcDbEntity
  8
0
100
AcDbSpline
 62
7
  6
CONTINUOUS
 70
0
 71
3
 72
10
 73
6
 74
0
 42
0.0000001
 43
0.0000001
 44
0.0000000001
 40
0.0
 40
0.0
 40
0.0
 40
0.0
 40
0.241849357
 40
0.488191019
 40
1.0
 40
1.0
 40
1.0
 40
1.0
 10
23.9117072887
 20
43.7382132553
 30
0.0
 10
23.918400167
 20
43.7382132553
 30
0.0
 10
23.9319810126
 20
43.7400696341
 30
0.0
 10
23.9577180865
 20
43.7508658634
 30
0.0
 10
23.9733809807
 20
43.7663480733
 30
0.0
 10
23.9811157785
 20
43.7782132553
 30
0.0
  0
SPLINE
  5
3F5
100
AcDbEntity
  8
0
100
AcDbSpline
 62
7
  6
CONTINUOUS
 70
0
 71
3
 72
9
 73
5
 74
0
 42
0.0000001
 43
0.0000001
 44
0.0000000001
 40
0.0
 40
0.0
 40
0.0
 40
0.0
 40
0.4906466859
 40
1.0
 40
1.0
 40
1.0
 40
1.0
 10
24.8905862723
 20
43.7382132553
 30
0.0
 10
24.9045591405
 20
43.7382132553
 30
0.0
 10
24.9334598324
 20
43.7458416844
 30
0.0
 10
24.95502692
 20
43.7662278652
 30
0.0
 10
24.9631977818
 20
43.7782132553
 30
0.0
  0
SPLINE
  5
3F6
100
AcDbEntity
  8
0
100
AcDbSpline
 62
7
  6
CONTINUOUS
 70
0
 71
3
 72
9
 73
5
 74
0
 42
0.0000001
 43
0.0000001
 44
0.0000000001
 40
0.0
 40
0.0
 40
0.0
 40
0.0
 40
0.4941778759
 40
1.0
 40
1.0
 40
1.0
 40
1.0
 10
25.9101524648
 20
43.7382132553
 30
0.0
 10
25.9246054722
 20
43.7382132553
 30
0.0
 10
25.9542802195
 20
43.7456928397
 30
0.0
 10
25.976879072
 20
43.76613029
 30
0.0
 10
25.9854143764
 20
43.7782132553
 30
0.0
  0
SPLINE
  5
3F7
100
AcDbEntity
  8
0
100
AcDbSpline
 62
7
  6
CONTINUOUS
 70
0
 71
3
 72
9
 73
5
 74
0
 42
0.0000001
 43
0.0000001
 44
0.0000000001
 40
0.0
 40
0.0
 40
0.0
 40
0.0
 40
0.4967905129
 40
1.0
 40
1.0
 40
1.0
 40
1.0
 10
26.9626463516
 20
43.7382132553
 30
0.0
 10
26.9774768462
 20
43.7382132553
 30
0.0
 10
27.0077592411
 20
43.7455846989
 30
0.0
 10
27.0311630276
 20
43.7660550748
 30
0.0
 10
27.0399858769
 20
43.7782132553
 30
0.0
  0
SPLINE
  5
3F8
100
AcDbEntity
  8
0
100
AcDbSpline
 62
7
  6
CONTINUOUS
 70
0
 71
3
 72
9
 73
5
 74
0
 42
0.0000001
 43
0.0000001
 44
0.0000000001
 40
0.0
 40
0.0
 40
0.0
 40
0.0
 40
0.4985930476
 40
1.0
 40
1.0
 40
1.0
 40
1.0
 10
28.0400578188
 20
43.7382132553
 30
0.0
 10
28.0551597262
 20
43.7382132553
 30
0.0
 10
28.0858784413
 20
43.7455109994
 30
0.0
 10
28.1098568978
 20
43.7660018664
 30
0.0
 10
28.1188863573
 20
43.7782132553
 30
0.0
  0
SPLINE
  5
3F9
100
AcDbEntity
  8
0
100
AcDbSpline
 62
7
  6
CONTINUOUS
 70
0
 71
3
 72
9
 73
5
 74
0
 42
0.0000001
 43
0.0000001
 44
0.0000000001
 40
0.0
 40
0.0
 40
0.0
 40
0.0
 40
0.2501794607
 40
1.0
 40
1.0
 40
1.0
 40
1.0
 10
29.182030989
 20
43.7858242968
 30
0.0
 10
29.1498950186
 20
43.8181053115
 30
0.0
 10
29.0214679949
 20
43.9471612824
 30
0.0
 10
28.8931396129
 20
44.0763154147
 30
0.0
 10
28.7969722231
 20
44.1732132553
 30
0.0
  0
LINE
  5
3FA
100
AcDbEntity
  8
0
100
AcDbLine
 62
7
  6
CONTINUOUS
 10
29.213904738
 20
43.7782132553
 11
29.6081571239
 21
44.1732132553
  0
LINE
  5
3FB
100
AcDbEntity
  8
0
100
AcDbLine
 62
7
  6
CONTINUOUS
 10
30.8652573849
 20
44.1732132553
 11
31.2595097708
 21
43.7782132553
  0
SPLINE
  5
3FC
100
AcDbEntity
  8
0
100
AcDbSpline
 62
7
  6
CONTINUOUS
 70
0
 71
3
 72
9
 73
5
 74
0
 42
0.0000001
 43
0.0000001
 44
0.0000000001
 40
0.0
 40
0.0
 40
0.0
 40
0.0
 40
0.2498109106
 40
1.0
 40
1.0
 40
1.0
 40
1.0
 10
31.6764422856
 20
44.1732132553
 30
0.0
 10
31.6444030683
 20
44.1409306803
 30
0.0
 10
31.5161243715
 20
44.0117272746
 30
0.0
 10
31.3877465637
 20
43.882622271
 30
0.0
 10
31.2913835197
 20
43.7858242968
 30
0.0
  0
SPLINE
  5
3FD
100
AcDbEntity
  8
0
100
AcDbSpline
 62
7
  6
CONTINUOUS
 70
0
 71
3
 72
9
 73
5
 74
0
 42
0.0000001
 43
0.0000001
 44
0.0000000001
 40
0.0
 40
0.0
 40
0.0
 40
0.0
 40
0.5014070731
 40
1.0
 40
1.0
 40
1.0
 40
1.0
 10
32.3545281515
 20
43.7782132553
 30
0.0
 10
32.3635576132
 20
43.7660018634
 30
0.0
 10
32.3875360714
 20
43.7455109974
 30
0.0
 10
32.4182547862
 20
43.7382132553
 30
0.0
 10
32.43335669
 20
43.7382132553
 30
0.0
  0
SPLINE
  5
3FE
100
AcDbEntity
  8
0
100
AcDbSpline
 62
7
  6
CONTINUOUS
 70
0
 71
3
 72
9
 73
5
 74
0
 42
0.0000001
 43
0.0000001
 44
0.0000000001
 40
0.0
 40
0.0
 40
0.0
 40
0.0
 40
0.5032096077
 40
1.0
 40
1.0
 40
1.0
 40
1.0
 10
33.4334286319
 20
43.7782132553
 30
0.0
 10
33.4422514833
 20
43.7660550719
 30
0.0
 10
33.4656552716
 20
43.7455846969
 30
0.0
 10
33.4959376662
 20
43.7382132553
 30
0.0
 10
33.5107681572
 20
43.7382132553
 30
0.0
  0
SPLINE
  5
3FF
100
AcDbEntity
  8
0
100
AcDbSpline
 62
7
  6
CONTINUOUS
 70
0
 71
3
 72
9
 73
5
 74
0
 42
0.0000001
 43
0.0000001
 44
0.0000000001
 40
0.0
 40
0.0
 40
0.0
 40
0.0
 40
0.5058222444
 40
1.0
 40
1.0
 40
1.0
 40
1.0
 10
34.4880001323
 20
43.7782132553
 30
0.0
 10
34.4965354388
 20
43.7661302871
 30
0.0
 10
34.5191342931
 20
43.7456928376
 30
0.0
 10
34.54880904
 20
43.7382132553
 30
0.0
 10
34.563262044
 20
43.7382132553
 30
0.0
  0
SPLINE
  5
400
100
AcDbEntity
  8
0
100
AcDbSpline
 62
7
  6
CONTINUOUS
 70
0
 71
3
 72
9
 73
5
 74
0
 42
0.0000001
 43
0.0000001
 44
0.0000000001
 40
0.0
 40
0.0
 40
0.0
 40
0.0
 40
0.5093534341
 40
1.0
 40
1.0
 40
1.0
 40
1.0
 10
35.510216727
 20
43.7782132553
 30
0.0
 10
35.5183875907
 20
43.7662278623
 30
0.0
 10
35.5399546801
 20
43.7458416823
 30
0.0
 10
35.5688553716
 20
43.7382132553
 30
0.0
 10
35.5828282364
 20
43.7382132553
 30
0.0
  0
SPLINE
  5
401
100
AcDbEntity
  8
0
100
AcDbSpline
 62
7
  6
CONTINUOUS
 70
0
 71
3
 72
10
 73
6
 74
0
 42
0.0000001
 43
0.0000001
 44
0.0000000001
 40
0.0
 40
0.0
 40
0.0
 40
0.0
 40
0.5118090999
 40
0.7581506967
 40
1.0
 40
1.0
 40
1.0
 40
1.0
 10
36.4922987303
 20
43.7782132553
 30
0.0
 10
36.5000335299
 20
43.7663480706
 30
0.0
 10
36.5156964269
 20
43.7508658612
 30
0.0
 10
36.5414335006
 20
43.7400696312
 30
0.0
 10
36.5550143432
 20
43.7382132553
 30
0.0
 10
36.5617072201
 20
43.7382132553
 30
0.0
  0
SPLINE
  5
402
100
AcDbEntity
  8
0
100
AcDbSpline
 62
7
  6
CONTINUOUS
 70
0
 71
3
 72
10
 73
6
 74
0
 42
0.0000001
 43
0.0000001
 44
0.0000000001
 40
0.0
 40
0.0
 40
0.0
 40
0.0
 40
0.5174786886
 40
0.761897777
 40
1.0
 40
1.0
 40
1.0
 40
1.0
 10
37.4267719053
 20
43.7782132553
 30
0.0
 10
37.4340055655
 20
43.7664909341
 30
0.0
 10
37.4486464492
 20
43.7510216766
 30
0.0
 10
37.4731947341
 20
43.7400862202
 30
0.0
 10
37.4861111837
 20
43.7382132553
 30
0.0
 10
37.4924491349
 20
43.7382132553
 30
0.0
  0
SPLINE
  5
403
100
AcDbEntity
  8
0
100
AcDbSpline
 62
7
  6
CONTINUOUS
 70
0
 71
3
 72
10
 73
6
 74
0
 42
0.0000001
 43
0.0000001
 44
0.0000000001
 40
0.0
 40
0.0
 40
0.0
 40
0.0
 40
0.524635577
 40
0.7666547845
 40
1.0
 40
1.0
 40
1.0
 40
1.0
 10
38.3065243468
 20
43.7782132553
 30
0.0
 10
38.3131996165
 20
43.7666559844
 30
0.0
 10
38.3266757283
 20
43.7512218385
 30
0.0
 10
38.3498666836
 20
43.7401089333
 30
0.0
 10
38.3620342612
 20
43.7382132553
 30
0.0
 10
38.3679704729
 20
43.7382132553
 30
0.0
  0
SPLINE
  5
404
100
AcDbEntity
  8
0
100
AcDbSpline
 62
7
  6
CONTINUOUS
 70
0
 71
3
 72
11
 73
7
 74
0
 42
0.0000001
 43
0.0000001
 44
0.0000000001
 40
0.0
 40
0.0
 40
0.0
 40
0.0
 40
0.2781604875
 40
0.5352918235
 40
0.7734875166
 40
1.0
 40
1.0
 40
1.0
 40
1.0
 10
39.1248606075
 20
43.7782132553
 30
0.0
 10
39.1280354334
 20
43.772264364
 30
0.0
 10
39.1352752074
 20
43.7613598902
 30
0.0
 10
39.1490626083
 20
43.7483685281
 30
0.0
 10
39.1647790135
 20
43.740136733
 30
0.0
 10
39.1761169609
 20
43.7382132553
 30
0.0
 10
39.1816079879
 20
43.7382132553
 30
0.0
  0
SPLINE
  5
405
100
AcDbEntity
  8
0
100
AcDbSpline
 62
7
  6
CONTINUOUS
 70
0
 71
3
 72
11
 73
7
 74
0
 42
0.0000001
 43
0.0000001
 44
0.0000000001
 40
0.0
 40
0.0
 40
0.0
 40
0.0
 40
0.2868571261
 40
0.5464651299
 40
0.7810555641
 40
1.0
 40
1.0
 40
1.0
 40
1.0
 10
39.8755526544
 20
43.7782132553
 30
0.0
 10
39.8784183946
 20
43.7723133171
 30
0.0
 10
39.8849116467
 20
43.761522434
 30
0.0
 10
39.8974043263
 20
43.7485055611
 30
0.0
 10
39.9117181558
 20
43.7401846714
 30
0.0
 10
39.9221631607
 20
43.7382132553
 30
0.0
 10
39.9271694073
 20
43.7382132553
 30
0.0
  0
SPLINE
  5
406
100
AcDbEntity
  8
0
100
AcDbSpline
 62
7
  6
CONTINUOUS
 70
0
 71
3
 72
11
 73
7
 74
0
 42
0.0000001
 43
0.0000001
 44
0.0000000001
 40
0.0
 40
0.0
 40
0.0
 40
0.0
 40
0.2975312603
 40
0.560392136
 40
0.7906277788
 40
1.0
 40
1.0
 40
1.0
 40
1.0
 10
40.5528872677
 20
43.7782132553
 30
0.0
 10
40.5554257374
 20
43.772365153
 30
0.0
 10
40.5611322302
 20
43.761705472
 30
0.0
 10
40.572221409
 20
43.7486798146
 30
0.0
 10
40.5850007925
 20
43.7402542783
 30
0.0
 10
40.5944942889
 20
43.7382132553
 30
0.0
 10
40.5989805585
 20
43.7382132553
 30
0.0
  0
SPLINE
  5
407
100
AcDbEntity
  8
0
100
AcDbSpline
 62
7
  6
CONTINUOUS
 70
0
 71
3
 72
11
 73
7
 74
0
 42
0.0000001
 43
0.0000001
 44
0.0000000001
 40
0.0
 40
0.0
 40
0.0
 40
0.0
 40
0.3105517473
 40
0.5776990022
 40
0.8027581595
 40
1.0
 40
1.0
 40
1.0
 40
1.0
 10
41.1517095221
 20
43.7782132553
 30
0.0
 10
41.1539064408
 20
43.7724182755
 30
0.0
 10
41.1587989967
 20
43.7619046399
 30
0.0
 10
41.1683912112
 20
43.7488991255
 30
0.0
 10
41.1794996669
 20
43.7403586042
 30
0.0
 10
41.1879923517
 20
43.7382132553
 30
0.0
 10
41.1919285529
 20
43.7382132553
 30
0.0
  0
SPLINE
  5
408
100
AcDbEntity
  8
0
100
AcDbSpline
 62
7
  6
CONTINUOUS
 70
0
 71
3
 72
11
 73
7
 74
0
 42
0.0000001
 43
0.0000001
 44
0.0000000001
 40
0.0
 40
0.0
 40
0.0
 40
0.0
 40
0.3262701371
 40
0.5990586234
 40
0.8181308445
 40
1.0
 40
1.0
 40
1.0
 40
1.0
 10
41.6674620185
 20
43.7782132553
 30
0.0
 10
41.6693069224
 20
43.7724705776
 30
0.0
 10
41.673370946
 20
43.7621114881
 30
0.0
 10
41.6813985582
 20
43.7491686319
 30
0.0
 10
41.6906897246
 20
43.7405202396
 30
0.0
 10
41.6981384861
 20
43.7382132553
 30
0.0
 10
41.7015006983
 20
43.7382132553
 30
0.0
  0
SPLINE
  5
409
100
AcDbEntity
  8
0
100
AcDbSpline
 62
7
  6
CONTINUOUS
 70
0
 71
3
 72
11
 73
7
 74
0
 42
0.0000001
 43
0.0000001
 44
0.0000000001
 40
0.0
 40
0.0
 40
0.0
 40
0.0
 40
0.3448909574
 40
0.6250251104
 40
0.8375079241
 40
1.0
 40
1.0
 40
1.0
 40
1.0
 10
42.0962195691
 20
43.7782132553
 30
0.0
 10
42.0977054834
 20
43.77251948
 30
0.0
 10
42.1009352756
 20
43.7623139705
 30
0.0
 10
42.1073731593
 20
43.749482512
 30
0.0
 10
42.1146893949
 20
43.7407787225
 30
0.0
 10
42.1210464299
 20
43.7382132553
 30
0.0
 10
42.1238188429
 20
43.7382132553
 30
0.0
  0
SPLINE
  5
40A
100
AcDbEntity
  8
0
100
AcDbSpline
 62
7
  6
CONTINUOUS
 70
0
 71
3
 72
12
 73
8
 74
0
 42
0.0000001
 43
0.0000001
 44
0.0000000001
 40
0.0
 40
0.0
 40
0.0
 40
0.0
 40
0.3659098126
 40
0.6551181816
 40
0.7684649048
 40
0.8616020196
 40
1.0
 40
1.0
 40
1.0
 40
1.0
 10
42.43471907
 20
43.7782132553
 30
0.0
 10
42.4358419314
 20
43.7725620827
 30
0.0
 10
42.4382746902
 20
43.7625228989
 30
0.0
 10
42.4425093279
 20
43.7511256938
 30
0.0
 10
42.4465252748
 20
43.7443769725
 30
0.0
 10
42.4499554127
 20
43.7402167663
 30
0.0
 10
42.4534896646
 20
43.7382132553
 30
0.0
 10
42.4556688907
 20
43.7382132553
 30
0.0
  0
SPLINE
  5
40B
100
AcDbEntity
  8
0
100
AcDbSpline
 62
7
  6
CONTINUOUS
 70
0
 71
3
 72
12
 73
8
 74
0
 42
0.0000001
 43
0.0000001
 44
0.0000000001
 40
0.0
 40
0.0
 40
0.0
 40
0.0
 40
0.3887124635
 40
0.688994115
 40
0.8019919894
 40
0.8898153181
 40
1.0
 40
1.0
 40
1.0
 40
1.0
 10
42.6803843356
 20
43.7782132553
 30
0.0
 10
42.6811422154
 20
43.7725954485
 30
0.0
 10
42.6827809654
 20
43.7626651946
 30
0.0
 10
42.6855904284
 20
43.7513170427
 30
0.0
 10
42.6883435021
 20
43.7444635259
 30
0.0
 10
42.690443707
 20
43.7405972222
 30
0.0
 10
42.6929184098
 20
43.7382132553
 30
0.0
 10
42.6945252625
 20
43.7382132553
 30
0.0
  0
SPLINE
  5
40C
100
AcDbEntity
  8
0
100
AcDbSpline
 62
7
  6
CONTINUOUS
 70
0
 71
3
 72
12
 73
8
 74
0
 42
0.0000001
 43
0.0000001
 44
0.0000000001
 40
0.0
 40
0.0
 40
0.0
 40
0.0
 40
0.4084046162
 40
0.7190401195
 40
0.9160468635
 40
0.9705081316
 40
1.0
 40
1.0
 40
1.0
 40
1.0
 10
42.8313457049
 20
43.7782132553
 30
0.0
 10
42.8317379546
 20
43.7726169945
 30
0.0
 10
42.8325784526
 20
43.7627528765
 30
0.0
 10
42.8341654457
 20
43.7503308628
 30
0.0
 10
42.8358218921
 20
43.7426499279
 30
0.0
 10
42.8372059608
 20
43.7391536352
 30
0.0
 10
42.8381650062
 20
43.7382132553
 30
0.0
 10
42.838570117
 20
43.7382132553
 30
0.0
  0
SPLINE
  5
40D
100
AcDbEntity
  8
0
100
AcDbSpline
 62
7
  6
CONTINUOUS
 70
0
 71
3
 72
10
 73
6
 74
0
 42
0.0000001
 43
0.0000001
 44
0.0000000001
 40
0.0
 40
0.0
 40
0.0
 40
0.0
 40
0.5115332876
 40
0.7578211029
 40
1.0
 40
1.0
 40
1.0
 40
1.0
 10
23.8425517139
 20
43.7782132553
 30
0.0
 10
23.8502242552
 20
43.7663573207
 30
0.0
 10
23.8657963839
 20
43.7508614443
 30
0.0
 10
23.8914646926
 20
43.7400648285
 30
0.0
 10
23.9050214051
 20
43.7382132553
 30
0.0
 10
23.9117072887
 20
43.7382132553
 30
0.0
  0
SPLINE
  5
40E
100
AcDbEntity
  8
0
100
AcDbSpline
 62
7
  6
CONTINUOUS
 70
0
 71
3
 72
11
 73
7
 74
0
 42
0.0000001
 43
0.0000001
 44
0.0000000001
 40
0.0
 40
0.0
 40
0.0
 40
0.0
 40
0.3266965812
 40
0.5992916472
 40
0.8179452315
 40
1.0
 40
1.0
 40
1.0
 40
1.0
 10
18.7383335684
 20
43.7782132553
 30
0.0
 10
18.7401274686
 20
43.7724758117
 30
0.0
 10
18.7440835383
 20
43.7621268342
 30
0.0
 10
18.7519557533
 20
43.749176426
 30
0.0
 10
18.7611487853
 20
43.7405094676
 30
0.0
 10
18.7685639283
 20
43.7382132553
 30
0.0
 10
18.7719138105
 20
43.7382132553
 30
0.0
  0
SPLINE
  5
40F
100
AcDbEntity
  8
0
100
AcDbSpline
 62
7
  6
CONTINUOUS
 70
0
 71
3
 72
9
 73
5
 74
0
 42
0.0000001
 43
0.0000001
 44
0.0000000001
 40
0.0
 40
0.0
 40
0.0
 40
0.0
 40
0.4908803856
 40
1.0
 40
1.0
 40
1.0
 40
1.0
 10
35.5828282364
 20
43.7382132553
 30
0.0
 10
35.5967794842
 20
43.7382132553
 30
0.0
 10
35.6256327222
 20
43.7458251153
 30
0.0
 10
35.6471081902
 20
43.766235293
 30
0.0
 10
35.6552259729
 20
43.7782132553
 30
0.0
  0
SPLINE
  5
410
100
AcDbEntity
  8
0
100
AcDbSpline
 62
7
  6
CONTINUOUS
 70
0
 71
3
 72
9
 73
5
 74
0
 42
0.0000001
 43
0.0000001
 44
0.0000000001
 40
0.0
 40
0.0
 40
0.0
 40
0.0
 40
0.5091197344
 40
1.0
 40
1.0
 40
1.0
 40
1.0
 10
24.8181885359
 20
43.7782132553
 30
0.0
 10
24.8263063205
 20
43.7662352902
 30
0.0
 10
24.8477817903
 20
43.7458251132
 30
0.0
 10
24.876635028
 20
43.7382132553
 30
0.0
 10
24.8905862723
 20
43.7382132553
 30
0.0
  0
SPLINE
  5
411
100
AcDbEntity
  8
0
100
AcDbSpline
 62
7
  6
CONTINUOUS
 70
0
 71
3
 72
10
 73
6
 74
0
 42
0.0000001
 43
0.0000001
 44
0.0000000001
 40
0.0
 40
0.0
 40
0.0
 40
0.0
 40
0.2421789509
 40
0.4884668312
 40
1.0
 40
1.0
 40
1.0
 40
1.0
 10
36.5617072201
 20
43.7382132553
 30
0.0
 10
36.5683931052
 20
43.7382132553
 30
0.0
 10
36.5819498206
 20
43.7400648313
 30
0.0
 10
36.6076181295
 20
43.7508614466
 30
0.0
 10
36.6231902554
 20
43.7663573235
 30
0.0
 10
36.6308627949
 20
43.7782132553
 30
0.0
  0
SPLINE
  5
412
100
AcDbEntity
  8
0
100
AcDbSpline
 62
7
  6
CONTINUOUS
 70
0
 71
3
 72
11
 73
7
 74
0
 42
0.0000001
 43
0.0000001
 44
0.0000000001
 40
0.0
 40
0.0
 40
0.0
 40
0.0
 40
0.2383372369
 40
0.4839064347
 40
0.7382909307
 40
1.0
 40
1.0
 40
1.0
 40
1.0
 10
21.2673038129
 20
37.1832132553
 30
0.0
 10
21.2465723496
 20
37.1894212955
 30
0.0
 10
21.2058575246
 20
37.207393845
 30
0.0
 10
21.1530540503
 20
37.2498433093
 30
0.0
 10
21.1107973487
 20
37.3053168767
 30
0.0
 10
21.0909336351
 20
37.3482539377
 30
0.0
 10
21.0834616286
 20
37.3708118067
 30
0.0
  0
SPLINE
  5
413
100
AcDbEntity
  8
0
100
AcDbSpline
 62
7
  6
CONTINUOUS
 70
0
 71
3
 72
11
 73
7
 74
0
 42
0.0000001
 43
0.0000001
 44
0.0000000001
 40
0.0
 40
0.0
 40
0.0
 40
0.0
 40
0.3108379397
 40
0.5777405206
 40
0.8024578308
 40
1.0
 40
1.0
 40
1.0
 40
1.0
 10
19.2417049867
 20
43.7782132553
 30
0.0
 10
19.2438523087
 20
43.7724236521
 30
0.0
 10
19.2486390339
 20
43.7619190235
 30
0.0
 10
19.2580847359
 20
43.7489028773
 30
0.0
 10
19.2691037137
 20
43.7403477938
 30
0.0
 10
19.2775616574
 20
43.7382132553
 30
0.0
 10
19.2814859559
 20
43.7382132553
 30
0.0
  0
SPLINE
  5
414
100
AcDbEntity
  8
0
100
AcDbSpline
 62
7
  6
CONTINUOUS
 70
0
 71
3
 72
10
 73
6
 74
0
 42
0.0000001
 43
0.0000001
 44
0.0000000001
 40
0.0
 40
0.0
 40
0.0
 40
0.0
 40
0.2384717331
 40
0.4828141913
 40
1.0
 40
1.0
 40
1.0
 40
1.0
 10
37.4924491349
 20
43.7382132553
 30
0.0
 10
37.4987790735
 20
43.7382132553
 30
0.0
 10
37.5116681752
 20
43.7400804259
 30
0.0
 10
37.5361381575
 20
43.7510177469
 30
0.0
 10
37.5506731936
 20
43.766502127
 30
0.0
 10
37.5578362324
 20
43.7782132553
 30
0.0
  0
SPLINE
  5
415
100
AcDbEntity
  8
0
100
AcDbSpline
 62
7
  6
CONTINUOUS
 70
0
 71
3
 72
9
 73
5
 74
0
 42
0.0000001
 43
0.0000001
 44
0.0000000001
 40
0.0
 40
0.0
 40
0.0
 40
0.0
 40
0.4989999085
 40
1.0
 40
1.0
 40
1.0
 40
1.0
 10
27.8425450234
 20
41.6732132422
 30
0.0
 10
27.8050618811
 20
41.4478985955
 30
0.0
 10
27.7526306648
 20
40.99244703
 30
0.0
 10
27.7367072544
 20
40.5345557024
 30
0.0
 10
27.7367072544
 20
40.3052289434
 30
0.0
  0
SPLINE
  5
416
100
AcDbEntity
  8
0
100
AcDbSpline
 62
7
  6
CONTINUOUS
 70
0
 71
3
 72
9
 73
5
 74
0
 42
0.0000001
 43
0.0000001
 44
0.0000000001
 40
0.0
 40
0.0
 40
0.0
 40
0.0
 40
0.5056251062
 40
1.0
 40
1.0
 40
1.0
 40
1.0
 10
25.8350635571
 20
43.7782132553
 30
0.0
 10
25.8435556291
 20
43.7661360264
 30
0.0
 10
25.866081449
 20
43.7456790819
 30
0.0
 10
25.8957169969
 20
43.7382132553
 30
0.0
 10
25.9101524648
 20
43.7382132553
 30
0.0
  0
SPLINE
  5
417
100
AcDbEntity
  8
0
100
AcDbSpline
 62
7
  6
CONTINUOUS
 70
0
 71
3
 72
9
 73
5
 74
0
 42
0.0000001
 43
0.0000001
 44
0.0000000001
 40
0.0
 40
0.0
 40
0.0
 40
0.0
 40
0.6069219988
 40
1.0
 40
1.0
 40
1.0
 40
1.0
 10
17.628123885
 20
43.7782132553
 30
0.0
 10
17.6285588167
 20
43.7710411626
 30
0.0
 10
17.6295100012
 20
43.7592571681
 30
0.0
 10
17.6310328407
 20
43.7474609899
 30
0.0
 10
17.6322270033
 20
43.7429632185
 30
0.0
  0
SPLINE
  5
418
100
AcDbEntity
  8
0
100
AcDbSpline
 62
7
  6
CONTINUOUS
 70
0
 71
3
 72
10
 73
6
 74
0
 42
0.0000001
 43
0.0000001
 44
0.0000000001
 40
0.0
 40
0.0
 40
0.0
 40
0.0
 40
0.2337442885
 40
0.4756561459
 40
1.0
 40
1.0
 40
1.0
 40
1.0
 10
38.3679704729
 20
43.7382132553
 30
0.0
 10
38.3738977176
 20
43.7382132553
 30
0.0
 10
38.3860351502
 20
43.7401020635
 30
0.0
 10
38.4091389038
 20
43.7512191737
 30
0.0
 10
38.422494198
 20
43.7666691875
 30
0.0
 10
38.4290914577
 20
43.7782132553
 30
0.0
  0
SPLINE
  5
419
100
AcDbEntity
  8
0
100
AcDbSpline
 62
7
  6
CONTINUOUS
 70
0
 71
3
 72
9
 73
5
 74
0
 42
0.0000001
 43
0.0000001
 44
0.0000000001
 40
0.0
 40
0.0
 40
0.0
 40
0.0
 40
0.5030562571
 40
1.0
 40
1.0
 40
1.0
 40
1.0
 10
26.8854377447
 20
43.7782132553
 30
0.0
 10
26.8942277267
 20
43.7660592498
 30
0.0
 10
26.917576887
 20
43.7455741191
 30
0.0
 10
26.9478291519
 20
43.7382132553
 30
0.0
 10
26.9626463516
 20
43.7382132553
 30
0.0
  0
SPLINE
  5
41A
100
AcDbEntity
  8
0
100
AcDbSpline
 62
7
  6
CONTINUOUS
 70
0
 71
3
 72
11
 73
7
 74
0
 42
0.0000001
 43
0.0000001
 44
0.0000000001
 40
0.0
 40
0.0
 40
0.0
 40
0.0
 40
0.2269183921
 40
0.4649598864
 40
0.7218268575
 40
1.0
 40
1.0
 40
1.0
 40
1.0
 10
39.1816079879
 20
43.7382132553
 30
0.0
 10
39.1870891699
 20
43.7382132553
 30
0.0
 10
39.1983948213
 20
43.7401287679
 30
0.0
 10
39.2140415289
 20
43.7483659378
 30
0.0
 10
39.227715539
 20
43.7613682819
 30
0.0
 10
39.2348651582
 20
43.7722689029
 30
0.0
 10
39.2379976925
 20
43.7782132553
 30
0.0
  0
SPLINE
  5
41B
100
AcDbEntity
  8
0
100
AcDbSpline
 62
7
  6
CONTINUOUS
 70
0
 71
3
 72
11
 73
7
 74
0
 42
0.0000001
 43
0.0000001
 44
0.0000000001
 40
0.0
 40
0.0
 40
0.0
 40
0.0
 40
0.2977001199
 40
0.5602918233
 40
0.7902589137
 40
1.0
 40
1.0
 40
1.0
 40
1.0
 10
19.8287550112
 20
43.7782132553
 30
0.0
 10
19.8312457973
 20
43.7723704186
 30
0.0
 10
19.8368501809
 20
43.7617180579
 30
0.0
 10
19.8478033023
 20
43.7486805226
 30
0.0
 10
19.8605003358
 20
43.7402441868
 30
0.0
 10
19.8699590096
 20
43.7382132553
 30
0.0
 10
19.8744339503
 20
43.7382132553
 30
0.0
  0
SPLINE
  5
41C
100
AcDbEntity
  8
0
100
AcDbSpline
 62
7
  6
CONTINUOUS
 70
0
 71
3
 72
9
 73
5
 74
0
 42
0.0000001
 43
0.0000001
 44
0.0000000001
 40
0.0
 40
0.0
 40
0.0
 40
0.0
 40
0.5010000953
 40
1.0
 40
1.0
 40
1.0
 40
1.0
 10
32.7367072544
 20
40.3052289435
 30
0.0
 10
32.7367072544
 20
40.5345557042
 30
0.0
 10
32.7207838441
 20
40.9924470319
 30
0.0
 10
32.6683526274
 20
41.4478985973
 30
0.0
 10
32.6308694854
 20
41.6732132422
 30
0.0
  0
SPLINE
  5
41D
100
AcDbEntity
  8
0
100
AcDbSpline
 62
7
  6
CONTINUOUS
 70
0
 71
3
 72
11
 73
7
 74
0
 42
0.0000001
 43
0.0000001
 44
0.0000000001
 40
0.0
 40
0.0
 40
0.0
 40
0.0
 40
0.2193454763
 40
0.45373045
 40
0.7130647123
 40
1.0
 40
1.0
 40
1.0
 40
1.0
 10
39.9271694073
 20
43.7382132553
 30
0.0
 10
39.9321650177
 20
43.7382132553
 30
0.0
 10
39.9425760702
 20
43.7401756043
 30
0.0
 10
39.9568139582
 20
43.7485042166
 30
0.0
 10
39.9691817446
 20
43.7615329105
 30
0.0
 10
39.9755781777
 20
43.7723182836
 30
0.0
 10
39.978398672
 20
43.7782132553
 30
0.0
  0
SPLINE
  5
41E
100
AcDbEntity
  8
0
100
AcDbSpline
 62
7
  6
CONTINUOUS
 70
0
 71
3
 72
9
 73
5
 74
0
 42
0.0000001
 43
0.0000001
 44
0.0000000001
 40
0.0
 40
0.0
 40
0.0
 40
0.0
 40
0.5013023724
 40
1.0
 40
1.0
 40
1.0
 40
1.0
 10
27.9613171168
 20
43.7782132553
 30
0.0
 10
27.9703244566
 20
43.7660045858
 30
0.0
 10
27.9942665642
 20
43.7455038317
 30
0.0
 10
28.0249648421
 20
43.7382132553
 30
0.0
 10
28.0400578188
 20
43.7382132553
 30
0.0
  0
SPLINE
  5
41F
100
AcDbEntity
  8
0
100
AcDbSpline
 62
7
  6
CONTINUOUS
 70
0
 71
3
 72
10
 73
6
 74
0
 42
0.0000001
 43
0.0000001
 44
0.0000000001
 40
0.0
 40
0.0
 40
0.0
 40
0.0
 40
0.5993535162
 40
0.826507187
 40
1.0
 40
1.0
 40
1.0
 40
1.0
 10
17.7652464647
 20
43.7782132553
 30
0.0
 10
17.7661517139
 20
43.7710038811
 30
0.0
 10
17.7676899515
 20
43.7610698809
 30
0.0
 10
17.7708633747
 20
43.74936452
 30
0.0
 10
17.7726430612
 20
43.7448165822
 30
0.0
 10
17.7736374184
 20
43.7429632185
 30
0.0
  0
SPLINE
  5
420
100
AcDbEntity
  8
0
100
AcDbSpline
 62
7
  6
CONTINUOUS
 70
0
 71
3
 72
9
 73
5
 74
0
 42
0.0000001
 43
0.0000001
 44
0.0000000001
 40
0.0
 40
0.0
 40
0.0
 40
0.0
 40
0.3365327932
 40
1.0
 40
1.0
 40
1.0
 40
1.0
 10
17.7736374184
 20
43.7429632185
 30
0.0
 10
17.774020544
 20
43.7422491177
 30
0.0
 10
17.7752001338
 20
43.7402437241
 30
0.0
 10
17.7772915879
 20
43.7382132553
 30
0.0
 10
17.7788892463
 20
43.7382132553
 30
0.0
  0
SPLINE
  5
421
100
AcDbEntity
  8
0
100
AcDbSpline
 62
7
  6
CONTINUOUS
 70
0
 71
3
 72
11
 73
7
 74
0
 42
0.0000001
 43
0.0000001
 44
0.0000000001
 40
0.0
 40
0.0
 40
0.0
 40
0.0
 40
0.2097411366
 40
0.4397082917
 40
0.7022999348
 40
1.0
 40
1.0
 40
1.0
 40
1.0
 10
40.5989805585
 20
43.7382132553
 30
0.0
 10
40.6034555003
 20
43.7382132553
 30
0.0
 10
40.6129141761
 20
43.7402441897
 30
0.0
 10
40.6256112103
 20
43.7486805257
 30
0.0
 10
40.6365643307
 20
43.7617180607
 30
0.0
 10
40.6421687119
 20
43.7723704197
 30
0.0
 10
40.6446594975
 20
43.7782132553
 30
0.0
  0
SPLINE
  5
422
100
AcDbEntity
  8
0
100
AcDbSpline
 62
7
  6
CONTINUOUS
 70
0
 71
3
 72
11
 73
7
 74
0
 42
0.0000001
 43
0.0000001
 44
0.0000000001
 40
0.0
 40
0.0
 40
0.0
 40
0.0
 40
0.2869353425
 40
0.5462696659
 40
0.780654575
 40
1.0
 40
1.0
 40
1.0
 40
1.0
 10
20.4950158368
 20
43.7782132553
 30
0.0
 10
20.4978363316
 20
43.7723182824
 30
0.0
 10
20.5042327675
 20
43.7615329078
 30
0.0
 10
20.5166005548
 20
43.7485042134
 30
0.0
 10
20.5308384419
 20
43.7401756015
 30
0.0
 10
20.5412494923
 20
43.7382132553
 30
0.0
 10
20.5462451014
 20
43.7382132553
 30
0.0
  0
LINE
  5
423
100
AcDbEntity
  8
0
100
AcDbLine
 62
7
  6
CONTINUOUS
 10
28.6617721607
 20
44.1732132553
 11
29.0545135863
 21
43.7782132553
  0
SPLINE
  5
424
100
AcDbEntity
  8
0
100
AcDbSpline
 62
7
  6
CONTINUOUS
 70
0
 71
3
 72
9
 73
5
 74
0
 42
0.0000001
 43
0.0000001
 44
0.0000000001
 40
0.0
 40
0.0
 40
0.0
 40
0.0
 40
0.5019068304
 40
1.0
 40
1.0
 40
1.0
 40
1.0
 10
40.9177400881
 20
41.6732132422
 30
0.0
 10
40.8176652266
 20
41.4488793083
 30
0.0
 10
40.6303238941
 20
40.9964811061
 30
0.0
 10
40.4637163801
 20
40.5361225386
 30
0.0
 10
40.385515711
 20
40.3052289434
 30
0.0
  0
SPLINE
  5
425
100
AcDbEntity
  8
0
100
AcDbSpline
 62
7
  6
CONTINUOUS
 70
0
 71
3
 72
11
 73
7
 74
0
 42
0.0000001
 43
0.0000001
 44
0.0000000001
 40
0.0
 40
0.0
 40
0.0
 40
0.0
 40
0.1975422184
 40
0.4222595934
 40
0.689162115
 40
1.0
 40
1.0
 40
1.0
 40
1.0
 10
41.1919285529
 20
43.7382132553
 30
0.0
 10
41.1958528523
 20
43.7382132553
 30
0.0
 10
41.2043107977
 20
43.7403477967
 30
0.0
 10
41.2153297762
 20
43.7489028804
 30
0.0
 10
41.2247754774
 20
43.7619190262
 30
0.0
 10
41.2295622005
 20
43.7724236531
 30
0.0
 10
41.2317095221
 20
43.7782132553
 30
0.0
  0
SPLINE
  5
426
100
AcDbEntity
  8
0
100
AcDbSpline
 62
7
  6
CONTINUOUS
 70
0
 71
3
 72
11
 73
7
 74
0
 42
0.0000001
 43
0.0000001
 44
0.0000000001
 40
0.0
 40
0.0
 40
0.0
 40
0.0
 40
0.1820548165
 40
0.4007084659
 40
0.6733034737
 40
1.0
 40
1.0
 40
1.0
 40
1.0
 10
41.7015006983
 20
43.7382132553
 30
0.0
 10
41.7048505813
 20
43.7382132553
 30
0.0
 10
41.7122657258
 20
43.7405094707
 30
0.0
 10
41.7214587583
 20
43.7491764291
 30
0.0
 10
41.7293309725
 20
43.762126837
 30
0.0
 10
41.7332870405
 20
43.7724758127
 30
0.0
 10
41.7350809404
 20
43.7782132553
 30
0.0
  0
SPLINE
  5
427
100
AcDbEntity
  8
0
100
AcDbSpline
 62
7
  6
CONTINUOUS
 70
0
 71
3
 72
11
 73
7
 74
0
 42
0.0000001
 43
0.0000001
 44
0.0000000001
 40
0.0
 40
0.0
 40
0.0
 40
0.0
 40
0.2781731974
 40
0.5350402302
 40
0.7730816599
 40
1.0
 40
1.0
 40
1.0
 40
1.0
 10
21.2354168163
 20
43.7782132553
 30
0.0
 10
21.2385493512
 20
43.7722689018
 30
0.0
 10
21.2456989734
 20
43.7613682791
 30
0.0
 10
21.2593729846
 20
43.7483659346
 30
0.0
 10
21.2750196912
 20
43.7401287651
 30
0.0
 10
21.2863253401
 20
43.7382132553
 30
0.0
 10
21.2918065208
 20
43.7382132553
 30
0.0
  0
SPLINE
  5
428
100
AcDbEntity
  8
0
100
AcDbSpline
 62
7
  6
CONTINUOUS
 70
0
 71
3
 72
10
 73
6
 74
0
 42
0.0000001
 43
0.0000001
 44
0.0000000001
 40
0.0
 40
0.0
 40
0.0
 40
0.0
 40
0.6361886155
 40
0.8506876388
 40
1.0
 40
1.0
 40
1.0
 40
1.0
 10
17.9972843916
 20
43.7782132553
 30
0.0
 10
17.9990451201
 20
43.7689234427
 30
0.0
 10
18.0020519518
 20
43.7564265859
 30
0.0
 10
18.0090420776
 20
43.7432889875
 30
0.0
 10
18.0132406864
 20
43.7394209484
 30
0.0
 10
18.0153241821
 20
43.7386570548
 30
0.0
  0
SPLINE
  5
429
100
AcDbEntity
  8
0
100
AcDbSpline
 62
7
  6
CONTINUOUS
 70
0
 71
3
 72
8
 73
4
 74
0
 42
0.0000001
 43
0.0000001
 44
0.0000000001
 40
0.0
 40
0.0
 40
0.0
 40
0.0
 40
1.0
 40
1.0
 40
1.0
 40
1.0
 10
18.0153241821
 20
43.7386570548
 30
0.0
 10
18.0160946211
 20
43.7383745808
 30
0.0
 10
18.0169250281
 20
43.7382132553
 30
0.0
 10
18.017745618
 20
43.7382132553
 30
0.0
  0
SPLINE
  5
42A
100
AcDbEntity
  8
0
100
AcDbSpline
 62
7
  6
CONTINUOUS
 70
0
 71
3
 72
9
 73
5
 74
0
 42
0.0000001
 43
0.0000001
 44
0.0000000001
 40
0.0
 40
0.0
 40
0.0
 40
0.0
 40
0.4349757286
 40
1.0
 40
1.0
 40
1.0
 40
1.0
 10
42.1238188429
 20
43.7382132553
 30
0.0
 10
42.126542894
 20
43.7382132553
 30
0.0
 10
42.1327783104
 20
43.7406851466
 30
0.0
 10
42.1368692446
 20
43.7456070599
 30
0.0
 10
42.1388727763
 20
43.7485236908
 30
0.0
  0
SPLINE
  5
42B
100
AcDbEntity
  8
0
100
AcDbSpline
 62
7
  6
CONTINUOUS
 70
0
 71
3
 72
9
 73
5
 74
0
 42
0.0000001
 43
0.0000001
 44
0.0000000001
 40
0.0
 40
0.0
 40
0.0
 40
0.0
 40
0.4468375074
 40
1.0
 40
1.0
 40
1.0
 40
1.0
 10
42.1388727763
 20
43.7485236908
 30
0.0
 10
42.1415853217
 20
43.7524724648
 30
0.0
 10
42.1463333862
 20
43.7621961618
 30
0.0
 10
42.1494932626
 20
43.7724624897
 30
0.0
 10
42.150942792
 20
43.7782132553
 30
0.0
  0
SPLINE
  5
42C
100
AcDbEntity
  8
0
100
AcDbSpline
 62
7
  6
CONTINUOUS
 70
0
 71
3
 72
10
 73
6
 74
0
 42
0.0000001
 43
0.0000001
 44
0.0000000001
 40
0.0
 40
0.0
 40
0.0
 40
0.0
 40
0.3486975478
 40
0.635248136
 40
1.0
 40
1.0
 40
1.0
 40
1.0
 10
42.4556688907
 20
43.7382132553
 30
0.0
 10
42.4598014643
 20
43.7382132553
 30
0.0
 10
42.4658600813
 20
43.7452033141
 30
0.0
 10
42.4703674017
 20
43.7556448302
 30
0.0
 10
42.4726725045
 20
43.7631630399
 30
0.0
 10
42.4737391765
 20
43.7673522119
 30
0.0
  0
LINE
  5
42D
100
AcDbEntity
  8
0
100
AcDbLine
 62
7
  6
CONTINUOUS
 10
42.4737391765
 20
43.7673522119
 11
42.4761301172
 21
43.7782132553
  0
LINE
  5
42E
100
AcDbEntity
  8
0
100
AcDbLine
 62
7
  6
CONTINUOUS
 10
31.4189009225
 20
43.7782132553
 11
31.8116423481
 21
44.1732132553
  0
SPLINE
  5
42F
100
AcDbEntity
  8
0
100
AcDbSpline
 62
7
  6
CONTINUOUS
 70
0
 71
3
 72
10
 73
6
 74
0
 42
0.0000001
 43
0.0000001
 44
0.0000000001
 40
0.0
 40
0.0
 40
0.0
 40
0.0
 40
0.5243439718
 40
0.7662557644
 40
1.0
 40
1.0
 40
1.0
 40
1.0
 10
22.0443230511
 20
43.7782132553
 30
0.0
 10
22.0509203123
 20
43.7666691849
 30
0.0
 10
22.064275609
 20
43.7512191714
 30
0.0
 10
22.0873793626
 20
43.7401020607
 30
0.0
 10
22.0995167925
 20
43.7382132553
 30
0.0
 10
22.1054440359
 20
43.7382132553
 30
0.0
  0
SPLINE
  5
430
100
AcDbEntity
  8
0
100
AcDbSpline
 62
7
  6
CONTINUOUS
 70
0
 71
3
 72
12
 73
8
 74
0
 42
0.0000001
 43
0.0000001
 44
0.0000000001
 40
0.0
 40
0.0
 40
0.0
 40
0.0
 40
0.1132746885
 40
0.2009043683
 40
0.313077925
 40
0.6111140019
 40
1.0
 40
1.0
 40
1.0
 40
1.0
 10
42.6945252625
 20
43.7382132553
 30
0.0
 10
42.6959762131
 20
43.7382132553
 30
0.0
 10
42.6982505092
 20
43.7402113858
 30
0.0
 10
42.7001940622
 20
43.7436059776
 30
0.0
 10
42.7026937311
 20
43.7495380041
 30
0.0
 10
42.7052591784
 20
43.7594522154
 30
0.0
 10
42.7067636908
 20
43.7681336967
 30
0.0
 10
42.7074746694
 20
43.7730639895
 30
0.0
  0
SPLINE
  5
431
100
AcDbEntity
  8
0
100
AcDbSpline
 62
7
  6
CONTINUOUS
 70
0
 71
3
 72
9
 73
5
 74
0
 42
0.0000001
 43
0.0000001
 44
0.0000000001
 40
0.0
 40
0.0
 40
0.0
 40
0.0
 40
0.4986977483
 40
1.0
 40
1.0
 40
1.0
 40
1.0
 10
32.43335669
 20
43.7382132553
 30
0.0
 10
32.4484496703
 20
43.7382132553
 30
0.0
 10
32.4791479486
 20
43.7455038337
 30
0.0
 10
32.5030900543
 20
43.7660045888
 30
0.0
 10
32.512097392
 20
43.7782132553
 30
0.0
  0
SPLINE
  5
432
100
AcDbEntity
  8
0
100
AcDbSpline
 62
7
  6
CONTINUOUS
 70
0
 71
3
 72
12
 73
8
 74
0
 42
0.0000001
 43
0.0000001
 44
0.0000000001
 40
0.0
 40
0.0
 40
0.0
 40
0.0
 40
0.0293347099
 40
0.0835720495
 40
0.2803355087
 40
0.5910961233
 40
1.0
 40
1.0
 40
1.0
 40
1.0
 10
42.838570117
 20
43.7382132553
 30
0.0
 10
42.8389722206
 20
43.7382132553
 30
0.0
 10
42.8399224019
 20
43.7391546678
 30
0.0
 10
42.8412473148
 20
43.7426576711
 30
0.0
 10
42.8427949152
 20
43.75033763
 30
0.0
 10
42.8442171844
 20
43.762758888
 30
0.0
 10
42.8449513459
 20
43.7726185092
 30
0.0
 10
42.8452906238
 20
43.7782132553
 30
0.0
  0
SPLINE
  5
433
100
AcDbEntity
  8
0
100
AcDbSpline
 62
7
  6
CONTINUOUS
 70
0
 71
3
 72
11
 73
7
 74
0
 42
0.0000001
 43
0.0000001
 44
0.0000000001
 40
0.0
 40
0.0
 40
0.0
 40
0.0
 40
0.345465477
 40
0.6254888173
 40
0.8374897056
 40
1.0
 40
1.0
 40
1.0
 40
1.0
 10
18.3224717168
 20
43.7782132553
 30
0.0
 10
18.3239056756
 20
43.7725242633
 30
0.0
 10
18.3270266435
 20
43.7623288516
 30
0.0
 10
18.3333033939
 20
43.7494948363
 30
0.0
 10
18.3405104445
 20
43.7407695953
 30
0.0
 10
18.3468358054
 20
43.7382132553
 30
0.0
 10
18.3495956659
 20
43.7382132553
 30
0.0
  0
SPLINE
  5
434
100
AcDbEntity
  8
0
100
AcDbSpline
 62
7
  6
CONTINUOUS
 70
0
 71
3
 72
11
 73
7
 74
0
 42
0.0000001
 43
0.0000001
 44
0.0000000001
 40
0.0
 40
0.0
 40
0.0
 40
0.0
 40
0.2617090098
 40
0.5160934772
 40
0.7616627023
 40
1.0
 40
1.0
 40
1.0
 40
1.0
 10
39.3899525174
 20
37.3708118082
 30
0.0
 10
39.382480505
 20
37.3482539379
 30
0.0
 10
39.3626167671
 20
37.3053168782
 30
0.0
 10
39.3203600407
 20
37.2498433056
 30
0.0
 10
39.2675565249
 20
37.207393845
 30
0.0
 10
39.2268416748
 20
37.189421295
 30
0.0
 10
39.2061101975
 20
37.1832132553
 30
0.0
  0
SPLINE
  5
435
100
AcDbEntity
  8
0
100
AcDbSpline
 62
7
  6
CONTINUOUS
 70
0
 71
3
 72
10
 73
6
 74
0
 42
0.0000001
 43
0.0000001
 44
0.0000000001
 40
0.0
 40
0.0
 40
0.0
 40
0.0
 40
0.517185927
 40
0.7615283202
 40
1.0
 40
1.0
 40
1.0
 40
1.0
 10
22.9155782764
 20
43.7782132553
 30
0.0
 10
22.9227413168
 20
43.7665021243
 30
0.0
 10
22.9372763556
 20
43.7510177447
 30
0.0
 10
22.9617463378
 20
43.7400804231
 30
0.0
 10
22.9746354367
 20
43.7382132553
 30
0.0
 10
22.9809653739
 20
43.7382132553
 30
0.0
  0
SPLINE
  5
436
100
AcDbEntity
  8
0
100
AcDbSpline
 62
7
  6
CONTINUOUS
 70
0
 71
3
 72
9
 73
5
 74
0
 42
0.0000001
 43
0.0000001
 44
0.0000000001
 40
0.0
 40
0.0
 40
0.0
 40
0.0
 40
0.4969438634
 40
1.0
 40
1.0
 40
1.0
 40
1.0
 10
33.5107681572
 20
43.7382132553
 30
0.0
 10
33.5255853605
 20
43.7382132553
 30
0.0
 10
33.5558376257
 20
43.7455741211
 30
0.0
 10
33.5791867842
 20
43.7660592527
 30
0.0
 10
33.5879767641
 20
43.7782132553
 30
0.0
  0
SPLINE
  5
437
100
AcDbEntity
  8
0
100
AcDbSpline
 62
7
  6
CONTINUOUS
 70
0
 71
3
 72
9
 73
5
 74
0
 42
0.0000001
 43
0.0000001
 44
0.0000000001
 40
0.0
 40
0.0
 40
0.0
 40
0.0
 40
0.4943750141
 40
1.0
 40
1.0
 40
1.0
 40
1.0
 10
34.563262044
 20
43.7382132553
 30
0.0
 10
34.5776975154
 20
43.7382132553
 30
0.0
 10
34.6073330636
 20
43.745679084
 30
0.0
 10
34.6298588817
 20
43.7661360293
 30
0.0
 10
34.6383509516
 20
43.7782132553
 30
0.0
  0
SPLINE
  5
438
100
AcDbEntity
  8
0
100
AcDbSpline
 62
7
  6
CONTINUOUS
 70
0
 71
3
 72
9
 73
5
 74
0
 42
0.0000001
 43
0.0000001
 44
0.0000000001
 40
0.0
 40
0.0
 40
0.0
 40
0.0
 40
0.4980931755
 40
1.0
 40
1.0
 40
1.0
 40
1.0
 10
20.0878992527
 20
40.3052286561
 30
0.0
 10
20.0096985347
 20
40.5361223036
 30
0.0
 10
19.8430909262
 20
40.9964809698
 30
0.0
 10
19.6557494922
 20
41.4488792654
 30
0.0
 10
19.5556745797
 20
41.6732132422
 30
0.0
  0
LINE
  5
439
100
AcDbEntity
  8
0
100
AcDbLine
 62
7
  6
CONTINUOUS
 10
28.9867072544
 20
76.9409617734
 11
29.0010429768
 21
76.9406728879
  0
SPLINE
  5
43A
100
AcDbEntity
  8
0
100
AcDbSpline
 62
7
  6
CONTINUOUS
 70
0
 71
3
 72
9
 73
5
 74
0
 42
0.0000001
 43
0.0000001
 44
0.0000000001
 40
0.0
 40
0.0
 40
0.0
 40
0.0
 40
0.1481454866
 40
1.0
 40
1.0
 40
1.0
 40
1.0
 10
29.0010429768
 20
76.9406728879
 30
0.0
 10
29.0089042297
 20
76.9405939633
 30
0.0
 10
29.0619702839
 20
76.9402395996
 30
0.0
 10
29.11503733
 20
76.940106658
 30
0.0
 10
29.1602426147
 20
76.9399898656
 30
0.0
  0
SPLINE
  5
43B
100
AcDbEntity
  8
0
100
AcDbSpline
 62
7
  6
CONTINUOUS
 70
0
 71
3
 72
9
 73
5
 74
0
 42
0.0000001
 43
0.0000001
 44
0.0000000001
 40
0.0
 40
0.0
 40
0.0
 40
0.0
 40
0.2790899211
 40
1.0
 40
1.0
 40
1.0
 40
1.0
 10
30.2374369793
 20
76.9390625817
 30
0.0
 10
30.3230724576
 20
76.9390638714
 30
0.0
 10
30.629910743
 20
76.9391218107
 30
0.0
 10
30.9367491154
 20
76.9393240335
 30
0.0
 10
31.1579516272
 20
76.9396970524
 30
0.0
  0
LINE
  5
43C
100
AcDbEntity
  8
0
100
AcDbLine
 62
7
  6
CONTINUOUS
 10
31.1579516272
 20
76.9396970524
 11
31.3367894156
 21
76.9400849997
  0
SPLINE
  5
43D
100
AcDbEntity
  8
0
100
AcDbSpline
 62
7
  6
CONTINUOUS
 70
0
 71
3
 72
17
 73
13
 74
0
 42
0.0000001
 43
0.0000001
 44
0.0000000001
 40
0.0
 40
0.0
 40
0.0
 40
0.0
 40
0.2332678888
 40
0.4358599019
 40
0.6076453245
 40
0.7484936324
 40
0.8582747088
 40
0.9368594964
 40
0.9644139833
 40
0.9841235491
 40
0.9959776321
 40
1.0
 40
1.0
 40
1.0
 40
1.0
 10
31.4486439293
 20
76.9405275785
 30
0.0
 10
31.4516040582
 20
76.9405456157
 30
0.0
 10
31.4571348563
 20
76.9405814603
 30
0.0
 10
31.464846373
 20
76.9406385832
 30
0.0
 10
31.4713824436
 20
76.9406975088
 30
0.0
 10
31.4767479385
 20
76.9407513906
 30
0.0
 10
31.4809116086
 20
76.9408174046
 30
0.0
 10
31.4836796696
 20
76.9408488811
 30
0.0
 10
31.4852378292
 20
76.9409169617
 30
0.0
 10
31.4860506583
 20
76.9409037292
 30
0.0
 10
31.4863896766
 20
76.9410014814
 30
0.0
 10
31.4867072549
 20
76.9409467068
 30
0.0
 10
31.4867072549
 20
76.9409977509
 30
0.0
  0
SPLINE
  5
43E
100
AcDbEntity
  8
0
100
AcDbSpline
 62
7
  6
CONTINUOUS
 70
0
 71
3
 72
15
 73
11
 74
0
 42
0.0000001
 43
0.0000001
 44
0.0000000001
 40
0.0
 40
0.0
 40
0.0
 40
0.0
 40
0.1907681123
 40
0.3615015251
 40
0.511248339
 40
0.6400833789
 40
0.7491120158
 40
0.8416491432
 40
0.923258053
 40
1.0
 40
1.0
 40
1.0
 40
1.0
 10
33.9072828577
 20
60.6439486426
 30
0.0
 10
33.9488000643
 20
60.6526278741
 30
0.0
 10
34.0270939809
 20
60.6710190163
 30
0.0
 10
34.1359698206
 20
60.7040071779
 30
0.0
 10
34.2290192779
 20
60.7407493314
 30
0.0
 10
34.3055898195
 20
60.7807378074
 30
0.0
 10
34.3655289952
 20
60.8237923016
 30
0.0
 10
34.408326311
 20
60.870906413
 30
0.0
 10
34.4324851187
 20
60.9222480002
 30
0.0
 10
34.435710718
 20
60.958182832
 30
0.0
 10
34.4341882007
 20
60.9751773014
 30
0.0
  0
SPLINE
  5
43F
100
AcDbEntity
  8
0
100
AcDbSpline
 62
7
  6
CONTINUOUS
 70
0
 71
3
 72
16
 73
12
 74
0
 42
0.0000001
 43
0.0000001
 44
0.0000000001
 40
0.0
 40
0.0
 40
0.0
 40
0.0
 40
0.0440317458
 40
0.0920428461
 40
0.1439440478
 40
0.199413188
 40
0.3187746774
 40
0.4464496059
 40
0.5798063969
 40
0.7171554242
 40
1.0
 40
1.0
 40
1.0
 40
1.0
 10
20.9039861944
 20
46.8132132557
 30
0.0
 10
20.9326953739
 20
46.8210993107
 30
0.0
 10
20.9906760148
 20
46.8452218256
 30
0.0
 10
21.0727203514
 20
46.8981810953
 30
0.0
 10
21.1529242481
 20
46.9664102476
 30
0.0
 10
21.2596298282
 20
47.0767105641
 30
0.0
 10
21.3859474556
 20
47.2381771533
 30
0.0
 10
21.5280326962
 20
47.4527102958
 30
0.0
 10
21.6653334302
 20
47.6845608508
 30
0.0
 10
21.8452703793
 20
48.0128046469
 30
0.0
 10
21.9731029435
 20
48.2666314259
 30
0.0
 10
22.0572502271
 20
48.4383733879
 30
0.0
  0
LINE
  5
440
100
AcDbEntity
  8
0
100
AcDbLine
 62
7
  6
CONTINUOUS
 10
22.0985894513
 20
48.6270404828
 11
22.098501942
 21
48.6375627793
  0
SPLINE
  5
441
100
AcDbEntity
  8
0
100
AcDbSpline
 62
7
  6
CONTINUOUS
 70
0
 71
3
 72
16
 73
12
 74
0
 42
0.0000001
 43
0.0000001
 44
0.0000000001
 40
0.0
 40
0.0
 40
0.0
 40
0.0
 40
0.2828436596
 40
0.4201920025
 40
0.5535482942
 40
0.6812232313
 40
0.8005851804
 40
0.8560540024
 40
0.9079557235
 40
0.9559680711
 40
1.0
 40
1.0
 40
1.0
 40
1.0
 10
38.4161643838
 20
48.4383731719
 30
0.0
 10
38.5003114008
 20
48.266631748
 30
0.0
 10
38.6281432118
 20
48.0128057564
 30
0.0
 10
38.8080803236
 20
47.6845636253
 30
0.0
 10
38.9453807513
 20
47.4527137877
 30
0.0
 10
39.0874654799
 20
47.2381803397
 30
0.0
 10
39.2137814192
 20
47.0767123393
 30
0.0
 10
39.3204869847
 20
46.9664111755
 30
0.0
 10
39.4006937204
 20
46.8981838297
 30
0.0
 10
39.4827386254
 20
46.8452233745
 30
0.0
 10
39.5407197722
 20
46.8210992866
 30
0.0
 10
39.5694290897
 20
46.8132132557
 30
0.0
  0
SPLINE
  5
442
100
AcDbEntity
  8
0
100
AcDbSpline
 62
7
  6
CONTINUOUS
 70
0
 71
3
 72
32
 73
28
 74
0
 42
0.0000001
 43
0.0000001
 44
0.0000000001
 40
0.0
 40
0.0
 40
0.0
 40
0.0
 40
0.0077454316
 40
0.0155367141
 40
0.0233133621
 40
0.031112054
 40
0.0467065404
 40
0.0623119541
 40
0.0779215363
 40
0.0935348106
 40
0.1091507294
 40
0.1247683741
 40
0.1560079791
 40
0.1872520962
 40
0.2184992576
 40
0.2497489334
 40
0.2810004805
 40
0.3122536032
 40
0.3747637748
 40
0.4372780007
 40
0.4997951514
 40
0.5623149646
 40
0.6248371118
 40
0.6873611839
 40
0.7498867036
 40
0.8749411042
 40
1.0
 40
1.0
 40
1.0
 40
1.0
 10
33.0278447796
 20
61.707137535
 30
0.0
 10
33.0475905587
 20
61.7251235212
 30
0.0
 10
33.0771234684
 20
61.771350567
 30
0.0
 10
33.1096273961
 20
61.84463174
 30
0.0
 10
33.1363741105
 20
61.9207934953
 30
0.0
 10
33.1670504134
 20
62.0238000104
 30
0.0
 10
33.1995908111
 20
62.1543675062
 30
0.0
 10
33.2323747486
 20
62.3124360482
 30
0.0
 10
33.2616429622
 20
62.4712563112
 30
0.0
 10
33.2879121265
 20
62.6306323408
 30
0.0
 10
33.3119291357
 20
62.7903875754
 30
0.0
 10
33.3418394429
 20
63.0037370176
 30
0.0
 10
33.3754695204
 20
63.2709674711
 30
0.0
 10
33.4116757922
 20
63.5921607171
 30
0.0
 10
33.4448155104
 20
63.9137187222
 30
0.0
 10
33.4753252948
 20
64.2355610364
 30
0.0
 10
33.5038096838
 20
64.5576085894
 30
0.0
 10
33.5394432998
 20
64.9872370629
 30
0.0
 10
33.5800956236
 20
65.5246170004
 30
0.0
 10
33.6242950493
 20
66.169827844
 30
0.0
 10
33.6649165722
 20
66.8153064184
 30
0.0
 10
33.7023905106
 20
67.4610019624
 30
0.0
 10
33.7371945751
 20
68.1068702098
 30
0.0
 10
33.7697153097
 20
68.7528767329
 30
0.0
 10
33.8105401175
 20
69.6143709205
 30
0.0
 10
33.8574405901
 20
70.6914600805
 30
0.0
 10
33.8912091641
 20
71.553293433
 30
0.0
 10
33.9072828577
 20
71.9842475743
 30
0.0
  0
SPLINE
  5
443
100
AcDbEntity
  8
0
100
AcDbSpline
 62
7
  6
CONTINUOUS
 70
0
 71
3
 72
34
 73
30
 74
0
 42
0.0000001
 43
0.0000001
 44
0.0000000001
 40
0.0
 40
0.0
 40
0.0
 40
0.0
 40
0.125052366
 40
0.2501007551
 40
0.3126231854
 40
0.3751442036
 40
0.437663598
 40
0.5001810909
 40
0.5626963093
 40
0.6252087251
 40
0.6877175581
 40
0.7189703508
 40
0.7502217516
 40
0.7814714643
 40
0.8127190727
 40
0.8439639516
 40
0.875205097
 40
0.8908239101
 40
0.9064410745
 40
0.9220560907
 40
0.9376681566
 40
0.9532758306
 40
0.9610775162
 40
0.9688769197
 40
0.976672996
 40
0.9844636242
 40
0.9922433701
 40
0.9961266766
 40
1.0
 40
1.0
 40
1.0
 40
1.0
 10
26.4779441577
 20
74.629584927
 30
0.0
 10
26.49499628
 20
74.0884320994
 30
0.0
 10
26.5309375027
 20
73.006200574
 30
0.0
 10
26.5811859842
 20
71.6536087069
 30
0.0
 10
26.6253899441
 20
70.5717232139
 30
0.0
 10
26.6607999118
 20
69.7604302685
 30
0.0
 10
26.6987855865
 20
68.9492748733
 30
0.0
 10
26.7397553189
 20
68.138289324
 30
0.0
 10
26.7842431289
 20
67.3275183951
 30
0.0
 10
26.8329806795
 20
66.5170283536
 30
0.0
 10
26.8779910564
 20
65.8419225813
 30
0.0
 10
26.917432255
 20
65.3021087051
 30
0.0
 10
26.9490205356
 20
64.8974247419
 30
0.0
 10
26.9829845002
 20
64.4929550293
 30
0.0
 10
27.0198259438
 20
64.0887639398
 30
0.0
 10
27.0602621859
 20
63.6849522666
 30
0.0
 10
27.0978372065
 20
63.3488749028
 30
0.0
 10
27.1311199375
 20
63.0804286606
 30
0.0
 10
27.1580497449
 20
62.8793762346
 30
0.0
 10
27.1874266215
 20
62.6786933954
 30
0.0
 10
27.2199776932
 20
62.4785396821
 30
0.0
 10
27.250697948
 20
62.3123875047
 30
0.0
 10
27.2785064558
 20
62.1801515705
 30
0.0
 10
27.3014580149
 20
62.0814790553
 30
0.0
 10
27.3271978866
 20
61.9835248556
 30
0.0
 10
27.3569983421
 20
61.8868379096
 30
0.0
 10
27.3870620467
 20
61.8079499418
 30
0.0
 10
27.4175442659
 20
61.7479600396
 30
0.0
 10
27.4362541965
 20
61.7197808598
 30
0.0
 10
27.4472710815
 20
61.7071375351
 30
0.0
  0
SPLINE
  5
444
100
AcDbEntity
  8
0
100
AcDbSpline
 62
7
  6
CONTINUOUS
 70
0
 71
3
 72
9
 73
5
 74
0
 42
0.0000001
 43
0.0000001
 44
0.0000000001
 40
0.0
 40
0.0
 40
0.0
 40
0.0
 40
0.4393318539
 40
1.0
 40
1.0
 40
1.0
 40
1.0
 10
34.3682274632
 20
75.144029556
 30
0.0
 10
34.3449477287
 20
75.125358063
 30
0.0
 10
34.290556297
 20
75.0846073071
 30
0.0
 10
34.2342882413
 20
75.0465062418
 30
0.0
 10
34.2022857317
 20
75.0258601111
 30
0.0
  0
SPLINE
  5
445
100
AcDbEntity
  8
0
100
AcDbSpline
 62
7
  6
CONTINUOUS
 70
0
 71
3
 72
11
 73
7
 74
0
 42
0.0000001
 43
0.0000001
 44
0.0000000001
 40
0.0
 40
0.0
 40
0.0
 40
0.0
 40
0.2028975653
 40
0.4375364613
 40
0.703985819
 40
1.0
 40
1.0
 40
1.0
 40
1.0
 10
34.2022857317
 20
75.0258601111
 30
0.0
 10
34.1797795678
 20
75.004794632
 30
0.0
 10
34.1343405036
 20
74.9559970888
 30
0.0
 10
34.0717242401
 20
74.8688872275
 30
0.0
 10
34.0173994413
 20
74.7598537453
 30
0.0
 10
33.9992213651
 20
74.6747707599
 30
0.0
 10
33.9970817532
 20
74.629847645
 30
0.0
  0
SPLINE
  5
446
100
AcDbEntity
  8
0
100
AcDbSpline
 62
7
  6
CONTINUOUS
 70
0
 71
3
 72
11
 73
7
 74
0
 42
0.0000001
 43
0.0000001
 44
0.0000000001
 40
0.0
 40
0.0
 40
0.0
 40
0.0
 40
0.2201409049
 40
0.4523946982
 40
0.7093857294
 40
1.0
 40
1.0
 40
1.0
 40
1.0
 10
34.4347713254
 20
75.2632042175
 30
0.0
 10
34.4347726384
 20
75.2528824019
 30
0.0
 10
34.4318148671
 20
75.2315663126
 30
0.0
 10
34.4186371657
 20
75.2006798438
 30
0.0
 10
34.3970933127
 20
75.1708451172
 30
0.0
 10
34.3785873382
 20
75.1528807822
 30
0.0
 10
34.3682274632
 20
75.144029556
 30
0.0
  0
SPLINE
  5
447
100
AcDbEntity
  8
0
100
AcDbSpline
 62
7
  6
CONTINUOUS
 70
0
 71
3
 72
13
 73
9
 74
0
 42
0.0000001
 43
0.0000001
 44
0.0000000001
 40
0.0
 40
0.0
 40
0.0
 40
0.0
 40
0.2090374282
 40
0.3247258204
 40
0.4479556068
 40
0.578009333
 40
0.7139121271
 40
1.0
 40
1.0
 40
1.0
 40
1.0
 10
39.7377815259
 20
46.8132132557
 30
0.0
 10
39.7894886896
 20
46.8281993336
 30
0.0
 10
39.8635695315
 20
46.8732312765
 30
0.0
 10
39.9459183102
 20
46.9539117392
 30
0.0
 10
40.0056952969
 20
47.0281099137
 30
0.0
 10
40.0614762497
 20
47.1114696046
 30
0.0
 10
40.1324298256
 20
47.2347691674
 30
0.0
 10
40.1789115075
 20
47.3332125232
 30
0.0
 10
40.2081781681
 20
47.4008289319
 30
0.0
  0
SPLINE
  5
448
100
AcDbEntity
  8
0
100
AcDbSpline
 62
7
  6
CONTINUOUS
 70
0
 71
3
 72
12
 73
8
 74
0
 42
0.0000001
 43
0.0000001
 44
0.0000000001
 40
0.0
 40
0.0
 40
0.0
 40
0.0
 40
0.1507231299
 40
0.2956379452
 40
0.5617140885
 40
0.7964412998
 40
1.0
 40
1.0
 40
1.0
 40
1.0
 10
26.4779441577
 20
74.629584927
 30
0.0
 10
26.4768301235
 20
74.6525967526
 30
0.0
 10
26.4708878104
 20
74.6976370307
 30
0.0
 10
26.4467326636
 20
74.7802871325
 30
0.0
 10
26.4019374441
 20
74.8691323085
 30
0.0
 10
26.3380519613
 20
74.9561515964
 30
0.0
 10
26.291739788
 20
75.0048561606
 30
0.0
 10
26.2687838644
 20
75.0258601111
 30
0.0
  0
SPLINE
  5
449
100
AcDbEntity
  8
0
100
AcDbSpline
 62
7
  6
CONTINUOUS
 70
0
 71
3
 72
9
 73
5
 74
0
 42
0.0000001
 43
0.0000001
 44
0.0000000001
 40
0.0
 40
0.0
 40
0.0
 40
0.0
 40
0.5592904052
 40
1.0
 40
1.0
 40
1.0
 40
1.0
 10
26.2687838644
 20
75.0258601111
 30
0.0
 10
26.2359954787
 20
75.0465382297
 30
0.0
 10
26.178141502
 20
75.0847511098
 30
0.0
 10
26.1219940965
 20
75.1254341272
 30
0.0
 10
26.0977612287
 20
75.144029556
 30
0.0
  0
SPLINE
  5
44A
100
AcDbEntity
  8
0
100
AcDbSpline
 62
7
  6
CONTINUOUS
 70
0
 71
3
 72
11
 73
7
 74
0
 42
0.0000001
 43
0.0000001
 44
0.0000000001
 40
0.0
 40
0.0
 40
0.0
 40
0.0
 40
0.2932299233
 40
0.5507206872
 40
0.7818768959
 40
1.0
 40
1.0
 40
1.0
 40
1.0
 10
26.0977612287
 20
75.144029556
 30
0.0
 10
26.0864192416
 20
75.153300809
 30
0.0
 10
26.0661640426
 20
75.1721027893
 30
0.0
 10
26.0424861815
 20
75.2034930378
 30
0.0
 10
26.0279724923
 20
75.2360746733
 30
0.0
 10
26.0247043537
 20
75.2586372297
 30
0.0
 10
26.0247037637
 20
75.2695341809
 30
0.0
  0
SPLINE
  5
44B
100
AcDbEntity
  8
0
100
AcDbSpline
 62
7
  6
CONTINUOUS
 70
0
 71
3
 72
13
 73
9
 74
0
 42
0.0000001
 43
0.0000001
 44
0.0000000001
 40
0.0
 40
0.0
 40
0.0
 40
0.0
 40
0.2860865226
 40
0.4219883075
 40
0.552043349
 40
0.6752712403
 40
0.790960774
 40
1.0
 40
1.0
 40
1.0
 40
1.0
 10
20.265236812
 20
47.4008300444
 30
0.0
 10
20.2945035497
 20
47.3332139237
 30
0.0
 10
20.3409837948
 20
47.2347703291
 30
0.0
 10
20.4119380323
 20
47.1114712534
 30
0.0
 10
20.467716397
 20
47.0281101674
 30
0.0
 10
20.5274943875
 20
46.953912158
 30
0.0
 10
20.6098461445
 20
46.8732344551
 30
0.0
 10
20.6839259959
 20
46.8281993702
 30
0.0
 10
20.7356337177
 20
46.8132132557
 30
0.0
  0
SPLINE
  5
44C
100
AcDbEntity
  8
0
100
AcDbSpline
 62
7
  6
CONTINUOUS
 70
0
 71
3
 72
20
 73
16
 74
0
 42
0.0000001
 43
0.0000001
 44
0.0000000001
 40
0.0
 40
0.0
 40
0.0
 40
0.0
 40
0.1924687089
 40
0.2843465663
 40
0.3722689602
 40
0.5340416201
 40
0.6740344694
 40
0.734965874
 40
0.7896014427
 40
0.8379168447
 40
0.8800399945
 40
0.9162810401
 40
0.9472563396
 40
0.9743869714
 40
1.0
 40
1.0
 40
1.0
 40
1.0
 10
27.4907180025
 20
60.5655723632
 30
0.0
 10
27.3881701461
 20
60.5658411972
 30
0.0
 10
27.2366507916
 20
60.5710877603
 30
0.0
 10
27.0388119278
 20
60.5853946784
 30
0.0
 10
26.8576435679
 20
60.6028502407
 30
0.0
 10
26.651887306
 20
60.6318104618
 30
0.0
 10
26.4629989523
 20
60.6741253149
 30
0.0
 10
26.3329616392
 20
60.7147567489
 30
0.0
 10
26.2514459205
 20
60.7462765522
 30
0.0
 10
26.1818351562
 20
60.7801379076
 30
0.0
 10
26.1244916601
 20
60.8160431161
 30
0.0
 10
26.0795799159
 20
60.8534974892
 30
0.0
 10
26.0471046801
 20
60.8923592783
 30
0.0
 10
26.0276644449
 20
60.9331769462
 30
0.0
 10
26.0242373422
 20
60.9616741584
 30
0.0
 10
26.0248247511
 20
60.9753082492
 30
0.0
  0
SPLINE
  5
44D
100
AcDbEntity
  8
0
100
AcDbSpline
 62
7
  6
CONTINUOUS
 70
0
 71
3
 72
20
 73
16
 74
0
 42
0.0000001
 43
0.0000001
 44
0.0000000001
 40
0.0
 40
0.0
 40
0.0
 40
0.0
 40
0.0272333592
 40
0.0559826184
 40
0.0878767625
 40
0.1242429092
 40
0.1661074795
 40
0.2140774847
 40
0.2683702135
 40
0.3289440623
 40
0.4681936268
 40
0.6292945627
 40
0.716845031
 40
0.8083066099
 40
1.0
 40
1.0
 40
1.0
 40
1.0
 10
26.0248247511
 20
60.9753082492
 30
0.0
 10
26.0242321388
 20
60.9607438532
 30
0.0
 10
26.0276362989
 20
60.9304354054
 30
0.0
 10
26.04648265
 20
60.8867209698
 30
0.0
 10
26.0786061051
 20
60.8453452714
 30
0.0
 10
26.1236436576
 20
60.8068633847
 30
0.0
 10
26.1810603594
 20
60.7709515238
 30
0.0
 10
26.2506345449
 20
60.7373650428
 30
0.0
 10
26.3320802381
 20
60.7061102271
 30
0.0
 10
26.4621601744
 20
60.6660810671
 30
0.0
 10
26.6513547663
 20
60.6254860934
 30
0.0
 10
26.8571147713
 20
60.5968146213
 30
0.0
 10
27.038411004
 20
60.5800199285
 30
0.0
 10
27.236515158
 20
60.5683153659
 30
0.0
 10
27.3881158658
 20
60.565814521
 30
0.0
 10
27.4907180025
 20
60.5655723632
 30
0.0
  0
LINE
  5
44E
100
AcDbEntity
  8
0
100
AcDbLine
 62
7
  6
CONTINUOUS
 10
38.3749125667
 20
48.6375627793
 11
38.3748250574
 21
48.6270404828
  0
SPLINE
  5
44F
100
AcDbEntity
  8
0
100
AcDbSpline
 62
7
  6
CONTINUOUS
 70
0
 71
3
 72
12
 73
8
 74
0
 42
0.0000001
 43
0.0000001
 44
0.0000000001
 40
0.0
 40
0.0
 40
0.0
 40
0.0
 40
0.2185377268
 40
0.4612451123
 40
0.5902633707
 40
0.7236139329
 40
1.0
 40
1.0
 40
1.0
 40
1.0
 10
33.9072828577
 20
60.6514844121
 30
0.0
 10
33.8410748739
 20
60.6371848281
 30
0.0
 10
33.7001644322
 20
60.612293346
 30
0.0
 10
33.5182787578
 20
60.5917919877
 30
0.0
 10
33.3622008813
 20
60.5796006595
 30
0.0
 10
33.195520495
 20
60.5695089556
 30
0.0
 10
33.0685131593
 20
60.5656396904
 30
0.0
 10
32.9828487867
 20
60.5656153426
 30
0.0
  0
SPLINE
  5
450
100
AcDbEntity
  8
0
100
AcDbSpline
 62
7
  6
CONTINUOUS
 70
0
 71
3
 72
12
 73
8
 74
0
 42
0.0000001
 43
0.0000001
 44
0.0000000001
 40
0.0
 40
0.0
 40
0.0
 40
0.0
 40
0.2764340935
 40
0.4748352008
 40
0.6628941936
 40
0.8386156557
 40
1.0
 40
1.0
 40
1.0
 40
1.0
 10
32.9828487867
 20
60.5656153426
 30
0.0
 10
33.0684823294
 20
60.5656293675
 30
0.0
 10
33.2156073072
 20
60.5670063447
 30
0.0
 10
33.4207415056
 20
60.5776379592
 30
0.0
 10
33.594166774
 20
60.5940510015
 30
0.0
 10
33.7554771967
 20
60.6154271454
 30
0.0
 10
33.8583472087
 20
60.633718559
 30
0.0
 10
33.9072828577
 20
60.6439486264
 30
0.0
  0
SPLINE
  5
451
100
AcDbEntity
  8
0
100
AcDbSpline
 62
7
  6
CONTINUOUS
 70
0
 71
3
 72
15
 73
11
 74
0
 42
0.0000001
 43
0.0000001
 44
0.0000000001
 40
0.0
 40
0.0
 40
0.0
 40
0.0
 40
0.072060933
 40
0.1495716213
 40
0.2415935845
 40
0.3519837393
 40
0.482494393
 40
0.6341049993
 40
0.806952452
 40
1.0
 40
1.0
 40
1.0
 40
1.0
 10
34.4341882007
 20
60.9751773014
 30
0.0
 10
34.435682724
 20
60.9594219782
 30
0.0
 10
34.4324395487
 20
60.9257257873
 30
0.0
 10
34.4071903843
 20
60.8779784852
 30
0.0
 10
34.3646679389
 20
60.8329111054
 30
0.0
 10
34.3050995372
 20
60.7899528414
 30
0.0
 10
34.2285105464
 20
60.7499324937
 30
0.0
 10
34.1355307587
 20
60.71299345
 30
0.0
 10
34.0268711142
 20
60.679371568
 30
0.0
 10
33.9487244785
 20
60.6604349631
 30
0.0
 10
33.9072828577
 20
60.6514844121
 30
0.0
  0
ELLIPSE
  5
452
100
AcDbEntity
  8
0
100
AcDbEllipse
 62
7
  6
CONTINUOUS
 10
30.2447198958
 20
67.6266904549
 30
0.0
 11
-0.0
 21
44.361798799
 31
0.0
 40
0.1763271624
 41
-2.729806353
 42
-2.6521487706
  0
ELLIPSE
  5
453
100
AcDbEntity
  8
0
100
AcDbEllipse
 62
7
  6
CONTINUOUS
 10
30.2447198958
 20
67.6266904549
 30
0.0
 11
-0.0
 21
44.361798799
 31
0.0
 40
0.1763271624
 41
-3.6310365366
 42
-3.5533789542
  0
ELLIPSE
  5
454
100
AcDbEntity
  8
0
100
AcDbEllipse
 62
7
  6
CONTINUOUS
 10
30.2367072544
 20
63.8732132553
 30
0.0
 11
0.0
 21
162.8571428998
 31
0.0
 40
0.0875
 41
-4.6386379301
 42
-4.6312473392
  0
ELLIPSE
  5
455
100
AcDbEntity
  8
0
100
AcDbEllipse
 62
7
  6
CONTINUOUS
 10
30.2367072544
 20
63.8732132553
 30
0.0
 11
0.0
 21
162.8571428998
 31
0.0
 40
0.0875
 41
-1.651937968
 42
-1.6445473771
  0
ENDSEC
  0
SECTION
  2
OBJECTS
  0
DICTIONARY
  5
C
100
AcDbDictionary
280
0
281
1
  3
ACAD_GROUP
350
D
  3
ACAD_MLINESTYLE
350
17
  3
ACAD_LAYOUT
350
1A
  3
ACAD_PLOTSETTINGS
350
19
  3
ACAD_PLOTSTYLENAME
350
E
  0
DICTIONARY
  5
D
102
{ACAD_REACTORS
330
C
102
}
100
AcDbDictionary
280
0
281
1
  0
ACDBDICTIONARYWDFLT
  5
E
102
{ACAD_REACTORS
330
C
102
}
100
AcDbDictionary
281
1
  3
Normal
350
F
100
AcDbDictionaryWithDefault
340
F
  0
DICTIONARY
  5
17
102
{ACAD_REACTORS
330
C
102
}
100
AcDbDictionary
280
0
281
1
  3
Standard
350
18
  0
DICTIONARY
  5
19
102
{ACAD_REACTORS
330
C
102
}
100
AcDbDictionary
281
1
  0
DICTIONARY
  5
1A
102
{ACAD_REACTORS
330
C
102
}
100
AcDbDictionary
281
1
  3
Model
350
456
  3
Layout1
350
457
  0
ACDBPLACEHOLDER
  5
F
102
{ACAD_REACTORS
330
E
102
}
  0
MLINESTYLE
  5
18
102
{ACAD_REACTORS
330
17
102
}
100
AcDbMlineStyle
  2
STANDARD
 70
0
  3

 62
256
 51
90.0
 52
90.0
 71
2
 49
0.5
 62
256
  6
BYLAYER
 49
-0.5
 62
256
  6
BYLAYER
  0
LAYOUT
  5
456
102
{ACAD_REACTORS
330
1A
102
}
100
AcDbPlotSettings
  1

  2
none_device
  4

  6

 40
0.0
 41
0.0
 42
0.0
 43
0.0
 44
210.0
 45
297.0
 46
0.0
 47
0.0
 48
0.0
 49
0.0
140
0.0
141
0.0
142
1.0
143
1.0
 70
1024
 72
1
 73
0
 74
0
  7

 75
0
147
1.0
148
0.0
149
0.0
100
AcDbLayout
  1
Model
 70
0
 71
0
 10
0.0
 20
0.0
 11
210.0
 21
297.0
 12
0.0
 22
0.0
 32
0.0
 14
0.0
 24
0.0
 34
0.0
 15
0.0
 25
0.0
 35
0.0
146
0.0
 13
0.0
 23
0.0
 33
0.0
 16
1.0
 26
0.0
 36
0.0
 17
0.0
 27
1.0
 37
0.0
 76
0
330
210
345
0
346
0
  0
LAYOUT
  5
457
102
{ACAD_REACTORS
330
1A
102
}
100
AcDbPlotSettings
  1

  2
none_device
  4

  6

 40
0.0
 41
0.0
 42
0.0
 43
0.0
 44
210.0
 45
297.0
 46
0.0
 47
0.0
 48
0.0
 49
0.0
140
0.0
141
0.0
142
1.0
143
1.0
 70
0
 72
1
 73
0
 74
0
  7

 75
0
147
1.0
148
0.0
149
0.0
100
AcDbLayout
  1
Layout1
 70
0
 71
1
 10
0.0
 20
0.0
 11
210.0
 21
297.0
 12
0.0
 22
0.0
 32
0.0
 14
0.0
 24
0.0
 34
0.0
 15
0.0
 25
0.0
 35
0.0
146
0.0
 13
0.0
 23
0.0
 33
0.0
 16
1.0
 26
0.0
 36
0.0
 17
0.0
 27
1.0
 37
0.0
 76
0
330
211
345
0
346
0
  0
ENDSEC
  0
EOF
