999
DXF file: C:\Users\sesa63760\Dev\_Creo\CAD\MCADID0001972_3D-CAD\drw0001_5.dxf
999
Pro/ENGINEER 2019471 by Parametric Technology Corporation
  0
SECTION
  2
HEADER
  9
$ACADVER
  1
AC1024
  9
$DWGCODEPAGE
  3
ANSI_1252
  9
$EXTMAX
 10
90.6159635571
 20
128.1568627451
 30
0.0
  9
$EXTMIN
 10
0.0
 20
0.0
 30
0.0
  9
$LIMMIN
 10
0.0
 20
0.0
  9
$LIMMAX
 10
90.6159635571
 20
128.1568627451
  9
$VIEWCTR
 10
45.3079817786
 20
64.0784313725
  9
$VIEWSIZE
 40
128.1568627451
  9
$CLAYER
  8
0
  9
$LTSCALE
 40
8.3539288308
  9
$CELTYPE
  6
BYLAYER
  9
$DIMSCALE
 40
1.0
  9
$DIMASZ
 40
1.0787614709
  9
$DIMEXO
 40
1.0
  9
$DIMDLI
 40
5.771805374
  9
$DIMEXE
 40
1.0
  9
$DIMCEN
 40
1.3670065359
  9
$DIMLFAC
 40
1.0
  9
$DIMBLK
  1
_FILLED
  9
$DIMALT
 70
0
  9
$DIMALTF
 40
0.0393700787
  9
$DIMTXT
 40
1.5102660593
  9
$DIMTOL
 70
1
  9
$DIMLIM
 70
0
  9
$DIMTFAC
 40
1.0
  9
$DIMTP
 40
0.01
  9
$DIMTM
 40
0.01
  9
$DIMGAP
 40
0.625
  9
$DIMDSEP
 70
46
  9
$AUNITS
 70
0
  9
$PDMODE
 70
3
  9
$PDSIZE
 40
0.3125
  9
$HANDSEED
  5
4A8
  9
$TILEMODE
 70
1
  9
$MEASUREMENT
 70
1
  9
$INSUNITS
 70
4
  0
ENDSEC
  0
SECTION
  2
CLASSES
  0
CLASS
  1
ACDBDICTIONARYWDFLT
  2
AcDbDictionaryWithDefault
  3
AutoCAD 2000
 90
0
 91
1
280
0
281
0
  0
CLASS
  1
ACDBPLACEHOLDER
  2
AcDbPlaceHolder
  3
AutoCAD 2000
 90
0
 91
1
280
0
281
0
  0
CLASS
  1
LAYOUT
  2
AcDbLayout
  3
AutoCAD 2000
 90
0
 91
0
280
0
281
0
  0
ENDSEC
  0
SECTION
  2
TABLES
  0
TABLE
  2
VPORT
  5
8
100
AcDbSymbolTable
 70
2
  0
VPORT
  5
1F4
100
AcDbSymbolTableRecord
100
AcDbViewportTableRecord
  2
*ACTIVE
 70
0
 10
0.0
 20
0.0
 11
1.0
 21
1.0
 12
45.3079817786
 22
64.0784313725
 13
0.0
 23
0.0
 14
1.0
 24
1.0
 15
0.0
 25
0.0
 16
0.0
 26
0.0
 36
1.0
 17
0.0
 27
0.0
 37
0.0
 40
128.1568627451
 41
0.7070707071
 42
50.0
 43
0.0
 44
0.0
 50
0.0
 51
0.0
 71
0
 72
100
 73
1
 74
1
 75
0
 76
0
 77
0
 78
0
  0
ENDTAB
  0
TABLE
  2
LTYPE
  5
5
100
AcDbSymbolTable
 70
6
  0
LTYPE
  5
14
100
AcDbSymbolTableRecord
100
AcDbLinetypeTableRecord
  2
BYBLOCK
 70
0
  3

 72
65
 73
0
 40
0.0
  0
LTYPE
  5
15
100
AcDbSymbolTableRecord
100
AcDbLinetypeTableRecord
  2
BYLAYER
 70
0
  3

 72
65
 73
0
 40
0.0
  0
LTYPE
  5
16
100
AcDbSymbolTableRecord
100
AcDbLinetypeTableRecord
  2
CONTINUOUS
 70
64
  3
Solid line
 72
65
 73
0
 40
0.0
  0
LTYPE
  5
1F5
100
AcDbSymbolTableRecord
100
AcDbLinetypeTableRecord
  2
CENTER
 70
64
  3
____ _ ____ _ ____ _ ____ _ ____ _ ____ _ ____
 72
65
 73
4
 40
0.6
 49
0.375
 74
0
 49
-0.075
 74
0
 49
0.075
 74
0
 49
-0.075
 74
0
  0
LTYPE
  5
1F6
100
AcDbSymbolTableRecord
100
AcDbLinetypeTableRecord
  2
HIDDEN
 70
64
  3
- - - - - - - - - - - - - - - - - - - -
 72
65
 73
2
 40
0.2
 49
0.1
 74
0
 49
-0.1
 74
0
  0
LTYPE
  5
1F7
100
AcDbSymbolTableRecord
100
AcDbLinetypeTableRecord
  2
PHANTOM
 70
64
  3
_____ _ _ _____ _ _ _____ _ _ _____
 72
65
 73
6
 40
0.8
 49
0.45
 74
0
 49
-0.05
 74
0
 49
0.1
 74
0
 49
-0.05
 74
0
 49
0.1
 74
0
 49
-0.05
 74
0
  0
LTYPE
  5
1F8
100
AcDbSymbolTableRecord
100
AcDbLinetypeTableRecord
  2
DOT
 70
64
  3
. . . . . . . . . . . . . . . . . . . .
 72
65
 73
2
 40
0.2
 49
0.1
 74
0
 49
-0.1
 74
0
  0
LTYPE
  5
1F9
100
AcDbSymbolTableRecord
100
AcDbLinetypeTableRecord
  2
DASHED
 70
64
  3
- - - - - - - - - - - - - - - - - - - -
 72
65
 73
2
 40
0.2
 49
0.1
 74
0
 49
-0.1
 74
0
  0
ENDTAB
  0
TABLE
  2
LAYER
  5
2
100
AcDbSymbolTable
 70
36
  0
LAYER
  5
10
100
AcDbSymbolTableRecord
100
AcDbLayerTableRecord
  2
0
 70
0
 62
7
  6
CONTINUOUS
370
-3
390
F
  0
LAYER
  5
1FA
100
AcDbSymbolTableRecord
100
AcDbLayerTableRecord
  2
DEFAULT_1
 70
0
 62
7
  6
CENTER
370
-3
390
F
  0
LAYER
  5
1FB
100
AcDbSymbolTableRecord
100
AcDbLayerTableRecord
  2
DEFAULT_2
 70
0
 62
8
  6
HIDDEN
370
-3
390
F
  0
LAYER
  5
1FC
100
AcDbSymbolTableRecord
100
AcDbLayerTableRecord
  2
DEFAULT_3
 70
0
 62
7
  6
PHANTOM
370
-3
390
F
  0
LAYER
  5
1FD
100
AcDbSymbolTableRecord
100
AcDbLayerTableRecord
  2
00_COMPONENTS
 70
0
 62
7
  6
CONTINUOUS
370
-3
390
F
  0
LAYER
  5
1FE
100
AcDbSymbolTableRecord
100
AcDbLayerTableRecord
  2
01_1_DEFAULT_DATUMS
 70
0
 62
7
  6
CONTINUOUS
370
-3
390
F
  0
LAYER
  5
1FF
100
AcDbSymbolTableRecord
100
AcDbLayerTableRecord
  2
01_PLANES
 70
0
 62
7
  6
CONTINUOUS
370
-3
390
F
  0
LAYER
  5
200
100
AcDbSymbolTableRecord
100
AcDbLayerTableRecord
  2
02_COORD_SYS
 70
0
 62
7
  6
CONTINUOUS
370
-3
390
F
  0
LAYER
  5
201
100
AcDbSymbolTableRecord
100
AcDbLayerTableRecord
  2
03_AXES
 70
0
 62
7
  6
CONTINUOUS
370
-3
390
F
  0
LAYER
  5
202
100
AcDbSymbolTableRecord
100
AcDbLayerTableRecord
  2
04_POINTS
 70
0
 62
7
  6
CONTINUOUS
370
-3
390
F
  0
LAYER
  5
203
100
AcDbSymbolTableRecord
100
AcDbLayerTableRecord
  2
05_CURVES
 70
0
 62
7
  6
CONTINUOUS
370
-3
390
F
  0
LAYER
  5
204
100
AcDbSymbolTableRecord
100
AcDbLayerTableRecord
  2
06_SURFS
 70
0
 62
7
  6
CONTINUOUS
370
-3
390
F
  0
LAYER
  5
205
100
AcDbSymbolTableRecord
100
AcDbLayerTableRecord
  2
07_COSMETICS
 70
0
 62
7
  6
CONTINUOUS
370
-3
390
F
  0
LAYER
  5
206
100
AcDbSymbolTableRecord
100
AcDbLayerTableRecord
  2
10_NOTES
 70
0
 62
7
  6
CONTINUOUS
370
-3
390
F
  0
LAYER
  5
207
100
AcDbSymbolTableRecord
100
AcDbLayerTableRecord
  2
11_NOTES_PUB
 70
0
 62
7
  6
CONTINUOUS
370
-3
390
F
  0
LAYER
  5
208
100
AcDbSymbolTableRecord
100
AcDbLayerTableRecord
  2
13_REF_GTOL
 70
0
 62
7
  6
CONTINUOUS
370
-3
390
F
  0
LAYER
  5
209
100
AcDbSymbolTableRecord
100
AcDbLayerTableRecord
  2
16_MISC
 70
0
 62
7
  6
CONTINUOUS
370
-3
390
F
  0
LAYER
  5
20A
100
AcDbSymbolTableRecord
100
AcDbLayerTableRecord
  2
17_NO_PRINT
 70
0
 62
7
  6
CONTINUOUS
370
-3
390
F
  0
LAYER
  5
20B
100
AcDbSymbolTableRecord
100
AcDbLayerTableRecord
  2
18_DATUM_CAMS_JOINTS
 70
0
 62
7
  6
CONTINUOUS
370
-3
390
F
  0
LAYER
  5
20C
100
AcDbSymbolTableRecord
100
AcDbLayerTableRecord
  2
19_DATUM_FUNCTIONAL
 70
0
 62
7
  6
CONTINUOUS
370
-3
390
F
  0
LAYER
  5
20D
100
AcDbSymbolTableRecord
100
AcDbLayerTableRecord
  2
20_DATUM_KINEMATIC_SCHEME
 70
0
 62
7
  6
CONTINUOUS
370
-3
390
F
  0
ENDTAB
  0
TABLE
  2
STYLE
  5
3
100
AcDbSymbolTable
 70
1
  0
STYLE
  5
11
100
AcDbSymbolTableRecord
100
AcDbTextStyleTableRecord
  2
STANDARD
 70
0
 40
0.0
 41
0.8
 50
0.0
 71
0
 42
0.2
  3
txt
  4

  0
STYLE
  5
20E
100
AcDbSymbolTableRecord
100
AcDbTextStyleTableRecord
  2
TEXTSTYLE_1
 70
0
 40
0.0
 41
0.8
 50
0.0
 71
0
 42
0.2
  3
gdt
  4

  0
ENDTAB
  0
TABLE
  2
VIEW
  5
6
100
AcDbSymbolTable
 70
0
  0
ENDTAB
  0
TABLE
  2
UCS
  5
7
100
AcDbSymbolTable
 70
0
  0
ENDTAB
  0
TABLE
  2
APPID
  5
9
100
AcDbSymbolTable
 70
1
  0
APPID
  5
20F
100
AcDbSymbolTableRecord
100
AcDbRegAppTableRecord
  2
ACAD
 70
0
  0
ENDTAB
  0
TABLE
  2
BLOCK_RECORD
  5
1
100
AcDbSymbolTable
 70
0
  0
BLOCK_RECORD
  5
210
100
AcDbSymbolTableRecord
100
AcDbBlockTableRecord
  2
*Model_Space
  0
BLOCK_RECORD
  5
211
100
AcDbSymbolTableRecord
100
AcDbBlockTableRecord
  2
*Paper_Space
  0
BLOCK_RECORD
  5
212
100
AcDbSymbolTableRecord
100
AcDbBlockTableRecord
  2
_FILLED
  0
ENDTAB
  0
TABLE
  2
DIMSTYLE
  5
A
100
AcDbSymbolTable
 70
1
100
AcDbDimStyleTable
 71
0
  0
DIMSTYLE
105
213
100
AcDbSymbolTableRecord
100
AcDbDimStyleTableRecord
  2
STANDARD
 70
0
  3

  4

 40
1.0
 41
1.0787614709
 42
1.0
 43
0.38
 44
1.0
 45
0.0
 46
0.0
 47
0.01
 48
0.01
140
1.5102660593
141
0.09
142
0.0
143
25.4
144
1.0
145
0.0
146
1.0
147
0.625
 71
1
 72
0
 73
0
 74
0
 75
0
 76
0
 77
1
 78
8
 79
2
170
0
171
1
172
0
173
0
174
0
175
0
176
0
177
0
178
0
270
2
179
2
271
2
272
2
273
2
274
2
275
0
280
0
281
0
282
0
283
1
284
8
285
0
286
0
287
3
288
0
340
11
278
46
341
212
342
212
343
212
344
212
  0
ENDTAB
  0
ENDSEC
  0
SECTION
  2
BLOCKS
  0
BLOCK
  5
20
100
AcDbEntity
  8
0
100
AcDbBlockBegin
  2
*Model_Space
 70
0
 10
0.0
 20
0.0
 30
0.0
  3
*Model_Space
  1

  0
ENDBLK
  5
21
100
AcDbEntity
  8
0
100
AcDbBlockEnd
  0
BLOCK
  5
1C
100
AcDbEntity
  8
0
100
AcDbBlockBegin
  2
*Paper_Space
 70
0
 10
0.0
 20
0.0
 30
0.0
  3
*Paper_Space
  1

  0
ENDBLK
  5
1D
100
AcDbEntity
  8
0
100
AcDbBlockEnd
  0
BLOCK
  5
214
100
AcDbEntity
  8
0
100
AcDbBlockBegin
  2
_FILLED
 70
64
 10
0.0
 20
0.0
  3
_FILLED
  1

  0
SOLID
  5
215
100
AcDbEntity
  8
0
  6
BYBLOCK
 62
0
100
AcDbTrace
 10
0.0
 20
0.0
 11
-1.0
 21
0.25
 12
-1.0
 22
-0.25
 13
-1.0
 23
-0.25
  0
ENDBLK
  5
216
100
AcDbEntity
  8
0
  6
BYBLOCK
 62
0
100
AcDbBlockEnd
  0
ENDSEC
  0
SECTION
  2
ENTITIES
  0
LINE
  5
217
100
AcDbEntity
  8
0
100
AcDbLine
 62
7
  6
CONTINUOUS
 10
10.5628837394
 20
33.8612044898
 11
10.5628837394
 21
81.9266056573
  0
LINE
  5
218
100
AcDbEntity
  8
0
100
AcDbLine
 62
7
  6
CONTINUOUS
 10
10.5628837394
 20
81.9283051208
 11
10.5628837394
 21
92.9149711948
  0
LINE
  5
219
100
AcDbEntity
  8
0
100
AcDbLine
 62
7
  6
CONTINUOUS
 10
12.1628837394
 20
44.6266053948
 11
12.1628837394
 21
81.9266056573
  0
LINE
  5
21A
100
AcDbEntity
  8
0
100
AcDbLine
 62
7
  6
CONTINUOUS
 10
13.5628837394
 20
33.4266056573
 11
13.5628837394
 21
33.8606274961
  0
LINE
  5
21B
100
AcDbEntity
  8
0
100
AcDbLine
 62
7
  6
CONTINUOUS
 10
13.1121257285
 20
44.8826821794
 11
13.1146568518
 21
52.1326817375
  0
LINE
  5
21C
100
AcDbEntity
  8
0
100
AcDbLine
 62
7
  6
CONTINUOUS
 10
13.6141156846
 20
50.5825072717
 11
13.6143426129
 21
51.2325072321
  0
LINE
  5
21D
100
AcDbEntity
  8
0
100
AcDbLine
 62
7
  6
CONTINUOUS
 10
14.1638887228
 20
49.9323152951
 11
14.1641156511
 21
50.5823152555
  0
LINE
  5
21E
100
AcDbEntity
  8
0
100
AcDbLine
 62
7
  6
CONTINUOUS
 10
14.4630337296
 20
47.4822107081
 11
14.4633130259
 21
48.2822106593
  0
LINE
  5
21F
100
AcDbEntity
  8
0
100
AcDbLine
 62
7
  6
CONTINUOUS
 10
15.2633129772
 20
48.281931363
 11
15.2630336808
 21
47.4819314117
  0
LINE
  5
220
100
AcDbEntity
  8
0
100
AcDbLine
 62
7
  6
CONTINUOUS
 10
17.8128837394
 20
95.043982578
 11
17.8128837394
 21
91.8195006957
  0
LINE
  5
221
100
AcDbEntity
  8
0
100
AcDbLine
 62
7
  6
CONTINUOUS
 10
15.5641155658
 20
50.5818264868
 11
15.5638886375
 21
49.9318265265
  0
LINE
  5
222
100
AcDbEntity
  8
0
100
AcDbLine
 62
7
  6
CONTINUOUS
 10
16.1143424606
 20
51.231634431
 11
16.1141155323
 21
50.5816344706
  0
LINE
  5
223
100
AcDbEntity
  8
0
100
AcDbLine
 62
7
  6
CONTINUOUS
 10
16.4138885857
 20
49.9315297741
 11
16.4123873677
 21
45.6315300361
  0
LINE
  5
224
100
AcDbEntity
  8
0
100
AcDbLine
 62
7
  6
CONTINUOUS
 10
16.8123878204
 20
45.6313903878
 11
16.8138890384
 21
49.9313901257
  0
LINE
  5
225
100
AcDbEntity
  8
0
100
AcDbLine
 62
7
  6
CONTINUOUS
 10
17.1141159484
 20
50.58128535
 11
17.1143428767
 21
51.2312853104
  0
LINE
  5
226
100
AcDbEntity
  8
0
100
AcDbLine
 62
7
  6
CONTINUOUS
 10
17.6638889866
 20
49.9310933733
 11
17.6641159149
 21
50.5810933337
  0
LINE
  5
227
100
AcDbEntity
  8
0
100
AcDbLine
 62
7
  6
CONTINUOUS
 10
17.9630335163
 20
47.4809887865
 11
17.9633128126
 21
48.2809887377
  0
LINE
  5
228
100
AcDbEntity
  8
0
100
AcDbLine
 62
7
  6
CONTINUOUS
 10
13.5628837394
 20
33.4266056573
 11
79.5628837394
 21
33.4266056573
  0
LINE
  5
229
100
AcDbEntity
  8
0
100
AcDbLine
 62
7
  6
CONTINUOUS
 10
82.5628837394
 20
33.8606274961
 11
52.3128837394
 21
33.8606274961
  0
LINE
  5
22A
100
AcDbEntity
  8
0
100
AcDbLine
 62
7
  6
CONTINUOUS
 10
40.8128837394
 20
33.8606274961
 11
10.5628837394
 21
33.8606274961
  0
LINE
  5
22B
100
AcDbEntity
  8
0
100
AcDbLine
 62
7
  6
CONTINUOUS
 10
54.3128837394
 20
34.6620015503
 11
52.3128837394
 21
34.6620015503
  0
LINE
  5
22C
100
AcDbEntity
  8
0
100
AcDbLine
 62
7
  6
CONTINUOUS
 10
40.8128837394
 20
34.6620015503
 11
38.8128837394
 21
34.6620015503
  0
LINE
  5
22D
100
AcDbEntity
  8
0
100
AcDbLine
 62
7
  6
CONTINUOUS
 10
41.5628837394
 20
35.4326077573
 11
51.5628837394
 21
35.4326077573
  0
LINE
  5
22E
100
AcDbEntity
  8
0
100
AcDbLine
 62
7
  6
CONTINUOUS
 10
40.8128837394
 20
35.9266056573
 11
38.8128837394
 21
35.9266056573
  0
LINE
  5
22F
100
AcDbEntity
  8
0
100
AcDbLine
 62
7
  6
CONTINUOUS
 10
52.3128837394
 20
35.9266056573
 11
54.3128837394
 21
35.9266056573
  0
LINE
  5
230
100
AcDbEntity
  8
0
100
AcDbLine
 62
7
  6
CONTINUOUS
 10
18.7633127639
 20
48.2807094413
 11
18.7630334675
 21
47.4807094901
  0
LINE
  5
231
100
AcDbEntity
  8
0
100
AcDbLine
 62
7
  6
CONTINUOUS
 10
19.0641158295
 20
50.5806045651
 11
19.0638889012
 21
49.9306046047
  0
LINE
  5
232
100
AcDbEntity
  8
0
100
AcDbLine
 62
7
  6
CONTINUOUS
 10
19.6143427243
 20
51.2304125092
 11
19.614115796
 21
50.5804125488
  0
LINE
  5
233
100
AcDbEntity
  8
0
100
AcDbLine
 62
7
  6
CONTINUOUS
 10
19.913889981
 20
49.9303078519
 11
19.912388763
 21
45.6303081139
  0
LINE
  5
234
100
AcDbEntity
  8
0
100
AcDbLine
 62
7
  6
CONTINUOUS
 10
20.3123887386
 20
45.6301684658
 11
20.3138899566
 21
49.9301682037
  0
LINE
  5
235
100
AcDbEntity
  8
0
100
AcDbLine
 62
7
  6
CONTINUOUS
 10
20.6141168666
 20
50.580063428
 11
20.6143437949
 21
51.2300633883
  0
LINE
  5
236
100
AcDbEntity
  8
0
100
AcDbLine
 62
7
  6
CONTINUOUS
 10
21.1638899048
 20
49.9298714513
 11
21.1641168331
 21
50.5798714117
  0
LINE
  5
237
100
AcDbEntity
  8
0
100
AcDbLine
 62
7
  6
CONTINUOUS
 10
21.4630341753
 20
47.4797668645
 11
21.4633134716
 21
48.2797668158
  0
LINE
  5
238
100
AcDbEntity
  8
0
100
AcDbLine
 62
7
  6
CONTINUOUS
 10
41.5628837394
 20
37.0766056573
 11
51.5628837394
 21
37.0766056573
  0
LINE
  5
239
100
AcDbEntity
  8
0
100
AcDbLine
 62
7
  6
CONTINUOUS
 10
38.8128837394
 20
38.4266056573
 11
54.3128837394
 21
38.4266056573
  0
LINE
  5
23A
100
AcDbEntity
  8
0
100
AcDbLine
 62
7
  6
CONTINUOUS
 10
22.2633134229
 20
48.2794875194
 11
22.2630341265
 21
47.4794875682
  0
LINE
  5
23B
100
AcDbEntity
  8
0
100
AcDbLine
 62
7
  6
CONTINUOUS
 10
22.5641167478
 20
50.5793826431
 11
22.5638898195
 21
49.9293826827
  0
LINE
  5
23C
100
AcDbEntity
  8
0
100
AcDbLine
 62
7
  6
CONTINUOUS
 10
23.1143436425
 20
51.2291905872
 11
23.1141167142
 21
50.5791906268
  0
LINE
  5
23D
100
AcDbEntity
  8
0
100
AcDbLine
 62
7
  6
CONTINUOUS
 10
23.4138897677
 20
49.9290859303
 11
23.4123885497
 21
45.6290861923
  0
LINE
  5
23E
100
AcDbEntity
  8
0
100
AcDbLine
 62
7
  6
CONTINUOUS
 10
23.8123885253
 20
45.6289465441
 11
23.8138897433
 21
49.9289462821
  0
LINE
  5
23F
100
AcDbEntity
  8
0
100
AcDbLine
 62
7
  6
CONTINUOUS
 10
24.1141166533
 20
50.5788415063
 11
24.1143435816
 21
51.2288414667
  0
LINE
  5
240
100
AcDbEntity
  8
0
100
AcDbLine
 62
7
  6
CONTINUOUS
 10
24.6638896915
 20
49.9286495297
 11
24.6641166198
 21
50.5786494901
  0
LINE
  5
241
100
AcDbEntity
  8
0
100
AcDbLine
 62
7
  6
CONTINUOUS
 10
24.963033962
 20
47.4785449429
 11
24.9633132583
 21
48.2785448942
  0
LINE
  5
242
100
AcDbEntity
  8
0
100
AcDbLine
 62
7
  6
CONTINUOUS
 10
25.7633132096
 20
48.2782655978
 11
25.7630339132
 21
47.4782656466
  0
LINE
  5
243
100
AcDbEntity
  8
0
100
AcDbLine
 62
7
  6
CONTINUOUS
 10
26.0641165345
 20
50.5781607214
 11
26.0638896062
 21
49.9281607611
  0
LINE
  5
244
100
AcDbEntity
  8
0
100
AcDbLine
 62
7
  6
CONTINUOUS
 10
26.6143434292
 20
51.2279686656
 11
26.6141165009
 21
50.5779687052
  0
LINE
  5
245
100
AcDbEntity
  8
0
100
AcDbLine
 62
7
  6
CONTINUOUS
 10
26.9138895544
 20
49.9278640087
 11
26.9123883364
 21
45.6278642707
  0
LINE
  5
246
100
AcDbEntity
  8
0
100
AcDbLine
 62
7
  6
CONTINUOUS
 10
27.312388312
 20
45.6277246225
 11
27.31388953
 21
49.9277243605
  0
LINE
  5
247
100
AcDbEntity
  8
0
100
AcDbLine
 62
7
  6
CONTINUOUS
 10
27.61411644
 20
50.5776195847
 11
27.6143433683
 21
51.2276195451
  0
LINE
  5
248
100
AcDbEntity
  8
0
100
AcDbLine
 62
7
  6
CONTINUOUS
 10
82.5628837394
 20
43.9019143259
 11
10.5628837394
 21
43.9019143259
  0
LINE
  5
249
100
AcDbEntity
  8
0
100
AcDbLine
 62
7
  6
CONTINUOUS
 10
82.5628837394
 20
44.6266056573
 11
10.5628837394
 21
44.6266056573
  0
LINE
  5
24A
100
AcDbEntity
  8
0
100
AcDbLine
 62
7
  6
CONTINUOUS
 10
12.1628837394
 20
44.8669302373
 11
80.5628837394
 21
44.8669302373
  0
LINE
  5
24B
100
AcDbEntity
  8
0
100
AcDbLine
 62
7
  6
CONTINUOUS
 10
34.1121244487
 20
44.8753506497
 11
13.1121257285
 21
44.8826821794
  0
LINE
  5
24C
100
AcDbEntity
  8
0
100
AcDbLine
 62
7
  6
CONTINUOUS
 10
58.1371488628
 20
44.8765596703
 11
40.6371499293
 21
44.8826692784
  0
LINE
  5
24D
100
AcDbEntity
  8
0
100
AcDbLine
 62
7
  6
CONTINUOUS
 10
79.1371488628
 20
44.8753506497
 11
58.1371501426
 21
44.8826821794
  0
LINE
  5
24E
100
AcDbEntity
  8
0
100
AcDbLine
 62
7
  6
CONTINUOUS
 10
31.4458729211
 20
45.6262815384
 11
30.8123880987
 21
45.6265027009
  0
LINE
  5
24F
100
AcDbEntity
  8
0
100
AcDbLine
 62
7
  6
CONTINUOUS
 10
30.4123881231
 20
45.6266423491
 11
29.7789033007
 21
45.6268635116
  0
LINE
  5
250
100
AcDbEntity
  8
0
100
AcDbLine
 62
7
  6
CONTINUOUS
 10
27.9458731344
 20
45.62750346
 11
27.312388312
 21
45.6277246225
  0
LINE
  5
251
100
AcDbEntity
  8
0
100
AcDbLine
 62
7
  6
CONTINUOUS
 10
26.9123883364
 20
45.6278642707
 11
26.278903514
 21
45.6280854332
  0
LINE
  5
252
100
AcDbEntity
  8
0
100
AcDbLine
 62
7
  6
CONTINUOUS
 10
24.4458733477
 20
45.6287253816
 11
23.8123885253
 21
45.6289465441
  0
LINE
  5
253
100
AcDbEntity
  8
0
100
AcDbLine
 62
7
  6
CONTINUOUS
 10
20.945873561
 20
45.6299473032
 11
20.3123887386
 21
45.6301684658
  0
LINE
  5
254
100
AcDbEntity
  8
0
100
AcDbLine
 62
7
  6
CONTINUOUS
 10
17.4458726428
 20
45.6311692252
 11
16.8123878204
 21
45.6313903878
  0
LINE
  5
255
100
AcDbEntity
  8
0
100
AcDbLine
 62
7
  6
CONTINUOUS
 10
16.4123873677
 20
45.6315300361
 11
15.7789025453
 21
45.6317511986
  0
LINE
  5
256
100
AcDbEntity
  8
0
100
AcDbLine
 62
7
  6
CONTINUOUS
 10
13.945872379
 20
45.632391147
 11
13.1123875688
 21
45.6326821336
  0
LINE
  5
257
100
AcDbEntity
  8
0
100
AcDbLine
 62
7
  6
CONTINUOUS
 10
19.2789030786
 20
45.6305292768
 11
19.912388763
 21
45.6303081139
  0
LINE
  5
258
100
AcDbEntity
  8
0
100
AcDbLine
 62
7
  6
CONTINUOUS
 10
22.7789037273
 20
45.6293073549
 11
23.4123885497
 21
45.6290861923
  0
LINE
  5
259
100
AcDbEntity
  8
0
100
AcDbLine
 62
7
  6
CONTINUOUS
 10
33.2789030874
 20
45.62564159
 11
34.112386289
 21
45.625350604
  0
LINE
  5
25A
100
AcDbEntity
  8
0
100
AcDbLine
 62
7
  6
CONTINUOUS
 10
55.4708973352
 20
45.627490559
 11
54.8374125128
 21
45.6277117215
  0
LINE
  5
25B
100
AcDbEntity
  8
0
100
AcDbLine
 62
7
  6
CONTINUOUS
 10
54.4374125372
 20
45.6278513697
 11
53.8039277148
 21
45.6280725323
  0
LINE
  5
25C
100
AcDbEntity
  8
0
100
AcDbLine
 62
7
  6
CONTINUOUS
 10
51.9708975485
 20
45.6287124806
 11
51.3374127261
 21
45.6289336432
  0
LINE
  5
25D
100
AcDbEntity
  8
0
100
AcDbLine
 62
7
  6
CONTINUOUS
 10
50.9374127505
 20
45.6290732913
 11
50.3039279281
 21
45.6292944539
  0
LINE
  5
25E
100
AcDbEntity
  8
0
100
AcDbLine
 62
7
  6
CONTINUOUS
 10
48.4708977618
 20
45.6299344022
 11
47.8374129394
 21
45.6301555648
  0
LINE
  5
25F
100
AcDbEntity
  8
0
100
AcDbLine
 62
7
  6
CONTINUOUS
 10
44.9708968436
 20
45.6311563243
 11
44.3374120212
 21
45.6313774868
  0
LINE
  5
260
100
AcDbEntity
  8
0
100
AcDbLine
 62
7
  6
CONTINUOUS
 10
43.9374115685
 20
45.6315171351
 11
43.3039267461
 21
45.6317382977
  0
LINE
  5
261
100
AcDbEntity
  8
0
100
AcDbLine
 62
7
  6
CONTINUOUS
 10
41.4708965798
 20
45.632378246
 11
40.6374117696
 21
45.6326692327
  0
LINE
  5
262
100
AcDbEntity
  8
0
100
AcDbLine
 62
7
  6
CONTINUOUS
 10
46.8039272794
 20
45.6305163758
 11
47.4374129638
 21
45.630295213
  0
LINE
  5
263
100
AcDbEntity
  8
0
100
AcDbLine
 62
7
  6
CONTINUOUS
 10
57.3039275015
 20
45.6268506106
 11
58.1374107031
 21
45.6265596246
  0
LINE
  5
264
100
AcDbEntity
  8
0
100
AcDbLine
 62
7
  6
CONTINUOUS
 10
76.4708973352
 20
45.6262815384
 11
75.8374125128
 21
45.6265027009
  0
LINE
  5
265
100
AcDbEntity
  8
0
100
AcDbLine
 62
7
  6
CONTINUOUS
 10
75.4374125372
 20
45.6266423491
 11
74.8039277148
 21
45.6268635116
  0
LINE
  5
266
100
AcDbEntity
  8
0
100
AcDbLine
 62
7
  6
CONTINUOUS
 10
72.9708975485
 20
45.62750346
 11
72.3374127261
 21
45.6277246225
  0
LINE
  5
267
100
AcDbEntity
  8
0
100
AcDbLine
 62
7
  6
CONTINUOUS
 10
71.9374127505
 20
45.6278642707
 11
71.3039279281
 21
45.6280854332
  0
LINE
  5
268
100
AcDbEntity
  8
0
100
AcDbLine
 62
7
  6
CONTINUOUS
 10
69.4708977618
 20
45.6287253816
 11
68.8374129394
 21
45.6289465441
  0
LINE
  5
269
100
AcDbEntity
  8
0
100
AcDbLine
 62
7
  6
CONTINUOUS
 10
65.9708979751
 20
45.6299473032
 11
65.3374131527
 21
45.6301684658
  0
LINE
  5
26A
100
AcDbEntity
  8
0
100
AcDbLine
 62
7
  6
CONTINUOUS
 10
62.4708970569
 20
45.6311692252
 11
61.8374122345
 21
45.6313903878
  0
LINE
  5
26B
100
AcDbEntity
  8
0
100
AcDbLine
 62
7
  6
CONTINUOUS
 10
61.4374117818
 20
45.6315300361
 11
60.8039269594
 21
45.6317511986
  0
LINE
  5
26C
100
AcDbEntity
  8
0
100
AcDbLine
 62
7
  6
CONTINUOUS
 10
58.9708967931
 20
45.632391147
 11
58.1374119829
 21
45.6326821336
  0
LINE
  5
26D
100
AcDbEntity
  8
0
100
AcDbLine
 62
7
  6
CONTINUOUS
 10
64.3039274927
 20
45.6305292768
 11
64.9374131771
 21
45.6303081139
  0
LINE
  5
26E
100
AcDbEntity
  8
0
100
AcDbLine
 62
7
  6
CONTINUOUS
 10
67.8039281414
 20
45.6293073549
 11
68.4374129638
 21
45.6290861923
  0
LINE
  5
26F
100
AcDbEntity
  8
0
100
AcDbLine
 62
7
  6
CONTINUOUS
 10
78.3039275015
 20
45.62564159
 11
79.1374107031
 21
45.625350604
  0
LINE
  5
270
100
AcDbEntity
  8
0
100
AcDbLine
 62
7
  6
CONTINUOUS
 10
34.1129972499
 20
47.3753507392
 11
34.712876694
 21
47.0287308841
  0
LINE
  5
271
100
AcDbEntity
  8
0
100
AcDbLine
 62
7
  6
CONTINUOUS
 10
28.8128837394
 20
84.3283051208
 11
28.8128837394
 21
91.7193179308
  0
LINE
  5
272
100
AcDbEntity
  8
0
100
AcDbLine
 62
7
  6
CONTINUOUS
 10
29.8128837394
 20
84.3283051208
 11
29.8128837394
 21
91.7193179308
  0
LINE
  5
273
100
AcDbEntity
  8
0
100
AcDbLine
 62
7
  6
CONTINUOUS
 10
28.1638894782
 20
49.9274276081
 11
28.1641164065
 21
50.5774275685
  0
LINE
  5
274
100
AcDbEntity
  8
0
100
AcDbLine
 62
7
  6
CONTINUOUS
 10
28.4630337487
 20
47.4773230213
 11
28.463313045
 21
48.2773229726
  0
LINE
  5
275
100
AcDbEntity
  8
0
100
AcDbLine
 62
7
  6
CONTINUOUS
 10
29.2633129963
 20
48.2770436762
 11
29.2630336999
 21
47.4770437249
  0
LINE
  5
276
100
AcDbEntity
  8
0
100
AcDbLine
 62
7
  6
CONTINUOUS
 10
29.5641163212
 20
50.5769387998
 11
29.5638893929
 21
49.9269388394
  0
LINE
  5
277
100
AcDbEntity
  8
0
100
AcDbLine
 62
7
  6
CONTINUOUS
 10
30.1143432159
 20
51.226746744
 11
30.1141162876
 21
50.5767467836
  0
LINE
  5
278
100
AcDbEntity
  8
0
100
AcDbLine
 62
7
  6
CONTINUOUS
 10
30.4138893411
 20
49.9266420871
 11
30.4123881231
 21
45.6266423491
  0
LINE
  5
279
100
AcDbEntity
  8
0
100
AcDbLine
 62
7
  6
CONTINUOUS
 10
30.8123880987
 20
45.6265027009
 11
30.8138893167
 21
49.9265024389
  0
LINE
  5
27A
100
AcDbEntity
  8
0
100
AcDbLine
 62
7
  6
CONTINUOUS
 10
31.1141162267
 20
50.5763976631
 11
31.114343155
 21
51.2263976235
  0
LINE
  5
27B
100
AcDbEntity
  8
0
100
AcDbLine
 62
7
  6
CONTINUOUS
 10
80.5628837394
 20
48.8348648627
 11
82.5628837394
 21
48.8348648627
  0
LINE
  5
27C
100
AcDbEntity
  8
0
100
AcDbLine
 62
7
  6
CONTINUOUS
 10
10.5628837394
 20
48.8348664231
 11
12.1628837394
 21
48.8348664231
  0
LINE
  5
27D
100
AcDbEntity
  8
0
100
AcDbLine
 62
7
  6
CONTINUOUS
 10
32.7630334866
 20
47.4758218033
 11
31.9630335354
 21
47.4761010997
  0
LINE
  5
27E
100
AcDbEntity
  8
0
100
AcDbLine
 62
7
  6
CONTINUOUS
 10
29.2630336999
 20
47.4770437249
 11
28.4630337487
 21
47.4773230213
  0
LINE
  5
27F
100
AcDbEntity
  8
0
100
AcDbLine
 62
7
  6
CONTINUOUS
 10
25.7630339132
 20
47.4782656466
 11
24.963033962
 21
47.4785449429
  0
LINE
  5
280
100
AcDbEntity
  8
0
100
AcDbLine
 62
7
  6
CONTINUOUS
 10
22.2630341265
 20
47.4794875682
 11
21.4630341753
 21
47.4797668645
  0
LINE
  5
281
100
AcDbEntity
  8
0
100
AcDbLine
 62
7
  6
CONTINUOUS
 10
18.7630334675
 20
47.4807094901
 11
17.9630335163
 21
47.4809887865
  0
LINE
  5
282
100
AcDbEntity
  8
0
100
AcDbLine
 62
7
  6
CONTINUOUS
 10
15.2630336808
 20
47.4819314117
 11
14.4630337296
 21
47.4822107081
  0
LINE
  5
283
100
AcDbEntity
  8
0
100
AcDbLine
 62
7
  6
CONTINUOUS
 10
56.7880579007
 20
47.477030824
 11
55.9880579495
 21
47.4773101203
  0
LINE
  5
284
100
AcDbEntity
  8
0
100
AcDbLine
 62
7
  6
CONTINUOUS
 10
53.288058114
 20
47.4782527456
 11
52.4880581628
 21
47.4785320419
  0
LINE
  5
285
100
AcDbEntity
  8
0
100
AcDbLine
 62
7
  6
CONTINUOUS
 10
49.7880583273
 20
47.4794746672
 11
48.9880583761
 21
47.4797539636
  0
LINE
  5
286
100
AcDbEntity
  8
0
100
AcDbLine
 62
7
  6
CONTINUOUS
 10
46.2880576683
 20
47.4806965891
 11
45.4880577171
 21
47.4809758855
  0
LINE
  5
287
100
AcDbEntity
  8
0
100
AcDbLine
 62
7
  6
CONTINUOUS
 10
42.7880578816
 20
47.4819185107
 11
41.9880579304
 21
47.4821978071
  0
LINE
  5
288
100
AcDbEntity
  8
0
100
AcDbLine
 62
7
  6
CONTINUOUS
 10
77.7880579007
 20
47.4758218033
 11
76.9880579495
 21
47.4761010997
  0
LINE
  5
289
100
AcDbEntity
  8
0
100
AcDbLine
 62
7
  6
CONTINUOUS
 10
74.288058114
 20
47.4770437249
 11
73.4880581628
 21
47.4773230213
  0
LINE
  5
28A
100
AcDbEntity
  8
0
100
AcDbLine
 62
7
  6
CONTINUOUS
 10
70.7880583273
 20
47.4782656466
 11
69.9880583761
 21
47.4785449429
  0
LINE
  5
28B
100
AcDbEntity
  8
0
100
AcDbLine
 62
7
  6
CONTINUOUS
 10
67.2880585406
 20
47.4794875682
 11
66.4880585894
 21
47.4797668645
  0
LINE
  5
28C
100
AcDbEntity
  8
0
100
AcDbLine
 62
7
  6
CONTINUOUS
 10
63.7880578816
 20
47.4807094901
 11
62.9880579304
 21
47.4809887865
  0
LINE
  5
28D
100
AcDbEntity
  8
0
100
AcDbLine
 62
7
  6
CONTINUOUS
 10
60.2880580949
 20
47.4819314117
 11
59.4880581437
 21
47.4822107081
  0
LINE
  5
28E
100
AcDbEntity
  8
0
100
AcDbLine
 62
7
  6
CONTINUOUS
 10
14.4633130259
 20
48.2822106593
 11
15.2633129772
 21
48.281931363
  0
LINE
  5
28F
100
AcDbEntity
  8
0
100
AcDbLine
 62
7
  6
CONTINUOUS
 10
17.9633128126
 20
48.2809887377
 11
18.7633127639
 21
48.2807094413
  0
LINE
  5
290
100
AcDbEntity
  8
0
100
AcDbLine
 62
7
  6
CONTINUOUS
 10
21.4633134716
 20
48.2797668158
 11
22.2633134229
 21
48.2794875194
  0
LINE
  5
291
100
AcDbEntity
  8
0
100
AcDbLine
 62
7
  6
CONTINUOUS
 10
24.9633132583
 20
48.2785448942
 11
25.7633132096
 21
48.2782655978
  0
LINE
  5
292
100
AcDbEntity
  8
0
100
AcDbLine
 62
7
  6
CONTINUOUS
 10
28.463313045
 20
48.2773229726
 11
29.2633129963
 21
48.2770436762
  0
LINE
  5
293
100
AcDbEntity
  8
0
100
AcDbLine
 62
7
  6
CONTINUOUS
 10
31.9633128317
 20
48.2761010509
 11
32.763312783
 21
48.2758217546
  0
LINE
  5
294
100
AcDbEntity
  8
0
100
AcDbLine
 62
7
  6
CONTINUOUS
 10
41.9883372267
 20
48.2821977583
 11
42.788337178
 21
48.281918462
  0
LINE
  5
295
100
AcDbEntity
  8
0
100
AcDbLine
 62
7
  6
CONTINUOUS
 10
45.4883370134
 20
48.2809758367
 11
46.2883369647
 21
48.2806965403
  0
LINE
  5
296
100
AcDbEntity
  8
0
100
AcDbLine
 62
7
  6
CONTINUOUS
 10
48.9883376724
 20
48.2797539148
 11
49.7883376237
 21
48.2794746184
  0
LINE
  5
297
100
AcDbEntity
  8
0
100
AcDbLine
 62
7
  6
CONTINUOUS
 10
52.4883374591
 20
48.2785319932
 11
53.2883374104
 21
48.2782526968
  0
LINE
  5
298
100
AcDbEntity
  8
0
100
AcDbLine
 62
7
  6
CONTINUOUS
 10
55.9883372458
 20
48.2773100716
 11
56.7883371971
 21
48.2770307752
  0
LINE
  5
299
100
AcDbEntity
  8
0
100
AcDbLine
 62
7
  6
CONTINUOUS
 10
59.48833744
 20
48.2822106593
 11
60.2883373913
 21
48.281931363
  0
LINE
  5
29A
100
AcDbEntity
  8
0
100
AcDbLine
 62
7
  6
CONTINUOUS
 10
62.9883372267
 20
48.2809887377
 11
63.788337178
 21
48.2807094413
  0
LINE
  5
29B
100
AcDbEntity
  8
0
100
AcDbLine
 62
7
  6
CONTINUOUS
 10
66.4883378857
 20
48.2797668158
 11
67.288337837
 21
48.2794875194
  0
LINE
  5
29C
100
AcDbEntity
  8
0
100
AcDbLine
 62
7
  6
CONTINUOUS
 10
69.9883376724
 20
48.2785448942
 11
70.7883376237
 21
48.2782655978
  0
LINE
  5
29D
100
AcDbEntity
  8
0
100
AcDbLine
 62
7
  6
CONTINUOUS
 10
73.4883374591
 20
48.2773229726
 11
74.2883374104
 21
48.2770436762
  0
LINE
  5
29E
100
AcDbEntity
  8
0
100
AcDbLine
 62
7
  6
CONTINUOUS
 10
76.9883372458
 20
48.2761010509
 11
77.7883371971
 21
48.2758217546
  0
LINE
  5
29F
100
AcDbEntity
  8
0
100
AcDbLine
 62
7
  6
CONTINUOUS
 10
41.2379021746
 20
47.0360495128
 11
40.6380227305
 21
47.3826693679
  0
LINE
  5
2A0
100
AcDbEntity
  8
0
100
AcDbLine
 62
7
  6
CONTINUOUS
 10
31.6638892649
 20
49.9262056865
 11
31.6641161932
 21
50.5762056469
  0
LINE
  5
2A1
100
AcDbEntity
  8
0
100
AcDbLine
 62
7
  6
CONTINUOUS
 10
31.9630335354
 20
47.4761010997
 11
31.9633128317
 21
48.2761010509
  0
LINE
  5
2A2
100
AcDbEntity
  8
0
100
AcDbLine
 62
7
  6
CONTINUOUS
 10
32.763312783
 20
48.2758217546
 11
32.7630334866
 21
47.4758218033
  0
LINE
  5
2A3
100
AcDbEntity
  8
0
100
AcDbLine
 62
7
  6
CONTINUOUS
 10
33.0641161079
 20
50.5757168782
 11
33.0638891796
 21
49.9257169178
  0
LINE
  5
2A4
100
AcDbEntity
  8
0
100
AcDbLine
 62
7
  6
CONTINUOUS
 10
33.6143430027
 20
51.2255248224
 11
33.6141160744
 21
50.575524862
  0
LINE
  5
2A5
100
AcDbEntity
  8
0
100
AcDbLine
 62
7
  6
CONTINUOUS
 10
34.114655572
 20
52.1253502078
 11
34.1133463702
 21
48.3753501937
  0
LINE
  5
2A6
100
AcDbEntity
  8
0
100
AcDbLine
 62
7
  6
CONTINUOUS
 10
34.1129972499
 20
47.3753507392
 11
34.1121244487
 21
44.8753506497
  0
LINE
  5
2A7
100
AcDbEntity
  8
0
100
AcDbLine
 62
7
  6
CONTINUOUS
 10
14.1638887228
 20
49.9323152951
 11
13.1138887868
 21
49.9326818716
  0
LINE
  5
2A8
100
AcDbEntity
  8
0
100
AcDbLine
 62
7
  6
CONTINUOUS
 10
15.5638886375
 20
49.9318265265
 11
16.4138885857
 21
49.9315297741
  0
LINE
  5
2A9
100
AcDbEntity
  8
0
100
AcDbLine
 62
7
  6
CONTINUOUS
 10
16.8138890384
 20
49.9313901257
 11
17.6638889866
 21
49.9310933733
  0
LINE
  5
2AA
100
AcDbEntity
  8
0
100
AcDbLine
 62
7
  6
CONTINUOUS
 10
19.0638889012
 20
49.9306046047
 11
19.913889981
 21
49.9303078519
  0
LINE
  5
2AB
100
AcDbEntity
  8
0
100
AcDbLine
 62
7
  6
CONTINUOUS
 10
20.3138899566
 20
49.9301682037
 11
21.1638899048
 21
49.9298714513
  0
LINE
  5
2AC
100
AcDbEntity
  8
0
100
AcDbLine
 62
7
  6
CONTINUOUS
 10
22.5638898195
 20
49.9293826827
 11
23.4138897677
 21
49.9290859303
  0
LINE
  5
2AD
100
AcDbEntity
  8
0
100
AcDbLine
 62
7
  6
CONTINUOUS
 10
23.8138897433
 20
49.9289462821
 11
24.6638896915
 21
49.9286495297
  0
LINE
  5
2AE
100
AcDbEntity
  8
0
100
AcDbLine
 62
7
  6
CONTINUOUS
 10
26.0638896062
 20
49.9281607611
 11
26.9138895544
 21
49.9278640087
  0
LINE
  5
2AF
100
AcDbEntity
  8
0
100
AcDbLine
 62
7
  6
CONTINUOUS
 10
27.31388953
 20
49.9277243605
 11
28.1638894782
 21
49.9274276081
  0
LINE
  5
2B0
100
AcDbEntity
  8
0
100
AcDbLine
 62
7
  6
CONTINUOUS
 10
29.5638893929
 20
49.9269388394
 11
30.4138893411
 21
49.9266420871
  0
LINE
  5
2B1
100
AcDbEntity
  8
0
100
AcDbLine
 62
7
  6
CONTINUOUS
 10
30.8138893167
 20
49.9265024389
 11
31.6638892649
 21
49.9262056865
  0
LINE
  5
2B2
100
AcDbEntity
  8
0
100
AcDbLine
 62
7
  6
CONTINUOUS
 10
33.0638891796
 20
49.9257169178
 11
34.113887507
 21
49.9253503419
  0
LINE
  5
2B3
100
AcDbEntity
  8
0
100
AcDbLine
 62
7
  6
CONTINUOUS
 10
41.6889129236
 20
49.9323023941
 11
40.6389129876
 21
49.9326689706
  0
LINE
  5
2B4
100
AcDbEntity
  8
0
100
AcDbLine
 62
7
  6
CONTINUOUS
 10
43.0889128383
 20
49.9318136255
 11
43.9389127865
 21
49.9315168731
  0
LINE
  5
2B5
100
AcDbEntity
  8
0
100
AcDbLine
 62
7
  6
CONTINUOUS
 10
44.3389132392
 20
49.9313772247
 11
45.1889131874
 21
49.9310804723
  0
LINE
  5
2B6
100
AcDbEntity
  8
0
100
AcDbLine
 62
7
  6
CONTINUOUS
 10
46.588913102
 20
49.9305917037
 11
47.4389141818
 21
49.9302949509
  0
LINE
  5
2B7
100
AcDbEntity
  8
0
100
AcDbLine
 62
7
  6
CONTINUOUS
 10
47.8389141574
 20
49.9301553027
 11
48.6889141056
 21
49.9298585503
  0
LINE
  5
2B8
100
AcDbEntity
  8
0
100
AcDbLine
 62
7
  6
CONTINUOUS
 10
50.0889140203
 20
49.9293697817
 11
50.9389139685
 21
49.9290730293
  0
LINE
  5
2B9
100
AcDbEntity
  8
0
100
AcDbLine
 62
7
  6
CONTINUOUS
 10
51.3389139441
 20
49.9289333811
 11
52.1889138923
 21
49.9286366287
  0
LINE
  5
2BA
100
AcDbEntity
  8
0
100
AcDbLine
 62
7
  6
CONTINUOUS
 10
53.588912618
 20
49.9281478605
 11
54.4389137552
 21
49.9278511077
  0
LINE
  5
2BB
100
AcDbEntity
  8
0
100
AcDbLine
 62
7
  6
CONTINUOUS
 10
54.8389137308
 20
49.9277114595
 11
55.688913679
 21
49.9274147071
  0
LINE
  5
2BC
100
AcDbEntity
  8
0
100
AcDbLine
 62
7
  6
CONTINUOUS
 10
57.0889135937
 20
49.9269259385
 11
58.1389119211
 21
49.9265593625
  0
LINE
  5
2BD
100
AcDbEntity
  8
0
100
AcDbLine
 62
7
  6
CONTINUOUS
 10
59.1889131369
 20
49.9323152951
 11
58.1389132009
 21
49.9326818716
  0
LINE
  5
2BE
100
AcDbEntity
  8
0
100
AcDbLine
 62
7
  6
CONTINUOUS
 10
60.5889130516
 20
49.9318265265
 11
61.4389129998
 21
49.9315297741
  0
LINE
  5
2BF
100
AcDbEntity
  8
0
100
AcDbLine
 62
7
  6
CONTINUOUS
 10
61.8389134525
 20
49.9313901257
 11
62.6889134007
 21
49.9310933733
  0
LINE
  5
2C0
100
AcDbEntity
  8
0
100
AcDbLine
 62
7
  6
CONTINUOUS
 10
64.0889133153
 20
49.9306046047
 11
64.9389143951
 21
49.9303078519
  0
LINE
  5
2C1
100
AcDbEntity
  8
0
100
AcDbLine
 62
7
  6
CONTINUOUS
 10
65.3389143707
 20
49.9301682037
 11
66.1889143189
 21
49.9298714513
  0
LINE
  5
2C2
100
AcDbEntity
  8
0
100
AcDbLine
 62
7
  6
CONTINUOUS
 10
67.5889142336
 20
49.9293826827
 11
68.4389141818
 21
49.9290859303
  0
LINE
  5
2C3
100
AcDbEntity
  8
0
100
AcDbLine
 62
7
  6
CONTINUOUS
 10
68.8389141574
 20
49.9289462821
 11
69.6889141056
 21
49.9286495297
  0
LINE
  5
2C4
100
AcDbEntity
  8
0
100
AcDbLine
 62
7
  6
CONTINUOUS
 10
71.0889140203
 20
49.9281607611
 11
71.9389139685
 21
49.9278640087
  0
LINE
  5
2C5
100
AcDbEntity
  8
0
100
AcDbLine
 62
7
  6
CONTINUOUS
 10
72.3389139441
 20
49.9277243605
 11
73.1889138923
 21
49.9274276081
  0
LINE
  5
2C6
100
AcDbEntity
  8
0
100
AcDbLine
 62
7
  6
CONTINUOUS
 10
74.588913807
 20
49.9269388394
 11
75.4389137552
 21
49.9266420871
  0
LINE
  5
2C7
100
AcDbEntity
  8
0
100
AcDbLine
 62
7
  6
CONTINUOUS
 10
75.8389137308
 20
49.9265024389
 11
76.688913679
 21
49.9262056865
  0
LINE
  5
2C8
100
AcDbEntity
  8
0
100
AcDbLine
 62
7
  6
CONTINUOUS
 10
78.0889135937
 20
49.9257169178
 11
79.1389119211
 21
49.9253503419
  0
LINE
  5
2C9
100
AcDbEntity
  8
0
100
AcDbLine
 62
7
  6
CONTINUOUS
 10
33.6141160744
 20
50.575524862
 11
33.0641161079
 21
50.5757168782
  0
LINE
  5
2CA
100
AcDbEntity
  8
0
100
AcDbLine
 62
7
  6
CONTINUOUS
 10
31.6641161932
 20
50.5762056469
 11
31.1141162267
 21
50.5763976631
  0
LINE
  5
2CB
100
AcDbEntity
  8
0
100
AcDbLine
 62
7
  6
CONTINUOUS
 10
30.1141162876
 20
50.5767467836
 11
29.5641163212
 21
50.5769387998
  0
LINE
  5
2CC
100
AcDbEntity
  8
0
100
AcDbLine
 62
7
  6
CONTINUOUS
 10
28.1641164065
 20
50.5774275685
 11
27.61411644
 21
50.5776195847
  0
LINE
  5
2CD
100
AcDbEntity
  8
0
100
AcDbLine
 62
7
  6
CONTINUOUS
 10
26.6141165009
 20
50.5779687052
 11
26.0641165345
 21
50.5781607214
  0
LINE
  5
2CE
100
AcDbEntity
  8
0
100
AcDbLine
 62
7
  6
CONTINUOUS
 10
24.6641166198
 20
50.5786494901
 11
24.1141166533
 21
50.5788415063
  0
LINE
  5
2CF
100
AcDbEntity
  8
0
100
AcDbLine
 62
7
  6
CONTINUOUS
 10
23.1141167142
 20
50.5791906268
 11
22.5641167478
 21
50.5793826431
  0
LINE
  5
2D0
100
AcDbEntity
  8
0
100
AcDbLine
 62
7
  6
CONTINUOUS
 10
21.1641168331
 20
50.5798714117
 11
20.6141168666
 21
50.580063428
  0
LINE
  5
2D1
100
AcDbEntity
  8
0
100
AcDbLine
 62
7
  6
CONTINUOUS
 10
19.614115796
 20
50.5804125488
 11
19.0641158295
 21
50.5806045651
  0
LINE
  5
2D2
100
AcDbEntity
  8
0
100
AcDbLine
 62
7
  6
CONTINUOUS
 10
17.6641159149
 20
50.5810933337
 11
17.1141159484
 21
50.58128535
  0
LINE
  5
2D3
100
AcDbEntity
  8
0
100
AcDbLine
 62
7
  6
CONTINUOUS
 10
16.1141155323
 20
50.5816344706
 11
15.5641155658
 21
50.5818264868
  0
LINE
  5
2D4
100
AcDbEntity
  8
0
100
AcDbLine
 62
7
  6
CONTINUOUS
 10
14.1641156511
 20
50.5823152555
 11
13.6141156846
 21
50.5825072717
  0
LINE
  5
2D5
100
AcDbEntity
  8
0
100
AcDbLine
 62
7
  6
CONTINUOUS
 10
57.6391404884
 20
50.5767338826
 11
57.089140522
 21
50.5769258988
  0
LINE
  5
2D6
100
AcDbEntity
  8
0
100
AcDbLine
 62
7
  6
CONTINUOUS
 10
55.6891406073
 20
50.5774146675
 11
55.1391406408
 21
50.5776066837
  0
LINE
  5
2D7
100
AcDbEntity
  8
0
100
AcDbLine
 62
7
  6
CONTINUOUS
 10
54.1391407017
 20
50.5779558042
 11
53.5891395463
 21
50.5781478209
  0
LINE
  5
2D8
100
AcDbEntity
  8
0
100
AcDbLine
 62
7
  6
CONTINUOUS
 10
52.1891408206
 20
50.5786365891
 11
51.6391408541
 21
50.5788286054
  0
LINE
  5
2D9
100
AcDbEntity
  8
0
100
AcDbLine
 62
7
  6
CONTINUOUS
 10
50.639140915
 20
50.5791777258
 11
50.0891409486
 21
50.5793697421
  0
LINE
  5
2DA
100
AcDbEntity
  8
0
100
AcDbLine
 62
7
  6
CONTINUOUS
 10
48.6891410339
 20
50.5798585107
 11
48.1391410674
 21
50.580050527
  0
LINE
  5
2DB
100
AcDbEntity
  8
0
100
AcDbLine
 62
7
  6
CONTINUOUS
 10
47.1391399968
 20
50.5803996478
 11
46.5891400303
 21
50.5805916641
  0
LINE
  5
2DC
100
AcDbEntity
  8
0
100
AcDbLine
 62
7
  6
CONTINUOUS
 10
45.1891401157
 20
50.5810804327
 11
44.6391401492
 21
50.581272449
  0
LINE
  5
2DD
100
AcDbEntity
  8
0
100
AcDbLine
 62
7
  6
CONTINUOUS
 10
43.6391397331
 20
50.5816215696
 11
43.0891397666
 21
50.5818135859
  0
LINE
  5
2DE
100
AcDbEntity
  8
0
100
AcDbLine
 62
7
  6
CONTINUOUS
 10
41.6891398519
 20
50.5823023545
 11
41.1391398854
 21
50.5824943708
  0
LINE
  5
2DF
100
AcDbEntity
  8
0
100
AcDbLine
 62
7
  6
CONTINUOUS
 10
78.6391404885
 20
50.575524862
 11
78.089140522
 21
50.5757168782
  0
LINE
  5
2E0
100
AcDbEntity
  8
0
100
AcDbLine
 62
7
  6
CONTINUOUS
 10
76.6891406073
 20
50.5762056469
 11
76.1391406408
 21
50.5763976631
  0
LINE
  5
2E1
100
AcDbEntity
  8
0
100
AcDbLine
 62
7
  6
CONTINUOUS
 10
75.1391407017
 20
50.5767467836
 11
74.5891407353
 21
50.5769387998
  0
LINE
  5
2E2
100
AcDbEntity
  8
0
100
AcDbLine
 62
7
  6
CONTINUOUS
 10
73.1891408206
 20
50.5774275685
 11
72.6391408541
 21
50.5776195847
  0
LINE
  5
2E3
100
AcDbEntity
  8
0
100
AcDbLine
 62
7
  6
CONTINUOUS
 10
71.639140915
 20
50.5779687052
 11
71.0891409486
 21
50.5781607214
  0
LINE
  5
2E4
100
AcDbEntity
  8
0
100
AcDbLine
 62
7
  6
CONTINUOUS
 10
69.6891410339
 20
50.5786494901
 11
69.1391410674
 21
50.5788415063
  0
LINE
  5
2E5
100
AcDbEntity
  8
0
100
AcDbLine
 62
7
  6
CONTINUOUS
 10
68.1391411283
 20
50.5791906268
 11
67.5891411619
 21
50.5793826431
  0
LINE
  5
2E6
100
AcDbEntity
  8
0
100
AcDbLine
 62
7
  6
CONTINUOUS
 10
66.1891412472
 20
50.5798714117
 11
65.6391412807
 21
50.580063428
  0
LINE
  5
2E7
100
AcDbEntity
  8
0
100
AcDbLine
 62
7
  6
CONTINUOUS
 10
64.6391402101
 20
50.5804125488
 11
64.0891402436
 21
50.5806045651
  0
LINE
  5
2E8
100
AcDbEntity
  8
0
100
AcDbLine
 62
7
  6
CONTINUOUS
 10
62.689140329
 20
50.5810933337
 11
62.1391403625
 21
50.58128535
  0
LINE
  5
2E9
100
AcDbEntity
  8
0
100
AcDbLine
 62
7
  6
CONTINUOUS
 10
61.1391399464
 20
50.5816344706
 11
60.5891399799
 21
50.5818264868
  0
LINE
  5
2EA
100
AcDbEntity
  8
0
100
AcDbLine
 62
7
  6
CONTINUOUS
 10
59.1891400652
 20
50.5823152555
 11
58.6391400987
 21
50.5825072717
  0
LINE
  5
2EB
100
AcDbEntity
  8
0
100
AcDbLine
 62
7
  6
CONTINUOUS
 10
13.6143426129
 20
51.2325072321
 11
16.1143424606
 21
51.231634431
  0
LINE
  5
2EC
100
AcDbEntity
  8
0
100
AcDbLine
 62
7
  6
CONTINUOUS
 10
17.1143428767
 20
51.2312853104
 11
19.6143427243
 21
51.2304125092
  0
LINE
  5
2ED
100
AcDbEntity
  8
0
100
AcDbLine
 62
7
  6
CONTINUOUS
 10
20.6143437949
 20
51.2300633883
 11
23.1143436425
 21
51.2291905872
  0
LINE
  5
2EE
100
AcDbEntity
  8
0
100
AcDbLine
 62
7
  6
CONTINUOUS
 10
24.1143435816
 20
51.2288414667
 11
26.6143434292
 21
51.2279686656
  0
LINE
  5
2EF
100
AcDbEntity
  8
0
100
AcDbLine
 62
7
  6
CONTINUOUS
 10
27.6143433683
 20
51.2276195451
 11
30.1143432159
 21
51.226746744
  0
LINE
  5
2F0
100
AcDbEntity
  8
0
100
AcDbLine
 62
7
  6
CONTINUOUS
 10
31.114343155
 20
51.2263976235
 11
33.6143430027
 21
51.2255248224
  0
LINE
  5
2F1
100
AcDbEntity
  8
0
100
AcDbLine
 62
7
  6
CONTINUOUS
 10
41.1393668137
 20
51.2324943311
 11
43.6393666614
 21
51.23162153
  0
LINE
  5
2F2
100
AcDbEntity
  8
0
100
AcDbLine
 62
7
  6
CONTINUOUS
 10
44.6393670775
 20
51.2312724094
 11
47.1393669251
 21
51.2303996082
  0
LINE
  5
2F3
100
AcDbEntity
  8
0
100
AcDbLine
 62
7
  6
CONTINUOUS
 10
48.1393679957
 20
51.2300504874
 11
50.6393678433
 21
51.2291776862
  0
LINE
  5
2F4
100
AcDbEntity
  8
0
100
AcDbLine
 62
7
  6
CONTINUOUS
 10
51.6393677824
 20
51.2288285657
 11
54.13936763
 21
51.2279557646
  0
LINE
  5
2F5
100
AcDbEntity
  8
0
100
AcDbLine
 62
7
  6
CONTINUOUS
 10
55.1393675691
 20
51.2276066441
 11
57.6393674167
 21
51.226733843
  0
LINE
  5
2F6
100
AcDbEntity
  8
0
100
AcDbLine
 62
7
  6
CONTINUOUS
 10
58.639367027
 20
51.2325072321
 11
61.1393668747
 21
51.231634431
  0
LINE
  5
2F7
100
AcDbEntity
  8
0
100
AcDbLine
 62
7
  6
CONTINUOUS
 10
62.1393672908
 20
51.2312853104
 11
64.6393671384
 21
51.2304125092
  0
LINE
  5
2F8
100
AcDbEntity
  8
0
100
AcDbLine
 62
7
  6
CONTINUOUS
 10
65.639368209
 20
51.2300633883
 11
68.1393680566
 21
51.2291905872
  0
LINE
  5
2F9
100
AcDbEntity
  8
0
100
AcDbLine
 62
7
  6
CONTINUOUS
 10
69.1393679957
 20
51.2288414667
 11
71.6393678433
 21
51.2279686656
  0
LINE
  5
2FA
100
AcDbEntity
  8
0
100
AcDbLine
 62
7
  6
CONTINUOUS
 10
72.6393677824
 20
51.2276195451
 11
75.13936763
 21
51.226746744
  0
LINE
  5
2FB
100
AcDbEntity
  8
0
100
AcDbLine
 62
7
  6
CONTINUOUS
 10
76.1393675691
 20
51.2263976235
 11
78.6393674168
 21
51.2255248224
  0
LINE
  5
2FC
100
AcDbEntity
  8
0
100
AcDbLine
 62
7
  6
CONTINUOUS
 10
35.1628837394
 20
53.4266056573
 11
35.1628837394
 21
44.8669302373
  0
LINE
  5
2FD
100
AcDbEntity
  8
0
100
AcDbLine
 62
7
  6
CONTINUOUS
 10
34.7134676922
 20
48.7215511039
 11
34.712876694
 21
47.0287308841
  0
LINE
  5
2FE
100
AcDbEntity
  8
0
100
AcDbLine
 62
7
  6
CONTINUOUS
 10
12.1628837394
 20
53.4266056573
 11
35.1628837394
 21
53.4266056573
  0
LINE
  5
2FF
100
AcDbEntity
  8
0
100
AcDbLine
 62
7
  6
CONTINUOUS
 10
39.8628837394
 20
53.4266056573
 11
80.5628837394
 21
53.4266056573
  0
LINE
  5
300
100
AcDbEntity
  8
0
100
AcDbLine
 62
7
  6
CONTINUOUS
 10
34.114655572
 20
52.1253502078
 11
13.1146568518
 21
52.1326817375
  0
LINE
  5
301
100
AcDbEntity
  8
0
100
AcDbLine
 62
7
  6
CONTINUOUS
 10
58.1396810585
 20
52.1265592281
 11
40.6396810526
 21
52.1326688365
  0
LINE
  5
302
100
AcDbEntity
  8
0
100
AcDbLine
 62
7
  6
CONTINUOUS
 10
79.1396799861
 20
52.1253502078
 11
58.1396812659
 21
52.1326817375
  0
LINE
  5
303
100
AcDbEntity
  8
0
100
AcDbLine
 62
7
  6
CONTINUOUS
 10
38.8128837394
 20
38.4266056573
 11
38.8128837394
 21
34.6620015503
  0
LINE
  5
304
100
AcDbEntity
  8
0
100
AcDbLine
 62
7
  6
CONTINUOUS
 10
39.8628837394
 20
44.8669302373
 11
39.8628837394
 21
53.4266056573
  0
LINE
  5
305
100
AcDbEntity
  8
0
100
AcDbLine
 62
7
  6
CONTINUOUS
 10
40.6371499293
 20
44.8826692784
 11
40.6396810526
 21
52.1326688365
  0
LINE
  5
306
100
AcDbEntity
  8
0
100
AcDbLine
 62
7
  6
CONTINUOUS
 10
58.138021664
 20
47.3765597598
 11
58.7379011081
 21
47.0299399047
  0
LINE
  5
307
100
AcDbEntity
  8
0
100
AcDbLine
 62
7
  6
CONTINUOUS
 10
40.8128837394
 20
33.4266056573
 11
40.8128837394
 21
35.9266056573
  0
LINE
  5
308
100
AcDbEntity
  8
0
100
AcDbLine
 62
7
  6
CONTINUOUS
 10
41.5628837394
 20
81.9266056573
 11
41.5628837394
 21
53.4266056573
  0
LINE
  5
309
100
AcDbEntity
  8
0
100
AcDbLine
 62
7
  6
CONTINUOUS
 10
41.5628837394
 20
33.4266056573
 11
41.5628837394
 21
37.0766056573
  0
LINE
  5
30A
100
AcDbEntity
  8
0
100
AcDbLine
 62
7
  6
CONTINUOUS
 10
42.4128845779
 20
63.1015260154
 11
42.4128844345
 21
64.7418503954
  0
LINE
  5
30B
100
AcDbEntity
  8
0
100
AcDbLine
 62
7
  6
CONTINUOUS
 10
43.5628837394
 20
81.9266056573
 11
43.5628837394
 21
77.0266056573
  0
LINE
  5
30C
100
AcDbEntity
  8
0
100
AcDbLine
 62
7
  6
CONTINUOUS
 10
41.1391398854
 20
50.5824943708
 11
41.1393668137
 21
51.2324943311
  0
LINE
  5
30D
100
AcDbEntity
  8
0
100
AcDbLine
 62
7
  6
CONTINUOUS
 10
41.2384931728
 20
48.7288697326
 11
41.2379021746
 21
47.0360495128
  0
LINE
  5
30E
100
AcDbEntity
  8
0
100
AcDbLine
 62
7
  6
CONTINUOUS
 10
41.6889129236
 20
49.9323023941
 11
41.6891398519
 21
50.5823023545
  0
LINE
  5
30F
100
AcDbEntity
  8
0
100
AcDbLine
 62
7
  6
CONTINUOUS
 10
41.9880579304
 20
47.4821978071
 11
41.9883372267
 21
48.2821977583
  0
LINE
  5
310
100
AcDbEntity
  8
0
100
AcDbLine
 62
7
  6
CONTINUOUS
 10
42.788337178
 20
48.281918462
 11
42.7880578816
 21
47.4819185107
  0
LINE
  5
311
100
AcDbEntity
  8
0
100
AcDbLine
 62
7
  6
CONTINUOUS
 10
43.0891397666
 20
50.5818135859
 11
43.0889128383
 21
49.9318136255
  0
LINE
  5
312
100
AcDbEntity
  8
0
100
AcDbLine
 62
7
  6
CONTINUOUS
 10
43.4121845548
 20
64.7575893927
 11
43.4147150443
 21
72.0075889511
  0
LINE
  5
313
100
AcDbEntity
  8
0
100
AcDbLine
 62
7
  6
CONTINUOUS
 10
43.6393666614
 20
51.23162153
 11
43.6391397331
 21
50.5816215696
  0
LINE
  5
314
100
AcDbEntity
  8
0
100
AcDbLine
 62
7
  6
CONTINUOUS
 10
43.4134061706
 20
68.2575895313
 11
44.0135274623
 21
68.603790494
  0
LINE
  5
315
100
AcDbEntity
  8
0
100
AcDbLine
 62
7
  6
CONTINUOUS
 10
80.5628837394
 20
60.0266056573
 11
41.5628837394
 21
60.0266056573
  0
LINE
  5
316
100
AcDbEntity
  8
0
100
AcDbLine
 62
7
  6
CONTINUOUS
 10
45.5628837394
 20
77.0266056573
 11
45.5628837394
 21
81.9266056573
  0
LINE
  5
317
100
AcDbEntity
  8
0
100
AcDbLine
 62
7
  6
CONTINUOUS
 10
43.9141740127
 20
70.457414529
 11
43.9144008841
 21
71.1074144894
  0
LINE
  5
318
100
AcDbEntity
  8
0
100
AcDbLine
 62
7
  6
CONTINUOUS
 10
43.9389127865
 20
49.9315168731
 11
43.9374115685
 21
45.6315171351
  0
LINE
  5
319
100
AcDbEntity
  8
0
100
AcDbLine
 62
7
  6
CONTINUOUS
 10
44.0135274623
 20
68.603790494
 11
44.0129366121
 21
66.9109702741
  0
LINE
  5
31A
100
AcDbEntity
  8
0
100
AcDbLine
 62
7
  6
CONTINUOUS
 10
44.3374120212
 20
45.6313774868
 11
44.3389132392
 21
49.9313772247
  0
LINE
  5
31B
100
AcDbEntity
  8
0
100
AcDbLine
 62
7
  6
CONTINUOUS
 10
44.4639471077
 20
69.8072226004
 11
44.4641739792
 21
70.4572225608
  0
LINE
  5
31C
100
AcDbEntity
  8
0
100
AcDbLine
 62
7
  6
CONTINUOUS
 10
44.6391401492
 20
50.581272449
 11
44.6393670775
 21
51.2312724094
  0
LINE
  5
31D
100
AcDbEntity
  8
0
100
AcDbLine
 62
7
  6
CONTINUOUS
 10
44.7630923287
 20
67.3571181444
 11
44.7633715551
 21
68.1571180957
  0
LINE
  5
31E
100
AcDbEntity
  8
0
100
AcDbLine
 62
7
  6
CONTINUOUS
 10
45.1889131874
 20
49.9310804723
 11
45.1891401157
 21
50.5810804327
  0
LINE
  5
31F
100
AcDbEntity
  8
0
100
AcDbLine
 62
7
  6
CONTINUOUS
 10
45.4880577171
 20
47.4809758855
 11
45.4883370134
 21
48.2809758367
  0
LINE
  5
320
100
AcDbEntity
  8
0
100
AcDbLine
 62
7
  6
CONTINUOUS
 10
45.5633715064
 20
68.1568388693
 11
45.5630922799
 21
67.356838918
  0
LINE
  5
321
100
AcDbEntity
  8
0
100
AcDbLine
 62
7
  6
CONTINUOUS
 10
45.8641738939
 20
70.4567339146
 11
45.8639470224
 21
69.8067339541
  0
LINE
  5
322
100
AcDbEntity
  8
0
100
AcDbLine
 62
7
  6
CONTINUOUS
 10
46.2883369647
 20
48.2806965403
 11
46.2880576683
 21
47.4806965891
  0
LINE
  5
323
100
AcDbEntity
  8
0
100
AcDbLine
 62
7
  6
CONTINUOUS
 10
46.4144007319
 20
71.1065419068
 11
46.4141738604
 21
70.4565419464
  0
LINE
  5
324
100
AcDbEntity
  8
0
100
AcDbLine
 62
7
  6
CONTINUOUS
 10
46.5891400303
 20
50.5805916641
 11
46.588913102
 21
49.9305917037
  0
LINE
  5
325
100
AcDbEntity
  8
0
100
AcDbLine
 62
7
  6
CONTINUOUS
 10
46.7139469706
 20
69.8064372761
 11
46.7124461286
 21
65.506437538
  0
LINE
  5
326
100
AcDbEntity
  8
0
100
AcDbLine
 62
7
  6
CONTINUOUS
 10
80.4128822379
 20
63.1015293375
 11
42.4128845779
 21
63.1015260154
  0
LINE
  5
327
100
AcDbEntity
  8
0
100
AcDbLine
 62
7
  6
CONTINUOUS
 10
47.5628837394
 20
81.9266056573
 11
47.5628837394
 21
77.0266056573
  0
LINE
  5
328
100
AcDbEntity
  8
0
100
AcDbLine
 62
7
  6
CONTINUOUS
 10
49.5628837394
 20
77.0266056573
 11
49.5628837394
 21
81.9266056573
  0
LINE
  5
329
100
AcDbEntity
  8
0
100
AcDbLine
 62
7
  6
CONTINUOUS
 10
47.1124465813
 20
65.5062979246
 11
47.1139474233
 21
69.8062976627
  0
LINE
  5
32A
100
AcDbEntity
  8
0
100
AcDbLine
 62
7
  6
CONTINUOUS
 10
47.1393669251
 20
51.2303996082
 11
47.1391399968
 21
50.5803996478
  0
LINE
  5
32B
100
AcDbEntity
  8
0
100
AcDbLine
 62
7
  6
CONTINUOUS
 10
47.4141742765
 20
70.4561929132
 11
47.414401148
 21
71.1061928736
  0
LINE
  5
32C
100
AcDbEntity
  8
0
100
AcDbLine
 62
7
  6
CONTINUOUS
 10
47.4389141818
 20
49.9302949509
 11
47.4374129638
 21
45.630295213
  0
LINE
  5
32D
100
AcDbEntity
  8
0
100
AcDbLine
 62
7
  6
CONTINUOUS
 10
47.8374129394
 20
45.6301555648
 11
47.8389141574
 21
49.9301553027
  0
LINE
  5
32E
100
AcDbEntity
  8
0
100
AcDbLine
 62
7
  6
CONTINUOUS
 10
47.9639473716
 20
69.8060009846
 11
47.964174243
 21
70.456000945
  0
LINE
  5
32F
100
AcDbEntity
  8
0
100
AcDbLine
 62
7
  6
CONTINUOUS
 10
48.1391410674
 20
50.580050527
 11
48.1393679957
 21
51.2300504874
  0
LINE
  5
330
100
AcDbEntity
  8
0
100
AcDbLine
 62
7
  6
CONTINUOUS
 10
48.2630921155
 20
67.3558965288
 11
48.2633713419
 21
68.1558964801
  0
LINE
  5
331
100
AcDbEntity
  8
0
100
AcDbLine
 62
7
  6
CONTINUOUS
 10
48.6889141056
 20
49.9298585503
 11
48.6891410339
 21
50.5798585107
  0
LINE
  5
332
100
AcDbEntity
  8
0
100
AcDbLine
 62
7
  6
CONTINUOUS
 10
48.9880583761
 20
47.4797539636
 11
48.9883376724
 21
48.2797539148
  0
LINE
  5
333
100
AcDbEntity
  8
0
100
AcDbLine
 62
7
  6
CONTINUOUS
 10
49.0633712932
 20
68.1556172536
 11
49.0630920668
 21
67.3556173024
  0
LINE
  5
334
100
AcDbEntity
  8
0
100
AcDbLine
 62
7
  6
CONTINUOUS
 10
49.3641741578
 20
70.4555122988
 11
49.3639472863
 21
69.8055123383
  0
LINE
  5
335
100
AcDbEntity
  8
0
100
AcDbLine
 62
7
  6
CONTINUOUS
 10
49.7883376237
 20
48.2794746184
 11
49.7880583273
 21
47.4794746672
  0
LINE
  5
336
100
AcDbEntity
  8
0
100
AcDbLine
 62
7
  6
CONTINUOUS
 10
49.9144009957
 20
71.105320291
 11
49.9141741243
 21
70.4553203306
  0
LINE
  5
337
100
AcDbEntity
  8
0
100
AcDbLine
 62
7
  6
CONTINUOUS
 10
50.0891409486
 20
50.5793697421
 11
50.0889140203
 21
49.9293697817
  0
LINE
  5
338
100
AcDbEntity
  8
0
100
AcDbLine
 62
7
  6
CONTINUOUS
 10
42.4128844345
 20
64.7418503954
 11
80.4128820945
 21
64.7418537175
  0
LINE
  5
339
100
AcDbEntity
  8
0
100
AcDbLine
 62
7
  6
CONTINUOUS
 10
82.5628837394
 20
66.8314785398
 11
80.5628837394
 21
66.8314785398
  0
LINE
  5
33A
100
AcDbEntity
  8
0
100
AcDbLine
 62
7
  6
CONTINUOUS
 10
60.9121834888
 20
64.7514813145
 11
43.4121845548
 21
64.7575893927
  0
LINE
  5
33B
100
AcDbEntity
  8
0
100
AcDbLine
 62
7
  6
CONTINUOUS
 10
78.4121834888
 20
64.7514828444
 11
60.9121845548
 21
64.7575909226
  0
LINE
  5
33C
100
AcDbEntity
  8
0
100
AcDbLine
 62
7
  6
CONTINUOUS
 10
58.2459318956
 20
65.5024119702
 11
57.6124470732
 21
65.5026330773
  0
LINE
  5
33D
100
AcDbEntity
  8
0
100
AcDbLine
 62
7
  6
CONTINUOUS
 10
57.2124470976
 20
65.5027726905
 11
56.5789622752
 21
65.5029937977
  0
LINE
  5
33E
100
AcDbEntity
  8
0
100
AcDbLine
 62
7
  6
CONTINUOUS
 10
54.7459321088
 20
65.5036335858
 11
54.1124472864
 21
65.5038546929
  0
LINE
  5
33F
100
AcDbEntity
  8
0
100
AcDbLine
 62
7
  6
CONTINUOUS
 10
53.7124473108
 20
65.5039943062
 11
53.0789624883
 21
65.5042154133
  0
LINE
  5
340
100
AcDbEntity
  8
0
100
AcDbLine
 62
7
  6
CONTINUOUS
 10
51.245932322
 20
65.5048552014
 11
50.6124474996
 21
65.5050763086
  0
LINE
  5
341
100
AcDbEntity
  8
0
100
AcDbLine
 62
7
  6
CONTINUOUS
 10
47.7459314037
 20
65.5060768175
 11
47.1124465813
 21
65.5062979246
  0
LINE
  5
342
100
AcDbEntity
  8
0
100
AcDbLine
 62
7
  6
CONTINUOUS
 10
46.7124461286
 20
65.506437538
 11
46.0789613062
 21
65.5066586451
  0
LINE
  5
343
100
AcDbEntity
  8
0
100
AcDbLine
 62
7
  6
CONTINUOUS
 10
44.2459311398
 20
65.5072984333
 11
43.4124463296
 21
65.507589347
  0
LINE
  5
344
100
AcDbEntity
  8
0
100
AcDbLine
 62
7
  6
CONTINUOUS
 10
49.5789618396
 20
65.5054370292
 11
50.212447524
 21
65.5052159218
  0
LINE
  5
345
100
AcDbEntity
  8
0
100
AcDbLine
 62
7
  6
CONTINUOUS
 10
60.078962062
 20
65.501772182
 11
60.9124452636
 21
65.5014812688
  0
LINE
  5
346
100
AcDbEntity
  8
0
100
AcDbLine
 62
7
  6
CONTINUOUS
 10
75.7459318956
 20
65.5024135001
 11
75.1124470732
 21
65.5026346072
  0
LINE
  5
347
100
AcDbEntity
  8
0
100
AcDbLine
 62
7
  6
CONTINUOUS
 10
74.7124470976
 20
65.5027742204
 11
74.0789622752
 21
65.5029953276
  0
LINE
  5
348
100
AcDbEntity
  8
0
100
AcDbLine
 62
7
  6
CONTINUOUS
 10
72.2459321088
 20
65.5036351157
 11
71.6124472864
 21
65.5038562228
  0
LINE
  5
349
100
AcDbEntity
  8
0
100
AcDbLine
 62
7
  6
CONTINUOUS
 10
71.2124473108
 20
65.5039958361
 11
70.5789624883
 21
65.5042169432
  0
LINE
  5
34A
100
AcDbEntity
  8
0
100
AcDbLine
 62
7
  6
CONTINUOUS
 10
68.745932322
 20
65.5048567313
 11
68.1124474996
 21
65.5050778385
  0
LINE
  5
34B
100
AcDbEntity
  8
0
100
AcDbLine
 62
7
  6
CONTINUOUS
 10
65.2459314037
 20
65.5060783474
 11
64.6124465813
 21
65.5062994545
  0
LINE
  5
34C
100
AcDbEntity
  8
0
100
AcDbLine
 62
7
  6
CONTINUOUS
 10
64.2124461286
 20
65.5064390679
 11
63.5789613062
 21
65.506660175
  0
LINE
  5
34D
100
AcDbEntity
  8
0
100
AcDbLine
 62
7
  6
CONTINUOUS
 10
61.7459311398
 20
65.5072999632
 11
60.9124463296
 21
65.5075908769
  0
LINE
  5
34E
100
AcDbEntity
  8
0
100
AcDbLine
 62
7
  6
CONTINUOUS
 10
67.0789618396
 20
65.5054385591
 11
67.712447524
 21
65.5052174517
  0
LINE
  5
34F
100
AcDbEntity
  8
0
100
AcDbLine
 62
7
  6
CONTINUOUS
 10
77.578962062
 20
65.5017737119
 11
78.4124452636
 21
65.5014827987
  0
LINE
  5
350
100
AcDbEntity
  8
0
100
AcDbLine
 62
7
  6
CONTINUOUS
 10
59.5630922995
 20
67.3519524552
 11
58.7630923482
 21
67.3522316816
  0
LINE
  5
351
100
AcDbEntity
  8
0
100
AcDbLine
 62
7
  6
CONTINUOUS
 10
56.0630925127
 20
67.3531740708
 11
55.2630925614
 21
67.3534532972
  0
LINE
  5
352
100
AcDbEntity
  8
0
100
AcDbLine
 62
7
  6
CONTINUOUS
 10
52.5630927259
 20
67.3543956864
 11
51.7630927746
 21
67.3546749129
  0
LINE
  5
353
100
AcDbEntity
  8
0
100
AcDbLine
 62
7
  6
CONTINUOUS
 10
49.0630920668
 20
67.3556173024
 11
48.2630921155
 21
67.3558965288
  0
LINE
  5
354
100
AcDbEntity
  8
0
100
AcDbLine
 62
7
  6
CONTINUOUS
 10
45.5630922799
 20
67.356838918
 11
44.7630923287
 21
67.3571181444
  0
LINE
  5
355
100
AcDbEntity
  8
0
100
AcDbLine
 62
7
  6
CONTINUOUS
 10
77.0630922995
 20
67.3519539851
 11
76.2630923482
 21
67.3522332115
  0
LINE
  5
356
100
AcDbEntity
  8
0
100
AcDbLine
 62
7
  6
CONTINUOUS
 10
73.5630925127
 20
67.3531756007
 11
72.7630925614
 21
67.3534548271
  0
LINE
  5
357
100
AcDbEntity
  8
0
100
AcDbLine
 62
7
  6
CONTINUOUS
 10
70.0630927259
 20
67.3543972163
 11
69.2630927746
 21
67.3546764428
  0
LINE
  5
358
100
AcDbEntity
  8
0
100
AcDbLine
 62
7
  6
CONTINUOUS
 10
66.5630920668
 20
67.3556188323
 11
65.7630921155
 21
67.3558980587
  0
LINE
  5
359
100
AcDbEntity
  8
0
100
AcDbLine
 62
7
  6
CONTINUOUS
 10
63.0630922799
 20
67.3568404479
 11
62.2630923287
 21
67.3571196743
  0
LINE
  5
35A
100
AcDbEntity
  8
0
100
AcDbLine
 62
7
  6
CONTINUOUS
 10
44.0129366121
 20
66.9109702741
 11
43.4130571377
 21
67.2575900767
  0
LINE
  5
35B
100
AcDbEntity
  8
0
100
AcDbLine
 62
7
  6
CONTINUOUS
 10
79.138021664
 20
47.3753507392
 11
79.7379011081
 21
47.0287308841
  0
LINE
  5
35C
100
AcDbEntity
  8
0
100
AcDbLine
 62
7
  6
CONTINUOUS
 10
51.5628837394
 20
81.9266056573
 11
51.5628837394
 21
77.0266056573
  0
LINE
  5
35D
100
AcDbEntity
  8
0
100
AcDbLine
 62
7
  6
CONTINUOUS
 10
51.5628837394
 20
37.0766056573
 11
51.5628837394
 21
33.4266056573
  0
LINE
  5
35E
100
AcDbEntity
  8
0
100
AcDbLine
 62
7
  6
CONTINUOUS
 10
52.3128837394
 20
33.4266056573
 11
52.3128837394
 21
35.9266056573
  0
LINE
  5
35F
100
AcDbEntity
  8
0
100
AcDbLine
 62
7
  6
CONTINUOUS
 10
50.213948366
 20
69.8052156599
 11
50.212447524
 21
65.5052159218
  0
LINE
  5
360
100
AcDbEntity
  8
0
100
AcDbLine
 62
7
  6
CONTINUOUS
 10
50.6124474996
 20
65.5050763086
 11
50.6139483417
 21
69.8050760467
  0
LINE
  5
361
100
AcDbEntity
  8
0
100
AcDbLine
 62
7
  6
CONTINUOUS
 10
50.6393678433
 20
51.2291776862
 11
50.639140915
 21
50.5791777258
  0
LINE
  5
362
100
AcDbEntity
  8
0
100
AcDbLine
 62
7
  6
CONTINUOUS
 10
50.9141751949
 20
70.4549712971
 11
50.9144020663
 21
71.1049712576
  0
LINE
  5
363
100
AcDbEntity
  8
0
100
AcDbLine
 62
7
  6
CONTINUOUS
 10
50.9389139685
 20
49.9290730293
 11
50.9374127505
 21
45.6290732913
  0
LINE
  5
364
100
AcDbEntity
  8
0
100
AcDbLine
 62
7
  6
CONTINUOUS
 10
51.3374127261
 20
45.6289336432
 11
51.3389139441
 21
49.9289333811
  0
LINE
  5
365
100
AcDbEntity
  8
0
100
AcDbLine
 62
7
  6
CONTINUOUS
 10
51.4639482899
 20
69.8047793686
 11
51.4641751614
 21
70.454779329
  0
LINE
  5
366
100
AcDbEntity
  8
0
100
AcDbLine
 62
7
  6
CONTINUOUS
 10
51.6391408541
 20
50.5788286054
 11
51.6393677824
 21
51.2288285657
  0
LINE
  5
367
100
AcDbEntity
  8
0
100
AcDbLine
 62
7
  6
CONTINUOUS
 10
51.7630927746
 20
67.3546749129
 11
51.763372001
 21
68.1546748641
  0
LINE
  5
368
100
AcDbEntity
  8
0
100
AcDbLine
 62
7
  6
CONTINUOUS
 10
52.1889138923
 20
49.9286366287
 11
52.1891408206
 21
50.5786365891
  0
LINE
  5
369
100
AcDbEntity
  8
0
100
AcDbLine
 62
7
  6
CONTINUOUS
 10
52.4880581628
 20
47.4785320419
 11
52.4883374591
 21
48.2785319932
  0
LINE
  5
36A
100
AcDbEntity
  8
0
100
AcDbLine
 62
7
  6
CONTINUOUS
 10
52.5633719523
 20
68.1543956377
 11
52.5630927259
 21
67.3543956864
  0
LINE
  5
36B
100
AcDbEntity
  8
0
100
AcDbLine
 62
7
  6
CONTINUOUS
 10
52.8641750761
 20
70.4542906827
 11
52.8639482046
 21
69.8042907223
  0
LINE
  5
36C
100
AcDbEntity
  8
0
100
AcDbLine
 62
7
  6
CONTINUOUS
 10
53.2883374104
 20
48.2782526968
 11
53.288058114
 21
47.4782527456
  0
LINE
  5
36D
100
AcDbEntity
  8
0
100
AcDbLine
 62
7
  6
CONTINUOUS
 10
60.9134061706
 20
68.2575910612
 11
61.5135274623
 21
68.6037920239
  0
LINE
  5
36E
100
AcDbEntity
  8
0
100
AcDbLine
 62
7
  6
CONTINUOUS
 10
61.5135263964
 20
68.5976824158
 11
60.9134051046
 21
68.2514814531
  0
LINE
  5
36F
100
AcDbEntity
  8
0
100
AcDbLine
 62
7
  6
CONTINUOUS
 10
44.7633715551
 20
68.1571180957
 11
45.5633715064
 21
68.1568388693
  0
LINE
  5
370
100
AcDbEntity
  8
0
100
AcDbLine
 62
7
  6
CONTINUOUS
 10
48.2633713419
 20
68.1558964801
 11
49.0633712932
 21
68.1556172536
  0
LINE
  5
371
100
AcDbEntity
  8
0
100
AcDbLine
 62
7
  6
CONTINUOUS
 10
51.763372001
 20
68.1546748641
 11
52.5633719523
 21
68.1543956377
  0
LINE
  5
372
100
AcDbEntity
  8
0
100
AcDbLine
 62
7
  6
CONTINUOUS
 10
55.2633717878
 20
68.1534532485
 11
56.0633717391
 21
68.1531740221
  0
LINE
  5
373
100
AcDbEntity
  8
0
100
AcDbLine
 62
7
  6
CONTINUOUS
 10
58.7633715746
 20
68.1522316329
 11
59.5633715259
 21
68.1519524064
  0
LINE
  5
374
100
AcDbEntity
  8
0
100
AcDbLine
 62
7
  6
CONTINUOUS
 10
62.2633715551
 20
68.1571196256
 11
63.0633715064
 21
68.1568403992
  0
LINE
  5
375
100
AcDbEntity
  8
0
100
AcDbLine
 62
7
  6
CONTINUOUS
 10
65.7633713419
 20
68.15589801
 11
66.5633712932
 21
68.1556187835
  0
LINE
  5
376
100
AcDbEntity
  8
0
100
AcDbLine
 62
7
  6
CONTINUOUS
 10
69.263372001
 20
68.154676394
 11
70.0633719523
 21
68.1543971676
  0
LINE
  5
377
100
AcDbEntity
  8
0
100
AcDbLine
 62
7
  6
CONTINUOUS
 10
72.7633717878
 20
68.1534547784
 11
73.5633717391
 21
68.153175552
  0
LINE
  5
378
100
AcDbEntity
  8
0
100
AcDbLine
 62
7
  6
CONTINUOUS
 10
76.2633715746
 20
68.1522331628
 11
77.0633715259
 21
68.1519539363
  0
LINE
  5
379
100
AcDbEntity
  8
0
100
AcDbLine
 62
7
  6
CONTINUOUS
 10
44.4639471077
 20
69.8072226004
 11
43.4139471717
 21
69.8075890851
  0
LINE
  5
37A
100
AcDbEntity
  8
0
100
AcDbLine
 62
7
  6
CONTINUOUS
 10
45.8639470224
 20
69.8067339541
 11
46.7139469706
 21
69.8064372761
  0
LINE
  5
37B
100
AcDbEntity
  8
0
100
AcDbLine
 62
7
  6
CONTINUOUS
 10
47.1139474233
 20
69.8062976627
 11
47.9639473716
 21
69.8060009846
  0
LINE
  5
37C
100
AcDbEntity
  8
0
100
AcDbLine
 62
7
  6
CONTINUOUS
 10
49.3639472863
 20
69.8055123383
 11
50.213948366
 21
69.8052156599
  0
LINE
  5
37D
100
AcDbEntity
  8
0
100
AcDbLine
 62
7
  6
CONTINUOUS
 10
50.6139483417
 20
69.8050760467
 11
51.4639482899
 21
69.8047793686
  0
LINE
  5
37E
100
AcDbEntity
  8
0
100
AcDbLine
 62
7
  6
CONTINUOUS
 10
52.8639482046
 20
69.8042907223
 11
53.7139481528
 21
69.8039940442
  0
LINE
  5
37F
100
AcDbEntity
  8
0
100
AcDbLine
 62
7
  6
CONTINUOUS
 10
54.1139481285
 20
69.803854431
 11
54.9639480767
 21
69.8035577529
  0
LINE
  5
380
100
AcDbEntity
  8
0
100
AcDbLine
 62
7
  6
CONTINUOUS
 10
56.3639468025
 20
69.8030691071
 11
57.2139479396
 21
69.8027724286
  0
LINE
  5
381
100
AcDbEntity
  8
0
100
AcDbLine
 62
7
  6
CONTINUOUS
 10
57.6139479153
 20
69.8026328154
 11
58.4639478635
 21
69.8023361373
  0
LINE
  5
382
100
AcDbEntity
  8
0
100
AcDbLine
 62
7
  6
CONTINUOUS
 10
59.8639477782
 20
69.801847491
 11
60.9139461057
 21
69.8014810069
  0
LINE
  5
383
100
AcDbEntity
  8
0
100
AcDbLine
 62
7
  6
CONTINUOUS
 10
61.9639471077
 20
69.8072241303
 11
60.9139471717
 21
69.807590615
  0
LINE
  5
384
100
AcDbEntity
  8
0
100
AcDbLine
 62
7
  6
CONTINUOUS
 10
63.3639470224
 20
69.806735484
 11
64.2139469706
 21
69.806438806
  0
LINE
  5
385
100
AcDbEntity
  8
0
100
AcDbLine
 62
7
  6
CONTINUOUS
 10
64.6139474233
 20
69.8062991926
 11
65.4639473716
 21
69.8060025145
  0
LINE
  5
386
100
AcDbEntity
  8
0
100
AcDbLine
 62
7
  6
CONTINUOUS
 10
66.8639472863
 20
69.8055138682
 11
67.713948366
 21
69.8052171898
  0
LINE
  5
387
100
AcDbEntity
  8
0
100
AcDbLine
 62
7
  6
CONTINUOUS
 10
68.1139483417
 20
69.8050775766
 11
68.9639482899
 21
69.8047808985
  0
LINE
  5
388
100
AcDbEntity
  8
0
100
AcDbLine
 62
7
  6
CONTINUOUS
 10
70.3639482046
 20
69.8042922522
 11
71.2139481528
 21
69.8039955741
  0
LINE
  5
389
100
AcDbEntity
  8
0
100
AcDbLine
 62
7
  6
CONTINUOUS
 10
71.6139481285
 20
69.8038559609
 11
72.4639480767
 21
69.8035592828
  0
LINE
  5
38A
100
AcDbEntity
  8
0
100
AcDbLine
 62
7
  6
CONTINUOUS
 10
73.8639468025
 20
69.803070637
 11
74.7139479396
 21
69.8027739585
  0
LINE
  5
38B
100
AcDbEntity
  8
0
100
AcDbLine
 62
7
  6
CONTINUOUS
 10
75.1139479153
 20
69.8026343453
 11
75.9639478635
 21
69.8023376672
  0
LINE
  5
38C
100
AcDbEntity
  8
0
100
AcDbLine
 62
7
  6
CONTINUOUS
 10
77.3639477782
 20
69.8018490209
 11
78.4139461057
 21
69.8014825368
  0
LINE
  5
38D
100
AcDbEntity
  8
0
100
AcDbLine
 62
7
  6
CONTINUOUS
 10
60.4141746162
 20
70.4516554833
 11
59.8641746497
 21
70.4518474515
  0
LINE
  5
38E
100
AcDbEntity
  8
0
100
AcDbLine
 62
7
  6
CONTINUOUS
 10
58.464174735
 20
70.4523360977
 11
57.9141747685
 21
70.4525280659
  0
LINE
  5
38F
100
AcDbEntity
  8
0
100
AcDbLine
 62
7
  6
CONTINUOUS
 10
56.9141748294
 20
70.4528770989
 11
56.3641736739
 21
70.4530690675
  0
LINE
  5
390
100
AcDbEntity
  8
0
100
AcDbLine
 62
7
  6
CONTINUOUS
 10
54.9641749482
 20
70.4535577133
 11
54.4141749817
 21
70.4537496815
  0
LINE
  5
391
100
AcDbEntity
  8
0
100
AcDbLine
 62
7
  6
CONTINUOUS
 10
53.4141750426
 20
70.4540987146
 11
52.8641750761
 21
70.4542906827
  0
LINE
  5
392
100
AcDbEntity
  8
0
100
AcDbLine
 62
7
  6
CONTINUOUS
 10
51.4641751614
 20
70.454779329
 11
50.9141751949
 21
70.4549712971
  0
LINE
  5
393
100
AcDbEntity
  8
0
100
AcDbLine
 62
7
  6
CONTINUOUS
 10
49.9141741243
 20
70.4553203306
 11
49.3641741578
 21
70.4555122988
  0
LINE
  5
394
100
AcDbEntity
  8
0
100
AcDbLine
 62
7
  6
CONTINUOUS
 10
47.964174243
 20
70.456000945
 11
47.4141742765
 21
70.4561929132
  0
LINE
  5
395
100
AcDbEntity
  8
0
100
AcDbLine
 62
7
  6
CONTINUOUS
 10
46.4141738604
 20
70.4565419464
 11
45.8641738939
 21
70.4567339146
  0
LINE
  5
396
100
AcDbEntity
  8
0
100
AcDbLine
 62
7
  6
CONTINUOUS
 10
44.4641739792
 20
70.4572225608
 11
43.9141740127
 21
70.457414529
  0
LINE
  5
397
100
AcDbEntity
  8
0
100
AcDbLine
 62
7
  6
CONTINUOUS
 10
77.9141746162
 20
70.4516570132
 11
77.3641746497
 21
70.4518489814
  0
LINE
  5
398
100
AcDbEntity
  8
0
100
AcDbLine
 62
7
  6
CONTINUOUS
 10
75.964174735
 20
70.4523376276
 11
75.4141747685
 21
70.4525295958
  0
LINE
  5
399
100
AcDbEntity
  8
0
100
AcDbLine
 62
7
  6
CONTINUOUS
 10
74.4141748294
 20
70.4528786288
 11
73.8641736739
 21
70.4530705974
  0
LINE
  5
39A
100
AcDbEntity
  8
0
100
AcDbLine
 62
7
  6
CONTINUOUS
 10
72.4641749482
 20
70.4535592432
 11
71.9141749817
 21
70.4537512114
  0
LINE
  5
39B
100
AcDbEntity
  8
0
100
AcDbLine
 62
7
  6
CONTINUOUS
 10
70.9141750426
 20
70.4541002445
 11
70.3641750761
 21
70.4542922126
  0
LINE
  5
39C
100
AcDbEntity
  8
0
100
AcDbLine
 62
7
  6
CONTINUOUS
 10
68.9641751614
 20
70.4547808589
 11
68.4141751949
 21
70.454972827
  0
LINE
  5
39D
100
AcDbEntity
  8
0
100
AcDbLine
 62
7
  6
CONTINUOUS
 10
67.4141741243
 20
70.4553218605
 11
66.8641741578
 21
70.4555138287
  0
LINE
  5
39E
100
AcDbEntity
  8
0
100
AcDbLine
 62
7
  6
CONTINUOUS
 10
65.464174243
 20
70.4560024749
 11
64.9141742765
 21
70.4561944431
  0
LINE
  5
39F
100
AcDbEntity
  8
0
100
AcDbLine
 62
7
  6
CONTINUOUS
 10
63.9141738604
 20
70.4565434763
 11
63.3641738939
 21
70.4567354445
  0
LINE
  5
3A0
100
AcDbEntity
  8
0
100
AcDbLine
 62
7
  6
CONTINUOUS
 10
61.9641739792
 20
70.4572240907
 11
61.4141740127
 21
70.4574160589
  0
LINE
  5
3A1
100
AcDbEntity
  8
0
100
AcDbLine
 62
7
  6
CONTINUOUS
 10
53.5628837394
 20
77.0266056573
 11
53.5628837394
 21
81.9266056573
  0
LINE
  5
3A2
100
AcDbEntity
  8
0
100
AcDbLine
 62
7
  6
CONTINUOUS
 10
54.3128837394
 20
34.6620015503
 11
54.3128837394
 21
38.4266056573
  0
LINE
  5
3A3
100
AcDbEntity
  8
0
100
AcDbLine
 62
7
  6
CONTINUOUS
 10
55.5628837394
 20
81.9266056573
 11
55.5628837394
 21
77.0266056573
  0
LINE
  5
3A4
100
AcDbEntity
  8
0
100
AcDbLine
 62
7
  6
CONTINUOUS
 10
53.4144019141
 20
71.104098675
 11
53.4141750426
 21
70.4540987146
  0
LINE
  5
3A5
100
AcDbEntity
  8
0
100
AcDbLine
 62
7
  6
CONTINUOUS
 10
53.5891395463
 20
50.5781478209
 11
53.588912618
 21
49.9281478605
  0
LINE
  5
3A6
100
AcDbEntity
  8
0
100
AcDbLine
 62
7
  6
CONTINUOUS
 10
53.7139481528
 20
69.8039940442
 11
53.7124473108
 21
65.5039943062
  0
LINE
  5
3A7
100
AcDbEntity
  8
0
100
AcDbLine
 62
7
  6
CONTINUOUS
 10
54.1124472864
 20
65.5038546929
 11
54.1139481285
 21
69.803854431
  0
LINE
  5
3A8
100
AcDbEntity
  8
0
100
AcDbLine
 62
7
  6
CONTINUOUS
 10
54.13936763
 20
51.2279557646
 11
54.1391407017
 21
50.5779558042
  0
LINE
  5
3A9
100
AcDbEntity
  8
0
100
AcDbLine
 62
7
  6
CONTINUOUS
 10
54.4141749817
 20
70.4537496815
 11
54.4144018531
 21
71.1037496419
  0
LINE
  5
3AA
100
AcDbEntity
  8
0
100
AcDbLine
 62
7
  6
CONTINUOUS
 10
54.4389137552
 20
49.9278511077
 11
54.4374125372
 21
45.6278513697
  0
LINE
  5
3AB
100
AcDbEntity
  8
0
100
AcDbLine
 62
7
  6
CONTINUOUS
 10
54.8374125128
 20
45.6277117215
 11
54.8389137308
 21
49.9277114595
  0
LINE
  5
3AC
100
AcDbEntity
  8
0
100
AcDbLine
 62
7
  6
CONTINUOUS
 10
54.9639480767
 20
69.8035577529
 11
54.9641749482
 21
70.4535577133
  0
LINE
  5
3AD
100
AcDbEntity
  8
0
100
AcDbLine
 62
7
  6
CONTINUOUS
 10
55.1391406408
 20
50.5776066837
 11
55.1393675691
 21
51.2276066441
  0
LINE
  5
3AE
100
AcDbEntity
  8
0
100
AcDbLine
 62
7
  6
CONTINUOUS
 10
55.2630925614
 20
67.3534532972
 11
55.2633717878
 21
68.1534532485
  0
LINE
  5
3AF
100
AcDbEntity
  8
0
100
AcDbLine
 62
7
  6
CONTINUOUS
 10
55.688913679
 20
49.9274147071
 11
55.6891406073
 21
50.5774146675
  0
LINE
  5
3B0
100
AcDbEntity
  8
0
100
AcDbLine
 62
7
  6
CONTINUOUS
 10
55.9880579495
 20
47.4773101203
 11
55.9883372458
 21
48.2773100716
  0
LINE
  5
3B1
100
AcDbEntity
  8
0
100
AcDbLine
 62
7
  6
CONTINUOUS
 10
56.0633717391
 20
68.1531740221
 11
56.0630925127
 21
67.3531740708
  0
LINE
  5
3B2
100
AcDbEntity
  8
0
100
AcDbLine
 62
7
  6
CONTINUOUS
 10
56.3641736739
 20
70.4530690675
 11
56.3639468025
 21
69.8030691071
  0
LINE
  5
3B3
100
AcDbEntity
  8
0
100
AcDbLine
 62
7
  6
CONTINUOUS
 10
34.7134676922
 20
48.7215511039
 11
34.1133463702
 21
48.3753501937
  0
LINE
  5
3B4
100
AcDbEntity
  8
0
100
AcDbLine
 62
7
  6
CONTINUOUS
 10
12.1628837394
 20
72.9266056573
 11
10.5628837394
 21
72.9266056573
  0
LINE
  5
3B5
100
AcDbEntity
  8
0
100
AcDbLine
 62
7
  6
CONTINUOUS
 10
43.9144008841
 20
71.1074144894
 11
46.4144007319
 21
71.1065419068
  0
LINE
  5
3B6
100
AcDbEntity
  8
0
100
AcDbLine
 62
7
  6
CONTINUOUS
 10
47.414401148
 20
71.1061928736
 11
49.9144009957
 21
71.105320291
  0
LINE
  5
3B7
100
AcDbEntity
  8
0
100
AcDbLine
 62
7
  6
CONTINUOUS
 10
50.9144020663
 20
71.1049712576
 11
53.4144019141
 21
71.104098675
  0
LINE
  5
3B8
100
AcDbEntity
  8
0
100
AcDbLine
 62
7
  6
CONTINUOUS
 10
54.4144018531
 20
71.1037496419
 11
56.9144017009
 21
71.1028770593
  0
LINE
  5
3B9
100
AcDbEntity
  8
0
100
AcDbLine
 62
7
  6
CONTINUOUS
 10
57.91440164
 20
71.1025280263
 11
60.4144014877
 21
71.1016554437
  0
LINE
  5
3BA
100
AcDbEntity
  8
0
100
AcDbLine
 62
7
  6
CONTINUOUS
 10
61.4144008841
 20
71.1074160193
 11
63.9144007319
 21
71.1065434367
  0
LINE
  5
3BB
100
AcDbEntity
  8
0
100
AcDbLine
 62
7
  6
CONTINUOUS
 10
64.914401148
 20
71.1061944035
 11
67.4144009957
 21
71.1053218209
  0
LINE
  5
3BC
100
AcDbEntity
  8
0
100
AcDbLine
 62
7
  6
CONTINUOUS
 10
68.4144020663
 20
71.1049727875
 11
70.9144019141
 21
71.1041002049
  0
LINE
  5
3BD
100
AcDbEntity
  8
0
100
AcDbLine
 62
7
  6
CONTINUOUS
 10
71.9144018531
 20
71.1037511718
 11
74.4144017009
 21
71.1028785892
  0
LINE
  5
3BE
100
AcDbEntity
  8
0
100
AcDbLine
 62
7
  6
CONTINUOUS
 10
75.41440164
 20
71.1025295562
 11
77.9144014877
 21
71.1016569736
  0
LINE
  5
3BF
100
AcDbEntity
  8
0
100
AcDbLine
 62
7
  6
CONTINUOUS
 10
60.9147150508
 20
72.0014808725
 11
43.4147150443
 21
72.0075889511
  0
LINE
  5
3C0
100
AcDbEntity
  8
0
100
AcDbLine
 62
7
  6
CONTINUOUS
 10
78.4147150508
 20
72.0014824024
 11
60.9147150443
 21
72.007590481
  0
LINE
  5
3C1
100
AcDbEntity
  8
0
100
AcDbLine
 62
7
  6
CONTINUOUS
 10
60.9130560717
 20
67.2514819986
 11
61.5129355461
 21
66.9048621959
  0
LINE
  5
3C2
100
AcDbEntity
  8
0
100
AcDbLine
 62
7
  6
CONTINUOUS
 10
61.5129366121
 20
66.910971804
 11
60.9130571377
 21
67.2575916066
  0
LINE
  5
3C3
100
AcDbEntity
  8
0
100
AcDbLine
 62
7
  6
CONTINUOUS
 10
57.5628837394
 20
77.0266056573
 11
57.5628837394
 21
81.9266056573
  0
LINE
  5
3C4
100
AcDbEntity
  8
0
100
AcDbLine
 62
7
  6
CONTINUOUS
 10
59.5628837394
 20
81.9266056573
 11
59.5628837394
 21
77.0266056573
  0
LINE
  5
3C5
100
AcDbEntity
  8
0
100
AcDbLine
 62
7
  6
CONTINUOUS
 10
56.7883371971
 20
48.2770307752
 11
56.7880579007
 21
47.477030824
  0
LINE
  5
3C6
100
AcDbEntity
  8
0
100
AcDbLine
 62
7
  6
CONTINUOUS
 10
56.9144017009
 20
71.1028770593
 11
56.9141748294
 21
70.4528770989
  0
LINE
  5
3C7
100
AcDbEntity
  8
0
100
AcDbLine
 62
7
  6
CONTINUOUS
 10
57.089140522
 20
50.5769258988
 11
57.0889135937
 21
49.9269259385
  0
LINE
  5
3C8
100
AcDbEntity
  8
0
100
AcDbLine
 62
7
  6
CONTINUOUS
 10
57.2139479396
 20
69.8027724286
 11
57.2124470976
 21
65.5027726905
  0
LINE
  5
3C9
100
AcDbEntity
  8
0
100
AcDbLine
 62
7
  6
CONTINUOUS
 10
57.6124470732
 20
65.5026330773
 11
57.6139479153
 21
69.8026328154
  0
LINE
  5
3CA
100
AcDbEntity
  8
0
100
AcDbLine
 62
7
  6
CONTINUOUS
 10
57.6393674167
 20
51.226733843
 11
57.6391404884
 21
50.5767338826
  0
LINE
  5
3CB
100
AcDbEntity
  8
0
100
AcDbLine
 62
7
  6
CONTINUOUS
 10
57.9141747685
 20
70.4525280659
 11
57.91440164
 21
71.1025280263
  0
LINE
  5
3CC
100
AcDbEntity
  8
0
100
AcDbLine
 62
7
  6
CONTINUOUS
 10
58.1396812659
 20
52.1326817375
 11
58.1371488628
 21
44.8765596703
  0
LINE
  5
3CD
100
AcDbEntity
  8
0
100
AcDbLine
 62
7
  6
CONTINUOUS
 10
58.4639478635
 20
69.8023361373
 11
58.464174735
 21
70.4523360977
  0
LINE
  5
3CE
100
AcDbEntity
  8
0
100
AcDbLine
 62
7
  6
CONTINUOUS
 10
58.6391400987
 20
50.5825072717
 11
58.639367027
 21
51.2325072321
  0
LINE
  5
3CF
100
AcDbEntity
  8
0
100
AcDbLine
 62
7
  6
CONTINUOUS
 10
58.7384921063
 20
48.7227601246
 11
58.7379011081
 21
47.0299399047
  0
LINE
  5
3D0
100
AcDbEntity
  8
0
100
AcDbLine
 62
7
  6
CONTINUOUS
 10
58.7630923482
 20
67.3522316816
 11
58.7633715746
 21
68.1522316329
  0
LINE
  5
3D1
100
AcDbEntity
  8
0
100
AcDbLine
 62
7
  6
CONTINUOUS
 10
59.1889131369
 20
49.9323152951
 11
59.1891400652
 21
50.5823152555
  0
LINE
  5
3D2
100
AcDbEntity
  8
0
100
AcDbLine
 62
7
  6
CONTINUOUS
 10
59.4880581437
 20
47.4822107081
 11
59.48833744
 21
48.2822106593
  0
LINE
  5
3D3
100
AcDbEntity
  8
0
100
AcDbLine
 62
7
  6
CONTINUOUS
 10
59.5633715259
 20
68.1519524064
 11
59.5630922995
 21
67.3519524552
  0
LINE
  5
3D4
100
AcDbEntity
  8
0
100
AcDbLine
 62
7
  6
CONTINUOUS
 10
40.6383718508
 20
48.3826688224
 11
41.2384931728
 21
48.7288697326
  0
LINE
  5
3D5
100
AcDbEntity
  8
0
100
AcDbLine
 62
7
  6
CONTINUOUS
 10
79.0135263964
 20
68.5976839457
 11
78.4134051046
 21
68.251482983
  0
LINE
  5
3D6
100
AcDbEntity
  8
0
100
AcDbLine
 62
7
  6
CONTINUOUS
 10
80.5628837394
 20
75.8266056573
 11
41.5628837394
 21
75.8266056573
  0
LINE
  5
3D7
100
AcDbEntity
  8
0
100
AcDbLine
 62
7
  6
CONTINUOUS
 10
41.5628837394
 20
77.0266056573
 11
82.5628837394
 21
77.0266056573
  0
LINE
  5
3D8
100
AcDbEntity
  8
0
100
AcDbLine
 62
7
  6
CONTINUOUS
 10
61.5628837394
 20
77.0266056573
 11
61.5628837394
 21
81.9266056573
  0
LINE
  5
3D9
100
AcDbEntity
  8
0
100
AcDbLine
 62
7
  6
CONTINUOUS
 10
59.8641746497
 20
70.4518474515
 11
59.8639477782
 21
69.801847491
  0
LINE
  5
3DA
100
AcDbEntity
  8
0
100
AcDbLine
 62
7
  6
CONTINUOUS
 10
60.2883373913
 20
48.281931363
 11
60.2880580949
 21
47.4819314117
  0
LINE
  5
3DB
100
AcDbEntity
  8
0
100
AcDbLine
 62
7
  6
CONTINUOUS
 10
60.4144014877
 20
71.1016554437
 11
60.4141746162
 21
70.4516554833
  0
LINE
  5
3DC
100
AcDbEntity
  8
0
100
AcDbLine
 62
7
  6
CONTINUOUS
 10
60.5891399799
 20
50.5818264868
 11
60.5889130516
 21
49.9318265265
  0
LINE
  5
3DD
100
AcDbEntity
  8
0
100
AcDbLine
 62
7
  6
CONTINUOUS
 10
60.9147150443
 20
72.007590481
 11
60.9134051046
 21
68.2514814531
  0
LINE
  5
3DE
100
AcDbEntity
  8
0
100
AcDbLine
 62
7
  6
CONTINUOUS
 10
60.9130571377
 20
67.2575916066
 11
60.9121834888
 21
64.7514813145
  0
LINE
  5
3DF
100
AcDbEntity
  8
0
100
AcDbLine
 62
7
  6
CONTINUOUS
 10
61.1393668747
 20
51.231634431
 11
61.1391399464
 21
50.5816344706
  0
LINE
  5
3E0
100
AcDbEntity
  8
0
100
AcDbLine
 62
7
  6
CONTINUOUS
 10
61.4141740127
 20
70.4574160589
 11
61.4144008841
 21
71.1074160193
  0
LINE
  5
3E1
100
AcDbEntity
  8
0
100
AcDbLine
 62
7
  6
CONTINUOUS
 10
61.4389129998
 20
49.9315297741
 11
61.4374117818
 21
45.6315300361
  0
LINE
  5
3E2
100
AcDbEntity
  8
0
100
AcDbLine
 62
7
  6
CONTINUOUS
 10
61.5135274623
 20
68.6037920239
 11
61.5129355461
 21
66.9048621959
  0
LINE
  5
3E3
100
AcDbEntity
  8
0
100
AcDbLine
 62
7
  6
CONTINUOUS
 10
61.8374122345
 20
45.6313903878
 11
61.8389134525
 21
49.9313901257
  0
LINE
  5
3E4
100
AcDbEntity
  8
0
100
AcDbLine
 62
7
  6
CONTINUOUS
 10
61.9639471077
 20
69.8072241303
 11
61.9641739792
 21
70.4572240907
  0
LINE
  5
3E5
100
AcDbEntity
  8
0
100
AcDbLine
 62
7
  6
CONTINUOUS
 10
62.1391403625
 20
50.58128535
 11
62.1393672908
 21
51.2312853104
  0
LINE
  5
3E6
100
AcDbEntity
  8
0
100
AcDbLine
 62
7
  6
CONTINUOUS
 10
62.2630923287
 20
67.3571196743
 11
62.2633715551
 21
68.1571196256
  0
LINE
  5
3E7
100
AcDbEntity
  8
0
100
AcDbLine
 62
7
  6
CONTINUOUS
 10
62.6889134007
 20
49.9310933733
 11
62.689140329
 21
50.5810933337
  0
LINE
  5
3E8
100
AcDbEntity
  8
0
100
AcDbLine
 62
7
  6
CONTINUOUS
 10
12.1628837394
 20
79.9266056573
 11
41.5628837394
 21
79.9266056573
  0
LINE
  5
3E9
100
AcDbEntity
  8
0
100
AcDbLine
 62
7
  6
CONTINUOUS
 10
63.3128837394
 20
84.3283051208
 11
63.3128837394
 21
91.7193179308
  0
LINE
  5
3EA
100
AcDbEntity
  8
0
100
AcDbLine
 62
7
  6
CONTINUOUS
 10
63.5628837394
 20
81.9266056573
 11
63.5628837394
 21
77.0266056573
  0
LINE
  5
3EB
100
AcDbEntity
  8
0
100
AcDbLine
 62
7
  6
CONTINUOUS
 10
64.3128837394
 20
84.3283051208
 11
64.3128837394
 21
91.7193179308
  0
LINE
  5
3EC
100
AcDbEntity
  8
0
100
AcDbLine
 62
7
  6
CONTINUOUS
 10
65.5628837394
 20
77.0266056573
 11
65.5628837394
 21
81.9266056573
  0
LINE
  5
3ED
100
AcDbEntity
  8
0
100
AcDbLine
 62
7
  6
CONTINUOUS
 10
62.9880579304
 20
47.4809887865
 11
62.9883372267
 21
48.2809887377
  0
LINE
  5
3EE
100
AcDbEntity
  8
0
100
AcDbLine
 62
7
  6
CONTINUOUS
 10
63.0633715064
 20
68.1568403992
 11
63.0630922799
 21
67.3568404479
  0
LINE
  5
3EF
100
AcDbEntity
  8
0
100
AcDbLine
 62
7
  6
CONTINUOUS
 10
63.3641738939
 20
70.4567354445
 11
63.3639470224
 21
69.806735484
  0
LINE
  5
3F0
100
AcDbEntity
  8
0
100
AcDbLine
 62
7
  6
CONTINUOUS
 10
63.788337178
 20
48.2807094413
 11
63.7880578816
 21
47.4807094901
  0
LINE
  5
3F1
100
AcDbEntity
  8
0
100
AcDbLine
 62
7
  6
CONTINUOUS
 10
63.9144007319
 20
71.1065434367
 11
63.9141738604
 21
70.4565434763
  0
LINE
  5
3F2
100
AcDbEntity
  8
0
100
AcDbLine
 62
7
  6
CONTINUOUS
 10
64.0891402436
 20
50.5806045651
 11
64.0889133153
 21
49.9306046047
  0
LINE
  5
3F3
100
AcDbEntity
  8
0
100
AcDbLine
 62
7
  6
CONTINUOUS
 10
64.2139469706
 20
69.806438806
 11
64.2124461286
 21
65.5064390679
  0
LINE
  5
3F4
100
AcDbEntity
  8
0
100
AcDbLine
 62
7
  6
CONTINUOUS
 10
64.6124465813
 20
65.5062994545
 11
64.6139474233
 21
69.8062991926
  0
LINE
  5
3F5
100
AcDbEntity
  8
0
100
AcDbLine
 62
7
  6
CONTINUOUS
 10
64.6393671384
 20
51.2304125092
 11
64.6391402101
 21
50.5804125488
  0
LINE
  5
3F6
100
AcDbEntity
  8
0
100
AcDbLine
 62
7
  6
CONTINUOUS
 10
64.9141742765
 20
70.4561944431
 11
64.914401148
 21
71.1061944035
  0
LINE
  5
3F7
100
AcDbEntity
  8
0
100
AcDbLine
 62
7
  6
CONTINUOUS
 10
64.9389143951
 20
49.9303078519
 11
64.9374131771
 21
45.6303081139
  0
LINE
  5
3F8
100
AcDbEntity
  8
0
100
AcDbLine
 62
7
  6
CONTINUOUS
 10
65.3374131527
 20
45.6301684658
 11
65.3389143707
 21
49.9301682037
  0
LINE
  5
3F9
100
AcDbEntity
  8
0
100
AcDbLine
 62
7
  6
CONTINUOUS
 10
65.4639473716
 20
69.8060025145
 11
65.464174243
 21
70.4560024749
  0
LINE
  5
3FA
100
AcDbEntity
  8
0
100
AcDbLine
 62
7
  6
CONTINUOUS
 10
65.6391412807
 20
50.580063428
 11
65.639368209
 21
51.2300633883
  0
LINE
  5
3FB
100
AcDbEntity
  8
0
100
AcDbLine
 62
7
  6
CONTINUOUS
 10
65.7630921155
 20
67.3558980587
 11
65.7633713419
 21
68.15589801
  0
LINE
  5
3FC
100
AcDbEntity
  8
0
100
AcDbLine
 62
7
  6
CONTINUOUS
 10
77.5628837394
 20
80.5212604605
 11
75.5628837394
 21
80.5212604605
  0
LINE
  5
3FD
100
AcDbEntity
  8
0
100
AcDbLine
 62
7
  6
CONTINUOUS
 10
73.5628837394
 20
80.5212604605
 11
71.5628837394
 21
80.5212604605
  0
LINE
  5
3FE
100
AcDbEntity
  8
0
100
AcDbLine
 62
7
  6
CONTINUOUS
 10
69.5628837394
 20
80.5212604605
 11
67.5628837394
 21
80.5212604605
  0
LINE
  5
3FF
100
AcDbEntity
  8
0
100
AcDbLine
 62
7
  6
CONTINUOUS
 10
65.5628837394
 20
80.5212604605
 11
63.5628837394
 21
80.5212604605
  0
LINE
  5
400
100
AcDbEntity
  8
0
100
AcDbLine
 62
7
  6
CONTINUOUS
 10
61.5628837394
 20
80.5212604605
 11
59.5628837394
 21
80.5212604605
  0
LINE
  5
401
100
AcDbEntity
  8
0
100
AcDbLine
 62
7
  6
CONTINUOUS
 10
57.5628837394
 20
80.5212604605
 11
55.5628837394
 21
80.5212604605
  0
LINE
  5
402
100
AcDbEntity
  8
0
100
AcDbLine
 62
7
  6
CONTINUOUS
 10
53.5628837394
 20
80.5212604605
 11
51.5628837394
 21
80.5212604605
  0
LINE
  5
403
100
AcDbEntity
  8
0
100
AcDbLine
 62
7
  6
CONTINUOUS
 10
49.5628837394
 20
80.5212604605
 11
47.5628837394
 21
80.5212604605
  0
LINE
  5
404
100
AcDbEntity
  8
0
100
AcDbLine
 62
7
  6
CONTINUOUS
 10
45.5628837394
 20
80.5212604605
 11
43.5628837394
 21
80.5212604605
  0
LINE
  5
405
100
AcDbEntity
  8
0
100
AcDbLine
 62
7
  6
CONTINUOUS
 10
82.5628837394
 20
81.9266056573
 11
10.5628837394
 21
81.9266056573
  0
LINE
  5
406
100
AcDbEntity
  8
0
100
AcDbLine
 62
7
  6
CONTINUOUS
 10
78.4130560717
 20
67.2514835285
 11
79.0129355461
 21
66.9048637258
  0
LINE
  5
407
100
AcDbEntity
  8
0
100
AcDbLine
 62
7
  6
CONTINUOUS
 10
67.5628837394
 20
81.9266056573
 11
67.5628837394
 21
77.0266056573
  0
LINE
  5
408
100
AcDbEntity
  8
0
100
AcDbLine
 62
7
  6
CONTINUOUS
 10
66.1889143189
 20
49.9298714513
 11
66.1891412472
 21
50.5798714117
  0
LINE
  5
409
100
AcDbEntity
  8
0
100
AcDbLine
 62
7
  6
CONTINUOUS
 10
66.4880585894
 20
47.4797668645
 11
66.4883378857
 21
48.2797668158
  0
LINE
  5
40A
100
AcDbEntity
  8
0
100
AcDbLine
 62
7
  6
CONTINUOUS
 10
66.5633712932
 20
68.1556187835
 11
66.5630920668
 21
67.3556188323
  0
LINE
  5
40B
100
AcDbEntity
  8
0
100
AcDbLine
 62
7
  6
CONTINUOUS
 10
66.8641741578
 20
70.4555138287
 11
66.8639472863
 21
69.8055138682
  0
LINE
  5
40C
100
AcDbEntity
  8
0
100
AcDbLine
 62
7
  6
CONTINUOUS
 10
67.288337837
 20
48.2794875194
 11
67.2880585406
 21
47.4794875682
  0
LINE
  5
40D
100
AcDbEntity
  8
0
100
AcDbLine
 62
7
  6
CONTINUOUS
 10
67.4144009957
 20
71.1053218209
 11
67.4141741243
 21
70.4553218605
  0
LINE
  5
40E
100
AcDbEntity
  8
0
100
AcDbLine
 62
7
  6
CONTINUOUS
 10
67.5891411619
 20
50.5793826431
 11
67.5889142336
 21
49.9293826827
  0
LINE
  5
40F
100
AcDbEntity
  8
0
100
AcDbLine
 62
7
  6
CONTINUOUS
 10
67.713948366
 20
69.8052171898
 11
67.712447524
 21
65.5052174517
  0
LINE
  5
410
100
AcDbEntity
  8
0
100
AcDbLine
 62
7
  6
CONTINUOUS
 10
68.1124474996
 20
65.5050778385
 11
68.1139483417
 21
69.8050775766
  0
LINE
  5
411
100
AcDbEntity
  8
0
100
AcDbLine
 62
7
  6
CONTINUOUS
 10
68.1393680566
 20
51.2291905872
 11
68.1391411283
 21
50.5791906268
  0
LINE
  5
412
100
AcDbEntity
  8
0
100
AcDbLine
 62
7
  6
CONTINUOUS
 10
68.4141751949
 20
70.454972827
 11
68.4144020663
 21
71.1049727875
  0
LINE
  5
413
100
AcDbEntity
  8
0
100
AcDbLine
 62
7
  6
CONTINUOUS
 10
68.4389141818
 20
49.9290859303
 11
68.4374129638
 21
45.6290861923
  0
LINE
  5
414
100
AcDbEntity
  8
0
100
AcDbLine
 62
7
  6
CONTINUOUS
 10
68.8374129394
 20
45.6289465441
 11
68.8389141574
 21
49.9289462821
  0
LINE
  5
415
100
AcDbEntity
  8
0
100
AcDbLine
 62
7
  6
CONTINUOUS
 10
68.9639482899
 20
69.8047808985
 11
68.9641751614
 21
70.4547808589
  0
LINE
  5
416
100
AcDbEntity
  8
0
100
AcDbLine
 62
7
  6
CONTINUOUS
 10
58.7384921063
 20
48.7227601246
 11
58.1383707843
 21
48.3765592143
  0
LINE
  5
417
100
AcDbEntity
  8
0
100
AcDbLine
 62
7
  6
CONTINUOUS
 10
64.3128837394
 20
84.3283051208
 11
63.3128837394
 21
84.3283051208
  0
LINE
  5
418
100
AcDbEntity
  8
0
100
AcDbLine
 62
7
  6
CONTINUOUS
 10
29.8128837394
 20
84.3283051208
 11
28.8128837394
 21
84.3283051208
  0
LINE
  5
419
100
AcDbEntity
  8
0
100
AcDbLine
 62
7
  6
CONTINUOUS
 10
69.5628837394
 20
77.0266056573
 11
69.5628837394
 21
81.9266056573
  0
LINE
  5
41A
100
AcDbEntity
  8
0
100
AcDbLine
 62
7
  6
CONTINUOUS
 10
71.5628837394
 20
81.9266056573
 11
71.5628837394
 21
77.0266056573
  0
LINE
  5
41B
100
AcDbEntity
  8
0
100
AcDbLine
 62
7
  6
CONTINUOUS
 10
71.8128837394
 20
95.043982578
 11
71.8128837394
 21
91.8195006957
  0
LINE
  5
41C
100
AcDbEntity
  8
0
100
AcDbLine
 62
7
  6
CONTINUOUS
 10
69.1391410674
 20
50.5788415063
 11
69.1393679957
 21
51.2288414667
  0
LINE
  5
41D
100
AcDbEntity
  8
0
100
AcDbLine
 62
7
  6
CONTINUOUS
 10
69.2630927746
 20
67.3546764428
 11
69.263372001
 21
68.154676394
  0
LINE
  5
41E
100
AcDbEntity
  8
0
100
AcDbLine
 62
7
  6
CONTINUOUS
 10
69.6889141056
 20
49.9286495297
 11
69.6891410339
 21
50.5786494901
  0
LINE
  5
41F
100
AcDbEntity
  8
0
100
AcDbLine
 62
7
  6
CONTINUOUS
 10
69.9880583761
 20
47.4785449429
 11
69.9883376724
 21
48.2785448942
  0
LINE
  5
420
100
AcDbEntity
  8
0
100
AcDbLine
 62
7
  6
CONTINUOUS
 10
70.0633719523
 20
68.1543971676
 11
70.0630927259
 21
67.3543972163
  0
LINE
  5
421
100
AcDbEntity
  8
0
100
AcDbLine
 62
7
  6
CONTINUOUS
 10
70.3641750761
 20
70.4542922126
 11
70.3639482046
 21
69.8042922522
  0
LINE
  5
422
100
AcDbEntity
  8
0
100
AcDbLine
 62
7
  6
CONTINUOUS
 10
70.7883376237
 20
48.2782655978
 11
70.7880583273
 21
47.4782656466
  0
LINE
  5
423
100
AcDbEntity
  8
0
100
AcDbLine
 62
7
  6
CONTINUOUS
 10
70.9144019141
 20
71.1041002049
 11
70.9141750426
 21
70.4541002445
  0
LINE
  5
424
100
AcDbEntity
  8
0
100
AcDbLine
 62
7
  6
CONTINUOUS
 10
71.0891409486
 20
50.5781607214
 11
71.0889140203
 21
49.9281607611
  0
LINE
  5
425
100
AcDbEntity
  8
0
100
AcDbLine
 62
7
  6
CONTINUOUS
 10
71.2139481528
 20
69.8039955741
 11
71.2124473108
 21
65.5039958361
  0
LINE
  5
426
100
AcDbEntity
  8
0
100
AcDbLine
 62
7
  6
CONTINUOUS
 10
71.6124472864
 20
65.5038562228
 11
71.6139481285
 21
69.8038559609
  0
LINE
  5
427
100
AcDbEntity
  8
0
100
AcDbLine
 62
7
  6
CONTINUOUS
 10
71.6393678433
 20
51.2279686656
 11
71.639140915
 21
50.5779687052
  0
LINE
  5
428
100
AcDbEntity
  8
0
100
AcDbLine
 62
7
  6
CONTINUOUS
 10
71.9141749817
 20
70.4537512114
 11
71.9144018531
 21
71.1037511718
  0
LINE
  5
429
100
AcDbEntity
  8
0
100
AcDbLine
 62
7
  6
CONTINUOUS
 10
71.9389139685
 20
49.9278640087
 11
71.9374127505
 21
45.6278642707
  0
LINE
  5
42A
100
AcDbEntity
  8
0
100
AcDbLine
 62
7
  6
CONTINUOUS
 10
73.5628837394
 20
77.0266056573
 11
73.5628837394
 21
81.9266056573
  0
LINE
  5
42B
100
AcDbEntity
  8
0
100
AcDbLine
 62
7
  6
CONTINUOUS
 10
74.164230522
 20
93.8619065658
 11
74.164230522
 21
92.3184101282
  0
LINE
  5
42C
100
AcDbEntity
  8
0
100
AcDbLine
 62
7
  6
CONTINUOUS
 10
72.3374127261
 20
45.6277246225
 11
72.3389139441
 21
49.9277243605
  0
LINE
  5
42D
100
AcDbEntity
  8
0
100
AcDbLine
 62
7
  6
CONTINUOUS
 10
72.4639480767
 20
69.8035592828
 11
72.4641749482
 21
70.4535592432
  0
LINE
  5
42E
100
AcDbEntity
  8
0
100
AcDbLine
 62
7
  6
CONTINUOUS
 10
72.6391408541
 20
50.5776195847
 11
72.6393677824
 21
51.2276195451
  0
LINE
  5
42F
100
AcDbEntity
  8
0
100
AcDbLine
 62
7
  6
CONTINUOUS
 10
72.7630925614
 20
67.3534548271
 11
72.7633717878
 21
68.1534547784
  0
LINE
  5
430
100
AcDbEntity
  8
0
100
AcDbLine
 62
7
  6
CONTINUOUS
 10
73.1889138923
 20
49.9274276081
 11
73.1891408206
 21
50.5774275685
  0
LINE
  5
431
100
AcDbEntity
  8
0
100
AcDbLine
 62
7
  6
CONTINUOUS
 10
73.4880581628
 20
47.4773230213
 11
73.4883374591
 21
48.2773229726
  0
LINE
  5
432
100
AcDbEntity
  8
0
100
AcDbLine
 62
7
  6
CONTINUOUS
 10
73.5633717391
 20
68.153175552
 11
73.5630925127
 21
67.3531756007
  0
LINE
  5
433
100
AcDbEntity
  8
0
100
AcDbLine
 62
7
  6
CONTINUOUS
 10
73.8641736739
 20
70.4530705974
 11
73.8639468025
 21
69.803070637
  0
LINE
  5
434
100
AcDbEntity
  8
0
100
AcDbLine
 62
7
  6
CONTINUOUS
 10
74.2883374104
 20
48.2770436762
 11
74.288058114
 21
47.4770437249
  0
LINE
  5
435
100
AcDbEntity
  8
0
100
AcDbLine
 62
7
  6
CONTINUOUS
 10
74.4144017009
 20
71.1028785892
 11
74.4141748294
 21
70.4528786288
  0
LINE
  5
436
100
AcDbEntity
  8
0
100
AcDbLine
 62
7
  6
CONTINUOUS
 10
74.5891407353
 20
50.5769387998
 11
74.588913807
 21
49.9269388394
  0
LINE
  5
437
100
AcDbEntity
  8
0
100
AcDbLine
 62
7
  6
CONTINUOUS
 10
74.7139479396
 20
69.8027739585
 11
74.7124470976
 21
65.5027742204
  0
LINE
  5
438
100
AcDbEntity
  8
0
100
AcDbLine
 62
7
  6
CONTINUOUS
 10
75.1124470732
 20
65.5026346072
 11
75.1139479153
 21
69.8026343453
  0
LINE
  5
439
100
AcDbEntity
  8
0
100
AcDbLine
 62
7
  6
CONTINUOUS
 10
75.13936763
 20
51.226746744
 11
75.1391407017
 21
50.5767467836
  0
LINE
  5
43A
100
AcDbEntity
  8
0
100
AcDbLine
 62
7
  6
CONTINUOUS
 10
75.4141747685
 20
70.4525295958
 11
75.41440164
 21
71.1025295562
  0
LINE
  5
43B
100
AcDbEntity
  8
0
100
AcDbLine
 62
7
  6
CONTINUOUS
 10
10.5628837394
 20
91.2803847357
 11
28.8128837394
 21
91.2803847357
  0
LINE
  5
43C
100
AcDbEntity
  8
0
100
AcDbLine
 62
7
  6
CONTINUOUS
 10
29.8128837394
 20
91.2803847357
 11
63.3128837394
 21
91.2803847357
  0
LINE
  5
43D
100
AcDbEntity
  8
0
100
AcDbLine
 62
7
  6
CONTINUOUS
 10
64.3128837394
 20
91.2803847357
 11
82.5628837394
 21
91.2803847357
  0
LINE
  5
43E
100
AcDbEntity
  8
0
100
AcDbLine
 62
7
  6
CONTINUOUS
 10
28.8128837394
 20
91.7193179308
 11
29.8128837394
 21
91.7193179308
  0
LINE
  5
43F
100
AcDbEntity
  8
0
100
AcDbLine
 62
7
  6
CONTINUOUS
 10
63.3128837394
 20
91.7193179308
 11
64.3128837394
 21
91.7193179308
  0
LINE
  5
440
100
AcDbEntity
  8
0
100
AcDbLine
 62
7
  6
CONTINUOUS
 10
71.8128837394
 20
91.8195006957
 11
17.8128837394
 21
91.8195006957
  0
LINE
  5
441
100
AcDbEntity
  8
0
100
AcDbLine
 62
7
  6
CONTINUOUS
 10
82.5628837394
 20
92.9149711948
 11
77.8128837394
 21
92.9149711948
  0
LINE
  5
442
100
AcDbEntity
  8
0
100
AcDbLine
 62
7
  6
CONTINUOUS
 10
74.164230522
 20
92.9149711948
 11
71.8128837394
 21
92.9149711948
  0
LINE
  5
443
100
AcDbEntity
  8
0
100
AcDbLine
 62
7
  6
CONTINUOUS
 10
17.8128837394
 20
92.9149711948
 11
10.5628837394
 21
92.9149711948
  0
LINE
  5
444
100
AcDbEntity
  8
0
100
AcDbLine
 62
7
  6
CONTINUOUS
 10
75.5628837394
 20
81.9266056573
 11
75.5628837394
 21
77.0266056573
  0
LINE
  5
445
100
AcDbEntity
  8
0
100
AcDbLine
 62
7
  6
CONTINUOUS
 10
77.5628837394
 20
77.0266056573
 11
77.5628837394
 21
81.9266056573
  0
LINE
  5
446
100
AcDbEntity
  8
0
100
AcDbLine
 62
7
  6
CONTINUOUS
 10
77.664230522
 20
93.8619065658
 11
77.664230522
 21
92.3192131273
  0
LINE
  5
447
100
AcDbEntity
  8
0
100
AcDbLine
 62
7
  6
CONTINUOUS
 10
77.8128837394
 20
93.6384795167
 11
77.8128837394
 21
92.7601600997
  0
LINE
  5
448
100
AcDbEntity
  8
0
100
AcDbLine
 62
7
  6
CONTINUOUS
 10
75.4389137552
 20
49.9266420871
 11
75.4374125372
 21
45.6266423491
  0
LINE
  5
449
100
AcDbEntity
  8
0
100
AcDbLine
 62
7
  6
CONTINUOUS
 10
75.8374125128
 20
45.6265027009
 11
75.8389137308
 21
49.9265024389
  0
LINE
  5
44A
100
AcDbEntity
  8
0
100
AcDbLine
 62
7
  6
CONTINUOUS
 10
75.9639478635
 20
69.8023376672
 11
75.964174735
 21
70.4523376276
  0
LINE
  5
44B
100
AcDbEntity
  8
0
100
AcDbLine
 62
7
  6
CONTINUOUS
 10
76.1391406408
 20
50.5763976631
 11
76.1393675691
 21
51.2263976235
  0
LINE
  5
44C
100
AcDbEntity
  8
0
100
AcDbLine
 62
7
  6
CONTINUOUS
 10
76.2630923482
 20
67.3522332115
 11
76.2633715746
 21
68.1522331628
  0
LINE
  5
44D
100
AcDbEntity
  8
0
100
AcDbLine
 62
7
  6
CONTINUOUS
 10
76.688913679
 20
49.9262056865
 11
76.6891406073
 21
50.5762056469
  0
LINE
  5
44E
100
AcDbEntity
  8
0
100
AcDbLine
 62
7
  6
CONTINUOUS
 10
76.9880579495
 20
47.4761010997
 11
76.9883372458
 21
48.2761010509
  0
LINE
  5
44F
100
AcDbEntity
  8
0
100
AcDbLine
 62
7
  6
CONTINUOUS
 10
77.0633715259
 20
68.1519539363
 11
77.0630922995
 21
67.3519539851
  0
LINE
  5
450
100
AcDbEntity
  8
0
100
AcDbLine
 62
7
  6
CONTINUOUS
 10
77.3641746497
 20
70.4518489814
 11
77.3639477782
 21
69.8018490209
  0
LINE
  5
451
100
AcDbEntity
  8
0
100
AcDbLine
 62
7
  6
CONTINUOUS
 10
77.7883371971
 20
48.2758217546
 11
77.7880579007
 21
47.4758218033
  0
LINE
  5
452
100
AcDbEntity
  8
0
100
AcDbLine
 62
7
  6
CONTINUOUS
 10
77.9144014877
 20
71.1016569736
 11
77.9141746162
 21
70.4516570132
  0
LINE
  5
453
100
AcDbEntity
  8
0
100
AcDbLine
 62
7
  6
CONTINUOUS
 10
78.089140522
 20
50.5757168782
 11
78.0889135937
 21
49.9257169178
  0
LINE
  5
454
100
AcDbEntity
  8
0
100
AcDbLine
 62
7
  6
CONTINUOUS
 10
78.4147139784
 20
72.0014824028
 11
78.4134051046
 21
68.251482983
  0
LINE
  5
455
100
AcDbEntity
  8
0
100
AcDbLine
 62
7
  6
CONTINUOUS
 10
78.4130560717
 20
67.2514835285
 11
78.4121834888
 21
64.7514828444
  0
LINE
  5
456
100
AcDbEntity
  8
0
100
AcDbLine
 62
7
  6
CONTINUOUS
 10
79.7384921063
 20
48.7215511039
 11
79.1383707843
 21
48.3753501937
  0
LINE
  5
457
100
AcDbEntity
  8
0
100
AcDbLine
 62
7
  6
CONTINUOUS
 10
71.8128837394
 20
95.043982578
 11
17.8128837394
 21
95.043982578
  0
LINE
  5
458
100
AcDbEntity
  8
0
100
AcDbLine
 62
7
  6
CONTINUOUS
 10
79.5628837394
 20
33.8606274961
 11
79.5628837394
 21
33.4266056573
  0
LINE
  5
459
100
AcDbEntity
  8
0
100
AcDbLine
 62
7
  6
CONTINUOUS
 10
80.4128820945
 20
64.7418537175
 11
80.4128822379
 21
63.1015293375
  0
LINE
  5
45A
100
AcDbEntity
  8
0
100
AcDbLine
 62
7
  6
CONTINUOUS
 10
80.5628837394
 20
44.626605317
 11
80.5628837394
 21
53.4266056573
  0
LINE
  5
45B
100
AcDbEntity
  8
0
100
AcDbLine
 62
7
  6
CONTINUOUS
 10
80.5628837394
 20
60.0266056573
 11
80.5628837394
 21
75.8266056573
  0
LINE
  5
45C
100
AcDbEntity
  8
0
100
AcDbLine
 62
7
  6
CONTINUOUS
 10
78.6393674168
 20
51.2255248224
 11
78.6391404885
 21
50.575524862
  0
LINE
  5
45D
100
AcDbEntity
  8
0
100
AcDbLine
 62
7
  6
CONTINUOUS
 10
79.0135263964
 20
68.5976839457
 11
79.0129355461
 21
66.9048637258
  0
LINE
  5
45E
100
AcDbEntity
  8
0
100
AcDbLine
 62
7
  6
CONTINUOUS
 10
79.1396799861
 20
52.1253502078
 11
79.1383707843
 21
48.3753501937
  0
LINE
  5
45F
100
AcDbEntity
  8
0
100
AcDbLine
 62
7
  6
CONTINUOUS
 10
79.138021664
 20
47.3753507392
 11
79.1371488628
 21
44.8753506497
  0
LINE
  5
460
100
AcDbEntity
  8
0
100
AcDbLine
 62
7
  6
CONTINUOUS
 10
79.7384921063
 20
48.7215511039
 11
79.7379011081
 21
47.0287308841
  0
LINE
  5
461
100
AcDbEntity
  8
0
100
AcDbLine
 62
7
  6
CONTINUOUS
 10
82.5628837394
 20
33.8612035797
 11
82.5628837394
 21
81.9266056573
  0
LINE
  5
462
100
AcDbEntity
  8
0
100
AcDbLine
 62
7
  6
CONTINUOUS
 10
82.5628837394
 20
81.9283051208
 11
82.5628837394
 21
92.9149711948
  0
ARC
  5
463
100
AcDbEntity
  8
0
100
AcDbCircle
 62
7
  6
CONTINUOUS
 10
42.3869752624
 20
44.382058348
 40
1.55
100
AcDbArc
 50
53.7306759877
 51
126.2293177535
  0
ARC
  5
464
100
AcDbEntity
  8
0
100
AcDbCircle
 62
7
  6
CONTINUOUS
 10
45.886975661
 20
44.380836525
 40
1.55
100
AcDbArc
 50
53.7306698092
 51
126.2293239321
  0
ARC
  5
465
100
AcDbEntity
  8
0
100
AcDbCircle
 62
7
  6
CONTINUOUS
 10
32.3619516037
 20
44.3759616404
 40
1.55
100
AcDbArc
 50
53.7306759879
 51
126.2293177534
  0
ARC
  5
466
100
AcDbEntity
  8
0
100
AcDbCircle
 62
7
  6
CONTINUOUS
 10
14.8619510616
 20
44.382071249
 40
1.55
100
AcDbArc
 50
53.7306759879
 51
126.2293177534
  0
ARC
  5
467
100
AcDbEntity
  8
0
100
AcDbCircle
 62
7
  6
CONTINUOUS
 10
21.8619522436
 20
44.3796274052
 40
1.55
100
AcDbArc
 50
53.7306759879
 51
126.2293177534
  0
ARC
  5
468
100
AcDbEntity
  8
0
100
AcDbCircle
 62
7
  6
CONTINUOUS
 10
25.3619520303
 20
44.3784054836
 40
1.55
100
AcDbArc
 50
53.7306759879
 51
126.2293177534
  0
ARC
  5
469
100
AcDbEntity
  8
0
100
AcDbCircle
 62
7
  6
CONTINUOUS
 10
28.861951817
 20
44.377183562
 40
1.55
100
AcDbArc
 50
53.7306759879
 51
126.2293177534
  0
ARC
  5
46A
100
AcDbEntity
  8
0
100
AcDbCircle
 62
7
  6
CONTINUOUS
 10
18.3619514602
 20
44.380849426
 40
1.55
100
AcDbArc
 50
53.7306698093
 51
126.229323932
  0
CIRCLE
  5
46B
100
AcDbEntity
  8
0
100
AcDbCircle
 62
7
  6
CONTINUOUS
 10
28.8631735302
 20
47.8794912639
 40
0.9000029591
  0
CIRCLE
  5
46C
100
AcDbEntity
  8
0
100
AcDbCircle
 62
7
  6
CONTINUOUS
 10
42.3881972302
 20
47.8820581344
 40
0.9
  0
CIRCLE
  5
46D
100
AcDbEntity
  8
0
100
AcDbCircle
 62
7
  6
CONTINUOUS
 10
45.8881970169
 20
47.8808364422
 40
0.9
  0
CIRCLE
  5
46E
100
AcDbEntity
  8
0
100
AcDbCircle
 62
7
  6
CONTINUOUS
 10
18.3631728161
 20
47.8808493432
 40
0.9
  0
CIRCLE
  5
46F
100
AcDbEntity
  8
0
100
AcDbCircle
 62
7
  6
CONTINUOUS
 10
14.8631730294
 20
47.8820711118
 40
0.9
  0
CIRCLE
  5
470
100
AcDbEntity
  8
0
100
AcDbCircle
 62
7
  6
CONTINUOUS
 10
25.363172132
 20
47.8760973551
 40
0.9
  0
CIRCLE
  5
471
100
AcDbEntity
  8
0
100
AcDbCircle
 62
7
  6
CONTINUOUS
 10
32.3631717054
 20
47.8736535119
 40
0.9
  0
CIRCLE
  5
472
100
AcDbEntity
  8
0
100
AcDbCircle
 62
7
  6
CONTINUOUS
 10
21.8631731511
 20
47.8796271919
 40
0.9
  0
ARC
  5
473
100
AcDbEntity
  8
0
100
AcDbCircle
 62
7
  6
CONTINUOUS
 10
45.1620099317
 20
64.2569786153
 40
1.55
100
AcDbArc
 50
53.7306809967
 51
126.2293227625
  0
CIRCLE
  5
474
100
AcDbEntity
  8
0
100
AcDbCircle
 62
7
  6
CONTINUOUS
 10
45.1632315937
 20
67.7569789088
 40
0.9
  0
ARC
  5
475
100
AcDbEntity
  8
0
100
AcDbCircle
 62
7
  6
CONTINUOUS
 10
56.3869760178
 20
44.377170661
 40
1.55
100
AcDbArc
 50
53.7306759877
 51
126.2293177535
  0
ARC
  5
476
100
AcDbEntity
  8
0
100
AcDbCircle
 62
7
  6
CONTINUOUS
 10
49.3869764444
 20
44.3796145042
 40
1.55
100
AcDbArc
 50
53.7306759877
 51
126.2293177535
  0
ARC
  5
477
100
AcDbEntity
  8
0
100
AcDbCircle
 62
7
  6
CONTINUOUS
 10
52.8869762311
 20
44.3783925826
 40
1.55
100
AcDbArc
 50
53.7306759877
 51
126.2293177535
  0
ARC
  5
478
100
AcDbEntity
  8
0
100
AcDbCircle
 62
7
  6
CONTINUOUS
 10
77.3869760178
 20
44.3759616404
 40
1.55
100
AcDbArc
 50
53.7306759879
 51
126.2293177534
  0
ARC
  5
479
100
AcDbEntity
  8
0
100
AcDbCircle
 62
7
  6
CONTINUOUS
 10
59.8869754757
 20
44.382071249
 40
1.55
100
AcDbArc
 50
53.7306759879
 51
126.2293177534
  0
ARC
  5
47A
100
AcDbEntity
  8
0
100
AcDbCircle
 62
7
  6
CONTINUOUS
 10
66.8869766577
 20
44.3796274052
 40
1.55
100
AcDbArc
 50
53.7306759879
 51
126.2293177534
  0
ARC
  5
47B
100
AcDbEntity
  8
0
100
AcDbCircle
 62
7
  6
CONTINUOUS
 10
70.3869764444
 20
44.3784054836
 40
1.55
100
AcDbArc
 50
53.7306759879
 51
126.2293177534
  0
ARC
  5
47C
100
AcDbEntity
  8
0
100
AcDbCircle
 62
7
  6
CONTINUOUS
 10
73.8869762311
 20
44.377183562
 40
1.55
100
AcDbArc
 50
53.7306759878
 51
126.2293177534
  0
ARC
  5
47D
100
AcDbEntity
  8
0
100
AcDbCircle
 62
7
  6
CONTINUOUS
 10
63.3869758743
 20
44.380849426
 40
1.55
100
AcDbArc
 50
53.7306698093
 51
126.229323932
  0
CIRCLE
  5
47E
100
AcDbEntity
  8
0
100
AcDbCircle
 62
7
  6
CONTINUOUS
 10
73.8881979443
 20
47.8794912639
 40
0.9000029591
  0
CIRCLE
  5
47F
100
AcDbEntity
  8
0
100
AcDbCircle
 62
7
  6
CONTINUOUS
 10
49.388197177
 20
47.879614291
 40
0.9
  0
CIRCLE
  5
480
100
AcDbEntity
  8
0
100
AcDbCircle
 62
7
  6
CONTINUOUS
 10
63.3881972302
 20
47.8808493432
 40
0.9
  0
CIRCLE
  5
481
100
AcDbEntity
  8
0
100
AcDbCircle
 62
7
  6
CONTINUOUS
 10
59.8881974435
 20
47.8820711118
 40
0.9
  0
CIRCLE
  5
482
100
AcDbEntity
  8
0
100
AcDbCircle
 62
7
  6
CONTINUOUS
 10
70.3881965461
 20
47.8760973551
 40
0.9
  0
CIRCLE
  5
483
100
AcDbEntity
  8
0
100
AcDbCircle
 62
7
  6
CONTINUOUS
 10
77.3881961195
 20
47.8736535119
 40
0.9
  0
CIRCLE
  5
484
100
AcDbEntity
  8
0
100
AcDbCircle
 62
7
  6
CONTINUOUS
 10
66.8881975652
 20
47.8796271919
 40
0.9
  0
CIRCLE
  5
485
100
AcDbEntity
  8
0
100
AcDbCircle
 62
7
  6
CONTINUOUS
 10
56.3881967504
 20
47.8771704478
 40
0.8999998252
  0
CIRCLE
  5
486
100
AcDbEntity
  8
0
100
AcDbCircle
 62
7
  6
CONTINUOUS
 10
52.888196719
 20
47.8783923695
 40
0.8999995804
  0
ARC
  5
487
100
AcDbEntity
  8
0
100
AcDbCircle
 62
7
  6
CONTINUOUS
 10
76.6620106875
 20
64.2520936821
 40
1.55
100
AcDbArc
 50
53.7306809967
 51
126.2293227625
  0
ARC
  5
488
100
AcDbEntity
  8
0
100
AcDbCircle
 62
7
  6
CONTINUOUS
 10
62.6620099317
 20
64.2569801452
 40
1.55
100
AcDbArc
 50
53.7306809967
 51
126.2293227625
  0
ARC
  5
489
100
AcDbEntity
  8
0
100
AcDbCircle
 62
7
  6
CONTINUOUS
 10
69.6620111139
 20
64.2545369134
 40
1.55
100
AcDbArc
 50
53.7306809967
 51
126.2293227625
  0
ARC
  5
48A
100
AcDbEntity
  8
0
100
AcDbCircle
 62
7
  6
CONTINUOUS
 10
73.1620109007
 20
64.2533152978
 40
1.55
100
AcDbArc
 50
53.7306809967
 51
126.2293227625
  0
ARC
  5
48B
100
AcDbEntity
  8
0
100
AcDbCircle
 62
7
  6
CONTINUOUS
 10
66.1620103304
 20
64.2557586282
 40
1.55
100
AcDbArc
 50
53.7306748182
 51
126.229328941
  0
ARC
  5
48C
100
AcDbEntity
  8
0
100
AcDbCircle
 62
7
  6
CONTINUOUS
 10
59.1620106875
 20
64.2520921522
 40
1.55
100
AcDbArc
 50
53.7306809967
 51
126.2293227625
  0
ARC
  5
48D
100
AcDbEntity
  8
0
100
AcDbCircle
 62
7
  6
CONTINUOUS
 10
52.1620111139
 20
64.2545353835
 40
1.55
100
AcDbArc
 50
53.7306809967
 51
126.2293227625
  0
ARC
  5
48E
100
AcDbEntity
  8
0
100
AcDbCircle
 62
7
  6
CONTINUOUS
 10
55.6620109007
 20
64.2533137679
 40
1.55
100
AcDbArc
 50
53.7306809967
 51
126.2293227625
  0
ARC
  5
48F
100
AcDbEntity
  8
0
100
AcDbCircle
 62
7
  6
CONTINUOUS
 10
48.6620103304
 20
64.2557570983
 40
1.55
100
AcDbArc
 50
53.7306748182
 51
126.229328941
  0
CIRCLE
  5
490
100
AcDbEntity
  8
0
100
AcDbCircle
 62
7
  6
CONTINUOUS
 10
62.6632315937
 20
67.7569804387
 40
0.9
  0
CIRCLE
  5
491
100
AcDbEntity
  8
0
100
AcDbCircle
 62
7
  6
CONTINUOUS
 10
66.1632313806
 20
67.7557590526
 40
0.9
  0
CIRCLE
  5
492
100
AcDbEntity
  8
0
100
AcDbCircle
 62
7
  6
CONTINUOUS
 10
69.6632315407
 20
67.7545372073
 40
0.9
  0
CIRCLE
  5
493
100
AcDbEntity
  8
0
100
AcDbCircle
 62
7
  6
CONTINUOUS
 10
48.6632313806
 20
67.7557575227
 40
0.9
  0
CIRCLE
  5
494
100
AcDbEntity
  8
0
100
AcDbCircle
 62
7
  6
CONTINUOUS
 10
52.1632315407
 20
67.7545356774
 40
0.9
  0
CIRCLE
  5
495
100
AcDbEntity
  8
0
100
AcDbCircle
 62
7
  6
CONTINUOUS
 10
76.6632311144
 20
67.7520939761
 40
0.8999998252
  0
CIRCLE
  5
496
100
AcDbEntity
  8
0
100
AcDbCircle
 62
7
  6
CONTINUOUS
 10
59.1632311144
 20
67.7520924462
 40
0.8999998252
  0
CIRCLE
  5
497
100
AcDbEntity
  8
0
100
AcDbCircle
 62
7
  6
CONTINUOUS
 10
73.1632310828
 20
67.7533155918
 40
0.8999995804
  0
CIRCLE
  5
498
100
AcDbEntity
  8
0
100
AcDbCircle
 62
7
  6
CONTINUOUS
 10
55.6632310828
 20
67.7533140619
 40
0.8999995804
  0
SPLINE
  5
499
100
AcDbEntity
  8
0
100
AcDbSpline
 62
7
  6
CONTINUOUS
 70
0
 71
3
 72
22
 73
18
 74
0
 42
0.0000001
 43
0.0000001
 44
0.0000000001
 40
0.0
 40
0.0
 40
0.0
 40
0.0
 40
0.0020911544
 40
0.0060805793
 40
0.0123090872
 40
0.0208412361
 40
0.0448518368
 40
0.0779938038
 40
0.119949015
 40
0.1703599256
 40
0.2287366481
 40
0.2945181132
 40
0.3671016426
 40
0.445755763
 40
0.6182125388
 40
0.8054522829
 40
1.0
 40
1.0
 40
1.0
 40
1.0
 10
74.1642407334
 20
93.8619065658
 30
0.0
 10
74.1642414896
 20
93.8631294224
 30
0.0
 10
74.1672872736
 20
93.8659997522
 30
0.0
 10
74.1738076882
 20
93.8683771421
 30
0.0
 10
74.1845078254
 20
93.8713697325
 30
0.0
 10
74.2067253465
 20
93.875571764
 30
0.0
 10
74.2448876871
 20
93.8805374353
 30
0.0
 10
74.3025695215
 20
93.8859402516
 30
0.0
 10
74.3757882101
 20
93.8912157508
 30
0.0
 10
74.4637937317
 20
93.8962478044
 30
0.0
 10
74.5657703368
 20
93.9009840371
 30
0.0
 10
74.6807373288
 20
93.9053663716
 30
0.0
 10
74.8075835401
 20
93.9093419683
 30
0.0
 10
74.9968105733
 20
93.9142034583
 30
0.0
 10
75.2531088912
 20
93.9188660808
 30
0.0
 10
75.5772027044
 20
93.9222262097
 30
0.0
 10
75.8004636907
 20
93.922980685
 30
0.0
 10
75.914230522
 20
93.922980685
 30
0.0
  0
SPLINE
  5
49A
100
AcDbEntity
  8
0
100
AcDbSpline
 62
7
  6
CONTINUOUS
 70
0
 71
3
 72
20
 73
16
 74
0
 42
0.0000001
 43
0.0000001
 44
0.0000000001
 40
0.0
 40
0.0
 40
0.0
 40
0.0
 40
0.0096803774
 40
0.0169410706
 40
0.0261938763
 40
0.051048812
 40
0.0845433439
 40
0.1265122714
 40
0.1766785518
 40
0.2346310558
 40
0.2998566472
 40
0.4497747721
 40
0.6208315765
 40
0.8067193135
 40
1.0
 40
1.0
 40
1.0
 40
1.0
 10
77.81304638
 20
92.3684459382
 30
0.0
 10
77.8130489695
 20
92.362238762
 30
0.0
 10
77.8054451392
 20
92.3523065821
 30
0.0
 10
77.7917460947
 20
92.3431527947
 30
0.0
 10
77.7678733891
 20
92.3311148627
 30
0.0
 10
77.7267128158
 20
92.3173708484
 30
0.0
 10
77.6642357045
 20
92.3018436099
 30
0.0
 10
77.5850949901
 20
92.2866916618
 30
0.0
 10
77.4899679094
 20
92.2720090609
 30
0.0
 10
77.3796864835
 20
92.2580520833
 30
0.0
 10
77.2055191206
 20
92.2397824513
 30
0.0
 10
76.9585791124
 20
92.2206479201
 30
0.0
 10
76.6339801768
 20
92.2038574063
 30
0.0
 10
76.2812985928
 20
92.1933946995
 30
0.0
 10
76.0381644703
 20
92.1910272245
 30
0.0
 10
75.914230522
 20
92.1910272245
 30
0.0
  0
SPLINE
  5
49B
100
AcDbEntity
  8
0
100
AcDbSpline
 62
7
  6
CONTINUOUS
 70
0
 71
3
 72
14
 73
10
 74
0
 42
0.0000001
 43
0.0000001
 44
0.0000000001
 40
0.0
 40
0.0
 40
0.0
 40
0.0
 40
0.0253584158
 40
0.0764398693
 40
0.1569144786
 40
0.2673304817
 40
0.407536827
 40
0.5768899616
 40
1.0
 40
1.0
 40
1.0
 40
1.0
 10
77.9617013668
 20
92.7862212636
 30
0.0
 10
77.9617006079
 20
92.783759374
 30
0.0
 10
77.9547650627
 20
92.77817322
 30
0.0
 10
77.9410641276
 20
92.7735908329
 30
0.0
 10
77.9179064063
 20
92.767581036
 30
0.0
 10
77.8864110522
 20
92.7619829512
 30
0.0
 10
77.8459975318
 20
92.7560957351
 30
0.0
 10
77.7753847044
 20
92.747731038
 30
0.0
 10
77.7180764384
 20
92.742545076
 30
0.0
 10
77.6771345003
 20
92.7392154984
 30
0.0
  0
SPLINE
  5
49C
100
AcDbEntity
  8
0
100
AcDbSpline
 62
7
  6
CONTINUOUS
 70
0
 71
3
 72
21
 73
17
 74
0
 42
0.0000001
 43
0.0000001
 44
0.0000000001
 40
0.0
 40
0.0
 40
0.0
 40
0.0
 40
0.0024091404
 40
0.0066312792
 40
0.0217163264
 40
0.0458422661
 40
0.0788619886
 40
0.1206197905
 40
0.1709209067
 40
0.2292782504
 40
0.2950169894
 40
0.3674589078
 40
0.445932385
 40
0.6182049568
 40
0.8054437819
 40
1.0
 40
1.0
 40
1.0
 40
1.0
 10
17.1619452082
 20
92.795967311
 30
0.0
 10
17.1619456772
 20
92.7942750631
 30
0.0
 10
17.1585141188
 20
92.7902023853
 30
0.0
 10
17.1448682211
 20
92.78393765
 30
0.0
 10
17.1149138787
 20
92.7762317801
 30
0.0
 10
17.0650643204
 20
92.7677696615
 30
0.0
 10
16.9960566928
 20
92.7589532071
 30
0.0
 10
16.9086589283
 20
92.7502089895
 30
0.0
 10
16.8033332763
 20
92.7416577752
 30
0.0
 10
16.6811084962
 20
92.7334402776
 30
0.0
 10
16.5432705946
 20
92.7256625188
 30
0.0
 10
16.3912561634
 20
92.7184514914
 30
0.0
 10
16.1644154256
 20
92.7094726212
 30
0.0
 10
15.8568782261
 20
92.7006780716
 30
0.0
 10
15.4677315624
 20
92.6942239904
 30
0.0
 10
15.1995454925
 20
92.6927456755
 30
0.0
 10
15.0628837394
 20
92.6927456755
 30
0.0
  0
SPLINE
  5
49D
100
AcDbEntity
  8
0
100
AcDbSpline
 62
7
  6
CONTINUOUS
 70
0
 71
3
 72
21
 73
17
 74
0
 42
0.0000001
 43
0.0000001
 44
0.0000000001
 40
0.0
 40
0.0
 40
0.0
 40
0.0
 40
0.1945575764
 40
0.381783832
 40
0.554049579
 40
0.632531182
 40
0.7049765175
 40
0.7707059517
 40
0.8290497689
 40
0.8793465401
 40
0.9211193545
 40
0.9541583248
 40
0.9782905851
 40
0.9933713457
 40
0.9975912459
 40
1.0
 40
1.0
 40
1.0
 40
1.0
 10
15.0628837394
 20
92.6927456755
 30
0.0
 10
14.9262209133
 20
92.6927456755
 30
0.0
 10
14.6580424805
 20
92.6942230316
 30
0.0
 10
14.2689081527
 20
92.7006784398
 30
0.0
 10
13.9613786742
 20
92.709474442
 30
0.0
 10
13.7345342627
 20
92.7184490768
 30
0.0
 10
13.5825179963
 20
92.7256575717
 30
0.0
 10
13.4446936492
 20
92.7334357394
 30
0.0
 10
13.322488011
 20
92.7416552359
 30
0.0
 10
13.2171645453
 20
92.7502091645
 30
0.0
 10
13.1297455255
 20
92.7589529656
 30
0.0
 10
13.0607089255
 20
92.7677666546
 30
0.0
 10
13.0108436236
 20
92.7762287603
 30
0.0
 10
12.9808904563
 20
92.7839350508
 30
0.0
 10
12.9672494074
 20
92.7902030096
 30
0.0
 10
12.9638223381
 20
92.7942752958
 30
0.0
 10
12.9638224073
 20
92.7959672738
 30
0.0
  0
SPLINE
  5
49E
100
AcDbEntity
  8
0
100
AcDbSpline
 62
7
  6
CONTINUOUS
 70
0
 71
3
 72
20
 73
16
 74
0
 42
0.0000001
 43
0.0000001
 44
0.0000000001
 40
0.0
 40
0.0
 40
0.0
 40
0.0
 40
0.193272235
 40
0.3791595773
 40
0.5502193704
 40
0.7001403193
 40
0.7653688456
 40
0.823323016
 40
0.8734919411
 40
0.9154582027
 40
0.9489508033
 40
0.9738075643
 40
0.9830593634
 40
0.9903189615
 40
1.0
 40
1.0
 40
1.0
 40
1.0
 10
75.914230522
 20
92.1910272245
 30
0.0
 10
75.7903020683
 20
92.1910272245
 30
0.0
 10
75.5471737654
 20
92.1933946219
 30
0.0
 10
75.1944961518
 20
92.203856765
 30
0.0
 10
74.8698938636
 20
92.2206464519
 30
0.0
 10
74.6229485731
 20
92.2397832272
 30
0.0
 10
74.4487764672
 20
92.2580522559
 30
0.0
 10
74.3384905436
 20
92.2720101992
 30
0.0
 10
74.243362292
 20
92.2866914648
 30
0.0
 10
74.1642228703
 20
92.3018441285
 30
0.0
 10
74.1017484906
 20
92.317373605
 30
0.0
 10
74.0605874088
 20
92.3311148206
 30
0.0
 10
74.0367154686
 20
92.3431530974
 30
0.0
 10
74.0230174742
 20
92.3523087028
 30
0.0
 10
74.0154163431
 20
92.3622383478
 30
0.0
 10
74.0154142126
 20
92.3684459444
 30
0.0
  0
SPLINE
  5
49F
100
AcDbEntity
  8
0
100
AcDbSpline
 62
7
  6
CONTINUOUS
 70
0
 71
3
 72
22
 73
18
 74
0
 42
0.0000001
 43
0.0000001
 44
0.0000000001
 40
0.0
 40
0.0
 40
0.0
 40
0.0
 40
0.1945512986
 40
0.3817866137
 40
0.5542385834
 40
0.6328920614
 40
0.7054736534
 40
0.7712542703
 40
0.8296326867
 40
0.8800431513
 40
0.9220014129
 40
0.9551463407
 40
0.9791563079
 40
0.9876896175
 40
0.9939194345
 40
0.9979094212
 40
1.0
 40
1.0
 40
1.0
 40
1.0
 10
75.914230522
 20
93.922980685
 30
0.0
 10
76.0279994941
 20
93.922980685
 30
0.0
 10
76.2512600758
 20
93.9222262037
 30
0.0
 10
76.5753507174
 20
93.9188661834
 30
0.0
 10
76.8316433603
 20
93.9142034833
 30
0.0
 10
77.0208661624
 20
93.9093424732
 30
0.0
 10
77.1477104237
 20
93.9053669552
 30
0.0
 10
77.2626768195
 20
93.9009845541
 30
0.0
 10
77.3646537271
 20
93.8962488783
 30
0.0
 10
77.4526617787
 20
93.8912163682
 30
0.0
 10
77.5258837451
 20
93.8859407327
 30
0.0
 10
77.5835688323
 20
93.8805387822
 30
0.0
 10
77.6217331215
 20
93.8755715619
 30
0.0
 10
77.6439516915
 20
93.8713701025
 30
0.0
 10
77.6546538187
 20
93.8683768778
 30
0.0
 10
77.6611748856
 20
93.8660011064
 30
0.0
 10
77.6642210666
 20
93.8631290863
 30
0.0
 10
77.6642203106
 20
93.8619065658
 30
0.0
  0
SPLINE
  5
4A0
100
AcDbEntity
  8
0
100
AcDbSpline
 62
7
  6
CONTINUOUS
 70
0
 71
3
 72
12
 73
8
 74
0
 42
0.0000001
 43
0.0000001
 44
0.0000000001
 40
0.0
 40
0.0
 40
0.0
 40
0.0
 40
0.422901309
 40
0.7288847173
 40
0.9179060237
 40
0.9702477998
 40
1.0
 40
1.0
 40
1.0
 40
1.0
 10
77.7169602993
 20
93.6584196606
 30
0.0
 10
77.7309002185
 20
93.6570119135
 30
0.0
 10
77.7549391496
 20
93.6543076224
 30
0.0
 10
77.7848953633
 20
93.6497151683
 30
0.0
 10
77.8027625235
 20
93.6454112696
 30
0.0
 10
77.8108595168
 20
93.6418420719
 30
0.0
 10
77.8128741375
 20
93.639465214
 30
0.0
 10
77.812873528
 20
93.6384795168
 30
0.0
  0
SPLINE
  5
4A1
100
AcDbEntity
  8
0
100
AcDbSpline
 62
7
  6
CONTINUOUS
 70
0
 71
3
 72
12
 73
8
 74
0
 42
0.0000001
 43
0.0000001
 44
0.0000000001
 40
0.0
 40
0.0
 40
0.0
 40
0.0
 40
0.3838977334
 40
0.6713563498
 40
0.7807785556
 40
0.8694474917
 40
1.0
 40
1.0
 40
1.0
 40
1.0
 10
77.7238621476
 20
92.4173269458
 30
0.0
 10
77.736958047
 20
92.4139069491
 30
0.0
 10
77.7596885571
 20
92.4072476492
 30
0.0
 10
77.7853157157
 20
92.3969196938
 30
0.0
 10
77.7999819647
 20
92.3879020626
 30
0.0
 10
77.8088190797
 20
92.3805402729
 30
0.0
 10
77.8130444598
 20
92.3730488339
 30
0.0
 10
77.81304638
 20
92.3684459382
 30
0.0
  0
SPLINE
  5
4A2
100
AcDbEntity
  8
0
100
AcDbSpline
 62
7
  6
CONTINUOUS
 70
0
 71
3
 72
21
 73
17
 74
0
 42
0.0000001
 43
0.0000001
 44
0.0000000001
 40
0.0
 40
0.0
 40
0.0
 40
0.0
 40
0.0023809696
 40
0.0065549275
 40
0.0215388081
 40
0.0455744711
 40
0.07852357
 40
0.1202350127
 40
0.1705159962
 40
0.2288764659
 40
0.2946377627
 40
0.3671175826
 40
0.4456395065
 40
0.6180199795
 40
0.8053584991
 40
1.0
 40
1.0
 40
1.0
 40
1.0
 10
12.9638224073
 20
92.7959672738
 30
0.0
 10
12.9638224756
 20
92.7976382593
 30
0.0
 10
12.9672522219
 20
92.8016517634
 30
0.0
 10
12.9809432879
 20
92.8075189632
 30
0.0
 10
13.0108767098
 20
92.8144184337
 30
0.0
 10
13.0607194367
 20
92.8215052328
 30
0.0
 10
13.1297246488
 20
92.8284810888
 30
0.0
 10
13.2171438832
 20
92.8349904347
 30
0.0
 10
13.3225059359
 20
92.8409989235
 30
0.0
 10
13.4447801849
 20
92.8464577022
 30
0.0
 10
13.5826722799
 20
92.8513623168
 30
0.0
 10
13.7347375621
 20
92.8556912756
 30
0.0
 10
13.9616326464
 20
92.8608448327
 30
0.0
 10
14.26916169
 20
92.8655670954
 30
0.0
 10
14.6582049932
 20
92.8688497246
 30
0.0
 10
14.9262826189
 20
92.8695792724
 30
0.0
 10
15.0628837394
 20
92.8695792724
 30
0.0
  0
SPLINE
  5
4A3
100
AcDbEntity
  8
0
100
AcDbSpline
 62
7
  6
CONTINUOUS
 70
0
 71
3
 72
21
 73
17
 74
0
 42
0.0000001
 43
0.0000001
 44
0.0000000001
 40
0.0
 40
0.0
 40
0.0
 40
0.0
 40
0.1946427537
 40
0.381969085
 40
0.5543430636
 40
0.6328730243
 40
0.7053562663
 40
0.7711084487
 40
0.829455627
 40
0.8797323904
 40
0.9214584291
 40
0.9544262413
 40
0.9784680497
 40
0.99344776
 40
0.9976195124
 40
1.0
 40
1.0
 40
1.0
 40
1.0
 10
15.0628837394
 20
92.8695792724
 30
0.0
 10
15.1994858553
 20
92.8695792724
 30
0.0
 10
15.4675560363
 20
92.8688503539
 30
0.0
 10
15.8565874349
 20
92.8655667068
 30
0.0
 10
16.1641092481
 20
92.8608438439
 30
0.0
 10
16.391008063
 20
92.8556927372
 30
0.0
 10
16.5430751671
 20
92.8513652553
 30
0.0
 10
16.6809540445
 20
92.8464604992
 30
0.0
 10
16.8032096609
 20
92.8410006679
 30
0.0
 10
16.9085696082
 20
92.8349901968
 30
0.0
 10
16.9960094289
 20
92.8284810604
 30
0.0
 10
17.0650426073
 20
92.821507537
 30
0.0
 10
17.1149005356
 20
92.8144209457
 30
0.0
 10
17.1448329052
 20
92.8075211178
 30
0.0
 10
17.1585192043
 20
92.8016508789
 30
0.0
 10
17.1619447452
 20
92.7976379595
 30
0.0
 10
17.1619452082
 20
92.795967311
 30
0.0
  0
SPLINE
  5
4A4
100
AcDbEntity
  8
0
100
AcDbSpline
 62
7
  6
CONTINUOUS
 70
0
 71
3
 72
12
 73
8
 74
0
 42
0.0000001
 43
0.0000001
 44
0.0000000001
 40
0.0
 40
0.0
 40
0.0
 40
0.0
 40
0.4169470798
 40
0.7197232804
 40
0.8286814839
 40
0.9101082479
 40
1.0
 40
1.0
 40
1.0
 40
1.0
 10
77.8733369054
 20
92.8101086488
 30
0.0
 10
77.8862046673
 20
92.8084900745
 30
0.0
 10
77.9084284596
 20
92.8053212081
 30
0.0
 10
77.9336005883
 20
92.8004522421
 30
0.0
 10
77.9485337883
 20
92.7959280742
 30
0.0
 10
77.956155143
 20
92.7928269525
 30
0.0
 10
77.9617022287
 20
92.7890173507
 30
0.0
 10
77.9617013668
 20
92.7862212636
 30
0.0
  0
SPLINE
  5
4A5
100
AcDbEntity
  8
0
100
AcDbSpline
 62
7
  6
CONTINUOUS
 70
0
 71
3
 72
12
 73
8
 74
0
 42
0.0000001
 43
0.0000001
 44
0.0000000001
 40
0.0
 40
0.0
 40
0.0
 40
0.0
 40
0.1317858049
 40
0.2207337095
 40
0.3302186454
 40
0.6172193973
 40
1.0
 40
1.0
 40
1.0
 40
1.0
 10
74.0154142126
 20
92.3684459444
 30
0.0
 10
74.0154126634
 20
92.3729599457
 30
0.0
 10
74.0194692745
 20
92.3803105091
 30
0.0
 10
74.0280366805
 20
92.3875768365
 30
0.0
 10
74.0422128346
 20
92.3964435612
 30
0.0
 10
74.0670004866
 20
92.406618343
 30
0.0
 10
74.0889985002
 20
92.4131848916
 30
0.0
 10
74.1016688609
 20
92.4165562362
 30
0.0
  0
ENDSEC
  0
SECTION
  2
OBJECTS
  0
DICTIONARY
  5
C
100
AcDbDictionary
280
0
281
1
  3
ACAD_GROUP
350
D
  3
ACAD_MLINESTYLE
350
17
  3
ACAD_LAYOUT
350
1A
  3
ACAD_PLOTSETTINGS
350
19
  3
ACAD_PLOTSTYLENAME
350
E
  0
DICTIONARY
  5
D
102
{ACAD_REACTORS
330
C
102
}
100
AcDbDictionary
280
0
281
1
  0
ACDBDICTIONARYWDFLT
  5
E
102
{ACAD_REACTORS
330
C
102
}
100
AcDbDictionary
281
1
  3
Normal
350
F
100
AcDbDictionaryWithDefault
340
F
  0
DICTIONARY
  5
17
102
{ACAD_REACTORS
330
C
102
}
100
AcDbDictionary
280
0
281
1
  3
Standard
350
18
  0
DICTIONARY
  5
19
102
{ACAD_REACTORS
330
C
102
}
100
AcDbDictionary
281
1
  0
DICTIONARY
  5
1A
102
{ACAD_REACTORS
330
C
102
}
100
AcDbDictionary
281
1
  3
Model
350
4A6
  3
Layout1
350
4A7
  0
ACDBPLACEHOLDER
  5
F
102
{ACAD_REACTORS
330
E
102
}
  0
MLINESTYLE
  5
18
102
{ACAD_REACTORS
330
17
102
}
100
AcDbMlineStyle
  2
STANDARD
 70
0
  3

 62
256
 51
90.0
 52
90.0
 71
2
 49
0.5
 62
256
  6
BYLAYER
 49
-0.5
 62
256
  6
BYLAYER
  0
LAYOUT
  5
4A6
102
{ACAD_REACTORS
330
1A
102
}
100
AcDbPlotSettings
  1

  2
none_device
  4

  6

 40
0.0
 41
0.0
 42
0.0
 43
0.0
 44
210.0
 45
297.0
 46
0.0
 47
0.0
 48
0.0
 49
0.0
140
0.0
141
0.0
142
1.0
143
1.0
 70
1024
 72
1
 73
0
 74
0
  7

 75
0
147
1.0
148
0.0
149
0.0
100
AcDbLayout
  1
Model
 70
0
 71
0
 10
0.0
 20
0.0
 11
210.0
 21
297.0
 12
0.0
 22
0.0
 32
0.0
 14
0.0
 24
0.0
 34
0.0
 15
0.0
 25
0.0
 35
0.0
146
0.0
 13
0.0
 23
0.0
 33
0.0
 16
1.0
 26
0.0
 36
0.0
 17
0.0
 27
1.0
 37
0.0
 76
0
330
210
345
0
346
0
  0
LAYOUT
  5
4A7
102
{ACAD_REACTORS
330
1A
102
}
100
AcDbPlotSettings
  1

  2
none_device
  4

  6

 40
0.0
 41
0.0
 42
0.0
 43
0.0
 44
210.0
 45
297.0
 46
0.0
 47
0.0
 48
0.0
 49
0.0
140
0.0
141
0.0
142
1.0
143
1.0
 70
0
 72
1
 73
0
 74
0
  7

 75
0
147
1.0
148
0.0
149
0.0
100
AcDbLayout
  1
Layout1
 70
0
 71
1
 10
0.0
 20
0.0
 11
210.0
 21
297.0
 12
0.0
 22
0.0
 32
0.0
 14
0.0
 24
0.0
 34
0.0
 15
0.0
 25
0.0
 35
0.0
146
0.0
 13
0.0
 23
0.0
 33
0.0
 16
1.0
 26
0.0
 36
0.0
 17
0.0
 27
1.0
 37
0.0
 76
0
330
211
345
0
346
0
  0
ENDSEC
  0
EOF
