999
DXF file: C:\Users\sesa63760\Dev\_Creo\CAD\MCADID0001966_3D-CAD\drw0001_1.dxf
999
Pro/ENGINEER 2019471 by Parametric Technology Corporation
  0
SECTION
  2
HEADER
  9
$ACADVER
  1
AC1024
  9
$DWGCODEPAGE
  3
ANSI_1252
  9
$EXTMAX
 10
164.2527759766
 20
232.3003545954
 30
0.0
  9
$EXTMIN
 10
0.0
 20
0.0
 30
0.0
  9
$LIMMIN
 10
0.0
 20
0.0
  9
$LIMMAX
 10
164.2527759766
 20
232.3003545954
  9
$VIEWCTR
 10
82.1263879883
 20
116.1501772977
  9
$VIEWSIZE
 40
232.3003545954
  9
$CLAYER
  8
0
  9
$LTSCALE
 40
15.1425416329
  9
$CELTYPE
  6
BYLAYER
  9
$DIMSCALE
 40
1.0
  9
$DIMASZ
 40
1.9553901902
  9
$DIMEXO
 40
1.0
  9
$DIMDLI
 40
10.4621196736
  9
$DIMEXE
 40
1.0
  9
$DIMCEN
 40
2.477870449
  9
$DIMLFAC
 40
1.0
  9
$DIMBLK
  1
_FILLED
  9
$DIMALT
 70
0
  9
$DIMALTF
 40
0.0393700787
  9
$DIMTXT
 40
2.7375462663
  9
$DIMTOL
 70
1
  9
$DIMLIM
 70
0
  9
$DIMTFAC
 40
1.0
  9
$DIMTP
 40
0.01
  9
$DIMTM
 40
0.01
  9
$DIMGAP
 40
0.625
  9
$DIMDSEP
 70
46
  9
$AUNITS
 70
0
  9
$PDMODE
 70
3
  9
$PDSIZE
 40
0.3125
  9
$HANDSEED
  5
6D8
  9
$TILEMODE
 70
1
  9
$MEASUREMENT
 70
1
  9
$INSUNITS
 70
4
  0
ENDSEC
  0
SECTION
  2
CLASSES
  0
CLASS
  1
ACDBDICTIONARYWDFLT
  2
AcDbDictionaryWithDefault
  3
AutoCAD 2000
 90
0
 91
1
280
0
281
0
  0
CLASS
  1
ACDBPLACEHOLDER
  2
AcDbPlaceHolder
  3
AutoCAD 2000
 90
0
 91
1
280
0
281
0
  0
CLASS
  1
LAYOUT
  2
AcDbLayout
  3
AutoCAD 2000
 90
0
 91
0
280
0
281
0
  0
ENDSEC
  0
SECTION
  2
TABLES
  0
TABLE
  2
VPORT
  5
8
100
AcDbSymbolTable
 70
2
  0
VPORT
  5
1F4
100
AcDbSymbolTableRecord
100
AcDbViewportTableRecord
  2
*ACTIVE
 70
0
 10
0.0
 20
0.0
 11
1.0
 21
1.0
 12
82.1263879883
 22
116.1501772977
 13
0.0
 23
0.0
 14
1.0
 24
1.0
 15
0.0
 25
0.0
 16
0.0
 26
0.0
 36
1.0
 17
0.0
 27
0.0
 37
0.0
 40
232.3003545954
 41
0.7070707071
 42
50.0
 43
0.0
 44
0.0
 50
0.0
 51
0.0
 71
0
 72
100
 73
1
 74
1
 75
0
 76
0
 77
0
 78
0
  0
ENDTAB
  0
TABLE
  2
LTYPE
  5
5
100
AcDbSymbolTable
 70
6
  0
LTYPE
  5
14
100
AcDbSymbolTableRecord
100
AcDbLinetypeTableRecord
  2
BYBLOCK
 70
0
  3

 72
65
 73
0
 40
0.0
  0
LTYPE
  5
15
100
AcDbSymbolTableRecord
100
AcDbLinetypeTableRecord
  2
BYLAYER
 70
0
  3

 72
65
 73
0
 40
0.0
  0
LTYPE
  5
16
100
AcDbSymbolTableRecord
100
AcDbLinetypeTableRecord
  2
CONTINUOUS
 70
64
  3
Solid line
 72
65
 73
0
 40
0.0
  0
LTYPE
  5
1F5
100
AcDbSymbolTableRecord
100
AcDbLinetypeTableRecord
  2
CENTER
 70
64
  3
____ _ ____ _ ____ _ ____ _ ____ _ ____ _ ____
 72
65
 73
4
 40
0.6
 49
0.375
 74
0
 49
-0.075
 74
0
 49
0.075
 74
0
 49
-0.075
 74
0
  0
LTYPE
  5
1F6
100
AcDbSymbolTableRecord
100
AcDbLinetypeTableRecord
  2
HIDDEN
 70
64
  3
- - - - - - - - - - - - - - - - - - - -
 72
65
 73
2
 40
0.2
 49
0.1
 74
0
 49
-0.1
 74
0
  0
LTYPE
  5
1F7
100
AcDbSymbolTableRecord
100
AcDbLinetypeTableRecord
  2
PHANTOM
 70
64
  3
_____ _ _ _____ _ _ _____ _ _ _____
 72
65
 73
6
 40
0.8
 49
0.45
 74
0
 49
-0.05
 74
0
 49
0.1
 74
0
 49
-0.05
 74
0
 49
0.1
 74
0
 49
-0.05
 74
0
  0
LTYPE
  5
1F8
100
AcDbSymbolTableRecord
100
AcDbLinetypeTableRecord
  2
DOT
 70
64
  3
. . . . . . . . . . . . . . . . . . . .
 72
65
 73
2
 40
0.2
 49
0.1
 74
0
 49
-0.1
 74
0
  0
LTYPE
  5
1F9
100
AcDbSymbolTableRecord
100
AcDbLinetypeTableRecord
  2
DASHED
 70
64
  3
- - - - - - - - - - - - - - - - - - - -
 72
65
 73
2
 40
0.2
 49
0.1
 74
0
 49
-0.1
 74
0
  0
ENDTAB
  0
TABLE
  2
LAYER
  5
2
100
AcDbSymbolTable
 70
36
  0
LAYER
  5
10
100
AcDbSymbolTableRecord
100
AcDbLayerTableRecord
  2
0
 70
0
 62
7
  6
CONTINUOUS
370
-3
390
F
  0
LAYER
  5
1FA
100
AcDbSymbolTableRecord
100
AcDbLayerTableRecord
  2
DEFAULT_1
 70
0
 62
7
  6
CENTER
370
-3
390
F
  0
LAYER
  5
1FB
100
AcDbSymbolTableRecord
100
AcDbLayerTableRecord
  2
DEFAULT_2
 70
0
 62
8
  6
HIDDEN
370
-3
390
F
  0
LAYER
  5
1FC
100
AcDbSymbolTableRecord
100
AcDbLayerTableRecord
  2
DEFAULT_3
 70
0
 62
7
  6
PHANTOM
370
-3
390
F
  0
LAYER
  5
1FD
100
AcDbSymbolTableRecord
100
AcDbLayerTableRecord
  2
00_COMPONENTS
 70
0
 62
7
  6
CONTINUOUS
370
-3
390
F
  0
LAYER
  5
1FE
100
AcDbSymbolTableRecord
100
AcDbLayerTableRecord
  2
01_1_DEFAULT_DATUMS
 70
0
 62
7
  6
CONTINUOUS
370
-3
390
F
  0
LAYER
  5
1FF
100
AcDbSymbolTableRecord
100
AcDbLayerTableRecord
  2
01_PLANES
 70
0
 62
7
  6
CONTINUOUS
370
-3
390
F
  0
LAYER
  5
200
100
AcDbSymbolTableRecord
100
AcDbLayerTableRecord
  2
02_COORD_SYS
 70
0
 62
7
  6
CONTINUOUS
370
-3
390
F
  0
LAYER
  5
201
100
AcDbSymbolTableRecord
100
AcDbLayerTableRecord
  2
03_AXES
 70
0
 62
7
  6
CONTINUOUS
370
-3
390
F
  0
LAYER
  5
202
100
AcDbSymbolTableRecord
100
AcDbLayerTableRecord
  2
04_POINTS
 70
0
 62
7
  6
CONTINUOUS
370
-3
390
F
  0
LAYER
  5
203
100
AcDbSymbolTableRecord
100
AcDbLayerTableRecord
  2
05_CURVES
 70
0
 62
7
  6
CONTINUOUS
370
-3
390
F
  0
LAYER
  5
204
100
AcDbSymbolTableRecord
100
AcDbLayerTableRecord
  2
06_SURFS
 70
0
 62
7
  6
CONTINUOUS
370
-3
390
F
  0
LAYER
  5
205
100
AcDbSymbolTableRecord
100
AcDbLayerTableRecord
  2
07_COSMETICS
 70
0
 62
7
  6
CONTINUOUS
370
-3
390
F
  0
LAYER
  5
206
100
AcDbSymbolTableRecord
100
AcDbLayerTableRecord
  2
10_NOTES
 70
0
 62
7
  6
CONTINUOUS
370
-3
390
F
  0
LAYER
  5
207
100
AcDbSymbolTableRecord
100
AcDbLayerTableRecord
  2
11_NOTES_PUB
 70
0
 62
7
  6
CONTINUOUS
370
-3
390
F
  0
LAYER
  5
208
100
AcDbSymbolTableRecord
100
AcDbLayerTableRecord
  2
13_REF_GTOL
 70
0
 62
7
  6
CONTINUOUS
370
-3
390
F
  0
LAYER
  5
209
100
AcDbSymbolTableRecord
100
AcDbLayerTableRecord
  2
16_MISC
 70
0
 62
7
  6
CONTINUOUS
370
-3
390
F
  0
LAYER
  5
20A
100
AcDbSymbolTableRecord
100
AcDbLayerTableRecord
  2
17_NO_PRINT
 70
0
 62
7
  6
CONTINUOUS
370
-3
390
F
  0
LAYER
  5
20B
100
AcDbSymbolTableRecord
100
AcDbLayerTableRecord
  2
18_DATUM_CAMS_JOINTS
 70
0
 62
7
  6
CONTINUOUS
370
-3
390
F
  0
LAYER
  5
20C
100
AcDbSymbolTableRecord
100
AcDbLayerTableRecord
  2
19_DATUM_FUNCTIONAL
 70
0
 62
7
  6
CONTINUOUS
370
-3
390
F
  0
LAYER
  5
20D
100
AcDbSymbolTableRecord
100
AcDbLayerTableRecord
  2
20_DATUM_KINEMATIC_SCHEME
 70
0
 62
7
  6
CONTINUOUS
370
-3
390
F
  0
ENDTAB
  0
TABLE
  2
STYLE
  5
3
100
AcDbSymbolTable
 70
1
  0
STYLE
  5
11
100
AcDbSymbolTableRecord
100
AcDbTextStyleTableRecord
  2
STANDARD
 70
0
 40
0.0
 41
0.8
 50
0.0
 71
0
 42
0.2
  3
txt
  4

  0
STYLE
  5
20E
100
AcDbSymbolTableRecord
100
AcDbTextStyleTableRecord
  2
TEXTSTYLE_1
 70
0
 40
0.0
 41
0.8
 50
0.0
 71
0
 42
0.2
  3
gdt
  4

  0
ENDTAB
  0
TABLE
  2
VIEW
  5
6
100
AcDbSymbolTable
 70
0
  0
ENDTAB
  0
TABLE
  2
UCS
  5
7
100
AcDbSymbolTable
 70
0
  0
ENDTAB
  0
TABLE
  2
APPID
  5
9
100
AcDbSymbolTable
 70
1
  0
APPID
  5
20F
100
AcDbSymbolTableRecord
100
AcDbRegAppTableRecord
  2
ACAD
 70
0
  0
ENDTAB
  0
TABLE
  2
BLOCK_RECORD
  5
1
100
AcDbSymbolTable
 70
0
  0
BLOCK_RECORD
  5
210
100
AcDbSymbolTableRecord
100
AcDbBlockTableRecord
  2
*Model_Space
  0
BLOCK_RECORD
  5
211
100
AcDbSymbolTableRecord
100
AcDbBlockTableRecord
  2
*Paper_Space
  0
BLOCK_RECORD
  5
212
100
AcDbSymbolTableRecord
100
AcDbBlockTableRecord
  2
_FILLED
  0
ENDTAB
  0
TABLE
  2
DIMSTYLE
  5
A
100
AcDbSymbolTable
 70
1
100
AcDbDimStyleTable
 71
0
  0
DIMSTYLE
105
213
100
AcDbSymbolTableRecord
100
AcDbDimStyleTableRecord
  2
STANDARD
 70
0
  3

  4

 40
1.0
 41
1.9553901902
 42
1.0
 43
0.38
 44
1.0
 45
0.0
 46
0.0
 47
0.01
 48
0.01
140
2.7375462663
141
0.09
142
0.0
143
25.4
144
1.0
145
0.0
146
1.0
147
0.625
 71
1
 72
0
 73
0
 74
0
 75
0
 76
0
 77
1
 78
8
 79
2
170
0
171
1
172
0
173
0
174
0
175
0
176
0
177
0
178
0
270
2
179
2
271
2
272
2
273
2
274
2
275
0
280
0
281
0
282
0
283
1
284
8
285
0
286
0
287
3
288
0
340
11
278
46
341
212
342
212
343
212
344
212
  0
ENDTAB
  0
ENDSEC
  0
SECTION
  2
BLOCKS
  0
BLOCK
  5
20
100
AcDbEntity
  8
0
100
AcDbBlockBegin
  2
*Model_Space
 70
0
 10
0.0
 20
0.0
 30
0.0
  3
*Model_Space
  1

  0
ENDBLK
  5
21
100
AcDbEntity
  8
0
100
AcDbBlockEnd
  0
BLOCK
  5
1C
100
AcDbEntity
  8
0
100
AcDbBlockBegin
  2
*Paper_Space
 70
0
 10
0.0
 20
0.0
 30
0.0
  3
*Paper_Space
  1

  0
ENDBLK
  5
1D
100
AcDbEntity
  8
0
100
AcDbBlockEnd
  0
BLOCK
  5
214
100
AcDbEntity
  8
0
100
AcDbBlockBegin
  2
_FILLED
 70
64
 10
0.0
 20
0.0
  3
_FILLED
  1

  0
SOLID
  5
215
100
AcDbEntity
  8
0
  6
BYBLOCK
 62
0
100
AcDbTrace
 10
0.0
 20
0.0
 11
-1.0
 21
0.25
 12
-1.0
 22
-0.25
 13
-1.0
 23
-0.25
  0
ENDBLK
  5
216
100
AcDbEntity
  8
0
  6
BYBLOCK
 62
0
100
AcDbBlockEnd
  0
ENDSEC
  0
SECTION
  2
ENTITIES
  0
LINE
  5
217
100
AcDbEntity
  8
0
100
AcDbLine
 62
7
  6
CONTINUOUS
 10
19.0552117891
 20
112.2741435764
 11
19.1001217218
 21
111.656503178
  0
LINE
  5
218
100
AcDbEntity
  8
0
100
AcDbLine
 62
7
  6
CONTINUOUS
 10
24.0756908374
 20
127.5059666
 11
24.0756908374
 21
135.8303125344
  0
LINE
  5
219
100
AcDbEntity
  8
0
100
AcDbLine
 62
7
  6
CONTINUOUS
 10
30.0154125287
 20
105.9464118814
 11
30.0154125287
 21
97.4280936411
  0
LINE
  5
21A
100
AcDbEntity
  8
0
100
AcDbLine
 62
7
  6
CONTINUOUS
 10
30.5457448225
 20
111.6006989606
 11
30.5457448225
 21
109.0287163466
  0
LINE
  5
21B
100
AcDbEntity
  8
0
100
AcDbLine
 62
7
  6
CONTINUOUS
 10
30.7225222538
 20
109.0491315206
 11
30.7225222538
 21
109.4573827291
  0
LINE
  5
21C
100
AcDbEntity
  8
0
100
AcDbLine
 62
7
  6
CONTINUOUS
 10
31.0760682845
 20
103.4560689272
 11
31.0760682845
 21
98.0404598719
  0
LINE
  5
21D
100
AcDbEntity
  8
0
100
AcDbLine
 62
7
  6
CONTINUOUS
 10
31.7831780097
 20
104.9258150941
 11
31.7831780097
 21
103.0478281726
  0
LINE
  5
21E
100
AcDbEntity
  8
0
100
AcDbLine
 62
7
  6
CONTINUOUS
 10
32.9371810811
 20
97.1305689149
 11
32.9371810811
 21
104.2595661828
  0
LINE
  5
21F
100
AcDbEntity
  8
0
100
AcDbLine
 62
7
  6
CONTINUOUS
 10
69.2495458561
 20
170.7526392169
 11
48.460693042
 21
158.7502610931
  0
LINE
  5
220
100
AcDbEntity
  8
0
100
AcDbLine
 62
7
  6
CONTINUOUS
 10
49.4606885651
 20
158.6512125351
 11
70.2495413792
 21
170.6535906589
  0
LINE
  5
221
100
AcDbEntity
  8
0
100
AcDbLine
 62
7
  6
CONTINUOUS
 10
33.9978368369
 20
99.3803796552
 11
33.9978368369
 21
103.64721015
  0
LINE
  5
222
100
AcDbEntity
  8
0
100
AcDbLine
 62
7
  6
CONTINUOUS
 10
35.4120651191
 20
102.8307235419
 11
35.4120651191
 21
95.9029419606
  0
LINE
  5
223
100
AcDbEntity
  8
0
100
AcDbLine
 62
7
  6
CONTINUOUS
 10
35.6722903299
 20
106.1914462389
 11
35.6722903299
 21
106.5996974475
  0
LINE
  5
224
100
AcDbEntity
  8
0
100
AcDbLine
 62
7
  6
CONTINUOUS
 10
35.8490677611
 20
105.9669106877
 11
35.8490677611
 21
108.5388933017
  0
LINE
  5
225
100
AcDbEntity
  8
0
100
AcDbLine
 62
7
  6
CONTINUOUS
 10
36.0258039769
 20
134.156614293
 11
36.0258039769
 21
134.6464381418
  0
LINE
  5
226
100
AcDbEntity
  8
0
100
AcDbLine
 62
7
  6
CONTINUOUS
 10
36.379400055
 20
102.2722450908
 11
36.379400055
 21
94.2696093869
  0
LINE
  5
227
100
AcDbEntity
  8
0
100
AcDbLine
 62
7
  6
CONTINUOUS
 10
38.8542193258
 20
135.4280210413
 11
38.8542193258
 21
136.2794147573
  0
LINE
  5
228
100
AcDbEntity
  8
0
100
AcDbLine
 62
7
  6
CONTINUOUS
 10
30.7225222538
 20
109.4573827291
 11
31.4801418224
 21
111.0612368055
  0
LINE
  5
229
100
AcDbEntity
  8
0
100
AcDbLine
 62
7
  6
CONTINUOUS
 10
25.4898985119
 20
136.6468008422
 11
24.0756908374
 21
135.8303125344
  0
LINE
  5
22A
100
AcDbEntity
  8
0
100
AcDbLine
 62
7
  6
CONTINUOUS
 10
26.3384301821
 20
136.1569119367
 11
53.9154798334
 21
152.0784339377
  0
LINE
  5
22B
100
AcDbEntity
  8
0
100
AcDbLine
 62
7
  6
CONTINUOUS
 10
38.5007292305
 20
106.5997392637
 11
40.0316666936
 21
102.6539880387
  0
LINE
  5
22C
100
AcDbEntity
  8
0
100
AcDbLine
 62
7
  6
CONTINUOUS
 10
38.5007292305
 20
107.4162416808
 11
36.9697917674
 21
111.3619929057
  0
LINE
  5
22D
100
AcDbEntity
  8
0
100
AcDbLine
 62
7
  6
CONTINUOUS
 10
41.6826346746
 20
137.0609976568
 11
41.6826346746
 21
137.9123913727
  0
LINE
  5
22E
100
AcDbEntity
  8
0
100
AcDbLine
 62
7
  6
CONTINUOUS
 10
43.4504973065
 20
110.3965486816
 11
43.4504973065
 21
117.7450704358
  0
LINE
  5
22F
100
AcDbEntity
  8
0
100
AcDbLine
 62
7
  6
CONTINUOUS
 10
43.94616792
 20
128.3605962324
 11
43.94616792
 21
129.5853498582
  0
LINE
  5
230
100
AcDbEntity
  8
0
100
AcDbLine
 62
7
  6
CONTINUOUS
 10
44.1576070316
 20
117.3368296813
 11
44.1576070316
 21
110.8048103443
  0
LINE
  5
231
100
AcDbEntity
  8
0
100
AcDbLine
 62
7
  6
CONTINUOUS
 10
44.5110500235
 20
138.6939742723
 11
44.5110500235
 21
139.5453679882
  0
LINE
  5
232
100
AcDbEntity
  8
0
100
AcDbLine
 62
7
  6
CONTINUOUS
 10
44.5111618942
 20
128.0330165727
 11
44.5111618942
 21
123.9505044871
  0
LINE
  5
233
100
AcDbEntity
  8
0
100
AcDbLine
 62
7
  6
CONTINUOUS
 10
44.6532776452
 20
129.1771091035
 11
44.6532776452
 21
124.0331438756
  0
LINE
  5
234
100
AcDbEntity
  8
0
100
AcDbLine
 62
7
  6
CONTINUOUS
 10
42.0369716621
 20
129.4628462696
 11
42.2679008407
 21
136.9655178731
  0
LINE
  5
235
100
AcDbEntity
  8
0
100
AcDbLine
 62
7
  6
CONTINUOUS
 10
31.7831780097
 20
103.0478281726
 11
31.6796181279
 21
102.8189419491
  0
LINE
  5
236
100
AcDbEntity
  8
0
100
AcDbLine
 62
7
  6
CONTINUOUS
 10
35.8490677611
 20
106.9739290745
 11
35.6722903299
 21
106.5996974475
  0
LINE
  5
237
100
AcDbEntity
  8
0
100
AcDbLine
 62
7
  6
CONTINUOUS
 10
43.9463832961
 20
129.5994732751
 11
44.0497409748
 21
129.814213378
  0
LINE
  5
238
100
AcDbEntity
  8
0
100
AcDbLine
 62
7
  6
CONTINUOUS
 10
40.0316666935
 20
125.924306927
 11
38.5007292305
 21
123.7462900234
  0
LINE
  5
239
100
AcDbEntity
  8
0
100
AcDbLine
 62
7
  6
CONTINUOUS
 10
36.9697917673
 20
120.7517707027
 11
38.5007292305
 21
122.9297876063
  0
LINE
  5
23A
100
AcDbEntity
  8
0
100
AcDbLine
 62
7
  6
CONTINUOUS
 10
38.7995935315
 20
122.1595117391
 11
38.3839994418
 21
121.5682590105
  0
LINE
  5
23B
100
AcDbEntity
  8
0
100
AcDbLine
 62
7
  6
CONTINUOUS
 10
40.5053403931
 20
122.9972046201
 11
42.0362778562
 21
125.1752215236
  0
LINE
  5
23C
100
AcDbEntity
  8
0
100
AcDbLine
 62
7
  6
CONTINUOUS
 10
34.6115963025
 20
133.829949834
 11
36.0258039769
 21
134.6464381418
  0
LINE
  5
23D
100
AcDbEntity
  8
0
100
AcDbLine
 62
7
  6
CONTINUOUS
 10
37.4400116513
 20
135.4629264495
 11
38.8542193258
 21
136.2794147573
  0
LINE
  5
23E
100
AcDbEntity
  8
0
100
AcDbLine
 62
7
  6
CONTINUOUS
 10
40.2684270002
 20
137.095903065
 11
41.6826346746
 21
137.9123913727
  0
LINE
  5
23F
100
AcDbEntity
  8
0
100
AcDbLine
 62
7
  6
CONTINUOUS
 10
43.096842349
 20
138.7288796805
 11
44.5110500235
 21
139.5453679882
  0
LINE
  5
240
100
AcDbEntity
  8
0
100
AcDbLine
 62
7
  6
CONTINUOUS
 10
45.9252576979
 20
140.361856296
 11
47.3394653723
 21
141.1783446037
  0
LINE
  5
241
100
AcDbEntity
  8
0
100
AcDbLine
 62
7
  6
CONTINUOUS
 10
48.7536730468
 20
141.9948329115
 11
50.1678807212
 21
142.8113212192
  0
LINE
  5
242
100
AcDbEntity
  8
0
100
AcDbLine
 62
7
  6
CONTINUOUS
 10
51.5820883956
 20
143.6278095269
 11
52.99629607
 21
144.4442978347
  0
LINE
  5
243
100
AcDbEntity
  8
0
100
AcDbLine
 62
7
  6
CONTINUOUS
 10
54.4105037445
 20
145.2607861424
 11
55.8247114189
 21
146.0772744502
  0
LINE
  5
244
100
AcDbEntity
  8
0
100
AcDbLine
 62
7
  6
CONTINUOUS
 10
57.2389190933
 20
146.8937627579
 11
58.6531267677
 21
147.7102510657
  0
LINE
  5
245
100
AcDbEntity
  8
0
100
AcDbLine
 62
7
  6
CONTINUOUS
 10
34.9651806047
 20
133.5442667587
 11
38.5006997908
 21
135.5854875281
  0
LINE
  5
246
100
AcDbEntity
  8
0
100
AcDbLine
 62
7
  6
CONTINUOUS
 10
39.9149074652
 20
136.4019758358
 11
41.3291151396
 21
137.2184641436
  0
LINE
  5
247
100
AcDbEntity
  8
0
100
AcDbLine
 62
7
  6
CONTINUOUS
 10
42.7433228141
 20
138.0349524513
 11
44.1575304885
 21
138.8514407591
  0
LINE
  5
248
100
AcDbEntity
  8
0
100
AcDbLine
 62
7
  6
CONTINUOUS
 10
45.5717381629
 20
139.6679290668
 11
46.9859458373
 21
140.4844173746
  0
LINE
  5
249
100
AcDbEntity
  8
0
100
AcDbLine
 62
7
  6
CONTINUOUS
 10
48.4001535118
 20
141.3009056823
 11
49.8143611862
 21
142.11739399
  0
LINE
  5
24A
100
AcDbEntity
  8
0
100
AcDbLine
 62
7
  6
CONTINUOUS
 10
51.2285688606
 20
142.9338822978
 11
52.6427765351
 21
143.7503706055
  0
LINE
  5
24B
100
AcDbEntity
  8
0
100
AcDbLine
 62
7
  6
CONTINUOUS
 10
54.0569842095
 20
144.5668589133
 11
55.4711918839
 21
145.383347221
  0
LINE
  5
24C
100
AcDbEntity
  8
0
100
AcDbLine
 62
7
  6
CONTINUOUS
 10
56.8853995583
 20
146.1998355288
 11
58.2996072328
 21
147.0163238365
  0
LINE
  5
24D
100
AcDbEntity
  8
0
100
AcDbLine
 62
7
  6
CONTINUOUS
 10
59.7138149072
 20
147.8328121442
 11
61.1280225816
 21
148.649300452
  0
LINE
  5
24E
100
AcDbEntity
  8
0
100
AcDbLine
 62
7
  6
CONTINUOUS
 10
62.5422302561
 20
149.4657887597
 11
63.9564379305
 21
150.2822770675
  0
LINE
  5
24F
100
AcDbEntity
  8
0
100
AcDbLine
 62
7
  6
CONTINUOUS
 10
84.7452907446
 20
162.2846551913
 11
85.8766568841
 21
162.9378458375
  0
LINE
  5
250
100
AcDbEntity
  8
0
100
AcDbLine
 62
7
  6
CONTINUOUS
 10
45.878812217
 20
90.0924984502
 11
47.1716846519
 21
89.3460750882
  0
LINE
  5
251
100
AcDbEntity
  8
0
100
AcDbLine
 62
7
  6
CONTINUOUS
 10
70.5327997796
 20
77.4919016612
 11
45.3596935644
 21
92.0252725222
  0
LINE
  5
252
100
AcDbEntity
  8
0
100
AcDbLine
 62
7
  6
CONTINUOUS
 10
42.0362778562
 20
101.0884002183
 11
40.5053403931
 21
105.0341514432
  0
LINE
  5
253
100
AcDbEntity
  8
0
100
AcDbLine
 62
7
  6
CONTINUOUS
 10
39.2004785141
 20
110.0741344473
 11
39.6160726038
 21
109.0030058558
  0
LINE
  5
254
100
AcDbEntity
  8
0
100
AcDbLine
 62
7
  6
CONTINUOUS
 10
42.7360271399
 20
103.7462929847
 11
43.1516212296
 21
102.6751643932
  0
LINE
  5
255
100
AcDbEntity
  8
0
100
AcDbLine
 62
7
  6
CONTINUOUS
 10
38.5007292305
 20
114.764763435
 11
40.0316666936
 21
110.81901221
  0
LINE
  5
256
100
AcDbEntity
  8
0
100
AcDbLine
 62
7
  6
CONTINUOUS
 10
38.5007292305
 20
115.5812658521
 11
36.9697917674
 21
119.527017077
  0
LINE
  5
257
100
AcDbEntity
  8
0
100
AcDbLine
 62
7
  6
CONTINUOUS
 10
42.0362778562
 20
108.845173181
 11
43.5672153193
 21
104.8994219561
  0
LINE
  5
258
100
AcDbEntity
  8
0
100
AcDbLine
 62
7
  6
CONTINUOUS
 10
39.2004785141
 20
118.2391586185
 11
39.6160726038
 21
117.168030027
  0
LINE
  5
259
100
AcDbEntity
  8
0
100
AcDbLine
 62
7
  6
CONTINUOUS
 10
45.5718264819
 20
102.5173317185
 11
47.102763945
 21
98.5715804935
  0
LINE
  5
25A
100
AcDbEntity
  8
0
100
AcDbLine
 62
7
  6
CONTINUOUS
 10
45.5718264819
 20
103.3338341356
 11
44.0408890189
 21
107.2795853605
  0
LINE
  5
25B
100
AcDbEntity
  8
0
100
AcDbLine
 62
7
  6
CONTINUOUS
 10
38.5007292305
 20
122.9297876063
 11
40.0316666936
 21
118.9840363813
  0
LINE
  5
25C
100
AcDbEntity
  8
0
100
AcDbLine
 62
7
  6
CONTINUOUS
 10
38.5007292305
 20
123.7462900234
 11
36.9697917674
 21
127.6920412483
  0
LINE
  5
25D
100
AcDbEntity
  8
0
100
AcDbLine
 62
7
  6
CONTINUOUS
 10
49.1073751077
 20
97.0059926731
 11
47.5764376446
 21
100.951743898
  0
LINE
  5
25E
100
AcDbEntity
  8
0
100
AcDbLine
 62
7
  6
CONTINUOUS
 10
47.3394653723
 20
140.3269508878
 11
47.3394653723
 21
141.1783446037
  0
LINE
  5
25F
100
AcDbEntity
  8
0
100
AcDbLine
 62
7
  6
CONTINUOUS
 10
47.5163782261
 20
93.8011971642
 11
47.5163782261
 21
95.8424532071
  0
LINE
  5
260
100
AcDbEntity
  8
0
100
AcDbLine
 62
7
  6
CONTINUOUS
 10
47.6931556574
 20
108.7636065717
 11
47.6931556574
 21
115.2956259087
  0
LINE
  5
261
100
AcDbEntity
  8
0
100
AcDbLine
 62
7
  6
CONTINUOUS
 10
48.0464691148
 20
157.8346892098
 11
48.0464691148
 21
148.6899792458
  0
LINE
  5
262
100
AcDbEntity
  8
0
100
AcDbLine
 62
7
  6
CONTINUOUS
 10
48.0467105199
 20
95.5362726412
 11
48.0467105199
 21
93.6583170818
  0
LINE
  5
263
100
AcDbEntity
  8
0
100
AcDbLine
 62
7
  6
CONTINUOUS
 10
48.4002653825
 20
114.8873851542
 11
48.4002653825
 21
107.5388634
  0
LINE
  5
264
100
AcDbEntity
  8
0
100
AcDbLine
 62
7
  6
CONTINUOUS
 10
50.1678807212
 20
141.9599275033
 11
50.1678807212
 21
142.8113212192
  0
LINE
  5
265
100
AcDbEntity
  8
0
100
AcDbLine
 62
7
  6
CONTINUOUS
 10
45.17432726
 20
89.6857662984
 11
45.3596935644
 21
92.0252725221
  0
LINE
  5
266
100
AcDbEntity
  8
0
100
AcDbLine
 62
7
  6
CONTINUOUS
 10
47.1716846519
 20
89.3460750882
 11
47.2956387717
 21
90.9104987601
  0
LINE
  5
267
100
AcDbEntity
  8
0
100
AcDbLine
 62
7
  6
CONTINUOUS
 10
48.0848407481
 20
122.0519748145
 11
50.4011427789
 21
128.0632092211
  0
LINE
  5
268
100
AcDbEntity
  8
0
100
AcDbLine
 62
7
  6
CONTINUOUS
 10
50.4903975395
 20
127.8469910273
 11
48.1740955087
 21
121.8357566207
  0
LINE
  5
269
100
AcDbEntity
  8
0
100
AcDbLine
 62
7
  6
CONTINUOUS
 10
42.3351421572
 20
124.4049456565
 11
41.9195480675
 21
123.8136929278
  0
LINE
  5
26A
100
AcDbEntity
  8
0
100
AcDbLine
 62
7
  6
CONTINUOUS
 10
40.0316666935
 20
117.7592827557
 11
38.5007292305
 21
115.5812658521
  0
LINE
  5
26B
100
AcDbEntity
  8
0
100
AcDbLine
 62
7
  6
CONTINUOUS
 10
36.9697917673
 20
112.5867465314
 11
38.5007292305
 21
114.764763435
  0
LINE
  5
26C
100
AcDbEntity
  8
0
100
AcDbLine
 62
7
  6
CONTINUOUS
 10
38.7995935315
 20
113.9944875678
 11
38.3839994418
 21
113.4032348392
  0
LINE
  5
26D
100
AcDbEntity
  8
0
100
AcDbLine
 62
7
  6
CONTINUOUS
 10
93.17937712
 20
166.3590969519
 11
80.2747320909
 21
158.9086411437
  0
LINE
  5
26E
100
AcDbEntity
  8
0
100
AcDbLine
 62
7
  6
CONTINUOUS
 10
79.5676282537
 20
158.5003969898
 11
76.0321090676
 21
156.4591762205
  0
LINE
  5
26F
100
AcDbEntity
  8
0
100
AcDbLine
 62
7
  6
CONTINUOUS
 10
72.4965898815
 20
154.4179554511
 11
55.879649707
 21
144.8242178351
  0
LINE
  5
270
100
AcDbEntity
  8
0
100
AcDbLine
 62
7
  6
CONTINUOUS
 10
55.1725458698
 20
144.4159736813
 11
42.2679008407
 21
136.9655178731
  0
LINE
  5
271
100
AcDbEntity
  8
0
100
AcDbLine
 62
7
  6
CONTINUOUS
 10
76.0170491653
 20
155.9698941726
 11
72.9730890204
 21
154.212473454
  0
LINE
  5
272
100
AcDbEntity
  8
0
100
AcDbLine
 62
7
  6
CONTINUOUS
 10
40.2684741036
 20
134.5648856418
 11
41.6826817781
 21
135.3813739495
  0
LINE
  5
273
100
AcDbEntity
  8
0
100
AcDbLine
 62
7
  6
CONTINUOUS
 10
82.5143239179
 20
157.9740314659
 11
81.8072200807
 21
157.565787312
  0
LINE
  5
274
100
AcDbEntity
  8
0
100
AcDbLine
 62
7
  6
CONTINUOUS
 10
58.119241534
 20
143.8896081573
 11
57.4121376968
 21
143.4813640034
  0
LINE
  5
275
100
AcDbEntity
  8
0
100
AcDbLine
 62
7
  6
CONTINUOUS
 10
33.9978368369
 20
101.0133426733
 11
35.4120445113
 21
100.1968679629
  0
LINE
  5
276
100
AcDbEntity
  8
0
100
AcDbLine
 62
7
  6
CONTINUOUS
 10
83.6623954923
 20
72.3401450389
 11
85.0766031668
 21
71.5236703285
  0
LINE
  5
277
100
AcDbEntity
  8
0
100
AcDbLine
 62
7
  6
CONTINUOUS
 10
68.3761151179
 20
81.7580949059
 11
47.5163782261
 21
93.8011971642
  0
LINE
  5
278
100
AcDbEntity
  8
0
100
AcDbLine
 62
7
  6
CONTINUOUS
 10
48.0467105199
 20
93.6583170818
 11
67.845782824
 21
82.2275759552
  0
LINE
  5
279
100
AcDbEntity
  8
0
100
AcDbLine
 62
7
  6
CONTINUOUS
 10
85.8770808153
 20
73.6953922743
 11
79.513093289
 21
77.369559065
  0
LINE
  5
27A
100
AcDbEntity
  8
0
100
AcDbLine
 62
7
  6
CONTINUOUS
 10
36.379400055
 20
102.2722450908
 11
30.0154125287
 21
105.9464118814
  0
LINE
  5
27B
100
AcDbEntity
  8
0
100
AcDbLine
 62
7
  6
CONTINUOUS
 10
47.5163782261
 20
95.8424532071
 11
48.0467105199
 21
95.5362726412
  0
LINE
  5
27C
100
AcDbEntity
  8
0
100
AcDbLine
 62
7
  6
CONTINUOUS
 10
67.845782824
 20
84.1055315146
 11
68.3761151179
 21
83.7993509487
  0
LINE
  5
27D
100
AcDbEntity
  8
0
100
AcDbLine
 62
7
  6
CONTINUOUS
 10
98.7051526218
 20
68.579728378
 11
98.225278266
 21
68.8567776988
  0
LINE
  5
27E
100
AcDbEntity
  8
0
100
AcDbLine
 62
7
  6
CONTINUOUS
 10
75.3871529509
 20
82.2419503127
 11
72.3252780247
 21
84.0096846341
  0
LINE
  5
27F
100
AcDbEntity
  8
0
100
AcDbLine
 62
7
  6
CONTINUOUS
 10
68.3160556995
 20
86.3243578579
 11
65.2541807732
 21
88.0920921793
  0
LINE
  5
280
100
AcDbEntity
  8
0
100
AcDbLine
 62
7
  6
CONTINUOUS
 10
61.244958448
 20
90.4067654031
 11
58.1830835218
 21
92.1744997245
  0
LINE
  5
281
100
AcDbEntity
  8
0
100
AcDbLine
 62
7
  6
CONTINUOUS
 10
54.1738611965
 20
94.4891729483
 11
51.1119862703
 21
96.2569072697
  0
LINE
  5
282
100
AcDbEntity
  8
0
100
AcDbLine
 62
7
  6
CONTINUOUS
 10
47.102763945
 20
98.5715804935
 11
44.0408890188
 21
100.3393148149
  0
LINE
  5
283
100
AcDbEntity
  8
0
100
AcDbLine
 62
7
  6
CONTINUOUS
 10
40.0316666936
 20
102.6539880387
 11
36.9697917673
 21
104.4217223601
  0
LINE
  5
284
100
AcDbEntity
  8
0
100
AcDbLine
 62
7
  6
CONTINUOUS
 10
98.1959428421
 20
69.4863046939
 11
98.7053377701
 21
69.1922120484
  0
LINE
  5
285
100
AcDbEntity
  8
0
100
AcDbLine
 62
7
  6
CONTINUOUS
 10
46.2715757656
 20
105.991726902
 11
46.6871698553
 21
104.9205983106
  0
LINE
  5
286
100
AcDbEntity
  8
0
100
AcDbLine
 62
7
  6
CONTINUOUS
 10
39.2004785141
 20
126.4041827898
 11
39.6160726038
 21
125.3330541983
  0
LINE
  5
287
100
AcDbEntity
  8
0
100
AcDbLine
 62
7
  6
CONTINUOUS
 10
49.8071243913
 20
99.6638854395
 11
50.222718481
 21
98.592756848
  0
LINE
  5
288
100
AcDbEntity
  8
0
100
AcDbLine
 62
7
  6
CONTINUOUS
 10
49.1073751077
 20
104.7627656358
 11
50.6383125708
 21
100.8170144109
  0
LINE
  5
289
100
AcDbEntity
  8
0
100
AcDbLine
 62
7
  6
CONTINUOUS
 10
42.0362778562
 20
125.1752215236
 11
43.5672153193
 21
121.2294702987
  0
LINE
  5
28A
100
AcDbEntity
  8
0
100
AcDbLine
 62
7
  6
CONTINUOUS
 10
52.6429237334
 20
98.4349241733
 11
54.1738611965
 21
94.4891729483
  0
LINE
  5
28B
100
AcDbEntity
  8
0
100
AcDbLine
 62
7
  6
CONTINUOUS
 10
52.6429237334
 20
99.2514265904
 11
51.1119862703
 21
103.1971778153
  0
LINE
  5
28C
100
AcDbEntity
  8
0
100
AcDbLine
 62
7
  6
CONTINUOUS
 10
45.5718264819
 20
119.6638824782
 11
44.0408890189
 21
123.6096337031
  0
LINE
  5
28D
100
AcDbEntity
  8
0
100
AcDbLine
 62
7
  6
CONTINUOUS
 10
56.1784723591
 20
92.9235851279
 11
54.6475348961
 21
96.8693363528
  0
LINE
  5
28E
100
AcDbEntity
  8
0
100
AcDbLine
 62
7
  6
CONTINUOUS
 10
53.3426730171
 20
101.9093193568
 11
53.7582671068
 21
100.8381907653
  0
LINE
  5
28F
100
AcDbEntity
  8
0
100
AcDbLine
 62
7
  6
CONTINUOUS
 10
52.99629607
 20
143.5929041187
 11
52.99629607
 21
144.4442978347
  0
LINE
  5
290
100
AcDbEntity
  8
0
100
AcDbLine
 62
7
  6
CONTINUOUS
 10
55.8247114189
 20
145.2258807342
 11
55.8247114189
 21
146.0772744502
  0
LINE
  5
291
100
AcDbEntity
  8
0
100
AcDbLine
 62
7
  6
CONTINUOUS
 10
55.8584505985
 20
144.135478757
 11
55.879649707
 21
144.8242178351
  0
LINE
  5
292
100
AcDbEntity
  8
0
100
AcDbLine
 62
7
  6
CONTINUOUS
 10
47.102763945
 20
121.8418993818
 11
45.5718264819
 21
119.6638824782
  0
LINE
  5
293
100
AcDbEntity
  8
0
100
AcDbLine
 62
7
  6
CONTINUOUS
 10
40.0316666935
 20
109.5942585844
 11
38.5007292305
 21
107.4162416808
  0
LINE
  5
294
100
AcDbEntity
  8
0
100
AcDbLine
 62
7
  6
CONTINUOUS
 10
36.9697917673
 20
104.4217223601
 11
38.5007292305
 21
106.5997392637
  0
LINE
  5
295
100
AcDbEntity
  8
0
100
AcDbLine
 62
7
  6
CONTINUOUS
 10
47.5764376446
 20
118.9147970749
 11
49.1073751077
 21
121.0928139784
  0
LINE
  5
296
100
AcDbEntity
  8
0
100
AcDbLine
 62
7
  6
CONTINUOUS
 10
38.7995935315
 20
105.8294633965
 11
38.3839994418
 21
105.2382106679
  0
LINE
  5
297
100
AcDbEntity
  8
0
100
AcDbLine
 62
7
  6
CONTINUOUS
 10
49.4062394087
 20
120.3225381113
 11
48.990645319
 21
119.7312853826
  0
LINE
  5
298
100
AcDbEntity
  8
0
100
AcDbLine
 62
7
  6
CONTINUOUS
 10
40.5053403931
 20
106.6671562775
 11
42.0362778562
 21
108.845173181
  0
LINE
  5
299
100
AcDbEntity
  8
0
100
AcDbLine
 62
7
  6
CONTINUOUS
 10
51.1119862703
 20
120.7519797836
 11
52.6429237334
 21
122.9299966872
  0
LINE
  5
29A
100
AcDbEntity
  8
0
100
AcDbLine
 62
7
  6
CONTINUOUS
 10
42.3351421572
 20
108.0748973139
 11
41.9195480675
 21
107.4836445852
  0
LINE
  5
29B
100
AcDbEntity
  8
0
100
AcDbLine
 62
7
  6
CONTINUOUS
 10
52.9417880345
 20
122.15972082
 11
52.5261939447
 21
121.5684680914
  0
LINE
  5
29C
100
AcDbEntity
  8
0
100
AcDbLine
 62
7
  6
CONTINUOUS
 10
43.94616792
 20
129.5853498581
 11
44.2954580342
 21
129.7870113957
  0
LINE
  5
29D
100
AcDbEntity
  8
0
100
AcDbLine
 62
7
  6
CONTINUOUS
 10
43.94616792
 20
128.3605962324
 11
44.6532776452
 21
128.7688437856
  0
LINE
  5
29E
100
AcDbEntity
  8
0
100
AcDbLine
 62
7
  6
CONTINUOUS
 10
44.6532776452
 20
128.11506665
 11
44.5111618942
 21
128.0330165727
  0
LINE
  5
29F
100
AcDbEntity
  8
0
100
AcDbLine
 62
7
  6
CONTINUOUS
 10
104.7774528189
 20
78.720532939
 11
105.5997745056
 21
78.5002039776
  0
LINE
  5
2A0
100
AcDbEntity
  8
0
100
AcDbLine
 62
7
  6
CONTINUOUS
 10
30.5457448225
 20
109.0287163466
 11
35.8490677611
 21
105.9669106877
  0
LINE
  5
2A1
100
AcDbEntity
  8
0
100
AcDbLine
 62
7
  6
CONTINUOUS
 10
80.0434255828
 20
80.4518635302
 11
85.3467485214
 21
77.3900578713
  0
LINE
  5
2A2
100
AcDbEntity
  8
0
100
AcDbLine
 62
7
  6
CONTINUOUS
 10
30.7225222538
 20
109.0491315206
 11
35.6722903299
 21
106.1914462389
  0
LINE
  5
2A3
100
AcDbEntity
  8
0
100
AcDbLine
 62
7
  6
CONTINUOUS
 10
80.2202030141
 20
80.4722787042
 11
85.1699710901
 21
77.6145934225
  0
LINE
  5
2A4
100
AcDbEntity
  8
0
100
AcDbLine
 62
7
  6
CONTINUOUS
 10
98.1409939557
 20
70.1983166365
 11
99.2946985384
 21
69.5322400538
  0
LINE
  5
2A5
100
AcDbEntity
  8
0
100
AcDbLine
 62
7
  6
CONTINUOUS
 10
30.7225222538
 20
109.4573827292
 11
35.6722903299
 21
106.5996974475
  0
LINE
  5
2A6
100
AcDbEntity
  8
0
100
AcDbLine
 62
7
  6
CONTINUOUS
 10
80.2202030141
 20
80.8805299127
 11
85.1699710901
 21
78.0228446311
  0
LINE
  5
2A7
100
AcDbEntity
  8
0
100
AcDbLine
 62
7
  6
CONTINUOUS
 10
74.5706738786
 20
84.3462970789
 11
73.7394856992
 21
84.8261729418
  0
LINE
  5
2A8
100
AcDbEntity
  8
0
100
AcDbLine
 62
7
  6
CONTINUOUS
 10
67.4995766271
 20
88.4287046241
 11
66.6683884477
 21
88.908580487
  0
LINE
  5
2A9
100
AcDbEntity
  8
0
100
AcDbLine
 62
7
  6
CONTINUOUS
 10
60.4284793757
 20
92.5111121693
 11
59.5972911962
 21
92.9909880322
  0
LINE
  5
2AA
100
AcDbEntity
  8
0
100
AcDbLine
 62
7
  6
CONTINUOUS
 10
53.3573821242
 20
96.5935197145
 11
52.5261939448
 21
97.0733955774
  0
LINE
  5
2AB
100
AcDbEntity
  8
0
100
AcDbLine
 62
7
  6
CONTINUOUS
 10
46.2862848727
 20
100.6759272597
 11
45.4550966933
 21
101.1558031227
  0
LINE
  5
2AC
100
AcDbEntity
  8
0
100
AcDbLine
 62
7
  6
CONTINUOUS
 10
39.2151876213
 20
104.758334805
 11
38.3839994418
 21
105.2382106679
  0
LINE
  5
2AD
100
AcDbEntity
  8
0
100
AcDbLine
 62
7
  6
CONTINUOUS
 10
100.5908412027
 20
70.280041449
 11
97.9784673984
 21
71.7882620476
  0
LINE
  5
2AE
100
AcDbEntity
  8
0
100
AcDbLine
 62
7
  6
CONTINUOUS
 10
40.5053403931
 20
105.0341514432
 11
43.5672153193
 21
103.2664171218
  0
LINE
  5
2AF
100
AcDbEntity
  8
0
100
AcDbLine
 62
7
  6
CONTINUOUS
 10
47.5764376446
 20
100.951743898
 11
50.6383125708
 21
99.1840095766
  0
LINE
  5
2B0
100
AcDbEntity
  8
0
100
AcDbLine
 62
7
  6
CONTINUOUS
 10
54.6475348961
 20
96.8693363528
 11
57.7094098222
 21
95.1016020314
  0
LINE
  5
2B1
100
AcDbEntity
  8
0
100
AcDbLine
 62
7
  6
CONTINUOUS
 10
61.7186321475
 20
92.7869288076
 11
64.7805070737
 21
91.0191944862
  0
LINE
  5
2B2
100
AcDbEntity
  8
0
100
AcDbLine
 62
7
  6
CONTINUOUS
 10
68.789729399
 20
88.7045212624
 11
71.8516043252
 21
86.936786941
  0
LINE
  5
2B3
100
AcDbEntity
  8
0
100
AcDbLine
 62
7
  6
CONTINUOUS
 10
75.8608266505
 20
84.6221137172
 11
78.9227015766
 21
82.8543793958
  0
LINE
  5
2B4
100
AcDbEntity
  8
0
100
AcDbLine
 62
7
  6
CONTINUOUS
 10
98.8118531952
 20
71.7436389598
 11
97.9003743244
 21
72.2698696263
  0
LINE
  5
2B5
100
AcDbEntity
  8
0
100
AcDbLine
 62
7
  6
CONTINUOUS
 10
98.8816165795
 20
71.7838885076
 11
101.0387807515
 21
70.5384773672
  0
LINE
  5
2B6
100
AcDbEntity
  8
0
100
AcDbLine
 62
7
  6
CONTINUOUS
 10
85.3467485214
 20
79.9620404853
 11
80.0434255828
 21
83.0238461442
  0
LINE
  5
2B7
100
AcDbEntity
  8
0
100
AcDbLine
 62
7
  6
CONTINUOUS
 10
35.8490677611
 20
108.5388933017
 11
30.5457448225
 21
111.6006989606
  0
LINE
  5
2B8
100
AcDbEntity
  8
0
100
AcDbLine
 62
7
  6
CONTINUOUS
 10
98.812050662
 20
72.3969548606
 11
97.7928115525
 21
72.9853995224
  0
LINE
  5
2B9
100
AcDbEntity
  8
0
100
AcDbLine
 62
7
  6
CONTINUOUS
 10
97.7523442268
 20
73.2545965763
 11
98.706399287
 21
72.7037850916
  0
LINE
  5
2BA
100
AcDbEntity
  8
0
100
AcDbLine
 62
7
  6
CONTINUOUS
 10
101.3217785213
 20
71.2186188865
 11
101.7695618179
 21
70.9600969282
  0
LINE
  5
2BB
100
AcDbEntity
  8
0
100
AcDbLine
 62
7
  6
CONTINUOUS
 10
78.9227015767
 20
84.4873842301
 11
75.8608266504
 21
86.2551185515
  0
LINE
  5
2BC
100
AcDbEntity
  8
0
100
AcDbLine
 62
7
  6
CONTINUOUS
 10
71.8516043252
 20
88.5697917753
 11
68.789729399
 21
90.3375260967
  0
LINE
  5
2BD
100
AcDbEntity
  8
0
100
AcDbLine
 62
7
  6
CONTINUOUS
 10
64.7805070737
 20
92.6521993205
 11
61.7186321475
 21
94.4199336419
  0
LINE
  5
2BE
100
AcDbEntity
  8
0
100
AcDbLine
 62
7
  6
CONTINUOUS
 10
57.7094098223
 20
96.7346068657
 11
54.647534896
 21
98.5023411871
  0
LINE
  5
2BF
100
AcDbEntity
  8
0
100
AcDbLine
 62
7
  6
CONTINUOUS
 10
50.6383125708
 20
100.8170144109
 11
47.5764376446
 21
102.5847487323
  0
LINE
  5
2C0
100
AcDbEntity
  8
0
100
AcDbLine
 62
7
  6
CONTINUOUS
 10
43.5672153193
 20
104.8994219561
 11
40.5053403931
 21
106.6671562775
  0
LINE
  5
2C1
100
AcDbEntity
  8
0
100
AcDbLine
 62
7
  6
CONTINUOUS
 10
99.3777336973
 20
72.7233221461
 11
99.0591066497
 21
72.9072773962
  0
LINE
  5
2C2
100
AcDbEntity
  8
0
100
AcDbLine
 62
7
  6
CONTINUOUS
 10
99.0602476138
 20
73.8874137224
 11
99.4490190404
 21
73.6629615124
  0
LINE
  5
2C3
100
AcDbEntity
  8
0
100
AcDbLine
 62
7
  6
CONTINUOUS
 10
103.0657044822
 20
71.7078983235
 11
101.3222306472
 21
72.7144706397
  0
LINE
  5
2C4
100
AcDbEntity
  8
0
100
AcDbLine
 62
7
  6
CONTINUOUS
 10
97.4466166344
 20
75.0238399556
 11
98.35332581
 21
74.5003630117
  0
LINE
  5
2C5
100
AcDbEntity
  8
0
100
AcDbLine
 62
7
  6
CONTINUOUS
 10
98.7069423887
 20
74.5004038579
 11
98.3533875261
 21
74.7045242351
  0
LINE
  5
2C6
100
AcDbEntity
  8
0
100
AcDbLine
 62
7
  6
CONTINUOUS
 10
78.1062225043
 20
86.5917309963
 11
77.2750343249
 21
87.0716068592
  0
LINE
  5
2C7
100
AcDbEntity
  8
0
100
AcDbLine
 62
7
  6
CONTINUOUS
 10
71.0351252529
 20
90.6741385415
 11
70.2039370734
 21
91.1540144044
  0
LINE
  5
2C8
100
AcDbEntity
  8
0
100
AcDbLine
 62
7
  6
CONTINUOUS
 10
63.9640280014
 20
94.7565460867
 11
63.132839822
 21
95.2364219496
  0
LINE
  5
2C9
100
AcDbEntity
  8
0
100
AcDbLine
 62
7
  6
CONTINUOUS
 10
56.8929307499
 20
98.8389536319
 11
56.0617425705
 21
99.3188294948
  0
LINE
  5
2CA
100
AcDbEntity
  8
0
100
AcDbLine
 62
7
  6
CONTINUOUS
 10
49.8218334985
 20
102.9213611771
 11
48.990645319
 21
103.40123704
  0
LINE
  5
2CB
100
AcDbEntity
  8
0
100
AcDbLine
 62
7
  6
CONTINUOUS
 10
42.750736247
 20
107.0037687223
 11
41.9195480676
 21
107.4836445852
  0
LINE
  5
2CC
100
AcDbEntity
  8
0
100
AcDbLine
 62
7
  6
CONTINUOUS
 10
99.5192243146
 20
74.2341926093
 11
100.4388039104
 21
73.7032850928
  0
LINE
  5
2CD
100
AcDbEntity
  8
0
100
AcDbLine
 62
7
  6
CONTINUOUS
 10
101.497900157
 20
73.2933369376
 11
103.655064329
 21
72.0479257973
  0
LINE
  5
2CE
100
AcDbEntity
  8
0
100
AcDbLine
 62
7
  6
CONTINUOUS
 10
99.9791745543
 20
74.4995580204
 11
100.4389643522
 21
74.2341042622
  0
LINE
  5
2CF
100
AcDbEntity
  8
0
100
AcDbLine
 62
7
  6
CONTINUOUS
 10
99.2371393997
 20
75.2143993901
 11
99.0604267439
 21
75.3164221636
  0
LINE
  5
2D0
100
AcDbEntity
  8
0
100
AcDbLine
 62
7
  6
CONTINUOUS
 10
100.3680816411
 20
74.7239355292
 11
100.827871439
 21
74.458481771
  0
LINE
  5
2D1
100
AcDbEntity
  8
0
100
AcDbLine
 62
7
  6
CONTINUOUS
 10
36.9697917674
 20
111.3619929057
 11
40.0316666935
 21
109.5942585844
  0
LINE
  5
2D2
100
AcDbEntity
  8
0
100
AcDbLine
 62
7
  6
CONTINUOUS
 10
44.0408890189
 20
107.2795853605
 11
47.102763945
 21
105.5118510392
  0
LINE
  5
2D3
100
AcDbEntity
  8
0
100
AcDbLine
 62
7
  6
CONTINUOUS
 10
51.1119862703
 20
103.1971778153
 11
54.1738611965
 21
101.429443494
  0
LINE
  5
2D4
100
AcDbEntity
  8
0
100
AcDbLine
 62
7
  6
CONTINUOUS
 10
58.1830835218
 20
99.1147702701
 11
61.244958448
 21
97.3470359488
  0
LINE
  5
2D5
100
AcDbEntity
  8
0
100
AcDbLine
 62
7
  6
CONTINUOUS
 10
65.2541807733
 20
95.0323627249
 11
68.3160556994
 21
93.2646284036
  0
LINE
  5
2D6
100
AcDbEntity
  8
0
100
AcDbLine
 62
7
  6
CONTINUOUS
 10
72.3252780247
 20
90.9499551797
 11
75.3871529509
 21
89.1822208583
  0
LINE
  5
2D7
100
AcDbEntity
  8
0
100
AcDbLine
 62
7
  6
CONTINUOUS
 10
99.4140433535
 20
75.3164630276
 11
99.06048846
 21
75.5205833871
  0
LINE
  5
2D8
100
AcDbEntity
  8
0
100
AcDbLine
 62
7
  6
CONTINUOUS
 10
101.8525969768
 20
74.1511790206
 11
101.5339699291
 21
74.3351342707
  0
LINE
  5
2D9
100
AcDbEntity
  8
0
100
AcDbLine
 62
7
  6
CONTINUOUS
 10
46.2715757656
 20
122.3217752446
 11
46.6871698553
 21
121.2506466531
  0
LINE
  5
2DA
100
AcDbEntity
  8
0
100
AcDbLine
 62
7
  6
CONTINUOUS
 10
56.8782216428
 20
95.5814778943
 11
57.2938157325
 21
94.5103493028
  0
LINE
  5
2DB
100
AcDbEntity
  8
0
100
AcDbLine
 62
7
  6
CONTINUOUS
 10
52.6429237334
 20
106.5999483446
 11
54.1738611965
 21
102.6541971196
  0
LINE
  5
2DC
100
AcDbEntity
  8
0
100
AcDbLine
 62
7
  6
CONTINUOUS
 10
52.6429237334
 20
107.4164507617
 11
51.1119862703
 21
111.3622019866
  0
LINE
  5
2DD
100
AcDbEntity
  8
0
100
AcDbLine
 62
7
  6
CONTINUOUS
 10
56.1784723591
 20
100.6803580906
 11
57.7094098223
 21
96.7346068657
  0
LINE
  5
2DE
100
AcDbEntity
  8
0
100
AcDbLine
 62
7
  6
CONTINUOUS
 10
56.1784723591
 20
101.0886092992
 11
54.6475348961
 21
105.0343605241
  0
LINE
  5
2DF
100
AcDbEntity
  8
0
100
AcDbLine
 62
7
  6
CONTINUOUS
 10
53.3426730171
 20
110.0743435281
 11
53.7582671068
 21
109.0032149366
  0
LINE
  5
2E0
100
AcDbEntity
  8
0
100
AcDbLine
 62
7
  6
CONTINUOUS
 10
49.1073751077
 20
121.0928139784
 11
50.6383125708
 21
117.1470627535
  0
LINE
  5
2E1
100
AcDbEntity
  8
0
100
AcDbLine
 62
7
  6
CONTINUOUS
 10
59.7140209849
 20
94.3525166281
 11
61.244958448
 21
90.4067654031
  0
LINE
  5
2E2
100
AcDbEntity
  8
0
100
AcDbLine
 62
7
  6
CONTINUOUS
 10
59.7140209849
 20
95.1690190452
 11
58.1830835218
 21
99.1147702701
  0
LINE
  5
2E3
100
AcDbEntity
  8
0
100
AcDbLine
 62
7
  6
CONTINUOUS
 10
56.8782216428
 20
103.7465020656
 11
57.2938157325
 21
102.6753734741
  0
LINE
  5
2E4
100
AcDbEntity
  8
0
100
AcDbLine
 62
7
  6
CONTINUOUS
 10
52.6429237334
 20
114.7649725159
 11
54.1738611965
 21
110.8192212909
  0
LINE
  5
2E5
100
AcDbEntity
  8
0
100
AcDbLine
 62
7
  6
CONTINUOUS
 10
52.6429237334
 20
115.581474933
 11
51.1119862703
 21
119.5272261579
  0
LINE
  5
2E6
100
AcDbEntity
  8
0
100
AcDbLine
 62
7
  6
CONTINUOUS
 10
63.2495696106
 20
88.8411775827
 11
61.7186321475
 21
92.7869288076
  0
LINE
  5
2E7
100
AcDbEntity
  8
0
100
AcDbLine
 62
7
  6
CONTINUOUS
 10
60.4137702685
 20
97.8269118116
 11
60.8293643583
 21
96.7557832201
  0
LINE
  5
2E8
100
AcDbEntity
  8
0
100
AcDbLine
 62
7
  6
CONTINUOUS
 10
56.1784723591
 20
108.8453822619
 11
57.7094098223
 21
104.899631037
  0
LINE
  5
2E9
100
AcDbEntity
  8
0
100
AcDbLine
 62
7
  6
CONTINUOUS
 10
56.1784723591
 20
109.2536334705
 11
54.6475348961
 21
113.1993846954
  0
LINE
  5
2EA
100
AcDbEntity
  8
0
100
AcDbLine
 62
7
  6
CONTINUOUS
 10
53.3426730171
 20
118.2393676994
 11
53.7582671068
 21
117.1682391079
  0
LINE
  5
2EB
100
AcDbEntity
  8
0
100
AcDbLine
 62
7
  6
CONTINUOUS
 10
56.5327210277
 20
129.5746050297
 11
56.5327210277
 21
130.0645502075
  0
LINE
  5
2EC
100
AcDbEntity
  8
0
100
AcDbLine
 62
7
  6
CONTINUOUS
 10
58.6531267677
 20
146.8588573497
 11
58.6531267677
 21
147.7102510657
  0
LINE
  5
2ED
100
AcDbEntity
  8
0
100
AcDbLine
 62
7
  6
CONTINUOUS
 10
59.3611599283
 20
128.4315871894
 11
59.3611599283
 21
127.9416420116
  0
LINE
  5
2EE
100
AcDbEntity
  8
0
100
AcDbLine
 62
7
  6
CONTINUOUS
 10
43.5672153193
 20
103.2664171218
 11
42.0362778562
 21
101.0884002183
  0
LINE
  5
2EF
100
AcDbEntity
  8
0
100
AcDbLine
 62
7
  6
CONTINUOUS
 10
54.1738611965
 20
117.7594918366
 11
52.6429237334
 21
115.581474933
  0
LINE
  5
2F0
100
AcDbEntity
  8
0
100
AcDbLine
 62
7
  6
CONTINUOUS
 10
51.1119862703
 20
112.5869556123
 11
52.6429237334
 21
114.7649725159
  0
LINE
  5
2F1
100
AcDbEntity
  8
0
100
AcDbLine
 62
7
  6
CONTINUOUS
 10
52.9417880345
 20
113.9946966487
 11
52.5261939447
 21
113.4034439201
  0
LINE
  5
2F2
100
AcDbEntity
  8
0
100
AcDbLine
 62
7
  6
CONTINUOUS
 10
47.102763945
 20
105.5118510392
 11
45.5718264819
 21
103.3338341356
  0
LINE
  5
2F3
100
AcDbEntity
  8
0
100
AcDbLine
 62
7
  6
CONTINUOUS
 10
44.0408890188
 20
100.3393148149
 11
45.5718264819
 21
102.5173317185
  0
LINE
  5
2F4
100
AcDbEntity
  8
0
100
AcDbLine
 62
7
  6
CONTINUOUS
 10
57.7094098222
 20
119.5966745453
 11
56.1784723591
 21
117.4186576418
  0
LINE
  5
2F5
100
AcDbEntity
  8
0
100
AcDbLine
 62
7
  6
CONTINUOUS
 10
54.647534896
 20
114.8323895297
 11
56.1784723591
 21
117.0104064332
  0
LINE
  5
2F6
100
AcDbEntity
  8
0
100
AcDbLine
 62
7
  6
CONTINUOUS
 10
45.870690783
 20
101.7470558513
 11
45.4550966932
 21
101.1558031227
  0
LINE
  5
2F7
100
AcDbEntity
  8
0
100
AcDbLine
 62
7
  6
CONTINUOUS
 10
56.4773366602
 20
116.2401305661
 11
56.0617425704
 21
115.6488778374
  0
LINE
  5
2F8
100
AcDbEntity
  8
0
100
AcDbLine
 62
7
  6
CONTINUOUS
 10
41.9195480676
 20
123.8136929278
 11
40.5053403931
 21
122.99720462
  0
LINE
  5
2F9
100
AcDbEntity
  8
0
100
AcDbLine
 62
7
  6
CONTINUOUS
 10
38.3839994418
 20
121.5682590104
 11
36.9697917674
 21
120.7517707027
  0
LINE
  5
2FA
100
AcDbEntity
  8
0
100
AcDbLine
 62
7
  6
CONTINUOUS
 10
50.6330236563
 20
127.9293357627
 11
50.4903975395
 21
127.8469910273
  0
LINE
  5
2FB
100
AcDbEntity
  8
0
100
AcDbLine
 62
7
  6
CONTINUOUS
 10
44.6535328237
 20
124.0327018909
 11
44.5111618942
 21
123.9505044871
  0
LINE
  5
2FC
100
AcDbEntity
  8
0
100
AcDbLine
 62
7
  6
CONTINUOUS
 10
56.5327210277
 20
130.0645502075
 11
86.7614100686
 21
147.5169877855
  0
LINE
  5
2FD
100
AcDbEntity
  8
0
100
AcDbLine
 62
7
  6
CONTINUOUS
 10
90.2969292546
 20
149.5582085549
 11
107.4441973071
 21
159.4581292863
  0
LINE
  5
2FE
100
AcDbEntity
  8
0
100
AcDbLine
 62
7
  6
CONTINUOUS
 10
107.4441973071
 20
158.9681841085
 11
90.2969292546
 21
149.0682633771
  0
LINE
  5
2FF
100
AcDbEntity
  8
0
100
AcDbLine
 62
7
  6
CONTINUOUS
 10
86.7614100686
 20
147.0270426077
 11
56.5327210277
 21
129.5746050297
  0
LINE
  5
300
100
AcDbEntity
  8
0
100
AcDbLine
 62
7
  6
CONTINUOUS
 10
48.0848407481
 20
122.0519748145
 11
48.306786538
 21
122.1801145112
  0
LINE
  5
301
100
AcDbEntity
  8
0
100
AcDbLine
 62
7
  6
CONTINUOUS
 10
110.2726362076
 20
157.8251662682
 11
93.1253681552
 21
147.9252455368
  0
LINE
  5
302
100
AcDbEntity
  8
0
100
AcDbLine
 62
7
  6
CONTINUOUS
 10
89.5898489691
 20
145.8840247675
 11
59.3611599283
 21
128.4315871894
  0
LINE
  5
303
100
AcDbEntity
  8
0
100
AcDbLine
 62
7
  6
CONTINUOUS
 10
99.4140403261
 20
75.7245629406
 11
99.7675952196
 21
75.5204425811
  0
LINE
  5
304
100
AcDbEntity
  8
0
100
AcDbLine
 62
7
  6
CONTINUOUS
 10
101.9237588892
 20
74.6824496647
 11
105.5997745056
 21
72.5601488929
  0
LINE
  5
305
100
AcDbEntity
  8
0
100
AcDbLine
 62
7
  6
CONTINUOUS
 10
61.244958448
 20
98.5717895744
 11
58.1830835218
 21
100.3395238958
  0
LINE
  5
306
100
AcDbEntity
  8
0
100
AcDbLine
 62
7
  6
CONTINUOUS
 10
54.1738611965
 20
102.6541971196
 11
51.1119862703
 21
104.421931441
  0
LINE
  5
307
100
AcDbEntity
  8
0
100
AcDbLine
 62
7
  6
CONTINUOUS
 10
40.0316666936
 20
110.81901221
 11
36.9697917673
 21
112.5867465314
  0
LINE
  5
308
100
AcDbEntity
  8
0
100
AcDbLine
 62
7
  6
CONTINUOUS
 10
101.5351108933
 20
75.3152705968
 11
101.9238823199
 21
75.0908183869
  0
LINE
  5
309
100
AcDbEntity
  8
0
100
AcDbLine
 62
7
  6
CONTINUOUS
 10
101.994087594
 20
75.6620494837
 11
102.9136671899
 21
75.1311419673
  0
LINE
  5
30A
100
AcDbEntity
  8
0
100
AcDbLine
 62
7
  6
CONTINUOUS
 10
104.8080837127
 20
74.3807805201
 11
103.2111301061
 21
75.3027613345
  0
LINE
  5
30B
100
AcDbEntity
  8
0
100
AcDbLine
 62
7
  6
CONTINUOUS
 10
102.4540378337
 20
75.9274148949
 11
102.9138276317
 21
75.6619611366
  0
LINE
  5
30C
100
AcDbEntity
  8
0
100
AcDbLine
 62
7
  6
CONTINUOUS
 10
105.1336290594
 20
74.5687330811
 11
103.5367891193
 21
75.4906482632
  0
LINE
  5
30D
100
AcDbEntity
  8
0
100
AcDbLine
 62
7
  6
CONTINUOUS
 10
72.4419960375
 20
93.6586777463
 11
67.4922279615
 21
96.516363028
  0
LINE
  5
30E
100
AcDbEntity
  8
0
100
AcDbLine
 62
7
  6
CONTINUOUS
 10
48.4002653825
 20
107.5388634
 11
43.4504973065
 21
110.3965486816
  0
LINE
  5
30F
100
AcDbEntity
  8
0
100
AcDbLine
 62
7
  6
CONTINUOUS
 10
102.8429449205
 20
76.1517924037
 11
103.3027347184
 21
75.8863386455
  0
LINE
  5
310
100
AcDbEntity
  8
0
100
AcDbLine
 62
7
  6
CONTINUOUS
 10
60.4284793757
 20
100.6761363406
 11
59.5972911962
 21
101.1560122035
  0
LINE
  5
311
100
AcDbEntity
  8
0
100
AcDbLine
 62
7
  6
CONTINUOUS
 10
53.3573821242
 20
104.7585438858
 11
52.5261939448
 21
105.2384197487
  0
LINE
  5
312
100
AcDbEntity
  8
0
100
AcDbLine
 62
7
  6
CONTINUOUS
 10
39.2151876213
 20
112.9233589762
 11
38.3839994418
 21
113.4032348392
  0
LINE
  5
313
100
AcDbEntity
  8
0
100
AcDbLine
 62
7
  6
CONTINUOUS
 10
44.1576070316
 20
110.8048103443
 11
47.6931556574
 21
108.7636065717
  0
LINE
  5
314
100
AcDbEntity
  8
0
100
AcDbLine
 62
7
  6
CONTINUOUS
 10
68.1993376866
 20
96.9246246906
 11
71.7348863124
 21
94.883420918
  0
LINE
  5
315
100
AcDbEntity
  8
0
100
AcDbLine
 62
7
  6
CONTINUOUS
 10
54.6475348961
 20
105.0343605241
 11
57.7094098222
 21
103.2666262027
  0
LINE
  5
316
100
AcDbEntity
  8
0
100
AcDbLine
 62
7
  6
CONTINUOUS
 10
61.7186321475
 20
100.9519529789
 11
64.7805070737
 21
99.1842186575
  0
LINE
  5
317
100
AcDbEntity
  8
0
100
AcDbLine
 62
7
  6
CONTINUOUS
 10
75.8608266505
 20
92.7871378885
 11
78.9227015766
 21
91.0194035671
  0
LINE
  5
318
100
AcDbEntity
  8
0
100
AcDbLine
 62
7
  6
CONTINUOUS
 10
99.24381683
 20
79.6996242235
 11
103.1262097139
 21
77.4581743554
  0
LINE
  5
319
100
AcDbEntity
  8
0
100
AcDbLine
 62
7
  6
CONTINUOUS
 10
101.7813721273
 20
78.4042301657
 11
101.0742624319
 21
78.8124709374
  0
LINE
  5
31A
100
AcDbEntity
  8
0
100
AcDbLine
 62
7
  6
CONTINUOUS
 10
103.3031136522
 20
77.560237984
 11
103.6566689475
 21
77.3561173569
  0
LINE
  5
31B
100
AcDbEntity
  8
0
100
AcDbLine
 62
7
  6
CONTINUOUS
 10
106.1654512939
 20
76.6181391718
 11
101.9227931219
 21
79.0675838021
  0
LINE
  5
31C
100
AcDbEntity
  8
0
100
AcDbLine
 62
7
  6
CONTINUOUS
 10
78.9227015767
 20
92.6524084014
 11
75.8608266504
 21
94.4201427227
  0
LINE
  5
31D
100
AcDbEntity
  8
0
100
AcDbLine
 62
7
  6
CONTINUOUS
 10
64.7805070737
 20
100.8172234918
 11
61.7186321475
 21
102.5849578132
  0
LINE
  5
31E
100
AcDbEntity
  8
0
100
AcDbLine
 62
7
  6
CONTINUOUS
 10
57.7094098223
 20
104.899631037
 11
54.647534896
 21
106.6673653584
  0
LINE
  5
31F
100
AcDbEntity
  8
0
100
AcDbLine
 62
7
  6
CONTINUOUS
 10
108.0180576921
 20
76.2340486477
 11
106.7591099311
 21
76.9608861009
  0
LINE
  5
320
100
AcDbEntity
  8
0
100
AcDbLine
 62
7
  6
CONTINUOUS
 10
106.165451263
 20
77.434641571
 11
101.922793091
 21
79.8840862014
  0
LINE
  5
321
100
AcDbEntity
  8
0
100
AcDbLine
 62
7
  6
CONTINUOUS
 10
101.1054031754
 20
80.7744051856
 11
101.7813719716
 21
80.3841432152
  0
LINE
  5
322
100
AcDbEntity
  8
0
100
AcDbLine
 62
7
  6
CONTINUOUS
 10
101.1626818912
 20
80.8074748701
 11
104.7774528189
 21
78.720532939
  0
LINE
  5
323
100
AcDbEntity
  8
0
100
AcDbLine
 62
7
  6
CONTINUOUS
 10
108.6691483944
 20
76.6099537644
 11
106.8725551375
 21
77.6471939776
  0
LINE
  5
324
100
AcDbEntity
  8
0
100
AcDbLine
 62
7
  6
CONTINUOUS
 10
63.9493188943
 20
91.4990703491
 11
64.364912984
 21
90.4279417576
  0
LINE
  5
325
100
AcDbEntity
  8
0
100
AcDbLine
 62
7
  6
CONTINUOUS
 10
59.7140209849
 20
102.5175407994
 11
61.244958448
 21
98.5717895744
  0
LINE
  5
326
100
AcDbEntity
  8
0
100
AcDbLine
 62
7
  6
CONTINUOUS
 10
59.7140209849
 20
103.3340432165
 11
58.1830835218
 21
107.2797944414
  0
LINE
  5
327
100
AcDbEntity
  8
0
100
AcDbLine
 62
7
  6
CONTINUOUS
 10
56.8782216428
 20
111.9115262369
 11
57.2938157325
 21
110.8403976454
  0
LINE
  5
328
100
AcDbEntity
  8
0
100
AcDbLine
 62
7
  6
CONTINUOUS
 10
52.6429237334
 20
122.9299966872
 11
54.1738611965
 21
118.9842454622
  0
LINE
  5
329
100
AcDbEntity
  8
0
100
AcDbLine
 62
7
  6
CONTINUOUS
 10
63.2495696106
 20
96.5979505454
 11
64.7805070737
 21
92.6521993205
  0
LINE
  5
32A
100
AcDbEntity
  8
0
100
AcDbLine
 62
7
  6
CONTINUOUS
 10
63.2495696106
 20
97.006201754
 11
61.7186321475
 21
100.9519529789
  0
LINE
  5
32B
100
AcDbEntity
  8
0
100
AcDbLine
 62
7
  6
CONTINUOUS
 10
60.4137702685
 20
105.9919359829
 11
60.8293643583
 21
104.9208073914
  0
LINE
  5
32C
100
AcDbEntity
  8
0
100
AcDbLine
 62
7
  6
CONTINUOUS
 10
56.1784723591
 20
117.0104064332
 11
57.7094098223
 21
113.0646552083
  0
LINE
  5
32D
100
AcDbEntity
  8
0
100
AcDbLine
 62
7
  6
CONTINUOUS
 10
56.1784723591
 20
117.4186576418
 11
54.6475348961
 21
121.3644088667
  0
LINE
  5
32E
100
AcDbEntity
  8
0
100
AcDbLine
 62
7
  6
CONTINUOUS
 10
66.7851182363
 20
90.2701090829
 11
68.3160556995
 21
86.3243578579
  0
LINE
  5
32F
100
AcDbEntity
  8
0
100
AcDbLine
 62
7
  6
CONTINUOUS
 10
66.7851182363
 20
91.0866115
 11
65.2541807733
 21
95.0323627249
  0
LINE
  5
330
100
AcDbEntity
  8
0
100
AcDbLine
 62
7
  6
CONTINUOUS
 10
63.9493188943
 20
99.6640945204
 11
64.364912984
 21
98.5929659289
  0
LINE
  5
331
100
AcDbEntity
  8
0
100
AcDbLine
 62
7
  6
CONTINUOUS
 10
59.7140209849
 20
110.6825649707
 11
61.244958448
 21
106.7368137457
  0
LINE
  5
332
100
AcDbEntity
  8
0
100
AcDbLine
 62
7
  6
CONTINUOUS
 10
59.7140209849
 20
111.4990673878
 11
58.1830835218
 21
115.4448186127
  0
LINE
  5
333
100
AcDbEntity
  8
0
100
AcDbLine
 62
7
  6
CONTINUOUS
 10
70.3206668621
 20
84.7587700375
 11
68.789729399
 21
88.7045212624
  0
LINE
  5
334
100
AcDbEntity
  8
0
100
AcDbLine
 62
7
  6
CONTINUOUS
 10
56.8782216428
 20
120.0765504082
 11
57.2938157325
 21
119.0054218167
  0
LINE
  5
335
100
AcDbEntity
  8
0
100
AcDbLine
 62
7
  6
CONTINUOUS
 10
67.48486752
 20
93.7445042664
 11
67.9004616097
 21
92.6733756749
  0
LINE
  5
336
100
AcDbEntity
  8
0
100
AcDbLine
 62
7
  6
CONTINUOUS
 10
63.2495696106
 20
104.7629747167
 11
64.7805070737
 21
100.8172234918
  0
LINE
  5
337
100
AcDbEntity
  8
0
100
AcDbLine
 62
7
  6
CONTINUOUS
 10
63.2495696106
 20
105.1712259253
 11
61.7186321475
 21
109.1169771502
  0
LINE
  5
338
100
AcDbEntity
  8
0
100
AcDbLine
 62
7
  6
CONTINUOUS
 10
60.4137702685
 20
114.1569601542
 11
60.8293643583
 21
113.0858315627
  0
LINE
  5
339
100
AcDbEntity
  8
0
100
AcDbLine
 62
7
  6
CONTINUOUS
 10
71.0204161458
 20
87.4166628039
 11
71.4360102355
 21
86.3455342124
  0
LINE
  5
33A
100
AcDbEntity
  8
0
100
AcDbLine
 62
7
  6
CONTINUOUS
 10
47.5764376446
 20
102.5847487323
 11
49.1073751077
 21
104.7627656358
  0
LINE
  5
33B
100
AcDbEntity
  8
0
100
AcDbLine
 62
7
  6
CONTINUOUS
 10
58.1830835218
 20
116.6695722384
 11
59.7140209849
 21
118.847589142
  0
LINE
  5
33C
100
AcDbEntity
  8
0
100
AcDbLine
 62
7
  6
CONTINUOUS
 10
49.4062394087
 20
103.9924897687
 11
48.990645319
 21
103.40123704
  0
LINE
  5
33D
100
AcDbEntity
  8
0
100
AcDbLine
 62
7
  6
CONTINUOUS
 10
60.0128852859
 20
118.0773132748
 11
59.5972911962
 21
117.4860605462
  0
LINE
  5
33E
100
AcDbEntity
  8
0
100
AcDbLine
 62
7
  6
CONTINUOUS
 10
54.1738611965
 20
109.5944676653
 11
52.6429237334
 21
107.4164507617
  0
LINE
  5
33F
100
AcDbEntity
  8
0
100
AcDbLine
 62
7
  6
CONTINUOUS
 10
51.1119862703
 20
104.421931441
 11
52.6429237334
 21
106.5999483446
  0
LINE
  5
340
100
AcDbEntity
  8
0
100
AcDbLine
 62
7
  6
CONTINUOUS
 10
52.9417880345
 20
105.8296724774
 11
52.5261939447
 21
105.2384197488
  0
LINE
  5
341
100
AcDbEntity
  8
0
100
AcDbLine
 62
7
  6
CONTINUOUS
 10
57.7094098222
 20
111.431650374
 11
56.1784723591
 21
109.2536334705
  0
LINE
  5
342
100
AcDbEntity
  8
0
100
AcDbLine
 62
7
  6
CONTINUOUS
 10
54.647534896
 20
106.6673653584
 11
56.1784723591
 21
108.8453822619
  0
LINE
  5
343
100
AcDbEntity
  8
0
100
AcDbLine
 62
7
  6
CONTINUOUS
 10
56.4773366602
 20
108.0751063948
 11
56.0617425704
 21
107.4838536661
  0
LINE
  5
344
100
AcDbEntity
  8
0
100
AcDbLine
 62
7
  6
CONTINUOUS
 10
50.6383125708
 20
99.1840095766
 11
49.1073751077
 21
97.0059926731
  0
LINE
  5
345
100
AcDbEntity
  8
0
100
AcDbLine
 62
7
  6
CONTINUOUS
 10
61.244958448
 20
113.6770842913
 11
59.7140209849
 21
111.4990673878
  0
LINE
  5
346
100
AcDbEntity
  8
0
100
AcDbLine
 62
7
  6
CONTINUOUS
 10
48.990645319
 20
119.7312853826
 11
47.5764376446
 21
118.9147970748
  0
LINE
  5
347
100
AcDbEntity
  8
0
100
AcDbLine
 62
7
  6
CONTINUOUS
 10
30.7225222538
 20
109.130778235
 11
30.5457448225
 21
109.0287163466
  0
LINE
  5
348
100
AcDbEntity
  8
0
100
AcDbLine
 62
7
  6
CONTINUOUS
 10
52.5261939448
 20
121.5684680913
 11
51.1119862703
 21
120.7519797836
  0
LINE
  5
349
100
AcDbEntity
  8
0
100
AcDbLine
 62
7
  6
CONTINUOUS
 10
38.3839994418
 20
113.4032348392
 11
36.9697917674
 21
112.5867465314
  0
LINE
  5
34A
100
AcDbEntity
  8
0
100
AcDbLine
 62
7
  6
CONTINUOUS
 10
106.8725551301
 20
77.8428857434
 11
105.6668971451
 21
78.538957017
  0
LINE
  5
34B
100
AcDbEntity
  8
0
100
AcDbLine
 62
7
  6
CONTINUOUS
 10
103.4784454195
 20
80.0474447475
 11
101.6623392869
 21
81.0959504801
  0
LINE
  5
34C
100
AcDbEntity
  8
0
100
AcDbLine
 62
7
  6
CONTINUOUS
 10
78.1062225043
 20
94.7567551676
 11
77.2750343249
 21
95.2366310305
  0
LINE
  5
34D
100
AcDbEntity
  8
0
100
AcDbLine
 62
7
  6
CONTINUOUS
 10
63.9640280014
 20
102.921570258
 11
63.132839822
 21
103.4014461209
  0
LINE
  5
34E
100
AcDbEntity
  8
0
100
AcDbLine
 62
7
  6
CONTINUOUS
 10
56.8929307499
 20
107.0039778032
 11
56.0617425705
 21
107.4838536661
  0
LINE
  5
34F
100
AcDbEntity
  8
0
100
AcDbLine
 62
7
  6
CONTINUOUS
 10
104.628390545
 20
80.1428858313
 11
103.4784454195
 21
80.8067919954
  0
LINE
  5
350
100
AcDbEntity
  8
0
100
AcDbLine
 62
7
  6
CONTINUOUS
 10
36.9697917674
 20
119.527017077
 11
40.0316666935
 21
117.7592827557
  0
LINE
  5
351
100
AcDbEntity
  8
0
100
AcDbLine
 62
7
  6
CONTINUOUS
 10
51.1119862703
 20
111.3622019866
 11
54.1738611965
 21
109.5944676653
  0
LINE
  5
352
100
AcDbEntity
  8
0
100
AcDbLine
 62
7
  6
CONTINUOUS
 10
58.1830835218
 20
107.2797944414
 11
61.244958448
 21
105.5120601201
  0
LINE
  5
353
100
AcDbEntity
  8
0
100
AcDbLine
 62
7
  6
CONTINUOUS
 10
94.9103817943
 20
86.1777299259
 11
94.2509558402
 21
86.5584410652
  0
LINE
  5
354
100
AcDbEntity
  8
0
100
AcDbLine
 62
7
  6
CONTINUOUS
 10
109.700970629
 20
78.6593600335
 11
107.7881908233
 21
79.7636790793
  0
LINE
  5
355
100
AcDbEntity
  8
0
100
AcDbLine
 62
7
  6
CONTINUOUS
 10
61.244958448
 20
106.7368137457
 11
58.1830835218
 21
108.5045480671
  0
LINE
  5
356
100
AcDbEntity
  8
0
100
AcDbLine
 62
7
  6
CONTINUOUS
 10
54.1738611965
 20
110.8192212909
 11
51.1119862703
 21
112.5869556123
  0
LINE
  5
357
100
AcDbEntity
  8
0
100
AcDbLine
 62
7
  6
CONTINUOUS
 10
40.0316666936
 20
118.9840363813
 11
36.9697917673
 21
120.7517707027
  0
LINE
  5
358
100
AcDbEntity
  8
0
100
AcDbLine
 62
7
  6
CONTINUOUS
 10
97.3498900327
 20
86.0348176642
 11
96.5013583626
 21
86.5247065696
  0
LINE
  5
359
100
AcDbEntity
  8
0
100
AcDbLine
 62
7
  6
CONTINUOUS
 10
111.5535770272
 20
78.275269331
 11
110.2946291117
 21
79.0021068734
  0
LINE
  5
35A
100
AcDbEntity
  8
0
100
AcDbLine
 62
7
  6
CONTINUOUS
 10
109.7009705981
 20
79.4758624328
 11
108.4953127368
 21
80.171933635
  0
LINE
  5
35B
100
AcDbEntity
  8
0
100
AcDbLine
 62
7
  6
CONTINUOUS
 10
43.4504973065
 20
117.7450704358
 11
44.1576070316
 21
117.3368296813
  0
LINE
  5
35C
100
AcDbEntity
  8
0
100
AcDbLine
 62
7
  6
CONTINUOUS
 10
47.6931556574
 20
115.2956259087
 11
48.4002653825
 21
114.8873851542
  0
LINE
  5
35D
100
AcDbEntity
  8
0
100
AcDbLine
 62
7
  6
CONTINUOUS
 10
67.4922279615
 20
103.8648847821
 11
68.1993376866
 21
103.4566440276
  0
LINE
  5
35E
100
AcDbEntity
  8
0
100
AcDbLine
 62
7
  6
CONTINUOUS
 10
71.7348863124
 20
101.415440255
 11
72.4419960375
 21
101.0071995005
  0
LINE
  5
35F
100
AcDbEntity
  8
0
100
AcDbLine
 62
7
  6
CONTINUOUS
 10
112.2046677295
 20
78.6511744477
 11
110.4080744725
 21
79.6884146609
  0
LINE
  5
360
100
AcDbEntity
  8
0
100
AcDbLine
 62
7
  6
CONTINUOUS
 10
110.4080744651
 20
79.8841066052
 11
109.2024166347
 21
80.5801777896
  0
LINE
  5
361
100
AcDbEntity
  8
0
100
AcDbLine
 62
7
  6
CONTINUOUS
 10
60.4284793757
 20
108.8411605119
 11
59.5972911962
 21
109.3210363748
  0
LINE
  5
362
100
AcDbEntity
  8
0
100
AcDbLine
 62
7
  6
CONTINUOUS
 10
53.3573821242
 20
112.9235680571
 11
52.5261939448
 21
113.40344392
  0
LINE
  5
363
100
AcDbEntity
  8
0
100
AcDbLine
 62
7
  6
CONTINUOUS
 10
39.2151876213
 20
121.0883831475
 11
38.3839994418
 21
121.5682590104
  0
LINE
  5
364
100
AcDbEntity
  8
0
100
AcDbLine
 62
7
  6
CONTINUOUS
 10
54.6475348961
 20
113.1993846954
 11
57.7094098222
 21
111.431650374
  0
LINE
  5
365
100
AcDbEntity
  8
0
100
AcDbLine
 62
7
  6
CONTINUOUS
 10
61.7186321475
 20
109.1169771502
 11
64.7805070737
 21
107.3492428288
  0
LINE
  5
366
100
AcDbEntity
  8
0
100
AcDbLine
 62
7
  6
CONTINUOUS
 10
75.8608266505
 20
100.9521620598
 11
78.9227015766
 21
99.1844277384
  0
LINE
  5
367
100
AcDbEntity
  8
0
100
AcDbLine
 62
7
  6
CONTINUOUS
 10
105.5997745056
 20
73.6787572044
 11
104.8080837127
 21
74.3807805201
  0
LINE
  5
368
100
AcDbEntity
  8
0
100
AcDbLine
 62
7
  6
CONTINUOUS
 10
63.9493188943
 20
107.8291186917
 11
64.364912984
 21
106.7579901002
  0
LINE
  5
369
100
AcDbEntity
  8
0
100
AcDbLine
 62
7
  6
CONTINUOUS
 10
59.7140209849
 20
118.847589142
 11
61.244958448
 21
114.901837917
  0
LINE
  5
36A
100
AcDbEntity
  8
0
100
AcDbLine
 62
7
  6
CONTINUOUS
 10
70.3206668621
 20
92.5155430002
 11
71.8516043252
 21
88.5697917753
  0
LINE
  5
36B
100
AcDbEntity
  8
0
100
AcDbLine
 62
7
  6
CONTINUOUS
 10
63.2495696106
 20
112.927998888
 11
64.7805070737
 21
108.9822476631
  0
LINE
  5
36C
100
AcDbEntity
  8
0
100
AcDbLine
 62
7
  6
CONTINUOUS
 10
63.2495696106
 20
113.3362500966
 11
61.7186321475
 21
117.2820013215
  0
LINE
  5
36D
100
AcDbEntity
  8
0
100
AcDbLine
 62
7
  6
CONTINUOUS
 10
73.8562154878
 20
86.1877015377
 11
75.3871529509
 21
82.2419503127
  0
LINE
  5
36E
100
AcDbEntity
  8
0
100
AcDbLine
 62
7
  6
CONTINUOUS
 10
73.8562154878
 20
87.0042039548
 11
72.3252780247
 21
90.9499551797
  0
LINE
  5
36F
100
AcDbEntity
  8
0
100
AcDbLine
 62
7
  6
CONTINUOUS
 10
66.7851182363
 20
107.4166598426
 11
65.2541807733
 21
111.3624110675
  0
LINE
  5
370
100
AcDbEntity
  8
0
100
AcDbLine
 62
7
  6
CONTINUOUS
 10
77.3917641136
 20
80.6763624923
 11
75.8608266505
 21
84.6221137172
  0
LINE
  5
371
100
AcDbEntity
  8
0
100
AcDbLine
 62
7
  6
CONTINUOUS
 10
63.9493188943
 20
115.994142863
 11
64.364912984
 21
114.9230142715
  0
LINE
  5
372
100
AcDbEntity
  8
0
100
AcDbLine
 62
7
  6
CONTINUOUS
 10
74.5559647715
 20
89.6620967212
 11
74.9715588612
 21
88.5909681297
  0
LINE
  5
373
100
AcDbEntity
  8
0
100
AcDbLine
 62
7
  6
CONTINUOUS
 10
67.48486752
 20
110.074552609
 11
67.9004616097
 21
109.0034240175
  0
LINE
  5
374
100
AcDbEntity
  8
0
100
AcDbLine
 62
7
  6
CONTINUOUS
 10
78.0915133972
 20
83.3342552587
 11
78.5071074869
 21
82.2631266672
  0
LINE
  5
375
100
AcDbEntity
  8
0
100
AcDbLine
 62
7
  6
CONTINUOUS
 10
67.7183978354
 20
110.5521036816
 11
65.4020958045
 21
119.2379127833
  0
LINE
  5
376
100
AcDbEntity
  8
0
100
AcDbLine
 62
7
  6
CONTINUOUS
 10
65.492738177
 20
119.3502696685
 11
67.8090402079
 21
110.6644605668
  0
LINE
  5
377
100
AcDbEntity
  8
0
100
AcDbLine
 62
7
  6
CONTINUOUS
 10
70.5327997796
 20
77.4919016612
 11
71.104312964
 21
74.6990589525
  0
LINE
  5
378
100
AcDbEntity
  8
0
100
AcDbLine
 62
7
  6
CONTINUOUS
 10
67.4922279615
 20
96.516363028
 11
67.4922279615
 21
103.8648847821
  0
LINE
  5
379
100
AcDbEntity
  8
0
100
AcDbLine
 62
7
  6
CONTINUOUS
 10
67.845782824
 20
82.2275759552
 11
67.845782824
 21
84.1055315146
  0
LINE
  5
37A
100
AcDbEntity
  8
0
100
AcDbLine
 62
7
  6
CONTINUOUS
 10
68.1993376866
 20
103.4566440276
 11
68.1993376866
 21
96.9246246906
  0
LINE
  5
37B
100
AcDbEntity
  8
0
100
AcDbLine
 62
7
  6
CONTINUOUS
 10
68.3761151179
 20
83.7993509487
 11
68.3761151179
 21
81.7580949059
  0
LINE
  5
37C
100
AcDbEntity
  8
0
100
AcDbLine
 62
7
  6
CONTINUOUS
 10
71.2406033107
 20
108.6832915057
 11
71.2406033107
 21
113.827256734
  0
LINE
  5
37D
100
AcDbEntity
  8
0
100
AcDbLine
 62
7
  6
CONTINUOUS
 10
71.3813314498
 20
108.4373558153
 11
71.3813314498
 21
112.5198679009
  0
LINE
  5
37E
100
AcDbEntity
  8
0
100
AcDbLine
 62
7
  6
CONTINUOUS
 10
71.7348863124
 20
94.883420918
 11
71.7348863124
 21
101.415440255
  0
LINE
  5
37F
100
AcDbEntity
  8
0
100
AcDbLine
 62
7
  6
CONTINUOUS
 10
71.9477130359
 20
113.4190159791
 11
71.9477130359
 21
112.1942623534
  0
LINE
  5
380
100
AcDbEntity
  8
0
100
AcDbLine
 62
7
  6
CONTINUOUS
 10
72.4419960375
 20
101.0071995005
 11
72.4419960375
 21
93.6586777463
  0
LINE
  5
381
100
AcDbEntity
  8
0
100
AcDbLine
 62
7
  6
CONTINUOUS
 10
58.1830835218
 20
108.5045480671
 11
59.7140209849
 21
110.6825649707
  0
LINE
  5
382
100
AcDbEntity
  8
0
100
AcDbLine
 62
7
  6
CONTINUOUS
 10
60.0128852859
 20
109.9122891035
 11
59.5972911962
 21
109.3210363749
  0
LINE
  5
383
100
AcDbEntity
  8
0
100
AcDbLine
 62
7
  6
CONTINUOUS
 10
54.1738611965
 20
101.429443494
 11
52.6429237334
 21
99.2514265904
  0
LINE
  5
384
100
AcDbEntity
  8
0
100
AcDbLine
 62
7
  6
CONTINUOUS
 10
51.1119862703
 20
96.2569072697
 11
52.6429237334
 21
98.4349241733
  0
LINE
  5
385
100
AcDbEntity
  8
0
100
AcDbLine
 62
7
  6
CONTINUOUS
 10
64.7805070737
 20
115.5142670001
 11
63.2495696106
 21
113.3362500966
  0
LINE
  5
386
100
AcDbEntity
  8
0
100
AcDbLine
 62
7
  6
CONTINUOUS
 10
61.7186321475
 20
110.7499819844
 11
63.2495696106
 21
112.927998888
  0
LINE
  5
387
100
AcDbEntity
  8
0
100
AcDbLine
 62
7
  6
CONTINUOUS
 10
52.9417880345
 20
97.6646483061
 11
52.5261939447
 21
97.0733955775
  0
LINE
  5
388
100
AcDbEntity
  8
0
100
AcDbLine
 62
7
  6
CONTINUOUS
 10
63.5484339117
 20
112.1577230209
 11
63.1328398219
 21
111.5664702922
  0
LINE
  5
389
100
AcDbEntity
  8
0
100
AcDbLine
 62
7
  6
CONTINUOUS
 10
57.7094098222
 20
103.2666262027
 11
56.1784723591
 21
101.0886092992
  0
LINE
  5
38A
100
AcDbEntity
  8
0
100
AcDbLine
 62
7
  6
CONTINUOUS
 10
54.647534896
 20
98.5023411871
 11
56.1784723591
 21
100.6803580906
  0
LINE
  5
38B
100
AcDbEntity
  8
0
100
AcDbLine
 62
7
  6
CONTINUOUS
 10
56.4773366602
 20
99.9100822235
 11
56.0617425704
 21
99.3188294948
  0
LINE
  5
38C
100
AcDbEntity
  8
0
100
AcDbLine
 62
7
  6
CONTINUOUS
 10
61.244958448
 20
105.5120601201
 11
59.7140209849
 21
103.3340432165
  0
LINE
  5
38D
100
AcDbEntity
  8
0
100
AcDbLine
 62
7
  6
CONTINUOUS
 10
58.1830835218
 20
100.3395238958
 11
59.7140209849
 21
102.5175407994
  0
LINE
  5
38E
100
AcDbEntity
  8
0
100
AcDbLine
 62
7
  6
CONTINUOUS
 10
60.0128852859
 20
101.7472649322
 11
59.5972911962
 21
101.1560122036
  0
LINE
  5
38F
100
AcDbEntity
  8
0
100
AcDbLine
 62
7
  6
CONTINUOUS
 10
35.8490677611
 20
106.2935081273
 11
35.6722903299
 21
106.1914462389
  0
LINE
  5
390
100
AcDbEntity
  8
0
100
AcDbLine
 62
7
  6
CONTINUOUS
 10
31.7831780097
 20
103.8643164804
 11
31.0760682845
 21
103.4560689272
  0
LINE
  5
391
100
AcDbEntity
  8
0
100
AcDbLine
 62
7
  6
CONTINUOUS
 10
44.1576131411
 20
110.8047997622
 11
43.4504973065
 21
110.3965486816
  0
LINE
  5
392
100
AcDbEntity
  8
0
100
AcDbLine
 62
7
  6
CONTINUOUS
 10
56.0617425705
 20
115.6488778374
 11
54.6475348961
 21
114.8323895296
  0
LINE
  5
393
100
AcDbEntity
  8
0
100
AcDbLine
 62
7
  6
CONTINUOUS
 10
41.9195480676
 20
107.4836445852
 11
40.5053403931
 21
106.6671562774
  0
LINE
  5
394
100
AcDbEntity
  8
0
100
AcDbLine
 62
7
  6
CONTINUOUS
 10
59.5972911962
 20
117.4860605461
 11
58.1830835218
 21
116.6695722384
  0
LINE
  5
395
100
AcDbEntity
  8
0
100
AcDbLine
 62
7
  6
CONTINUOUS
 10
52.5261939448
 20
113.40344392
 11
51.1119862703
 21
112.5869556123
  0
LINE
  5
396
100
AcDbEntity
  8
0
100
AcDbLine
 62
7
  6
CONTINUOUS
 10
38.3839994418
 20
105.2382106679
 11
36.9697917674
 21
104.4217223601
  0
LINE
  5
397
100
AcDbEntity
  8
0
100
AcDbLine
 62
7
  6
CONTINUOUS
 10
65.5066096644
 20
119.2982535283
 11
65.4020958045
 21
119.2379127833
  0
LINE
  5
398
100
AcDbEntity
  8
0
100
AcDbLine
 62
7
  6
CONTINUOUS
 10
48.4002653825
 20
109.1718541249
 11
47.6931556574
 21
108.7636065717
  0
LINE
  5
399
100
AcDbEntity
  8
0
100
AcDbLine
 62
7
  6
CONTINUOUS
 10
113.2364899641
 20
80.7005808953
 11
111.323710313
 21
81.8048998519
  0
LINE
  5
39A
100
AcDbEntity
  8
0
100
AcDbLine
 62
7
  6
CONTINUOUS
 10
78.9227015767
 20
100.8174325727
 11
75.8608266504
 21
102.585166894
  0
LINE
  5
39B
100
AcDbEntity
  8
0
100
AcDbLine
 62
7
  6
CONTINUOUS
 10
71.8516043252
 20
104.8998401179
 11
68.789729399
 21
106.6675744392
  0
LINE
  5
39C
100
AcDbEntity
  8
0
100
AcDbLine
 62
7
  6
CONTINUOUS
 10
64.7805070737
 20
108.9822476631
 11
61.7186321475
 21
110.7499819844
  0
LINE
  5
39D
100
AcDbEntity
  8
0
100
AcDbLine
 62
7
  6
CONTINUOUS
 10
57.7094098223
 20
113.0646552083
 11
54.647534896
 21
114.8323895297
  0
LINE
  5
39E
100
AcDbEntity
  8
0
100
AcDbLine
 62
7
  6
CONTINUOUS
 10
50.6383125708
 20
117.1470627535
 11
47.5764376446
 21
118.9147970749
  0
LINE
  5
39F
100
AcDbEntity
  8
0
100
AcDbLine
 62
7
  6
CONTINUOUS
 10
43.5672153193
 20
121.2294702987
 11
40.5053403931
 21
122.9972046201
  0
LINE
  5
3A0
100
AcDbEntity
  8
0
100
AcDbLine
 62
7
  6
CONTINUOUS
 10
94.9103817943
 20
91.6482961207
 11
94.0618501242
 21
92.1381850261
  0
LINE
  5
3A1
100
AcDbEntity
  8
0
100
AcDbLine
 62
7
  6
CONTINUOUS
 10
115.0890963623
 20
80.3164900143
 11
113.8301482922
 21
81.043327646
  0
LINE
  5
3A2
100
AcDbEntity
  8
0
100
AcDbLine
 62
7
  6
CONTINUOUS
 10
100.0368846141
 20
89.1375000415
 11
99.188352944
 21
89.6273889469
  0
LINE
  5
3A3
100
AcDbEntity
  8
0
100
AcDbLine
 62
7
  6
CONTINUOUS
 10
113.2364899332
 20
81.5170832946
 11
112.0308322264
 21
82.2131544076
  0
LINE
  5
3A4
100
AcDbEntity
  8
0
100
AcDbLine
 62
7
  6
CONTINUOUS
 10
115.7401870646
 20
80.692395131
 11
113.9435938076
 21
81.7296353442
  0
LINE
  5
3A5
100
AcDbEntity
  8
0
100
AcDbLine
 62
7
  6
CONTINUOUS
 10
113.9435938002
 20
81.925327467
 11
112.7379361244
 21
82.6213985621
  0
LINE
  5
3A6
100
AcDbEntity
  8
0
100
AcDbLine
 62
7
  6
CONTINUOUS
 10
78.1062225043
 20
102.9217793389
 11
77.2750343249
 21
103.4016552018
  0
LINE
  5
3A7
100
AcDbEntity
  8
0
100
AcDbLine
 62
7
  6
CONTINUOUS
 10
71.0351252529
 20
107.0041868841
 11
70.2039370734
 21
107.484062747
  0
LINE
  5
3A8
100
AcDbEntity
  8
0
100
AcDbLine
 62
7
  6
CONTINUOUS
 10
63.9640280014
 20
111.0865944293
 11
63.132839822
 21
111.5664702922
  0
LINE
  5
3A9
100
AcDbEntity
  8
0
100
AcDbLine
 62
7
  6
CONTINUOUS
 10
56.8929307499
 20
115.1690019745
 11
56.0617425705
 21
115.6488778374
  0
LINE
  5
3AA
100
AcDbEntity
  8
0
100
AcDbLine
 62
7
  6
CONTINUOUS
 10
49.8218334985
 20
119.2514095197
 11
48.990645319
 21
119.7312853826
  0
LINE
  5
3AB
100
AcDbEntity
  8
0
100
AcDbLine
 62
7
  6
CONTINUOUS
 10
42.750736247
 20
123.3338170649
 11
41.9195480676
 21
123.8136929278
  0
LINE
  5
3AC
100
AcDbEntity
  8
0
100
AcDbLine
 62
7
  6
CONTINUOUS
 10
102.4763928525
 20
88.9945877798
 11
101.6278611824
 21
89.4844766852
  0
LINE
  5
3AD
100
AcDbEntity
  8
0
100
AcDbLine
 62
7
  6
CONTINUOUS
 10
36.9697917674
 20
127.6920412483
 11
40.0316666935
 21
125.924306927
  0
LINE
  5
3AE
100
AcDbEntity
  8
0
100
AcDbLine
 62
7
  6
CONTINUOUS
 10
44.0408890189
 20
123.6096337031
 11
47.102763945
 21
121.8418993818
  0
LINE
  5
3AF
100
AcDbEntity
  8
0
100
AcDbLine
 62
7
  6
CONTINUOUS
 10
51.1119862703
 20
119.5272261579
 11
54.1738611965
 21
117.7594918366
  0
LINE
  5
3B0
100
AcDbEntity
  8
0
100
AcDbLine
 62
7
  6
CONTINUOUS
 10
58.1830835218
 20
115.4448186127
 11
61.244958448
 21
113.6770842913
  0
LINE
  5
3B1
100
AcDbEntity
  8
0
100
AcDbLine
 62
7
  6
CONTINUOUS
 10
65.2541807733
 20
111.3624110675
 11
68.3160556994
 21
109.5946767461
  0
LINE
  5
3B2
100
AcDbEntity
  8
0
100
AcDbLine
 62
7
  6
CONTINUOUS
 10
72.3252780247
 20
107.2800035223
 11
75.3871529509
 21
105.5122692009
  0
LINE
  5
3B3
100
AcDbEntity
  8
0
100
AcDbLine
 62
7
  6
CONTINUOUS
 10
44.5111618942
 20
123.9505044871
 11
48.1740955087
 21
121.8357566207
  0
LINE
  5
3B4
100
AcDbEntity
  8
0
100
AcDbLine
 62
7
  6
CONTINUOUS
 10
67.7183978354
 20
110.5521036816
 11
71.3813314498
 21
108.4373558153
  0
LINE
  5
3B5
100
AcDbEntity
  8
0
100
AcDbLine
 62
7
  6
CONTINUOUS
 10
24.0756908374
 20
135.8303125344
 11
32.5316033502
 21
130.9483996125
  0
LINE
  5
3B6
100
AcDbEntity
  8
0
100
AcDbLine
 62
7
  6
CONTINUOUS
 10
83.3608899938
 20
101.6027611732
 11
91.8168025065
 21
96.7208482514
  0
LINE
  5
3B7
100
AcDbEntity
  8
0
100
AcDbLine
 62
7
  6
CONTINUOUS
 10
44.6532776452
 20
124.0331438756
 11
48.0848407481
 21
122.0519748145
  0
LINE
  5
3B8
100
AcDbEntity
  8
0
100
AcDbLine
 62
7
  6
CONTINUOUS
 10
67.8090402079
 20
110.6644605668
 11
71.2406033107
 21
108.6832915057
  0
LINE
  5
3B9
100
AcDbEntity
  8
0
100
AcDbLine
 62
7
  6
CONTINUOUS
 10
116.7720092992
 20
82.7418017571
 11
114.8592298026
 21
83.8461206244
  0
LINE
  5
3BA
100
AcDbEntity
  8
0
100
AcDbLine
 62
7
  6
CONTINUOUS
 10
61.244958448
 20
114.901837917
 11
58.1830835218
 21
116.6695722384
  0
LINE
  5
3BB
100
AcDbEntity
  8
0
100
AcDbLine
 62
7
  6
CONTINUOUS
 10
54.1738611965
 20
118.9842454622
 11
51.1119862703
 21
120.7519797836
  0
LINE
  5
3BC
100
AcDbEntity
  8
0
100
AcDbLine
 62
7
  6
CONTINUOUS
 10
94.9103817943
 20
95.812458448
 11
94.0618501242
 21
96.3023473535
  0
LINE
  5
3BD
100
AcDbEntity
  8
0
100
AcDbLine
 62
7
  6
CONTINUOUS
 10
118.6246156974
 20
82.3577106976
 11
117.3656674727
 21
83.0845484185
  0
LINE
  5
3BE
100
AcDbEntity
  8
0
100
AcDbLine
 62
7
  6
CONTINUOUS
 10
116.7720092683
 20
83.5583041564
 11
115.5663517161
 21
84.2543751802
  0
LINE
  5
3BF
100
AcDbEntity
  8
0
100
AcDbLine
 62
7
  6
CONTINUOUS
 10
26.3384301821
 20
136.1569119367
 11
25.4898985119
 21
136.6468008422
  0
LINE
  5
3C0
100
AcDbEntity
  8
0
100
AcDbLine
 62
7
  6
CONTINUOUS
 10
92.3824785108
 20
98.0272254645
 11
93.231010181
 21
97.5373365591
  0
LINE
  5
3C1
100
AcDbEntity
  8
0
100
AcDbLine
 62
7
  6
CONTINUOUS
 10
119.2757067478
 20
82.7336160154
 11
117.4791131427
 21
83.7708564296
  0
LINE
  5
3C2
100
AcDbEntity
  8
0
100
AcDbLine
 62
7
  6
CONTINUOUS
 10
117.4791131353
 20
83.9665483287
 11
116.273455614
 21
84.6626193347
  0
LINE
  5
3C3
100
AcDbEntity
  8
0
100
AcDbLine
 62
7
  6
CONTINUOUS
 10
60.4284793757
 20
117.0061846832
 11
59.5972911962
 21
117.4860605461
  0
LINE
  5
3C4
100
AcDbEntity
  8
0
100
AcDbLine
 62
7
  6
CONTINUOUS
 10
53.3573821242
 20
121.0885922284
 11
52.5261939448
 21
121.5684680913
  0
LINE
  5
3C5
100
AcDbEntity
  8
0
100
AcDbLine
 62
7
  6
CONTINUOUS
 10
100.0368846141
 20
94.6080662362
 11
99.188352944
 21
95.0979551417
  0
LINE
  5
3C6
100
AcDbEntity
  8
0
100
AcDbLine
 62
7
  6
CONTINUOUS
 10
105.5997745056
 20
79.1738184717
 11
104.628390545
 21
80.1428858313
  0
LINE
  5
3C7
100
AcDbEntity
  8
0
100
AcDbLine
 62
7
  6
CONTINUOUS
 10
77.3917641135
 20
88.433135455
 11
78.9227015767
 21
84.4873842301
  0
LINE
  5
3C8
100
AcDbEntity
  8
0
100
AcDbLine
 62
7
  6
CONTINUOUS
 10
77.3917641136
 20
88.8413866636
 11
75.8608266505
 21
92.7871378885
  0
LINE
  5
3C9
100
AcDbEntity
  8
0
100
AcDbLine
 62
7
  6
CONTINUOUS
 10
70.3206668621
 20
108.8455913428
 11
71.8516043252
 21
104.8998401179
  0
LINE
  5
3CA
100
AcDbEntity
  8
0
100
AcDbLine
 62
7
  6
CONTINUOUS
 10
78.0915133972
 20
91.49927943
 11
78.5071074869
 21
90.4281508385
  0
LINE
  5
3CB
100
AcDbEntity
  8
0
100
AcDbLine
 62
7
  6
CONTINUOUS
 10
73.8562154878
 20
103.3342522974
 11
72.3252780247
 21
107.2800035223
  0
LINE
  5
3CC
100
AcDbEntity
  8
0
100
AcDbLine
 62
7
  6
CONTINUOUS
 10
77.3917641135
 20
96.5981596263
 11
78.9227015767
 21
92.6524084014
  0
LINE
  5
3CD
100
AcDbEntity
  8
0
100
AcDbLine
 62
7
  6
CONTINUOUS
 10
77.3917641136
 20
97.0064108349
 11
75.8608266505
 21
100.9521620598
  0
LINE
  5
3CE
100
AcDbEntity
  8
0
100
AcDbLine
 62
7
  6
CONTINUOUS
 10
74.5559647715
 20
105.9921450638
 11
74.9715588612
 21
104.9210164723
  0
LINE
  5
3CF
100
AcDbEntity
  8
0
100
AcDbLine
 62
7
  6
CONTINUOUS
 10
78.0915133972
 20
99.6643036013
 11
78.5071074869
 21
98.5931750098
  0
LINE
  5
3D0
100
AcDbEntity
  8
0
100
AcDbLine
 62
7
  6
CONTINUOUS
 10
73.8569092938
 20
111.0920123162
 11
73.6259801153
 21
118.861331934
  0
LINE
  5
3D1
100
AcDbEntity
  8
0
100
AcDbLine
 62
7
  6
CONTINUOUS
 10
76.0170491653
 20
155.9698941726
 11
76.0321090676
 21
156.4591762205
  0
LINE
  5
3D2
100
AcDbEntity
  8
0
100
AcDbLine
 62
7
  6
CONTINUOUS
 10
71.2408186868
 20
113.8413801507
 11
71.3441763655
 21
114.0561202535
  0
LINE
  5
3D3
100
AcDbEntity
  8
0
100
AcDbLine
 62
7
  6
CONTINUOUS
 10
64.7805070737
 20
107.3492428288
 11
63.2495696106
 21
105.1712259253
  0
LINE
  5
3D4
100
AcDbEntity
  8
0
100
AcDbLine
 62
7
  6
CONTINUOUS
 10
61.7186321475
 20
102.5849578132
 11
63.2495696106
 21
104.7629747167
  0
LINE
  5
3D5
100
AcDbEntity
  8
0
100
AcDbLine
 62
7
  6
CONTINUOUS
 10
63.5484339117
 20
103.9926988496
 11
63.1328398219
 21
103.4014461209
  0
LINE
  5
3D6
100
AcDbEntity
  8
0
100
AcDbLine
 62
7
  6
CONTINUOUS
 10
57.7094098222
 20
95.1016020314
 11
56.1784723591
 21
92.9235851279
  0
LINE
  5
3D7
100
AcDbEntity
  8
0
100
AcDbLine
 62
7
  6
CONTINUOUS
 10
68.3160556994
 20
109.5946767461
 11
66.7851182363
 21
107.4166598426
  0
LINE
  5
3D8
100
AcDbEntity
  8
0
100
AcDbLine
 62
7
  6
CONTINUOUS
 10
61.244958448
 20
97.3470359488
 11
59.7140209849
 21
95.1690190452
  0
LINE
  5
3D9
100
AcDbEntity
  8
0
100
AcDbLine
 62
7
  6
CONTINUOUS
 10
58.1830835218
 20
92.1744997245
 11
59.7140209849
 21
94.3525166281
  0
LINE
  5
3DA
100
AcDbEntity
  8
0
100
AcDbLine
 62
7
  6
CONTINUOUS
 10
68.789729399
 20
106.6675744392
 11
70.3206668621
 21
108.8455913428
  0
LINE
  5
3DB
100
AcDbEntity
  8
0
100
AcDbLine
 62
7
  6
CONTINUOUS
 10
60.0128852859
 20
93.5822407609
 11
59.5972911962
 21
92.9909880323
  0
LINE
  5
3DC
100
AcDbEntity
  8
0
100
AcDbLine
 62
7
  6
CONTINUOUS
 10
70.6195311631
 20
108.0753154756
 11
70.2039370734
 21
107.484062747
  0
LINE
  5
3DD
100
AcDbEntity
  8
0
100
AcDbLine
 62
7
  6
CONTINUOUS
 10
64.7805070737
 20
99.1842186575
 11
63.2495696106
 21
97.006201754
  0
LINE
  5
3DE
100
AcDbEntity
  8
0
100
AcDbLine
 62
7
  6
CONTINUOUS
 10
61.7186321475
 20
94.4199336419
 11
63.2495696106
 21
96.5979505454
  0
LINE
  5
3DF
100
AcDbEntity
  8
0
100
AcDbLine
 62
7
  6
CONTINUOUS
 10
31.0760682845
 20
98.0404598719
 11
30.0154125287
 21
97.4280936411
  0
LINE
  5
3E0
100
AcDbEntity
  8
0
100
AcDbLine
 62
7
  6
CONTINUOUS
 10
33.9978368369
 20
99.3803796552
 11
35.4120445113
 21
100.1968679629
  0
LINE
  5
3E1
100
AcDbEntity
  8
0
100
AcDbLine
 62
7
  6
CONTINUOUS
 10
84.2910333174
 20
127.9631774497
 11
84.9981371546
 21
128.3714216035
  0
LINE
  5
3E2
100
AcDbEntity
  8
0
100
AcDbLine
 62
7
  6
CONTINUOUS
 10
108.6861157013
 20
142.0476007582
 11
109.3932195385
 21
142.4558449121
  0
LINE
  5
3E3
100
AcDbEntity
  8
0
100
AcDbLine
 62
7
  6
CONTINUOUS
 10
35.4120445113
 20
98.5594234535
 11
32.9371810811
 21
97.1305689149
  0
LINE
  5
3E4
100
AcDbEntity
  8
0
100
AcDbLine
 62
7
  6
CONTINUOUS
 10
73.6259801153
 20
118.8613319341
 11
86.5306251444
 21
126.3117877422
  0
LINE
  5
3E5
100
AcDbEntity
  8
0
100
AcDbLine
 62
7
  6
CONTINUOUS
 10
87.2377289816
 20
126.7200318961
 11
103.8546691562
 21
136.3137695121
  0
LINE
  5
3E6
100
AcDbEntity
  8
0
100
AcDbLine
 62
7
  6
CONTINUOUS
 10
107.3901883422
 20
138.3549902814
 11
110.9257075283
 21
140.3962110508
  0
LINE
  5
3E7
100
AcDbEntity
  8
0
100
AcDbLine
 62
7
  6
CONTINUOUS
 10
111.6328113655
 20
140.8044552047
 11
124.5374563947
 21
148.2549110128
  0
LINE
  5
3E8
100
AcDbEntity
  8
0
100
AcDbLine
 62
7
  6
CONTINUOUS
 10
103.8697290585
 20
135.8070981803
 11
107.4052482445
 21
137.8483189496
  0
LINE
  5
3E9
100
AcDbEntity
  8
0
100
AcDbLine
 62
7
  6
CONTINUOUS
 10
63.132839822
 20
111.5664702922
 11
61.7186321475
 21
110.7499819844
  0
LINE
  5
3EA
100
AcDbEntity
  8
0
100
AcDbLine
 62
7
  6
CONTINUOUS
 10
56.0617425705
 20
107.4838536661
 11
54.6475348961
 21
106.6673653583
  0
LINE
  5
3EB
100
AcDbEntity
  8
0
100
AcDbLine
 62
7
  6
CONTINUOUS
 10
48.990645319
 20
103.40123704
 11
47.5764376446
 21
102.5847487322
  0
LINE
  5
3EC
100
AcDbEntity
  8
0
100
AcDbLine
 62
7
  6
CONTINUOUS
 10
59.5972911962
 20
109.3210363748
 11
58.1830835218
 21
108.5045480671
  0
LINE
  5
3ED
100
AcDbEntity
  8
0
100
AcDbLine
 62
7
  6
CONTINUOUS
 10
52.5261939448
 20
105.2384197487
 11
51.1119862703
 21
104.421931441
  0
LINE
  5
3EE
100
AcDbEntity
  8
0
100
AcDbLine
 62
7
  6
CONTINUOUS
 10
45.4550966933
 20
101.1558031227
 11
44.0408890189
 21
100.3393148149
  0
LINE
  5
3EF
100
AcDbEntity
  8
0
100
AcDbLine
 62
7
  6
CONTINUOUS
 10
105.1633874339
 20
92.097270157
 11
104.3148557638
 21
92.5871590625
  0
LINE
  5
3F0
100
AcDbEntity
  8
0
100
AcDbLine
 62
7
  6
CONTINUOUS
 10
54.6475348961
 20
121.3644088667
 11
57.7094098222
 21
119.5966745453
  0
LINE
  5
3F1
100
AcDbEntity
  8
0
100
AcDbLine
 62
7
  6
CONTINUOUS
 10
61.7186321475
 20
117.2820013215
 11
64.7805070737
 21
115.5142670001
  0
LINE
  5
3F2
100
AcDbEntity
  8
0
100
AcDbLine
 62
7
  6
CONTINUOUS
 10
97.3498900327
 20
97.2209007789
 11
96.5013583626
 21
97.7107896843
  0
LINE
  5
3F3
100
AcDbEntity
  8
0
100
AcDbLine
 62
7
  6
CONTINUOUS
 10
34.9651806047
 20
133.5442667587
 11
44.5111618942
 21
128.0330165727
  0
LINE
  5
3F4
100
AcDbEntity
  8
0
100
AcDbLine
 62
7
  6
CONTINUOUS
 10
71.3813314498
 20
112.5198679009
 11
80.9273127393
 21
107.0086177149
  0
LINE
  5
3F5
100
AcDbEntity
  8
0
100
AcDbLine
 62
7
  6
CONTINUOUS
 10
42.0369716621
 20
129.4628462696
 11
43.94616792
 21
128.3605962324
  0
LINE
  5
3F6
100
AcDbEntity
  8
0
100
AcDbLine
 62
7
  6
CONTINUOUS
 10
71.9477130359
 20
112.1942623534
 11
73.8569092938
 21
111.0920123162
  0
LINE
  5
3F7
100
AcDbEntity
  8
0
100
AcDbLine
 62
7
  6
CONTINUOUS
 10
88.3519354136
 20
102.8036524905
 11
86.8964091799
 21
103.6439819426
  0
LINE
  5
3F8
100
AcDbEntity
  8
0
100
AcDbLine
 62
7
  6
CONTINUOUS
 10
34.6115963025
 20
133.829949834
 11
35.0358022633
 21
133.585039949
  0
LINE
  5
3F9
100
AcDbEntity
  8
0
100
AcDbLine
 62
7
  6
CONTINUOUS
 10
107.6028956723
 20
91.9543578954
 11
106.7543640022
 21
92.4442468008
  0
LINE
  5
3FA
100
AcDbEntity
  8
0
100
AcDbLine
 62
7
  6
CONTINUOUS
 10
120.3075286734
 20
84.7830226415
 11
118.3947493313
 21
85.8873414196
  0
LINE
  5
3FB
100
AcDbEntity
  8
0
100
AcDbLine
 62
7
  6
CONTINUOUS
 10
88.9175967548
 20
103.1302352686
 11
87.1679388828
 21
104.1403778595
  0
LINE
  5
3FC
100
AcDbEntity
  8
0
100
AcDbLine
 62
7
  6
CONTINUOUS
 10
122.1601353806
 20
84.398931582
 11
120.9011870014
 21
85.1257693921
  0
LINE
  5
3FD
100
AcDbEntity
  8
0
100
AcDbLine
 62
7
  6
CONTINUOUS
 10
120.3075286425
 20
85.5995250407
 11
119.1018712448
 21
86.2955959753
  0
LINE
  5
3FE
100
AcDbEntity
  8
0
100
AcDbLine
 62
7
  6
CONTINUOUS
 10
97.3498900327
 20
98.9355558549
 11
96.5013583626
 21
99.4254447603
  0
LINE
  5
3FF
100
AcDbEntity
  8
0
100
AcDbLine
 62
7
  6
CONTINUOUS
 10
89.7661430881
 20
103.6201407982
 11
88.3106168543
 21
104.4604702503
  0
LINE
  5
400
100
AcDbEntity
  8
0
100
AcDbLine
 62
7
  6
CONTINUOUS
 10
36.0258039769
 20
134.6464381418
 11
36.4500099377
 21
134.4015282567
  0
LINE
  5
401
100
AcDbEntity
  8
0
100
AcDbLine
 62
7
  6
CONTINUOUS
 10
122.8112262496
 20
84.7748367949
 11
121.0146325169
 21
85.8120772828
  0
LINE
  5
402
100
AcDbEntity
  8
0
100
AcDbLine
 62
7
  6
CONTINUOUS
 10
121.0146325095
 20
86.0077692131
 11
119.8089751427
 21
86.7038401298
  0
LINE
  5
403
100
AcDbEntity
  8
0
100
AcDbLine
 62
7
  6
CONTINUOUS
 10
100.0368846141
 20
98.7722285636
 11
99.188352944
 21
99.262117469
  0
LINE
  5
404
100
AcDbEntity
  8
0
100
AcDbLine
 62
7
  6
CONTINUOUS
 10
98.6226769397
 20
99.6703953318
 11
97.7741452695
 21
100.1602842373
  0
LINE
  5
405
100
AcDbEntity
  8
0
100
AcDbLine
 62
7
  6
CONTINUOUS
 10
50.4903975395
 20
127.8469910273
 11
65.4020958045
 21
119.2379127833
  0
LINE
  5
406
100
AcDbEntity
  8
0
100
AcDbLine
 62
7
  6
CONTINUOUS
 10
91.1803507625
 20
104.436629106
 11
89.7248245287
 21
105.2769585581
  0
LINE
  5
407
100
AcDbEntity
  8
0
100
AcDbLine
 62
7
  6
CONTINUOUS
 10
37.4400116513
 20
135.4629264495
 11
37.8642176122
 21
135.2180165644
  0
LINE
  5
408
100
AcDbEntity
  8
0
100
AcDbLine
 62
7
  6
CONTINUOUS
 10
50.4011427789
 20
128.0632092211
 11
65.492738177
 21
119.3502696685
  0
LINE
  5
409
100
AcDbEntity
  8
0
100
AcDbLine
 62
7
  6
CONTINUOUS
 10
91.7460121037
 20
104.7632118841
 11
89.9963542317
 21
105.773354475
  0
LINE
  5
40A
100
AcDbEntity
  8
0
100
AcDbLine
 62
7
  6
CONTINUOUS
 10
40.2684741036
 20
134.5648856418
 11
38.5006997908
 21
135.5854875281
  0
LINE
  5
40B
100
AcDbEntity
  8
0
100
AcDbLine
 62
7
  6
CONTINUOUS
 10
82.6950576125
 20
110.0704403706
 11
84.4628319253
 21
109.0498384843
  0
LINE
  5
40C
100
AcDbEntity
  8
0
100
AcDbLine
 62
7
  6
CONTINUOUS
 10
105.1633874339
 20
97.5678363518
 11
104.3148557638
 21
98.0577252572
  0
LINE
  5
40D
100
AcDbEntity
  8
0
100
AcDbLine
 62
7
  6
CONTINUOUS
 10
84.863385138
 20
109.3049709347
 11
84.1092652869
 21
109.740343228
  0
LINE
  5
40E
100
AcDbEntity
  8
0
100
AcDbLine
 62
7
  6
CONTINUOUS
 10
123.8430480085
 20
86.8242435032
 11
121.930268821
 21
87.9285621921
  0
LINE
  5
40F
100
AcDbEntity
  8
0
100
AcDbLine
 62
7
  6
CONTINUOUS
 10
126.8128905161
 20
85.1703307749
 11
127.2427465437
 21
84.9221589238
  0
LINE
  5
410
100
AcDbEntity
  8
0
100
AcDbLine
 62
7
  6
CONTINUOUS
 10
92.5945584369
 20
105.2531174137
 11
91.1390322031
 21
106.0934468658
  0
LINE
  5
411
100
AcDbEntity
  8
0
100
AcDbLine
 62
7
  6
CONTINUOUS
 10
38.8542193258
 20
136.2794147573
 11
39.4129170451
 21
135.9568577758
  0
LINE
  5
412
100
AcDbEntity
  8
0
100
AcDbLine
 62
7
  6
CONTINUOUS
 10
110.2898902537
 20
95.0570402726
 11
109.4413585836
 21
95.546929178
  0
LINE
  5
413
100
AcDbEntity
  8
0
100
AcDbLine
 62
7
  6
CONTINUOUS
 10
77.3917641135
 20
104.7631837976
 11
78.9227015767
 21
100.8174325727
  0
LINE
  5
414
100
AcDbEntity
  8
0
100
AcDbLine
 62
7
  6
CONTINUOUS
 10
79.513093289
 20
77.369559065
 11
79.513093289
 21
69.3669233612
  0
LINE
  5
415
100
AcDbEntity
  8
0
100
AcDbLine
 62
7
  6
CONTINUOUS
 10
80.0434255828
 20
83.0238461442
 11
80.0434255828
 21
80.4518635302
  0
LINE
  5
416
100
AcDbEntity
  8
0
100
AcDbLine
 62
7
  6
CONTINUOUS
 10
80.2202030141
 20
80.4722787042
 11
80.2202030141
 21
80.8805299127
  0
LINE
  5
417
100
AcDbEntity
  8
0
100
AcDbLine
 62
7
  6
CONTINUOUS
 10
80.5737490448
 20
74.8792161107
 11
80.5737490448
 21
69.979289592
  0
LINE
  5
418
100
AcDbEntity
  8
0
100
AcDbLine
 62
7
  6
CONTINUOUS
 10
81.2808587699
 20
76.3489622777
 11
81.2808587699
 21
74.4709753562
  0
LINE
  5
419
100
AcDbEntity
  8
0
100
AcDbLine
 62
7
  6
CONTINUOUS
 10
82.6017397365
 20
68.6585869669
 11
82.6017397365
 21
75.5863685483
  0
LINE
  5
41A
100
AcDbEntity
  8
0
100
AcDbLine
 62
7
  6
CONTINUOUS
 10
83.6623954923
 20
70.7071820207
 11
83.6623954923
 21
74.9740125155
  0
LINE
  5
41B
100
AcDbEntity
  8
0
100
AcDbLine
 62
7
  6
CONTINUOUS
 10
84.1092652869
 20
109.740343228
 11
84.1092652869
 21
110.8869286783
  0
LINE
  5
41C
100
AcDbEntity
  8
0
100
AcDbLine
 62
7
  6
CONTINUOUS
 10
80.2535329824
 20
158.2199020656
 11
80.2747320909
 21
158.9086411437
  0
LINE
  5
41D
100
AcDbEntity
  8
0
100
AcDbLine
 62
7
  6
CONTINUOUS
 10
63.5484339117
 20
95.8276746783
 11
63.1328398219
 21
95.2364219496
  0
LINE
  5
41E
100
AcDbEntity
  8
0
100
AcDbLine
 62
7
  6
CONTINUOUS
 10
64.7805070737
 20
91.0191944862
 11
63.2495696106
 21
88.8411775827
  0
LINE
  5
41F
100
AcDbEntity
  8
0
100
AcDbLine
 62
7
  6
CONTINUOUS
 10
75.3871529509
 20
105.5122692009
 11
73.8562154878
 21
103.3342522974
  0
LINE
  5
420
100
AcDbEntity
  8
0
100
AcDbLine
 62
7
  6
CONTINUOUS
 10
71.2406033107
 20
113.8272567336
 11
71.5898934249
 21
114.0289182712
  0
LINE
  5
421
100
AcDbEntity
  8
0
100
AcDbLine
 62
7
  6
CONTINUOUS
 10
111.765866263
 20
136.3279917628
 11
111.0587624258
 21
135.9197476089
  0
LINE
  5
422
100
AcDbEntity
  8
0
100
AcDbLine
 62
7
  6
CONTINUOUS
 10
87.3707838791
 20
122.2435684542
 11
86.6636800419
 21
121.8353243003
  0
LINE
  5
423
100
AcDbEntity
  8
0
100
AcDbLine
 62
7
  6
CONTINUOUS
 10
67.8610239522
 20
110.634448417
 11
67.7183978354
 21
110.5521036816
  0
LINE
  5
424
100
AcDbEntity
  8
0
100
AcDbLine
 62
7
  6
CONTINUOUS
 10
71.9477130359
 20
112.8468665102
 11
71.3813314498
 21
112.5198679009
  0
LINE
  5
425
100
AcDbEntity
  8
0
100
AcDbLine
 62
7
  6
CONTINUOUS
 10
73.8569092938
 20
111.0920123161
 11
124.7683855732
 21
140.4855913949
  0
LINE
  5
426
100
AcDbEntity
  8
0
100
AcDbLine
 62
7
  6
CONTINUOUS
 10
71.2406033107
 20
108.6832915056
 11
71.3813314498
 21
108.7645404496
  0
LINE
  5
427
100
AcDbEntity
  8
0
100
AcDbLine
 62
7
  6
CONTINUOUS
 10
125.695654549
 20
86.4401521691
 11
124.4367060152
 21
87.1669900684
  0
LINE
  5
428
100
AcDbEntity
  8
0
100
AcDbLine
 62
7
  6
CONTINUOUS
 10
123.8430479776
 20
87.6407459025
 11
122.6373907344
 21
88.3368167478
  0
LINE
  5
429
100
AcDbEntity
  8
0
100
AcDbLine
 62
7
  6
CONTINUOUS
 10
102.4763928525
 20
100.1806708945
 11
101.6278611824
 21
100.6705597999
  0
LINE
  5
42A
100
AcDbEntity
  8
0
100
AcDbLine
 62
7
  6
CONTINUOUS
 10
126.0211997232
 20
86.6281046201
 11
124.5501518662
 21
87.4773953543
  0
LINE
  5
42B
100
AcDbEntity
  8
0
100
AcDbLine
 62
7
  6
CONTINUOUS
 10
39.9149074652
 20
136.4019758358
 11
41.6826817781
 21
135.3813739495
  0
LINE
  5
42C
100
AcDbEntity
  8
0
100
AcDbLine
 62
7
  6
CONTINUOUS
 10
84.1092652869
 20
110.8869286783
 11
85.8770395998
 21
109.866326792
  0
LINE
  5
42D
100
AcDbEntity
  8
0
100
AcDbLine
 62
7
  6
CONTINUOUS
 10
124.5501518446
 20
88.0489900749
 11
123.3444946324
 21
88.7450609024
  0
LINE
  5
42E
100
AcDbEntity
  8
0
100
AcDbLine
 62
7
  6
CONTINUOUS
 10
112.7293984921
 20
94.9141280109
 11
111.880866822
 21
95.4040169163
  0
LINE
  5
42F
100
AcDbEntity
  8
0
100
AcDbLine
 62
7
  6
CONTINUOUS
 10
94.0087661114
 20
106.0696057215
 11
92.5532398776
 21
106.9099351735
  0
LINE
  5
430
100
AcDbEntity
  8
0
100
AcDbLine
 62
7
  6
CONTINUOUS
 10
40.2684270002
 20
137.095903065
 11
40.692632961
 21
136.8509931799
  0
LINE
  5
431
100
AcDbEntity
  8
0
100
AcDbLine
 62
7
  6
CONTINUOUS
 10
94.5744274525
 20
106.3961884996
 11
92.8247695805
 21
107.4063310905
  0
LINE
  5
432
100
AcDbEntity
  8
0
100
AcDbLine
 62
7
  6
CONTINUOUS
 10
102.4763928525
 20
101.8953259704
 11
101.6278611824
 21
102.3852148759
  0
LINE
  5
433
100
AcDbEntity
  8
0
100
AcDbLine
 62
7
  6
CONTINUOUS
 10
42.2591593483
 20
136.6815150168
 11
41.3291151396
 21
137.2184641436
  0
LINE
  5
434
100
AcDbEntity
  8
0
100
AcDbLine
 62
7
  6
CONTINUOUS
 10
85.5234729613
 20
111.7034169861
 11
87.2912472742
 21
110.6828150998
  0
LINE
  5
435
100
AcDbEntity
  8
0
100
AcDbLine
 62
7
  6
CONTINUOUS
 10
87.6918004869
 20
110.9379475502
 11
86.9376806358
 21
111.3733198434
  0
LINE
  5
436
100
AcDbEntity
  8
0
100
AcDbLine
 62
7
  6
CONTINUOUS
 10
95.4229737858
 20
106.8860940292
 11
93.967447552
 21
107.7264234813
  0
LINE
  5
437
100
AcDbEntity
  8
0
100
AcDbLine
 62
7
  6
CONTINUOUS
 10
41.6826346746
 20
137.9123913727
 11
42.241332394
 21
137.5898343913
  0
LINE
  5
438
100
AcDbEntity
  8
0
100
AcDbLine
 62
7
  6
CONTINUOUS
 10
105.1633874339
 20
101.7319986792
 11
104.3148557638
 21
102.2218875846
  0
LINE
  5
439
100
AcDbEntity
  8
0
100
AcDbLine
 62
7
  6
CONTINUOUS
 10
103.7491797595
 20
102.6301654474
 11
102.9006480893
 21
103.1200543528
  0
LINE
  5
43A
100
AcDbEntity
  8
0
100
AcDbLine
 62
7
  6
CONTINUOUS
 10
42.7433228141
 20
138.0349524513
 11
43.4317806008
 21
137.6374801549
  0
LINE
  5
43B
100
AcDbEntity
  8
0
100
AcDbLine
 62
7
  6
CONTINUOUS
 10
86.9376806358
 20
112.5199052938
 11
88.7054549486
 21
111.4993034075
  0
LINE
  5
43C
100
AcDbEntity
  8
0
100
AcDbLine
 62
7
  6
CONTINUOUS
 10
96.8371814602
 20
107.7025823369
 11
95.3816552264
 21
108.542911789
  0
LINE
  5
43D
100
AcDbEntity
  8
0
100
AcDbLine
 62
7
  6
CONTINUOUS
 10
43.096842349
 20
138.7288796805
 11
43.5210483099
 21
138.4839697954
  0
LINE
  5
43E
100
AcDbEntity
  8
0
100
AcDbLine
 62
7
  6
CONTINUOUS
 10
131.4853695784
 20
88.0333074654
 11
131.8146859536
 21
87.843180832
  0
LINE
  5
43F
100
AcDbEntity
  8
0
100
AcDbLine
 62
7
  6
CONTINUOUS
 10
110.2898902537
 20
100.5276064674
 11
109.4413585836
 21
101.0174953728
  0
LINE
  5
440
100
AcDbEntity
  8
0
100
AcDbLine
 62
7
  6
CONTINUOUS
 10
97.4028428014
 20
108.0291651151
 11
95.6531849294
 21
109.039307706
  0
LINE
  5
441
100
AcDbEntity
  8
0
100
AcDbLine
 62
7
  6
CONTINUOUS
 10
124.0339380217
 20
92.674439342
 11
122.8754544033
 21
93.3432750962
  0
LINE
  5
442
100
AcDbEntity
  8
0
100
AcDbLine
 62
7
  6
CONTINUOUS
 10
44.8459882752
 20
138.4539684626
 11
44.1575304885
 21
138.8514407591
  0
LINE
  5
443
100
AcDbEntity
  8
0
100
AcDbLine
 62
7
  6
CONTINUOUS
 10
88.3518883102
 20
113.3363936015
 11
90.1196626231
 21
112.3157917152
  0
LINE
  5
444
100
AcDbEntity
  8
0
100
AcDbLine
 62
7
  6
CONTINUOUS
 10
115.4163930735
 20
98.0168103882
 11
114.5678614034
 21
98.5066992936
  0
LINE
  5
445
100
AcDbEntity
  8
0
100
AcDbLine
 62
7
  6
CONTINUOUS
 10
90.5202158357
 20
112.5709241656
 11
89.7660959846
 21
113.0062964589
  0
LINE
  5
446
100
AcDbEntity
  8
0
100
AcDbLine
 62
7
  6
CONTINUOUS
 10
125.8415065555
 20
92.3902099313
 11
124.69156143
 21
93.0541160954
  0
LINE
  5
447
100
AcDbEntity
  8
0
100
AcDbLine
 62
7
  6
CONTINUOUS
 10
98.2513891346
 20
108.5190706447
 11
96.7958629008
 21
109.3594000968
  0
LINE
  5
448
100
AcDbEntity
  8
0
100
AcDbLine
 62
7
  6
CONTINUOUS
 10
44.5110500235
 20
139.5453679882
 11
45.0697477428
 21
139.2228110068
  0
LINE
  5
449
100
AcDbEntity
  8
0
100
AcDbLine
 62
7
  6
CONTINUOUS
 10
107.6028956723
 20
103.14044101
 11
106.7543640022
 21
103.6303299154
  0
LINE
  5
44A
100
AcDbEntity
  8
0
100
AcDbLine
 62
7
  6
CONTINUOUS
 10
84.9981371546
 20
128.3714216035
 11
85.0262014348
 21
127.4272344536
  0
LINE
  5
44B
100
AcDbEntity
  8
0
100
AcDbLine
 62
7
  6
CONTINUOUS
 10
86.5306251444
 20
126.3117877422
 11
86.6636800419
 21
121.8353243003
  0
LINE
  5
44C
100
AcDbEntity
  8
0
100
AcDbLine
 62
7
  6
CONTINUOUS
 10
87.3707838791
 20
122.2435684542
 11
87.2377289816
 21
126.7200318961
  0
LINE
  5
44D
100
AcDbEntity
  8
0
100
AcDbLine
 62
7
  6
CONTINUOUS
 10
85.1699710901
 20
77.6145934225
 11
85.1699710901
 21
78.0228446311
  0
LINE
  5
44E
100
AcDbEntity
  8
0
100
AcDbLine
 62
7
  6
CONTINUOUS
 10
85.3467485214
 20
77.3900578713
 11
85.3467485214
 21
79.9620404853
  0
LINE
  5
44F
100
AcDbEntity
  8
0
100
AcDbLine
 62
7
  6
CONTINUOUS
 10
85.8770808153
 20
73.6953922743
 11
85.8770808153
 21
65.177074034
  0
LINE
  5
450
100
AcDbEntity
  8
0
100
AcDbLine
 62
7
  6
CONTINUOUS
 10
86.7614100686
 20
147.5169877855
 11
86.7614100686
 21
147.0270426077
  0
LINE
  5
451
100
AcDbEntity
  8
0
100
AcDbLine
 62
7
  6
CONTINUOUS
 10
86.9376806358
 20
111.3733198434
 11
86.9376806358
 21
112.5199052938
  0
LINE
  5
452
100
AcDbEntity
  8
0
100
AcDbLine
 62
7
  6
CONTINUOUS
 10
89.7660959846
 20
113.0062964589
 11
89.7660959846
 21
114.1528819093
  0
LINE
  5
453
100
AcDbEntity
  8
0
100
AcDbLine
 62
7
  6
CONTINUOUS
 10
85.0764934073
 20
74.1576011733
 11
85.0759242737
 21
67.028992207
  0
LINE
  5
454
100
AcDbEntity
  8
0
100
AcDbLine
 62
7
  6
CONTINUOUS
 10
68.3160556994
 20
93.2646284036
 11
66.7851182363
 21
91.0866115
  0
LINE
  5
455
100
AcDbEntity
  8
0
100
AcDbLine
 62
7
  6
CONTINUOUS
 10
65.2541807732
 20
88.0920921793
 11
66.7851182363
 21
90.2701090829
  0
LINE
  5
456
100
AcDbEntity
  8
0
100
AcDbLine
 62
7
  6
CONTINUOUS
 10
75.8608266504
 20
102.585166894
 11
77.3917641135
 21
104.7631837976
  0
LINE
  5
457
100
AcDbEntity
  8
0
100
AcDbLine
 62
7
  6
CONTINUOUS
 10
67.0839825374
 20
89.4998332157
 11
66.6683884477
 21
88.9085804871
  0
LINE
  5
458
100
AcDbEntity
  8
0
100
AcDbLine
 62
7
  6
CONTINUOUS
 10
77.6906284146
 20
103.9929079304
 11
77.2750343249
 21
103.4016552018
  0
LINE
  5
459
100
AcDbEntity
  8
0
100
AcDbLine
 62
7
  6
CONTINUOUS
 10
68.789729399
 20
90.3375260967
 11
70.3206668621
 21
92.5155430002
  0
LINE
  5
45A
100
AcDbEntity
  8
0
100
AcDbLine
 62
7
  6
CONTINUOUS
 10
70.6195311631
 20
91.7452671331
 11
70.2039370734
 21
91.1540144044
  0
LINE
  5
45B
100
AcDbEntity
  8
0
100
AcDbLine
 62
7
  6
CONTINUOUS
 10
78.9227015766
 20
99.1844277384
 11
77.3917641136
 21
97.0064108349
  0
LINE
  5
45C
100
AcDbEntity
  8
0
100
AcDbLine
 62
7
  6
CONTINUOUS
 10
70.2039370734
 20
107.484062747
 11
68.789729399
 21
106.6675744392
  0
LINE
  5
45D
100
AcDbEntity
  8
0
100
AcDbLine
 62
7
  6
CONTINUOUS
 10
63.132839822
 20
103.4014461209
 11
61.7186321475
 21
102.5849578131
  0
LINE
  5
45E
100
AcDbEntity
  8
0
100
AcDbLine
 62
7
  6
CONTINUOUS
 10
56.0617425705
 20
99.3188294948
 11
54.6475348961
 21
98.502341187
  0
LINE
  5
45F
100
AcDbEntity
  8
0
100
AcDbLine
 62
7
  6
CONTINUOUS
 10
59.5972911962
 20
101.1560122035
 11
58.1830835218
 21
100.3395238958
  0
LINE
  5
460
100
AcDbEntity
  8
0
100
AcDbLine
 62
7
  6
CONTINUOUS
 10
52.5261939448
 20
97.0733955774
 11
51.1119862703
 21
96.2569072697
  0
LINE
  5
461
100
AcDbEntity
  8
0
100
AcDbLine
 62
7
  6
CONTINUOUS
 10
109.2564388485
 20
129.5696598084
 11
112.676230282
 21
131.5440655274
  0
LINE
  5
462
100
AcDbEntity
  8
0
100
AcDbLine
 62
7
  6
CONTINUOUS
 10
48.0467105199
 20
94.1073828292
 11
47.5163782261
 21
93.8011971642
  0
LINE
  5
463
100
AcDbEntity
  8
0
100
AcDbLine
 62
7
  6
CONTINUOUS
 10
110.7957187846
 20
129.4863689441
 11
112.2582073012
 21
130.3307320426
  0
LINE
  5
464
100
AcDbEntity
  8
0
100
AcDbLine
 62
7
  6
CONTINUOUS
 10
111.2957196457
 20
129.3667987208
 11
112.256164373
 21
129.9213084326
  0
LINE
  5
465
100
AcDbEntity
  8
0
100
AcDbLine
 62
7
  6
CONTINUOUS
 10
110.5931950625
 20
128.7979007079
 11
110.7957229184
 21
128.9148295221
  0
LINE
  5
466
100
AcDbEntity
  8
0
100
AcDbLine
 62
7
  6
CONTINUOUS
 10
110.9467499186
 20
128.5937803344
 11
111.2957237806
 21
128.7952592849
  0
LINE
  5
467
100
AcDbEntity
  8
0
100
AcDbLine
 62
7
  6
CONTINUOUS
 10
47.2956387717
 20
90.9104987601
 11
45.17432726
 21
89.6857662985
  0
LINE
  5
468
100
AcDbEntity
  8
0
100
AcDbLine
 62
7
  6
CONTINUOUS
 10
112.0157549441
 20
127.9780528029
 11
112.1571757116
 21
128.0597016337
  0
LINE
  5
469
100
AcDbEntity
  8
0
100
AcDbLine
 62
7
  6
CONTINUOUS
 10
82.6950576125
 20
110.0704403706
 11
84.1092652869
 21
110.8869286783
  0
LINE
  5
46A
100
AcDbEntity
  8
0
100
AcDbLine
 62
7
  6
CONTINUOUS
 10
85.5234729613
 20
111.7034169861
 11
86.9376806358
 21
112.5199052938
  0
LINE
  5
46B
100
AcDbEntity
  8
0
100
AcDbLine
 62
7
  6
CONTINUOUS
 10
88.3518883102
 20
113.3363936015
 11
89.7660959846
 21
114.1528819093
  0
LINE
  5
46C
100
AcDbEntity
  8
0
100
AcDbLine
 62
7
  6
CONTINUOUS
 10
91.180303659
 20
114.969370217
 11
92.5945113335
 21
115.7858585248
  0
LINE
  5
46D
100
AcDbEntity
  8
0
100
AcDbLine
 62
7
  6
CONTINUOUS
 10
94.0087190079
 20
116.6023468325
 11
95.4229266823
 21
117.4188351403
  0
LINE
  5
46E
100
AcDbEntity
  8
0
100
AcDbLine
 62
7
  6
CONTINUOUS
 10
96.8371343567
 20
118.235323448
 11
98.2513420312
 21
119.0518117558
  0
LINE
  5
46F
100
AcDbEntity
  8
0
100
AcDbLine
 62
7
  6
CONTINUOUS
 10
99.6655497056
 20
119.8683000635
 11
101.07975738
 21
120.6847883712
  0
LINE
  5
470
100
AcDbEntity
  8
0
100
AcDbLine
 62
7
  6
CONTINUOUS
 10
102.4939650545
 20
121.501276679
 11
103.9081727289
 21
122.3177649867
  0
LINE
  5
471
100
AcDbEntity
  8
0
100
AcDbLine
 62
7
  6
CONTINUOUS
 10
105.3223804033
 20
123.1342532945
 11
106.7365880777
 21
123.9507416022
  0
LINE
  5
472
100
AcDbEntity
  8
0
100
AcDbLine
 62
7
  6
CONTINUOUS
 10
47.1716846519
 20
89.3460750882
 11
48.5859828622
 21
90.1626156665
  0
LINE
  5
473
100
AcDbEntity
  8
0
100
AcDbLine
 62
7
  6
CONTINUOUS
 10
106.7365880777
 20
122.8041561518
 11
106.3153667265
 21
122.560965343
  0
LINE
  5
474
100
AcDbEntity
  8
0
100
AcDbLine
 62
7
  6
CONTINUOUS
 10
103.9081727289
 20
121.1711795364
 11
103.4869513776
 21
120.9279887275
  0
LINE
  5
475
100
AcDbEntity
  8
0
100
AcDbLine
 62
7
  6
CONTINUOUS
 10
101.07975738
 20
119.5382029209
 11
100.6585360288
 21
119.295012112
  0
LINE
  5
476
100
AcDbEntity
  8
0
100
AcDbLine
 62
7
  6
CONTINUOUS
 10
98.2513420312
 20
117.9052263054
 11
97.8301206799
 21
117.6620354965
  0
LINE
  5
477
100
AcDbEntity
  8
0
100
AcDbLine
 62
7
  6
CONTINUOUS
 10
95.4229266823
 20
116.2722496899
 11
95.0017053311
 21
116.029058881
  0
LINE
  5
478
100
AcDbEntity
  8
0
100
AcDbLine
 62
7
  6
CONTINUOUS
 10
92.5945113335
 20
114.6392730744
 11
92.1732899822
 21
114.3960822655
  0
LINE
  5
479
100
AcDbEntity
  8
0
100
AcDbLine
 62
7
  6
CONTINUOUS
 10
89.7660959846
 20
113.0062964589
 11
89.3448746334
 21
112.7631056501
  0
LINE
  5
47A
100
AcDbEntity
  8
0
100
AcDbLine
 62
7
  6
CONTINUOUS
 10
86.9376806358
 20
111.3733198434
 11
86.5164592845
 21
111.1301290346
  0
LINE
  5
47B
100
AcDbEntity
  8
0
100
AcDbLine
 62
7
  6
CONTINUOUS
 10
84.1092652869
 20
109.740343228
 11
83.6880439357
 21
109.4971524191
  0
LINE
  5
47C
100
AcDbEntity
  8
0
100
AcDbLine
 62
7
  6
CONTINUOUS
 10
117.8559013119
 20
97.8738981265
 11
117.0073696418
 21
98.3637870319
  0
LINE
  5
47D
100
AcDbEntity
  8
0
100
AcDbLine
 62
7
  6
CONTINUOUS
 10
124.342348036
 20
94.1901814746
 11
125.8285388807
 21
93.3321482017
  0
LINE
  5
47E
100
AcDbEntity
  8
0
100
AcDbLine
 62
7
  6
CONTINUOUS
 10
45.5717381629
 20
139.6679290668
 11
46.2601959496
 21
139.2704567703
  0
LINE
  5
47F
100
AcDbEntity
  8
0
100
AcDbLine
 62
7
  6
CONTINUOUS
 10
89.7660959846
 20
114.1528819093
 11
91.5338702975
 21
113.132280023
  0
LINE
  5
480
100
AcDbEntity
  8
0
100
AcDbLine
 62
7
  6
CONTINUOUS
 10
99.6655968091
 20
109.3355589524
 11
98.2100705753
 21
110.1758884045
  0
LINE
  5
481
100
AcDbEntity
  8
0
100
AcDbLine
 62
7
  6
CONTINUOUS
 10
45.9252576979
 20
140.361856296
 11
46.3494636587
 21
140.1169464109
  0
LINE
  5
482
100
AcDbEntity
  8
0
100
AcDbLine
 62
7
  6
CONTINUOUS
 10
107.6028956723
 20
104.855096086
 11
106.7543640022
 21
105.3449849914
  0
LINE
  5
483
100
AcDbEntity
  8
0
100
AcDbLine
 62
7
  6
CONTINUOUS
 10
100.2312581502
 20
109.6621417306
 11
98.4816002783
 21
110.6722843215
  0
LINE
  5
484
100
AcDbEntity
  8
0
100
AcDbLine
 62
7
  6
CONTINUOUS
 10
47.6744036241
 20
140.0869450781
 11
46.9859458373
 21
140.4844173746
  0
LINE
  5
485
100
AcDbEntity
  8
0
100
AcDbLine
 62
7
  6
CONTINUOUS
 10
91.180303659
 20
114.969370217
 11
92.9480779719
 21
113.9487683307
  0
LINE
  5
486
100
AcDbEntity
  8
0
100
AcDbLine
 62
7
  6
CONTINUOUS
 10
93.3486311846
 20
114.2039007811
 11
92.5945113335
 21
114.6392730744
  0
LINE
  5
487
100
AcDbEntity
  8
0
100
AcDbLine
 62
7
  6
CONTINUOUS
 10
110.2898902537
 20
104.6917687947
 11
109.4413585836
 21
105.1816577002
  0
LINE
  5
488
100
AcDbEntity
  8
0
100
AcDbLine
 62
7
  6
CONTINUOUS
 10
108.8756825793
 20
105.589935563
 11
108.0271509091
 21
106.0798244684
  0
LINE
  5
489
100
AcDbEntity
  8
0
100
AcDbLine
 62
7
  6
CONTINUOUS
 10
101.0798044835
 20
110.1520472602
 11
99.6242782497
 21
110.9923767123
  0
LINE
  5
48A
100
AcDbEntity
  8
0
100
AcDbLine
 62
7
  6
CONTINUOUS
 10
47.3394653723
 20
141.1783446037
 11
47.8981630917
 21
140.8557876223
  0
LINE
  5
48B
100
AcDbEntity
  8
0
100
AcDbLine
 62
7
  6
CONTINUOUS
 10
48.4001535118
 20
141.3009056823
 11
49.0886112985
 21
140.9034333858
  0
LINE
  5
48C
100
AcDbEntity
  8
0
100
AcDbLine
 62
7
  6
CONTINUOUS
 10
92.5945113335
 20
115.7858585248
 11
94.3622856463
 21
114.7652566385
  0
LINE
  5
48D
100
AcDbEntity
  8
0
100
AcDbLine
 62
7
  6
CONTINUOUS
 10
119.9595281621
 20
100.0682063743
 11
123.273423462
 21
98.1549713141
  0
LINE
  5
48E
100
AcDbEntity
  8
0
100
AcDbLine
 62
7
  6
CONTINUOUS
 10
115.4163930735
 20
103.4873765829
 11
114.5678614034
 21
103.9772654884
  0
LINE
  5
48F
100
AcDbEntity
  8
0
100
AcDbLine
 62
7
  6
CONTINUOUS
 10
102.4940121579
 20
110.9685355679
 11
101.0384859242
 21
111.80886502
  0
LINE
  5
490
100
AcDbEntity
  8
0
100
AcDbLine
 62
7
  6
CONTINUOUS
 10
48.7536730468
 20
141.9948329115
 11
49.1778790076
 21
141.7499230264
  0
LINE
  5
491
100
AcDbEntity
  8
0
100
AcDbLine
 62
7
  6
CONTINUOUS
 10
103.0596734991
 20
111.2951183461
 11
101.3100156271
 21
112.305260937
  0
LINE
  5
492
100
AcDbEntity
  8
0
100
AcDbLine
 62
7
  6
CONTINUOUS
 10
50.5028189729
 20
141.7199216936
 11
49.8143611862
 21
142.11739399
  0
LINE
  5
493
100
AcDbEntity
  8
0
100
AcDbLine
 62
7
  6
CONTINUOUS
 10
94.0087190079
 20
116.6023468325
 11
95.7764933208
 21
115.5817449462
  0
LINE
  5
494
100
AcDbEntity
  8
0
100
AcDbLine
 62
7
  6
CONTINUOUS
 10
112.7293984921
 20
106.1002111256
 11
111.880866822
 21
106.590100031
  0
LINE
  5
495
100
AcDbEntity
  8
0
100
AcDbLine
 62
7
  6
CONTINUOUS
 10
96.1770465334
 20
115.8368773966
 11
95.4229266823
 21
116.2722496899
  0
LINE
  5
496
100
AcDbEntity
  8
0
100
AcDbLine
 62
7
  6
CONTINUOUS
 10
103.9082198323
 20
111.7850238757
 11
102.4526935985
 21
112.6253533278
  0
LINE
  5
497
100
AcDbEntity
  8
0
100
AcDbLine
 62
7
  6
CONTINUOUS
 10
50.1678807212
 20
142.8113212192
 11
50.7265784405
 21
142.4887642377
  0
LINE
  5
498
100
AcDbEntity
  8
0
100
AcDbLine
 62
7
  6
CONTINUOUS
 10
126.0211997232
 20
86.6281046201
 11
126.8128905161
 21
85.9260813044
  0
LINE
  5
499
100
AcDbEntity
  8
0
100
AcDbLine
 62
7
  6
CONTINUOUS
 10
90.2969292546
 20
149.0682633771
 11
90.2969292546
 21
149.5582085549
  0
LINE
  5
49A
100
AcDbEntity
  8
0
100
AcDbLine
 62
7
  6
CONTINUOUS
 10
91.8168025065
 20
96.7208482514
 11
91.8168025065
 21
88.396502317
  0
LINE
  5
49B
100
AcDbEntity
  8
0
100
AcDbLine
 62
7
  6
CONTINUOUS
 10
92.5945113335
 20
114.6392730744
 11
92.5945113335
 21
115.7858585248
  0
LINE
  5
49C
100
AcDbEntity
  8
0
100
AcDbLine
 62
7
  6
CONTINUOUS
 10
93.1253681552
 20
147.9252455368
 11
93.1253681552
 21
147.435300359
  0
LINE
  5
49D
100
AcDbEntity
  8
0
100
AcDbLine
 62
7
  6
CONTINUOUS
 10
93.231010181
 20
97.5373365591
 11
93.231010181
 21
90.6787162552
  0
LINE
  5
49E
100
AcDbEntity
  8
0
100
AcDbLine
 62
7
  6
CONTINUOUS
 10
93.231010181
 20
89.3723123878
 11
93.231010181
 21
89.2129906248
  0
LINE
  5
49F
100
AcDbEntity
  8
0
100
AcDbLine
 62
7
  6
CONTINUOUS
 10
94.0618501242
 20
87.075119092
 11
94.0618501242
 21
89.8519951894
  0
LINE
  5
4A0
100
AcDbEntity
  8
0
100
AcDbLine
 62
7
  6
CONTINUOUS
 10
94.0618501242
 20
92.1381850261
 11
94.0618501242
 21
96.3023473535
  0
LINE
  5
4A1
100
AcDbEntity
  8
0
100
AcDbLine
 62
7
  6
CONTINUOUS
 10
94.9103817943
 20
86.1777299259
 11
94.9103817943
 21
90.3418922533
  0
LINE
  5
4A2
100
AcDbEntity
  8
0
100
AcDbLine
 62
7
  6
CONTINUOUS
 10
94.9103817943
 20
91.6482961207
 11
94.9103817943
 21
95.812458448
  0
LINE
  5
4A3
100
AcDbEntity
  8
0
100
AcDbLine
 62
7
  6
CONTINUOUS
 10
75.8608266504
 20
94.4201427227
 11
77.3917641135
 21
96.5981596263
  0
LINE
  5
4A4
100
AcDbEntity
  8
0
100
AcDbLine
 62
7
  6
CONTINUOUS
 10
77.6906284146
 20
95.8278837592
 11
77.2750343249
 21
95.2366310305
  0
LINE
  5
4A5
100
AcDbEntity
  8
0
100
AcDbLine
 62
7
  6
CONTINUOUS
 10
71.8516043252
 20
86.936786941
 11
70.3206668621
 21
84.7587700375
  0
LINE
  5
4A6
100
AcDbEntity
  8
0
100
AcDbLine
 62
7
  6
CONTINUOUS
 10
75.3871529509
 20
89.1822208583
 11
73.8562154878
 21
87.0042039548
  0
LINE
  5
4A7
100
AcDbEntity
  8
0
100
AcDbLine
 62
7
  6
CONTINUOUS
 10
72.3252780247
 20
84.0096846341
 11
73.8562154878
 21
86.1877015377
  0
LINE
  5
4A8
100
AcDbEntity
  8
0
100
AcDbLine
 62
7
  6
CONTINUOUS
 10
74.1550797889
 20
85.4174256705
 11
73.7394856991
 21
84.8261729419
  0
LINE
  5
4A9
100
AcDbEntity
  8
0
100
AcDbLine
 62
7
  6
CONTINUOUS
 10
78.9227015766
 20
91.0194035671
 11
77.3917641136
 21
88.8413866636
  0
LINE
  5
4AA
100
AcDbEntity
  8
0
100
AcDbLine
 62
7
  6
CONTINUOUS
 10
75.8608266504
 20
86.2551185515
 11
77.3917641135
 21
88.433135455
  0
LINE
  5
4AB
100
AcDbEntity
  8
0
100
AcDbLine
 62
7
  6
CONTINUOUS
 10
77.6906284146
 20
87.6628595879
 11
77.2750343249
 21
87.0716068592
  0
LINE
  5
4AC
100
AcDbEntity
  8
0
100
AcDbLine
 62
7
  6
CONTINUOUS
 10
107.4907079288
 20
122.3687838586
 11
107.0798168608
 21
122.1315572059
  0
LINE
  5
4AD
100
AcDbEntity
  8
0
100
AcDbLine
 62
7
  6
CONTINUOUS
 10
104.66229258
 20
120.7358072431
 11
104.2514015119
 21
120.4985805904
  0
LINE
  5
4AE
100
AcDbEntity
  8
0
100
AcDbLine
 62
7
  6
CONTINUOUS
 10
101.8338772311
 20
119.1028306276
 11
101.4229861631
 21
118.8656039749
  0
LINE
  5
4AF
100
AcDbEntity
  8
0
100
AcDbLine
 62
7
  6
CONTINUOUS
 10
99.0054618823
 20
117.4698540121
 11
98.5945708142
 21
117.2326273594
  0
LINE
  5
4B0
100
AcDbEntity
  8
0
100
AcDbLine
 62
7
  6
CONTINUOUS
 10
96.1770465334
 20
115.8368773966
 11
95.7661554654
 21
115.5996507439
  0
LINE
  5
4B1
100
AcDbEntity
  8
0
100
AcDbLine
 62
7
  6
CONTINUOUS
 10
93.3486311846
 20
114.2039007811
 11
92.9377401165
 21
113.9666741284
  0
LINE
  5
4B2
100
AcDbEntity
  8
0
100
AcDbLine
 62
7
  6
CONTINUOUS
 10
90.5202158357
 20
112.5709241656
 11
90.1093247676
 21
112.3336975129
  0
LINE
  5
4B3
100
AcDbEntity
  8
0
100
AcDbLine
 62
7
  6
CONTINUOUS
 10
87.6918004869
 20
110.9379475502
 11
87.2809094188
 21
110.7007208975
  0
LINE
  5
4B4
100
AcDbEntity
  8
0
100
AcDbLine
 62
7
  6
CONTINUOUS
 10
84.863385138
 20
109.3049709347
 11
84.4524940699
 21
109.067744282
  0
LINE
  5
4B5
100
AcDbEntity
  8
0
100
AcDbLine
 62
7
  6
CONTINUOUS
 10
131.8387890187
 20
136.4021967937
 11
130.7074228791
 21
135.7490061475
  0
LINE
  5
4B6
100
AcDbEntity
  8
0
100
AcDbLine
 62
7
  6
CONTINUOUS
 10
109.918570065
 20
123.7466280237
 11
108.5043623906
 21
122.9301397159
  0
LINE
  5
4B7
100
AcDbEntity
  8
0
100
AcDbLine
 62
7
  6
CONTINUOUS
 10
107.0901547162
 20
122.1136514082
 11
105.6759470418
 21
121.2971631004
  0
LINE
  5
4B8
100
AcDbEntity
  8
0
100
AcDbLine
 62
7
  6
CONTINUOUS
 10
104.2617393673
 20
120.4806747927
 11
102.8475316929
 21
119.6641864849
  0
LINE
  5
4B9
100
AcDbEntity
  8
0
100
AcDbLine
 62
7
  6
CONTINUOUS
 10
101.4333240185
 20
118.8476981772
 11
100.019116344
 21
118.0312098694
  0
LINE
  5
4BA
100
AcDbEntity
  8
0
100
AcDbLine
 62
7
  6
CONTINUOUS
 10
98.6049086696
 20
117.2147215617
 11
97.1907009952
 21
116.398233254
  0
LINE
  5
4BB
100
AcDbEntity
  8
0
100
AcDbLine
 62
7
  6
CONTINUOUS
 10
95.7764933208
 20
115.5817449462
 11
94.3622856463
 21
114.7652566385
  0
LINE
  5
4BC
100
AcDbEntity
  8
0
100
AcDbLine
 62
7
  6
CONTINUOUS
 10
92.9480779719
 20
113.9487683307
 11
91.5338702975
 21
113.132280023
  0
LINE
  5
4BD
100
AcDbEntity
  8
0
100
AcDbLine
 62
7
  6
CONTINUOUS
 10
90.119662623
 20
112.3157917152
 11
88.7054549486
 21
111.4993034075
  0
LINE
  5
4BE
100
AcDbEntity
  8
0
100
AcDbLine
 62
7
  6
CONTINUOUS
 10
87.2912472742
 20
110.6828150998
 11
85.8770395998
 21
109.866326792
  0
LINE
  5
4BF
100
AcDbEntity
  8
0
100
AcDbLine
 62
7
  6
CONTINUOUS
 10
84.4628319253
 20
109.0498384843
 11
80.9273127393
 21
107.0086177149
  0
LINE
  5
4C0
100
AcDbEntity
  8
0
100
AcDbLine
 62
7
  6
CONTINUOUS
 10
114.9785495029
 20
126.5941389833
 11
114.6944314623
 21
126.4301043352
  0
LINE
  5
4C1
100
AcDbEntity
  8
0
100
AcDbLine
 62
7
  6
CONTINUOUS
 10
115.1856583786
 20
126.3054684733
 11
115.0479863313
 21
126.2259839542
  0
LINE
  5
4C2
100
AcDbEntity
  8
0
100
AcDbLine
 62
7
  6
CONTINUOUS
 10
116.9937995319
 20
127.1860953771
 11
115.9684989965
 21
126.5941413705
  0
LINE
  5
4C3
100
AcDbEntity
  8
0
100
AcDbLine
 62
7
  6
CONTINUOUS
 10
117.7029521857
 20
127.1872782323
 11
116.1756078973
 21
126.30547086
  0
LINE
  5
4C4
100
AcDbEntity
  8
0
100
AcDbLine
 62
7
  6
CONTINUOUS
 10
77.2750343249
 20
103.4016552018
 11
75.8608266505
 21
102.585166894
  0
LINE
  5
4C5
100
AcDbEntity
  8
0
100
AcDbLine
 62
7
  6
CONTINUOUS
 10
63.132839822
 20
95.2364219496
 11
61.7186321475
 21
94.4199336418
  0
LINE
  5
4C6
100
AcDbEntity
  8
0
100
AcDbLine
 62
7
  6
CONTINUOUS
 10
59.5972911962
 20
92.9909880322
 11
58.1830835218
 21
92.1744997245
  0
LINE
  5
4C7
100
AcDbEntity
  8
0
100
AcDbLine
 62
7
  6
CONTINUOUS
 10
119.818038506
 20
127.4208339068
 11
122.7878746223
 21
129.1354593531
  0
LINE
  5
4C8
100
AcDbEntity
  8
0
100
AcDbLine
 62
7
  6
CONTINUOUS
 10
68.1993437961
 20
96.9246141085
 11
67.4922279615
 21
96.516363028
  0
LINE
  5
4C9
100
AcDbEntity
  8
0
100
AcDbLine
 62
7
  6
CONTINUOUS
 10
118.3713774394
 20
124.3072666105
 11
122.0849995029
 21
126.4513145102
  0
LINE
  5
4CA
100
AcDbEntity
  8
0
100
AcDbLine
 62
7
  6
CONTINUOUS
 10
118.5835103329
 20
124.1847943981
 11
122.0850013004
 21
126.2063690835
  0
LINE
  5
4CB
100
AcDbEntity
  8
0
100
AcDbLine
 62
7
  6
CONTINUOUS
 10
120.6601902598
 20
125.1837235737
 11
121.9612613202
 21
125.9348928168
  0
LINE
  5
4CC
100
AcDbEntity
  8
0
100
AcDbLine
 62
7
  6
CONTINUOUS
 10
115.1856583786
 20
126.3054684733
 11
116.1756078973
 21
126.30547086
  0
LINE
  5
4CD
100
AcDbEntity
  8
0
100
AcDbLine
 62
7
  6
CONTINUOUS
 10
115.9684989965
 20
126.5941413705
 11
114.9785495029
 21
126.5941389833
  0
LINE
  5
4CE
100
AcDbEntity
  8
0
100
AcDbLine
 62
7
  6
CONTINUOUS
 10
86.6398791676
 20
122.6360745581
 11
87.3707838791
 21
122.2435684542
  0
LINE
  5
4CF
100
AcDbEntity
  8
0
100
AcDbLine
 62
7
  6
CONTINUOUS
 10
51.2285688606
 20
142.9338822978
 11
51.9170266474
 21
142.5364100013
  0
LINE
  5
4D0
100
AcDbEntity
  8
0
100
AcDbLine
 62
7
  6
CONTINUOUS
 10
95.4229266823
 20
117.4188351403
 11
97.1907009952
 21
116.398233254
  0
LINE
  5
4D1
100
AcDbEntity
  8
0
100
AcDbLine
 62
7
  6
CONTINUOUS
 10
112.7293984921
 20
107.8148662016
 11
111.880866822
 21
108.304755107
  0
LINE
  5
4D2
100
AcDbEntity
  8
0
100
AcDbLine
 62
7
  6
CONTINUOUS
 10
105.3224275068
 20
112.6015121834
 11
103.866901273
 21
113.4418416355
  0
LINE
  5
4D3
100
AcDbEntity
  8
0
100
AcDbLine
 62
7
  6
CONTINUOUS
 10
51.5820883956
 20
143.6278095269
 11
52.0062943564
 21
143.3828996419
  0
LINE
  5
4D4
100
AcDbEntity
  8
0
100
AcDbLine
 62
7
  6
CONTINUOUS
 10
105.8880888479
 20
112.9280949616
 11
104.138430976
 21
113.9382375524
  0
LINE
  5
4D5
100
AcDbEntity
  8
0
100
AcDbLine
 62
7
  6
CONTINUOUS
 10
53.3312343218
 20
143.3528983091
 11
52.6427765351
 21
143.7503706055
  0
LINE
  5
4D6
100
AcDbEntity
  8
0
100
AcDbLine
 62
7
  6
CONTINUOUS
 10
96.8371343567
 20
118.235323448
 11
98.6049086696
 21
117.2147215617
  0
LINE
  5
4D7
100
AcDbEntity
  8
0
100
AcDbLine
 62
7
  6
CONTINUOUS
 10
115.4163930735
 20
107.6515389103
 11
114.5678614034
 21
108.1414278157
  0
LINE
  5
4D8
100
AcDbEntity
  8
0
100
AcDbLine
 62
7
  6
CONTINUOUS
 10
114.0021853991
 20
108.5497056785
 11
113.1536537289
 21
109.039594584
  0
LINE
  5
4D9
100
AcDbEntity
  8
0
100
AcDbLine
 62
7
  6
CONTINUOUS
 10
99.0054618823
 20
117.4698540121
 11
98.2513420312
 21
117.9052263054
  0
LINE
  5
4DA
100
AcDbEntity
  8
0
100
AcDbLine
 62
7
  6
CONTINUOUS
 10
131.4853695784
 20
99.0560900966
 11
131.8146859536
 21
98.8659634633
  0
LINE
  5
4DB
100
AcDbEntity
  8
0
100
AcDbLine
 62
7
  6
CONTINUOUS
 10
106.7366351812
 20
113.4180004911
 11
105.2811089474
 21
114.2583299432
  0
LINE
  5
4DC
100
AcDbEntity
  8
0
100
AcDbLine
 62
7
  6
CONTINUOUS
 10
52.99629607
 20
144.4442978347
 11
53.5549937894
 21
144.1217408532
  0
LINE
  5
4DD
100
AcDbEntity
  8
0
100
AcDbLine
 62
7
  6
CONTINUOUS
 10
54.0569842095
 20
144.5668589133
 11
54.7454419962
 21
144.1693866168
  0
LINE
  5
4DE
100
AcDbEntity
  8
0
100
AcDbLine
 62
7
  6
CONTINUOUS
 10
98.2513420312
 20
119.0518117558
 11
100.019116344
 21
118.0312098694
  0
LINE
  5
4DF
100
AcDbEntity
  8
0
100
AcDbLine
 62
7
  6
CONTINUOUS
 10
120.8080598323
 20
106.6002382562
 11
119.9595281621
 21
107.0901271616
  0
LINE
  5
4E0
100
AcDbEntity
  8
0
100
AcDbLine
 62
7
  6
CONTINUOUS
 10
108.1508428556
 20
114.2344887989
 11
106.6953166219
 21
115.074818251
  0
LINE
  5
4E1
100
AcDbEntity
  8
0
100
AcDbLine
 62
7
  6
CONTINUOUS
 10
54.4105037445
 20
145.2607861424
 11
54.8347097053
 21
145.0158762574
  0
LINE
  5
4E2
100
AcDbEntity
  8
0
100
AcDbLine
 62
7
  6
CONTINUOUS
 10
117.8559013119
 20
109.0599812412
 11
117.0073696418
 21
109.5498701466
  0
LINE
  5
4E3
100
AcDbEntity
  8
0
100
AcDbLine
 62
7
  6
CONTINUOUS
 10
143.0434959729
 20
94.57887335
 11
143.506134811
 21
94.3117747349
  0
LINE
  5
4E4
100
AcDbEntity
  8
0
100
AcDbLine
 62
7
  6
CONTINUOUS
 10
108.7165041968
 20
114.561071577
 11
106.9668463248
 21
115.5712141679
  0
LINE
  5
4E5
100
AcDbEntity
  8
0
100
AcDbLine
 62
7
  6
CONTINUOUS
 10
56.1596496706
 20
144.9858749245
 11
55.4711918839
 21
145.383347221
  0
LINE
  5
4E6
100
AcDbEntity
  8
0
100
AcDbLine
 62
7
  6
CONTINUOUS
 10
99.6655497056
 20
119.8683000635
 11
101.4333240185
 21
118.8476981772
  0
LINE
  5
4E7
100
AcDbEntity
  8
0
100
AcDbLine
 62
7
  6
CONTINUOUS
 10
136.0147388022
 20
99.0454685266
 11
141.6717143572
 21
95.7794854227
  0
LINE
  5
4E8
100
AcDbEntity
  8
0
100
AcDbLine
 62
7
  6
CONTINUOUS
 10
101.8338772311
 20
119.1028306276
 11
101.07975738
 21
119.5382029209
  0
LINE
  5
4E9
100
AcDbEntity
  8
0
100
AcDbLine
 62
7
  6
CONTINUOUS
 10
109.5650505301
 20
115.0509771066
 11
108.1095242963
 21
115.8913065587
  0
LINE
  5
4EA
100
AcDbEntity
  8
0
100
AcDbLine
 62
7
  6
CONTINUOUS
 10
55.8247114189
 20
146.0772744502
 11
56.3834091383
 21
145.7547174687
  0
LINE
  5
4EB
100
AcDbEntity
  8
0
100
AcDbLine
 62
7
  6
CONTINUOUS
 10
95.4229266823
 20
116.2722496899
 11
95.4229266823
 21
117.4188351403
  0
LINE
  5
4EC
100
AcDbEntity
  8
0
100
AcDbLine
 62
7
  6
CONTINUOUS
 10
96.5013583626
 20
87.0962751929
 11
96.5013583626
 21
86.5247065696
  0
LINE
  5
4ED
100
AcDbEntity
  8
0
100
AcDbLine
 62
7
  6
CONTINUOUS
 10
96.5013583626
 20
97.7107896843
 11
96.5013583626
 21
99.4254447603
  0
LINE
  5
4EE
100
AcDbEntity
  8
0
100
AcDbLine
 62
7
  6
CONTINUOUS
 10
97.3498900327
 20
86.0348176642
 11
97.3498900327
 21
87.5861722568
  0
LINE
  5
4EF
100
AcDbEntity
  8
0
100
AcDbLine
 62
7
  6
CONTINUOUS
 10
97.3498900327
 20
97.2209007789
 11
97.3498900327
 21
98.9355558549
  0
LINE
  5
4F0
100
AcDbEntity
  8
0
100
AcDbLine
 62
7
  6
CONTINUOUS
 10
98.2513420312
 20
117.9052263054
 11
98.2513420312
 21
119.0518117558
  0
LINE
  5
4F1
100
AcDbEntity
  8
0
100
AcDbLine
 62
7
  6
CONTINUOUS
 10
98.6226769397
 20
99.6703953318
 11
98.6226769397
 21
93.7915779285
  0
LINE
  5
4F2
100
AcDbEntity
  8
0
100
AcDbLine
 62
7
  6
CONTINUOUS
 10
98.6226769397
 20
92.4851740611
 11
98.6226769397
 21
86.7696571412
  0
LINE
  5
4F3
100
AcDbEntity
  8
0
100
AcDbLine
 62
7
  6
CONTINUOUS
 10
99.188352944
 20
89.6273889469
 11
99.188352944
 21
92.8117653049
  0
LINE
  5
4F4
100
AcDbEntity
  8
0
100
AcDbLine
 62
7
  6
CONTINUOUS
 10
99.188352944
 20
95.0979551417
 11
99.188352944
 21
99.262117469
  0
LINE
  5
4F5
100
AcDbEntity
  8
0
100
AcDbLine
 62
7
  6
CONTINUOUS
 10
99.8014750037
 20
79.3776674104
 11
99.8014750037
 21
80.0215863984
  0
LINE
  5
4F6
100
AcDbEntity
  8
0
100
AcDbLine
 62
7
  6
CONTINUOUS
 10
100.0368846141
 20
89.1375000415
 11
100.0368846141
 21
93.3016623688
  0
LINE
  5
4F7
100
AcDbEntity
  8
0
100
AcDbLine
 62
7
  6
CONTINUOUS
 10
100.0368846141
 20
94.6080662362
 11
100.0368846141
 21
98.7722285636
  0
LINE
  5
4F8
100
AcDbEntity
  8
0
100
AcDbLine
 62
7
  6
CONTINUOUS
 10
98.3533875261
 20
74.7045242351
 11
98.35332581
 21
74.5003630117
  0
LINE
  5
4F9
100
AcDbEntity
  8
0
100
AcDbLine
 62
7
  6
CONTINUOUS
 10
98.7053377701
 20
69.1922120484
 11
98.7051526218
 21
68.579728378
  0
LINE
  5
4FA
100
AcDbEntity
  8
0
100
AcDbLine
 62
7
  6
CONTINUOUS
 10
98.706399287
 20
72.7037850916
 11
98.7069423887
 21
74.5004038579
  0
LINE
  5
4FB
100
AcDbEntity
  8
0
100
AcDbLine
 62
7
  6
CONTINUOUS
 10
98.8118531952
 20
71.7436389598
 11
98.812050662
 21
72.3969548606
  0
LINE
  5
4FC
100
AcDbEntity
  8
0
100
AcDbLine
 62
7
  6
CONTINUOUS
 10
99.06048846
 20
75.5205833871
 11
99.0604267439
 21
75.3164221636
  0
LINE
  5
4FD
100
AcDbEntity
  8
0
100
AcDbLine
 62
7
  6
CONTINUOUS
 10
99.0601119537
 20
73.4385840036
 11
99.0602723954
 21
73.9694031729
  0
LINE
  5
4FE
100
AcDbEntity
  8
0
100
AcDbLine
 62
7
  6
CONTINUOUS
 10
99.3777336973
 20
72.7233221461
 11
99.3775362305
 21
72.0700062454
  0
LINE
  5
4FF
100
AcDbEntity
  8
0
100
AcDbLine
 62
7
  6
CONTINUOUS
 10
99.4488585987
 20
73.132142343
 11
99.4490190404
 21
73.6629615124
  0
LINE
  5
500
100
AcDbEntity
  8
0
100
AcDbLine
 62
7
  6
CONTINUOUS
 10
100.4389643522
 20
74.2341042622
 11
100.4388039104
 21
73.7032850928
  0
LINE
  5
501
100
AcDbEntity
  8
0
100
AcDbLine
 62
7
  6
CONTINUOUS
 10
100.8280318807
 20
74.9893009404
 11
100.827871439
 21
74.458481771
  0
LINE
  5
502
100
AcDbEntity
  8
0
100
AcDbLine
 62
7
  6
CONTINUOUS
 10
96.7923716221
 20
66.8018765307
 11
96.8372815549
 21
67.3676605792
  0
LINE
  5
503
100
AcDbEntity
  8
0
100
AcDbLine
 62
7
  6
CONTINUOUS
 10
81.2808587699
 20
74.4709753562
 11
81.1772988882
 21
74.2420891327
  0
LINE
  5
504
100
AcDbEntity
  8
0
100
AcDbLine
 62
7
  6
CONTINUOUS
 10
80.2202030141
 20
80.8805299127
 11
80.9778225827
 21
82.4843839891
  0
LINE
  5
505
100
AcDbEntity
  8
0
100
AcDbLine
 62
7
  6
CONTINUOUS
 10
78.9227015766
 20
82.8543793958
 11
77.3917641136
 21
80.6763624923
  0
LINE
  5
506
100
AcDbEntity
  8
0
100
AcDbLine
 62
7
  6
CONTINUOUS
 10
86.783561108
 20
103.9184585724
 11
87.1679388828
 21
104.1403778595
  0
LINE
  5
507
100
AcDbEntity
  8
0
100
AcDbLine
 62
7
  6
CONTINUOUS
 10
89.6119764568
 20
105.5514351879
 11
89.9963542317
 21
105.773354475
  0
LINE
  5
508
100
AcDbEntity
  8
0
100
AcDbLine
 62
7
  6
CONTINUOUS
 10
92.4403918057
 20
107.1844118034
 11
92.8247695805
 21
107.4063310905
  0
LINE
  5
509
100
AcDbEntity
  8
0
100
AcDbLine
 62
7
  6
CONTINUOUS
 10
95.2688071545
 20
108.8173884189
 11
95.6531849294
 21
109.039307706
  0
LINE
  5
50A
100
AcDbEntity
  8
0
100
AcDbLine
 62
7
  6
CONTINUOUS
 10
98.0972225034
 20
110.4503650344
 11
98.4816002783
 21
110.6722843215
  0
LINE
  5
50B
100
AcDbEntity
  8
0
100
AcDbLine
 62
7
  6
CONTINUOUS
 10
100.9256378523
 20
112.0833416499
 11
101.3100156271
 21
112.305260937
  0
LINE
  5
50C
100
AcDbEntity
  8
0
100
AcDbLine
 62
7
  6
CONTINUOUS
 10
103.7540532011
 20
113.7163182653
 11
104.138430976
 21
113.9382375524
  0
LINE
  5
50D
100
AcDbEntity
  8
0
100
AcDbLine
 62
7
  6
CONTINUOUS
 10
106.58246855
 20
115.3492948808
 11
106.9668463248
 21
115.5712141679
  0
LINE
  5
50E
100
AcDbEntity
  8
0
100
AcDbLine
 62
7
  6
CONTINUOUS
 10
109.4108838988
 20
116.9822714963
 11
109.7952616737
 21
117.2041907834
  0
LINE
  5
50F
100
AcDbEntity
  8
0
100
AcDbLine
 62
7
  6
CONTINUOUS
 10
83.3608899938
 20
101.6027611732
 11
86.8964091799
 21
103.6439819426
  0
LINE
  5
510
100
AcDbEntity
  8
0
100
AcDbLine
 62
7
  6
CONTINUOUS
 10
88.3106168543
 20
104.4604702503
 11
89.7248245287
 21
105.2769585581
  0
LINE
  5
511
100
AcDbEntity
  8
0
100
AcDbLine
 62
7
  6
CONTINUOUS
 10
91.1390322032
 20
106.0934468658
 11
92.5532398776
 21
106.9099351735
  0
LINE
  5
512
100
AcDbEntity
  8
0
100
AcDbLine
 62
7
  6
CONTINUOUS
 10
93.967447552
 20
107.7264234813
 11
95.3816552264
 21
108.542911789
  0
LINE
  5
513
100
AcDbEntity
  8
0
100
AcDbLine
 62
7
  6
CONTINUOUS
 10
96.7958629009
 20
109.3594000968
 11
98.2100705753
 21
110.1758884045
  0
LINE
  5
514
100
AcDbEntity
  8
0
100
AcDbLine
 62
7
  6
CONTINUOUS
 10
99.6242782497
 20
110.9923767123
 11
101.0384859242
 21
111.80886502
  0
LINE
  5
515
100
AcDbEntity
  8
0
100
AcDbLine
 62
7
  6
CONTINUOUS
 10
102.4526935986
 20
112.6253533277
 11
103.866901273
 21
113.4418416355
  0
LINE
  5
516
100
AcDbEntity
  8
0
100
AcDbLine
 62
7
  6
CONTINUOUS
 10
105.2811089474
 20
114.2583299432
 11
106.6953166219
 21
115.074818251
  0
LINE
  5
517
100
AcDbEntity
  8
0
100
AcDbLine
 62
7
  6
CONTINUOUS
 10
108.1095242963
 20
115.8913065587
 11
109.5237319707
 21
116.7077948665
  0
LINE
  5
518
100
AcDbEntity
  8
0
100
AcDbLine
 62
7
  6
CONTINUOUS
 10
110.9379396451
 20
117.5242831742
 11
112.3521473196
 21
118.3407714819
  0
LINE
  5
519
100
AcDbEntity
  8
0
100
AcDbLine
 62
7
  6
CONTINUOUS
 10
72.4419960375
 20
95.2916684712
 11
71.7348863124
 21
94.883420918
  0
LINE
  5
51A
100
AcDbEntity
  8
0
100
AcDbLine
 62
7
  6
CONTINUOUS
 10
88.3519354136
 20
102.8036524905
 11
89.7661430881
 21
103.6201407982
  0
LINE
  5
51B
100
AcDbEntity
  8
0
100
AcDbLine
 62
7
  6
CONTINUOUS
 10
91.1803507625
 20
104.436629106
 11
92.5945584369
 21
105.2531174137
  0
LINE
  5
51C
100
AcDbEntity
  8
0
100
AcDbLine
 62
7
  6
CONTINUOUS
 10
94.0087661114
 20
106.0696057215
 11
95.4229737858
 21
106.8860940292
  0
LINE
  5
51D
100
AcDbEntity
  8
0
100
AcDbLine
 62
7
  6
CONTINUOUS
 10
96.8371814602
 20
107.7025823369
 11
98.2513891346
 21
108.5190706447
  0
LINE
  5
51E
100
AcDbEntity
  8
0
100
AcDbLine
 62
7
  6
CONTINUOUS
 10
99.6655968091
 20
109.3355589524
 11
101.0798044835
 21
110.1520472602
  0
LINE
  5
51F
100
AcDbEntity
  8
0
100
AcDbLine
 62
7
  6
CONTINUOUS
 10
102.4940121579
 20
110.9685355679
 11
103.9082198323
 21
111.7850238757
  0
LINE
  5
520
100
AcDbEntity
  8
0
100
AcDbLine
 62
7
  6
CONTINUOUS
 10
105.3224275068
 20
112.6015121834
 11
106.7366351812
 21
113.4180004911
  0
LINE
  5
521
100
AcDbEntity
  8
0
100
AcDbLine
 62
7
  6
CONTINUOUS
 10
108.1508428556
 20
114.2344887989
 11
109.5650505301
 21
115.0509771066
  0
LINE
  5
522
100
AcDbEntity
  8
0
100
AcDbLine
 62
7
  6
CONTINUOUS
 10
110.9792582045
 20
115.8674654144
 11
112.3934658789
 21
116.6839537221
  0
LINE
  5
523
100
AcDbEntity
  8
0
100
AcDbLine
 62
7
  6
CONTINUOUS
 10
77.2750343249
 20
95.2366310305
 11
75.8608266505
 21
94.4201427227
  0
LINE
  5
524
100
AcDbEntity
  8
0
100
AcDbLine
 62
7
  6
CONTINUOUS
 10
70.2039370734
 20
91.1540144044
 11
68.789729399
 21
90.3375260966
  0
LINE
  5
525
100
AcDbEntity
  8
0
100
AcDbLine
 62
7
  6
CONTINUOUS
 10
66.6683884477
 20
88.908580487
 11
65.2541807733
 21
88.0920921793
  0
LINE
  5
526
100
AcDbEntity
  8
0
100
AcDbLine
 62
7
  6
CONTINUOUS
 10
117.8559013119
 20
110.7746363171
 11
117.0073696418
 21
111.2645252226
  0
LINE
  5
527
100
AcDbEntity
  8
0
100
AcDbLine
 62
7
  6
CONTINUOUS
 10
56.8853995583
 20
146.1998355288
 11
57.5738573451
 21
145.8023632323
  0
LINE
  5
528
100
AcDbEntity
  8
0
100
AcDbLine
 62
7
  6
CONTINUOUS
 10
101.07975738
 20
120.6847883712
 11
102.8475316929
 21
119.6641864849
  0
LINE
  5
529
100
AcDbEntity
  8
0
100
AcDbLine
 62
7
  6
CONTINUOUS
 10
110.9792582045
 20
115.8674654144
 11
109.5237319707
 21
116.7077948665
  0
LINE
  5
52A
100
AcDbEntity
  8
0
100
AcDbLine
 62
7
  6
CONTINUOUS
 10
57.2389190933
 20
146.8937627579
 11
57.6631250541
 21
146.6488528728
  0
LINE
  5
52B
100
AcDbEntity
  8
0
100
AcDbLine
 62
7
  6
CONTINUOUS
 10
119.1286882189
 20
111.5094757941
 11
118.2801565487
 21
111.9993646995
  0
LINE
  5
52C
100
AcDbEntity
  8
0
100
AcDbLine
 62
7
  6
CONTINUOUS
 10
111.5449195457
 20
116.1940481925
 11
109.7952616737
 21
117.2041907834
  0
LINE
  5
52D
100
AcDbEntity
  8
0
100
AcDbLine
 62
7
  6
CONTINUOUS
 10
58.9880650195
 20
146.61885154
 11
58.2996072328
 21
147.0163238365
  0
LINE
  5
52E
100
AcDbEntity
  8
0
100
AcDbLine
 62
7
  6
CONTINUOUS
 10
102.4939650545
 20
121.501276679
 11
104.2617393673
 21
120.4806747927
  0
LINE
  5
52F
100
AcDbEntity
  8
0
100
AcDbLine
 62
7
  6
CONTINUOUS
 10
138.8717260845
 20
100.6949407386
 11
139.7344971768
 21
100.1968307887
  0
LINE
  5
530
100
AcDbEntity
  8
0
100
AcDbLine
 62
7
  6
CONTINUOUS
 10
104.66229258
 20
120.7358072431
 11
103.9081727289
 21
121.1711795364
  0
LINE
  5
531
100
AcDbEntity
  8
0
100
AcDbLine
 62
7
  6
CONTINUOUS
 10
112.3934658789
 20
116.6839537221
 11
110.9379396451
 21
117.5242831742
  0
LINE
  5
532
100
AcDbEntity
  8
0
100
AcDbLine
 62
7
  6
CONTINUOUS
 10
58.6531267677
 20
147.7102510657
 11
59.2118244871
 21
147.3876940842
  0
LINE
  5
533
100
AcDbEntity
  8
0
100
AcDbLine
 62
7
  6
CONTINUOUS
 10
59.7138149072
 20
147.8328121442
 11
60.4022726939
 21
147.4353398478
  0
LINE
  5
534
100
AcDbEntity
  8
0
100
AcDbLine
 62
7
  6
CONTINUOUS
 10
103.9081727289
 20
122.3177649867
 11
105.6759470418
 21
121.2971631004
  0
LINE
  5
535
100
AcDbEntity
  8
0
100
AcDbLine
 62
7
  6
CONTINUOUS
 10
53.9154798334
 20
152.0784339377
 11
60.491540403
 21
148.2818294883
  0
LINE
  5
536
100
AcDbEntity
  8
0
100
AcDbLine
 62
7
  6
CONTINUOUS
 10
112.3521473195
 20
118.340771482
 11
119.9595281621
 21
113.9487474655
  0
LINE
  5
537
100
AcDbEntity
  8
0
100
AcDbLine
 62
7
  6
CONTINUOUS
 10
61.8164803683
 20
148.2518281555
 11
61.1280225816
 21
148.649300452
  0
LINE
  5
538
100
AcDbEntity
  8
0
100
AcDbLine
 62
7
  6
CONTINUOUS
 10
105.3223804033
 20
123.1342532945
 11
107.0901547162
 21
122.1136514082
  0
LINE
  5
539
100
AcDbEntity
  8
0
100
AcDbLine
 62
7
  6
CONTINUOUS
 10
107.4907079288
 20
122.3687838586
 11
106.7365880777
 21
122.8041561518
  0
LINE
  5
53A
100
AcDbEntity
  8
0
100
AcDbLine
 62
7
  6
CONTINUOUS
 10
125.8415065555
 20
92.3902099313
 11
126.8128905161
 21
91.4211425716
  0
LINE
  5
53B
100
AcDbEntity
  8
0
100
AcDbLine
 62
7
  6
CONTINUOUS
 10
103.8546691562
 20
136.3137695121
 11
103.8697290585
 21
135.8070981803
  0
LINE
  5
53C
100
AcDbEntity
  8
0
100
AcDbLine
 62
7
  6
CONTINUOUS
 10
101.0742624319
 20
78.8124709374
 11
101.074262279
 21
80.756426088
  0
LINE
  5
53D
100
AcDbEntity
  8
0
100
AcDbLine
 62
7
  6
CONTINUOUS
 10
101.07975738
 20
119.5382029209
 11
101.07975738
 21
120.6847883712
  0
LINE
  5
53E
100
AcDbEntity
  8
0
100
AcDbLine
 62
7
  6
CONTINUOUS
 10
101.6278611824
 20
90.0560453084
 11
101.6278611824
 21
89.4844766852
  0
LINE
  5
53F
100
AcDbEntity
  8
0
100
AcDbLine
 62
7
  6
CONTINUOUS
 10
101.6278611824
 20
100.6705597999
 11
101.6278611824
 21
102.3852148759
  0
LINE
  5
540
100
AcDbEntity
  8
0
100
AcDbLine
 62
7
  6
CONTINUOUS
 10
101.7813721273
 20
78.4042301657
 11
101.7813719716
 21
80.3841432152
  0
LINE
  5
541
100
AcDbEntity
  8
0
100
AcDbLine
 62
7
  6
CONTINUOUS
 10
101.9227931219
 20
79.0675838021
 11
101.922793091
 21
79.8840862014
  0
LINE
  5
542
100
AcDbEntity
  8
0
100
AcDbLine
 62
7
  6
CONTINUOUS
 10
102.4763928525
 20
88.9945877798
 11
102.4763928525
 21
90.5459423723
  0
LINE
  5
543
100
AcDbEntity
  8
0
100
AcDbLine
 62
7
  6
CONTINUOUS
 10
102.4763928525
 20
100.1806708945
 11
102.4763928525
 21
101.8953259704
  0
LINE
  5
544
100
AcDbEntity
  8
0
100
AcDbLine
 62
7
  6
CONTINUOUS
 10
103.4784454195
 20
80.8067919954
 11
103.4784454195
 21
80.0474447475
  0
LINE
  5
545
100
AcDbEntity
  8
0
100
AcDbLine
 62
7
  6
CONTINUOUS
 10
103.7491797595
 20
102.6301654474
 11
103.7491797595
 21
96.7513480441
  0
LINE
  5
546
100
AcDbEntity
  8
0
100
AcDbLine
 62
7
  6
CONTINUOUS
 10
103.7491797595
 20
95.4449441767
 11
103.7491797595
 21
89.7294272568
  0
LINE
  5
547
100
AcDbEntity
  8
0
100
AcDbLine
 62
7
  6
CONTINUOUS
 10
103.9081727289
 20
121.1711795364
 11
103.9081727289
 21
122.3177649867
  0
LINE
  5
548
100
AcDbEntity
  8
0
100
AcDbLine
 62
7
  6
CONTINUOUS
 10
104.3148557638
 20
92.5871590625
 11
104.3148557638
 21
95.7715354205
  0
LINE
  5
549
100
AcDbEntity
  8
0
100
AcDbLine
 62
7
  6
CONTINUOUS
 10
104.3148557638
 20
98.0577252572
 11
104.3148557638
 21
102.2218875846
  0
LINE
  5
54A
100
AcDbEntity
  8
0
100
AcDbLine
 62
7
  6
CONTINUOUS
 10
105.1633874339
 20
92.097270157
 11
105.1633874339
 21
96.2614324844
  0
LINE
  5
54B
100
AcDbEntity
  8
0
100
AcDbLine
 62
7
  6
CONTINUOUS
 10
105.1633874339
 20
97.5678363518
 11
105.1633874339
 21
101.7319986792
  0
LINE
  5
54C
100
AcDbEntity
  8
0
100
AcDbLine
 62
7
  6
CONTINUOUS
 10
105.5997745056
 20
72.5601488929
 11
105.5997745056
 21
73.6787572044
  0
LINE
  5
54D
100
AcDbEntity
  8
0
100
AcDbLine
 62
7
  6
CONTINUOUS
 10
105.5997745056
 20
78.5002039776
 11
105.5997745056
 21
79.1738184717
  0
LINE
  5
54E
100
AcDbEntity
  8
0
100
AcDbLine
 62
7
  6
CONTINUOUS
 10
106.1654512939
 20
76.6181391718
 11
106.165451263
 21
77.434641571
  0
LINE
  5
54F
100
AcDbEntity
  8
0
100
AcDbLine
 62
7
  6
CONTINUOUS
 10
101.0398421355
 20
74.0500503338
 11
101.0387807515
 21
70.5384773672
  0
LINE
  5
550
100
AcDbEntity
  8
0
100
AcDbLine
 62
7
  6
CONTINUOUS
 10
101.3216222691
 20
70.70166101
 11
101.3226836531
 21
74.2132339766
  0
LINE
  5
551
100
AcDbEntity
  8
0
100
AcDbLine
 62
7
  6
CONTINUOUS
 10
101.5349752331
 20
74.866440878
 11
101.5351356749
 21
75.3972600474
  0
LINE
  5
552
100
AcDbEntity
  8
0
100
AcDbLine
 62
7
  6
CONTINUOUS
 10
101.8525969768
 20
74.1511790206
 11
101.85239951
 21
73.4978631199
  0
LINE
  5
553
100
AcDbEntity
  8
0
100
AcDbLine
 62
7
  6
CONTINUOUS
 10
101.9237218781
 20
74.5599992175
 11
101.9238823199
 21
75.0908183869
  0
LINE
  5
554
100
AcDbEntity
  8
0
100
AcDbLine
 62
7
  6
CONTINUOUS
 10
102.9138276317
 20
75.6619611366
 11
102.9136671899
 21
75.1311419673
  0
LINE
  5
555
100
AcDbEntity
  8
0
100
AcDbLine
 62
7
  6
CONTINUOUS
 10
103.3028951602
 20
76.4171578148
 11
103.3027347184
 21
75.8863386455
  0
LINE
  5
556
100
AcDbEntity
  8
0
100
AcDbLine
 62
7
  6
CONTINUOUS
 10
103.6566689475
 20
77.3561173569
 11
103.6561258459
 21
75.5594988405
  0
LINE
  5
557
100
AcDbEntity
  8
0
100
AcDbLine
 62
7
  6
CONTINUOUS
 10
103.655064329
 20
72.0479257973
 11
103.6548791806
 21
71.4354418771
  0
LINE
  5
558
100
AcDbEntity
  8
0
100
AcDbLine
 62
7
  6
CONTINUOUS
 10
85.3467485214
 20
78.3970762581
 11
85.1699710901
 21
78.0228446311
  0
LINE
  5
559
100
AcDbEntity
  8
0
100
AcDbLine
 62
7
  6
CONTINUOUS
 10
130.0293832842
 20
121.2768658077
 11
128.7283122237
 21
120.5256965646
  0
LINE
  5
55A
100
AcDbEntity
  8
0
100
AcDbLine
 62
7
  6
CONTINUOUS
 10
130.9238728647
 20
121.103359652
 11
127.4223818972
 21
119.0817849666
  0
LINE
  5
55B
100
AcDbEntity
  8
0
100
AcDbLine
 62
7
  6
CONTINUOUS
 10
134.0309192521
 20
122.6444313562
 11
127.6412917023
 21
118.9554001908
  0
LINE
  5
55C
100
AcDbEntity
  8
0
100
AcDbLine
 62
7
  6
CONTINUOUS
 10
92.3824785108
 20
98.0272254645
 11
119.9595281621
 21
113.9487474655
  0
LINE
  5
55D
100
AcDbEntity
  8
0
100
AcDbLine
 62
7
  6
CONTINUOUS
 10
93.231010181
 20
97.5373365591
 11
91.8168025065
 21
96.7208482514
  0
LINE
  5
55E
100
AcDbEntity
  8
0
100
AcDbLine
 62
7
  6
CONTINUOUS
 10
96.5013583626
 20
99.4254447603
 11
97.7741452695
 21
100.1602842373
  0
LINE
  5
55F
100
AcDbEntity
  8
0
100
AcDbLine
 62
7
  6
CONTINUOUS
 10
101.6278611824
 20
102.3852148759
 11
102.9006480893
 21
103.1200543528
  0
LINE
  5
560
100
AcDbEntity
  8
0
100
AcDbLine
 62
7
  6
CONTINUOUS
 10
106.7543640022
 20
105.3449849914
 11
108.0271509091
 21
106.0798244684
  0
LINE
  5
561
100
AcDbEntity
  8
0
100
AcDbLine
 62
7
  6
CONTINUOUS
 10
111.880866822
 20
108.304755107
 11
113.1536537289
 21
109.039594584
  0
LINE
  5
562
100
AcDbEntity
  8
0
100
AcDbLine
 62
7
  6
CONTINUOUS
 10
117.0073696418
 20
111.2645252226
 11
118.2801565487
 21
111.9993646995
  0
LINE
  5
563
100
AcDbEntity
  8
0
100
AcDbLine
 62
7
  6
CONTINUOUS
 10
145.2031722445
 20
127.3800706799
 11
124.4143194304
 21
115.3776925561
  0
LINE
  5
564
100
AcDbEntity
  8
0
100
AcDbLine
 62
7
  6
CONTINUOUS
 10
68.3761151179
 20
82.5337616202
 11
67.845782824
 21
82.2275759552
  0
LINE
  5
565
100
AcDbEntity
  8
0
100
AcDbLine
 62
7
  6
CONTINUOUS
 10
97.3498900327
 20
98.9355558549
 11
98.6226769397
 21
99.6703953318
  0
LINE
  5
566
100
AcDbEntity
  8
0
100
AcDbLine
 62
7
  6
CONTINUOUS
 10
102.4763928525
 20
101.8953259704
 11
103.7491797595
 21
102.6301654474
  0
LINE
  5
567
100
AcDbEntity
  8
0
100
AcDbLine
 62
7
  6
CONTINUOUS
 10
107.6028956723
 20
104.855096086
 11
108.8756825793
 21
105.589935563
  0
LINE
  5
568
100
AcDbEntity
  8
0
100
AcDbLine
 62
7
  6
CONTINUOUS
 10
112.7293984921
 20
107.8148662016
 11
114.0021853991
 21
108.5497056785
  0
LINE
  5
569
100
AcDbEntity
  8
0
100
AcDbLine
 62
7
  6
CONTINUOUS
 10
117.8559013119
 20
110.7746363171
 11
119.1286882189
 21
111.5094757941
  0
LINE
  5
56A
100
AcDbEntity
  8
0
100
AcDbLine
 62
7
  6
CONTINUOUS
 10
77.2750343249
 20
87.0716068592
 11
75.8608266505
 21
86.2551185514
  0
LINE
  5
56B
100
AcDbEntity
  8
0
100
AcDbLine
 62
7
  6
CONTINUOUS
 10
73.7394856992
 20
84.8261729418
 11
72.3252780247
 21
84.0096846341
  0
LINE
  5
56C
100
AcDbEntity
  8
0
100
AcDbLine
 62
7
  6
CONTINUOUS
 10
94.0618501242
 20
96.3023473535
 11
96.5013583626
 21
97.7107896843
  0
LINE
  5
56D
100
AcDbEntity
  8
0
100
AcDbLine
 62
7
  6
CONTINUOUS
 10
99.188352944
 20
99.262117469
 11
101.6278611824
 21
100.6705597999
  0
LINE
  5
56E
100
AcDbEntity
  8
0
100
AcDbLine
 62
7
  6
CONTINUOUS
 10
104.3148557638
 20
102.2218875846
 11
106.7543640022
 21
103.6303299154
  0
LINE
  5
56F
100
AcDbEntity
  8
0
100
AcDbLine
 62
7
  6
CONTINUOUS
 10
109.4413585836
 20
105.1816577002
 11
111.880866822
 21
106.590100031
  0
LINE
  5
570
100
AcDbEntity
  8
0
100
AcDbLine
 62
7
  6
CONTINUOUS
 10
114.5678614034
 20
108.1414278157
 11
117.0073696418
 21
109.5498701466
  0
LINE
  5
571
100
AcDbEntity
  8
0
100
AcDbLine
 62
7
  6
CONTINUOUS
 10
62.5422302561
 20
149.4657887597
 11
63.2306880428
 21
149.0683164633
  0
LINE
  5
572
100
AcDbEntity
  8
0
100
AcDbLine
 62
7
  6
CONTINUOUS
 10
106.7365880777
 20
123.9507416022
 11
108.5043623906
 21
122.9301397159
  0
LINE
  5
573
100
AcDbEntity
  8
0
100
AcDbLine
 62
7
  6
CONTINUOUS
 10
124.4143194304
 20
115.3776925561
 11
109.918570065
 21
123.7466280236
  0
LINE
  5
574
100
AcDbEntity
  8
0
100
AcDbLine
 62
7
  6
CONTINUOUS
 10
63.9564379305
 20
150.2822770675
 11
49.4606885651
 21
158.6512125351
  0
LINE
  5
575
100
AcDbEntity
  8
0
100
AcDbLine
 62
7
  6
CONTINUOUS
 10
142.438674986
 20
105.6980657281
 11
143.0434959729
 21
105.3488800007
  0
LINE
  5
576
100
AcDbEntity
  8
0
100
AcDbLine
 62
7
  6
CONTINUOUS
 10
107.4052482445
 20
137.8483189496
 11
107.3901883422
 21
138.3549902814
  0
LINE
  5
577
100
AcDbEntity
  8
0
100
AcDbLine
 62
7
  6
CONTINUOUS
 10
109.3932195385
 20
142.4558449121
 11
109.4212838187
 21
141.5116577621
  0
LINE
  5
578
100
AcDbEntity
  8
0
100
AcDbLine
 62
7
  6
CONTINUOUS
 10
110.9257075283
 20
140.3962110508
 11
111.0587624258
 21
135.9197476089
  0
LINE
  5
579
100
AcDbEntity
  8
0
100
AcDbLine
 62
7
  6
CONTINUOUS
 10
106.7365880777
 20
122.8041561518
 11
106.7365880777
 21
123.9507416022
  0
LINE
  5
57A
100
AcDbEntity
  8
0
100
AcDbLine
 62
7
  6
CONTINUOUS
 10
106.7543640022
 20
93.015815424
 11
106.7543640022
 21
92.4442468008
  0
LINE
  5
57B
100
AcDbEntity
  8
0
100
AcDbLine
 62
7
  6
CONTINUOUS
 10
106.7543640022
 20
103.6303299154
 11
106.7543640022
 21
105.3449849914
  0
LINE
  5
57C
100
AcDbEntity
  8
0
100
AcDbLine
 62
7
  6
CONTINUOUS
 10
106.8725551301
 20
77.8428857434
 11
106.872555161
 21
77.0263833441
  0
LINE
  5
57D
100
AcDbEntity
  8
0
100
AcDbLine
 62
7
  6
CONTINUOUS
 10
107.4441973071
 20
159.4581292863
 11
107.4441973071
 21
158.9681841084
  0
LINE
  5
57E
100
AcDbEntity
  8
0
100
AcDbLine
 62
7
  6
CONTINUOUS
 10
107.6028956723
 20
91.9543578954
 11
107.6028956723
 21
93.5057124879
  0
LINE
  5
57F
100
AcDbEntity
  8
0
100
AcDbLine
 62
7
  6
CONTINUOUS
 10
107.6028956723
 20
103.14044101
 11
107.6028956723
 21
104.855096086
  0
LINE
  5
580
100
AcDbEntity
  8
0
100
AcDbLine
 62
7
  6
CONTINUOUS
 10
108.8756825793
 20
105.589935563
 11
108.8756825793
 21
99.7111181596
  0
LINE
  5
581
100
AcDbEntity
  8
0
100
AcDbLine
 62
7
  6
CONTINUOUS
 10
108.8756825793
 20
98.4047142922
 11
108.8756825793
 21
92.6891973723
  0
LINE
  5
582
100
AcDbEntity
  8
0
100
AcDbLine
 62
7
  6
CONTINUOUS
 10
109.4413585836
 20
95.546929178
 11
109.4413585836
 21
98.7313055361
  0
LINE
  5
583
100
AcDbEntity
  8
0
100
AcDbLine
 62
7
  6
CONTINUOUS
 10
109.4413585836
 20
101.0174953728
 11
109.4413585836
 21
105.1816577002
  0
LINE
  5
584
100
AcDbEntity
  8
0
100
AcDbLine
 62
7
  6
CONTINUOUS
 10
109.700970629
 20
78.6593600335
 11
109.7009705981
 21
79.4758624328
  0
LINE
  5
585
100
AcDbEntity
  8
0
100
AcDbLine
 62
7
  6
CONTINUOUS
 10
110.2898902537
 20
95.0570402726
 11
110.2898902537
 21
99.2212026
  0
LINE
  5
586
100
AcDbEntity
  8
0
100
AcDbLine
 62
7
  6
CONTINUOUS
 10
110.2898902537
 20
100.5276064674
 11
110.2898902537
 21
104.6917687947
  0
LINE
  5
587
100
AcDbEntity
  8
0
100
AcDbLine
 62
7
  6
CONTINUOUS
 10
110.4080744651
 20
79.8841066052
 11
110.408074496
 21
79.0676042059
  0
LINE
  5
588
100
AcDbEntity
  8
0
100
AcDbLine
 62
7
  6
CONTINUOUS
 10
110.7957187846
 20
129.4863689441
 11
110.7957229184
 21
128.9148295221
  0
LINE
  5
589
100
AcDbEntity
  8
0
100
AcDbLine
 62
7
  6
CONTINUOUS
 10
111.2957237806
 20
128.3923047392
 11
111.2957196457
 21
129.3667987208
  0
LINE
  5
58A
100
AcDbEntity
  8
0
100
AcDbLine
 62
7
  6
CONTINUOUS
 10
111.880866822
 20
95.9755855396
 11
111.880866822
 21
95.4040169163
  0
LINE
  5
58B
100
AcDbEntity
  8
0
100
AcDbLine
 62
7
  6
CONTINUOUS
 10
111.880866822
 20
106.590100031
 11
111.880866822
 21
108.304755107
  0
LINE
  5
58C
100
AcDbEntity
  8
0
100
AcDbLine
 62
7
  6
CONTINUOUS
 10
94.9103817943
 20
95.812458448
 11
97.3498900327
 21
97.2209007789
  0
LINE
  5
58D
100
AcDbEntity
  8
0
100
AcDbLine
 62
7
  6
CONTINUOUS
 10
100.0368846141
 20
98.7722285636
 11
102.4763928525
 21
100.1806708945
  0
LINE
  5
58E
100
AcDbEntity
  8
0
100
AcDbLine
 62
7
  6
CONTINUOUS
 10
105.1633874339
 20
101.7319986792
 11
107.6028956723
 21
103.14044101
  0
LINE
  5
58F
100
AcDbEntity
  8
0
100
AcDbLine
 62
7
  6
CONTINUOUS
 10
110.2898902537
 20
104.6917687947
 11
112.7293984921
 21
106.1002111256
  0
LINE
  5
590
100
AcDbEntity
  8
0
100
AcDbLine
 62
7
  6
CONTINUOUS
 10
115.4163930735
 20
107.6515389103
 11
117.8559013119
 21
109.0599812412
  0
LINE
  5
591
100
AcDbEntity
  8
0
100
AcDbLine
 62
7
  6
CONTINUOUS
 10
125.8285388807
 20
112.9282062128
 11
146.6173916948
 21
124.9305843366
  0
LINE
  5
592
100
AcDbEntity
  8
0
100
AcDbLine
 62
7
  6
CONTINUOUS
 10
94.0618501242
 20
92.1381850261
 11
93.231010181
 21
91.6585022246
  0
LINE
  5
593
100
AcDbEntity
  8
0
100
AcDbLine
 62
7
  6
CONTINUOUS
 10
98.6226769397
 20
94.7713638978
 11
99.188352944
 21
95.0979551417
  0
LINE
  5
594
100
AcDbEntity
  8
0
100
AcDbLine
 62
7
  6
CONTINUOUS
 10
103.7491797595
 20
97.7311340134
 11
104.3148557638
 21
98.0577252572
  0
LINE
  5
595
100
AcDbEntity
  8
0
100
AcDbLine
 62
7
  6
CONTINUOUS
 10
108.8756825793
 20
100.690904129
 11
109.4413585836
 21
101.0174953728
  0
LINE
  5
596
100
AcDbEntity
  8
0
100
AcDbLine
 62
7
  6
CONTINUOUS
 10
114.0021853991
 20
103.6506742445
 11
114.5678614034
 21
103.9772654884
  0
LINE
  5
597
100
AcDbEntity
  8
0
100
AcDbLine
 62
7
  6
CONTINUOUS
 10
119.1286882189
 20
106.6104443601
 11
119.9595281621
 21
107.0901271616
  0
LINE
  5
598
100
AcDbEntity
  8
0
100
AcDbLine
 62
7
  6
CONTINUOUS
 10
93.231010181
 20
90.6787162552
 11
94.9103817943
 21
91.6482961207
  0
LINE
  5
599
100
AcDbEntity
  8
0
100
AcDbLine
 62
7
  6
CONTINUOUS
 10
98.6226769397
 20
93.7915779285
 11
100.0368846141
 21
94.6080662362
  0
LINE
  5
59A
100
AcDbEntity
  8
0
100
AcDbLine
 62
7
  6
CONTINUOUS
 10
103.7491797595
 20
96.7513480441
 11
105.1633874339
 21
97.5678363518
  0
LINE
  5
59B
100
AcDbEntity
  8
0
100
AcDbLine
 62
7
  6
CONTINUOUS
 10
108.8756825793
 20
99.7111181596
 11
110.2898902537
 21
100.5276064674
  0
LINE
  5
59C
100
AcDbEntity
  8
0
100
AcDbLine
 62
7
  6
CONTINUOUS
 10
114.0021853991
 20
102.6708882752
 11
115.4163930735
 21
103.4873765829
  0
LINE
  5
59D
100
AcDbEntity
  8
0
100
AcDbLine
 62
7
  6
CONTINUOUS
 10
119.1286882189
 20
105.6306583908
 11
120.8080598323
 21
106.6002382562
  0
LINE
  5
59E
100
AcDbEntity
  8
0
100
AcDbLine
 62
7
  6
CONTINUOUS
 10
120.8080598323
 20
105.2938343888
 11
119.1286882189
 21
104.3242545234
  0
LINE
  5
59F
100
AcDbEntity
  8
0
100
AcDbLine
 62
7
  6
CONTINUOUS
 10
115.4163930735
 20
102.1809727155
 11
114.0021853991
 21
101.3644844078
  0
LINE
  5
5A0
100
AcDbEntity
  8
0
100
AcDbLine
 62
7
  6
CONTINUOUS
 10
110.2898902537
 20
99.2212026
 11
108.8756825793
 21
98.4047142922
  0
LINE
  5
5A1
100
AcDbEntity
  8
0
100
AcDbLine
 62
7
  6
CONTINUOUS
 10
105.1633874339
 20
96.2614324844
 11
103.7491797595
 21
95.4449441767
  0
LINE
  5
5A2
100
AcDbEntity
  8
0
100
AcDbLine
 62
7
  6
CONTINUOUS
 10
100.0368846141
 20
93.3016623688
 11
98.6226769397
 21
92.4851740611
  0
LINE
  5
5A3
100
AcDbEntity
  8
0
100
AcDbLine
 62
7
  6
CONTINUOUS
 10
94.9103817943
 20
90.3418922533
 11
93.231010181
 21
89.3723123878
  0
LINE
  5
5A4
100
AcDbEntity
  8
0
100
AcDbLine
 62
7
  6
CONTINUOUS
 10
93.231010181
 20
89.2129906247
 11
91.8168025065
 21
88.396502317
  0
LINE
  5
5A5
100
AcDbEntity
  8
0
100
AcDbLine
 62
7
  6
CONTINUOUS
 10
127.6412917023
 20
118.9554001908
 11
109.2564388485
 21
129.5696598084
  0
LINE
  5
5A6
100
AcDbEntity
  8
0
100
AcDbLine
 62
7
  6
CONTINUOUS
 10
112.1571757116
 20
128.0597016337
 11
114.8371069845
 21
126.5124775947
  0
LINE
  5
5A7
100
AcDbEntity
  8
0
100
AcDbLine
 62
7
  6
CONTINUOUS
 10
112.256164373
 20
129.9213084326
 11
116.9937995319
 21
127.1860953771
  0
LINE
  5
5A8
100
AcDbEntity
  8
0
100
AcDbLine
 62
7
  6
CONTINUOUS
 10
128.7283122237
 20
120.5256965646
 11
120.6601902598
 21
125.1837235737
  0
LINE
  5
5A9
100
AcDbEntity
  8
0
100
AcDbLine
 62
7
  6
CONTINUOUS
 10
112.2582073012
 20
130.3307320426
 11
117.7029521857
 21
127.1872782323
  0
LINE
  5
5AA
100
AcDbEntity
  8
0
100
AcDbLine
 62
7
  6
CONTINUOUS
 10
121.9612613202
 20
125.9348928168
 11
130.0293832842
 21
121.2768658077
  0
LINE
  5
5AB
100
AcDbEntity
  8
0
100
AcDbLine
 62
7
  6
CONTINUOUS
 10
112.676230282
 20
131.5440655274
 11
119.818038506
 21
127.4208339068
  0
LINE
  5
5AC
100
AcDbEntity
  8
0
100
AcDbLine
 62
7
  6
CONTINUOUS
 10
122.0850013004
 20
126.2063690835
 11
130.9238728647
 21
121.103359652
  0
LINE
  5
5AD
100
AcDbEntity
  8
0
100
AcDbLine
 62
7
  6
CONTINUOUS
 10
122.0849995029
 20
126.4513145102
 11
131.3481369023
 21
121.103360626
  0
LINE
  5
5AE
100
AcDbEntity
  8
0
100
AcDbLine
 62
7
  6
CONTINUOUS
 10
111.765866263
 20
136.3279917628
 11
111.6328113655
 21
140.8044552046
  0
LINE
  5
5AF
100
AcDbEntity
  8
0
100
AcDbLine
 62
7
  6
CONTINUOUS
 10
112.256164373
 20
128.0025517962
 11
112.256164373
 21
129.9213084326
  0
LINE
  5
5B0
100
AcDbEntity
  8
0
100
AcDbLine
 62
7
  6
CONTINUOUS
 10
112.676230282
 20
130.089391822
 11
112.676230282
 21
131.5440655274
  0
LINE
  5
5B1
100
AcDbEntity
  8
0
100
AcDbLine
 62
7
  6
CONTINUOUS
 10
112.7293984921
 20
94.9141280109
 11
112.7293984921
 21
96.4654826035
  0
LINE
  5
5B2
100
AcDbEntity
  8
0
100
AcDbLine
 62
7
  6
CONTINUOUS
 10
112.7293984921
 20
106.1002111256
 11
112.7293984921
 21
107.8148662016
  0
LINE
  5
5B3
100
AcDbEntity
  8
0
100
AcDbLine
 62
7
  6
CONTINUOUS
 10
113.2364899641
 20
80.7005808953
 11
113.2364899332
 21
81.5170832946
  0
LINE
  5
5B4
100
AcDbEntity
  8
0
100
AcDbLine
 62
7
  6
CONTINUOUS
 10
113.9435938002
 20
81.925327467
 11
113.9435938311
 21
81.1088250677
  0
LINE
  5
5B5
100
AcDbEntity
  8
0
100
AcDbLine
 62
7
  6
CONTINUOUS
 10
114.0021853991
 20
108.5497056785
 11
114.0021853991
 21
102.6708882752
  0
LINE
  5
5B6
100
AcDbEntity
  8
0
100
AcDbLine
 62
7
  6
CONTINUOUS
 10
114.0021853991
 20
101.3644844078
 11
114.0021853991
 21
95.6489674879
  0
LINE
  5
5B7
100
AcDbEntity
  8
0
100
AcDbLine
 62
7
  6
CONTINUOUS
 10
114.5678614034
 20
98.5066992936
 11
114.5678614034
 21
101.6910756516
  0
LINE
  5
5B8
100
AcDbEntity
  8
0
100
AcDbLine
 62
7
  6
CONTINUOUS
 10
114.5678614034
 20
103.9772654884
 11
114.5678614034
 21
108.1414278157
  0
LINE
  5
5B9
100
AcDbEntity
  8
0
100
AcDbLine
 62
7
  6
CONTINUOUS
 10
115.1856583786
 20
126.1465007588
 11
115.1856583786
 21
126.3054684733
  0
LINE
  5
5BA
100
AcDbEntity
  8
0
100
AcDbLine
 62
7
  6
CONTINUOUS
 10
115.4163930735
 20
98.0168103882
 11
115.4163930735
 21
102.1809727155
  0
LINE
  5
5BB
100
AcDbEntity
  8
0
100
AcDbLine
 62
7
  6
CONTINUOUS
 10
115.4163930735
 20
103.4873765829
 11
115.4163930735
 21
107.6515389103
  0
LINE
  5
5BC
100
AcDbEntity
  8
0
100
AcDbLine
 62
7
  6
CONTINUOUS
 10
116.1756078973
 20
125.5749660675
 11
116.1756078973
 21
126.30547086
  0
LINE
  5
5BD
100
AcDbEntity
  8
0
100
AcDbLine
 62
7
  6
CONTINUOUS
 10
116.7720092992
 20
82.7418017571
 11
116.7720092683
 21
83.5583041564
  0
LINE
  5
5BE
100
AcDbEntity
  8
0
100
AcDbLine
 62
7
  6
CONTINUOUS
 10
117.0073696418
 20
98.9353556551
 11
117.0073696418
 21
98.3637870319
  0
LINE
  5
5BF
100
AcDbEntity
  8
0
100
AcDbLine
 62
7
  6
CONTINUOUS
 10
117.0073696418
 20
109.5498701466
 11
117.0073696418
 21
111.2645252226
  0
LINE
  5
5C0
100
AcDbEntity
  8
0
100
AcDbLine
 62
7
  6
CONTINUOUS
 10
117.4791131353
 20
83.9665483287
 11
117.4791131662
 21
83.1500459295
  0
LINE
  5
5C1
100
AcDbEntity
  8
0
100
AcDbLine
 62
7
  6
CONTINUOUS
 10
117.7029521857
 20
124.6931733803
 11
117.7029521857
 21
127.1872782323
  0
LINE
  5
5C2
100
AcDbEntity
  8
0
100
AcDbLine
 62
7
  6
CONTINUOUS
 10
117.8559013119
 20
97.8738981265
 11
117.8559013119
 21
99.425252719
  0
LINE
  5
5C3
100
AcDbEntity
  8
0
100
AcDbLine
 62
7
  6
CONTINUOUS
 10
117.8559013119
 20
109.0599812412
 11
117.8559013119
 21
110.7746363171
  0
LINE
  5
5C4
100
AcDbEntity
  8
0
100
AcDbLine
 62
7
  6
CONTINUOUS
 10
80.2202030141
 20
80.5539254185
 11
80.0434255828
 21
80.4518635302
  0
LINE
  5
5C5
100
AcDbEntity
  8
0
100
AcDbLine
 62
7
  6
CONTINUOUS
 10
117.8559013119
 20
99.425252719
 11
115.4163930735
 21
98.0168103882
  0
LINE
  5
5C6
100
AcDbEntity
  8
0
100
AcDbLine
 62
7
  6
CONTINUOUS
 10
112.7293984921
 20
96.4654826035
 11
110.2898902537
 21
95.0570402726
  0
LINE
  5
5C7
100
AcDbEntity
  8
0
100
AcDbLine
 62
7
  6
CONTINUOUS
 10
107.6028956723
 20
93.5057124879
 11
105.1633874339
 21
92.097270157
  0
LINE
  5
5C8
100
AcDbEntity
  8
0
100
AcDbLine
 62
7
  6
CONTINUOUS
 10
102.4763928525
 20
90.5459423723
 11
100.0368846141
 21
89.1375000415
  0
LINE
  5
5C9
100
AcDbEntity
  8
0
100
AcDbLine
 62
7
  6
CONTINUOUS
 10
97.3498900327
 20
87.5861722568
 11
94.9103817943
 21
86.1777299259
  0
LINE
  5
5CA
100
AcDbEntity
  8
0
100
AcDbLine
 62
7
  6
CONTINUOUS
 10
119.9595281621
 20
100.0682063743
 11
119.1286882189
 21
99.5885235728
  0
LINE
  5
5CB
100
AcDbEntity
  8
0
100
AcDbLine
 62
7
  6
CONTINUOUS
 10
117.0073696418
 20
98.3637870319
 11
114.0021853991
 21
96.6287534572
  0
LINE
  5
5CC
100
AcDbEntity
  8
0
100
AcDbLine
 62
7
  6
CONTINUOUS
 10
111.880866822
 20
95.4040169163
 11
108.8756825793
 21
93.6689833416
  0
LINE
  5
5CD
100
AcDbEntity
  8
0
100
AcDbLine
 62
7
  6
CONTINUOUS
 10
106.7543640022
 20
92.4442468008
 11
103.7491797595
 21
90.7092132261
  0
LINE
  5
5CE
100
AcDbEntity
  8
0
100
AcDbLine
 62
7
  6
CONTINUOUS
 10
101.6278611824
 20
89.4844766852
 11
98.6226769397
 21
87.7494431105
  0
LINE
  5
5CF
100
AcDbEntity
  8
0
100
AcDbLine
 62
7
  6
CONTINUOUS
 10
96.5013583626
 20
86.5247065696
 11
94.6420492187
 21
85.4512403427
  0
LINE
  5
5D0
100
AcDbEntity
  8
0
100
AcDbLine
 62
7
  6
CONTINUOUS
 10
119.1286882189
 20
98.6087376035
 11
117.8559013119
 21
97.8738981265
  0
LINE
  5
5D1
100
AcDbEntity
  8
0
100
AcDbLine
 62
7
  6
CONTINUOUS
 10
114.0021853991
 20
95.6489674879
 11
112.7293984921
 21
94.9141280109
  0
LINE
  5
5D2
100
AcDbEntity
  8
0
100
AcDbLine
 62
7
  6
CONTINUOUS
 10
108.8756825793
 20
92.6891973723
 11
107.6028956723
 21
91.9543578954
  0
LINE
  5
5D3
100
AcDbEntity
  8
0
100
AcDbLine
 62
7
  6
CONTINUOUS
 10
103.7491797595
 20
89.7294272568
 11
102.4763928525
 21
88.9945877798
  0
LINE
  5
5D4
100
AcDbEntity
  8
0
100
AcDbLine
 62
7
  6
CONTINUOUS
 10
98.6226769397
 20
86.7696571412
 11
97.3498900327
 21
86.0348176642
  0
LINE
  5
5D5
100
AcDbEntity
  8
0
100
AcDbLine
 62
7
  6
CONTINUOUS
 10
111.0349615515
 20
136.7204978667
 11
111.765866263
 21
136.3279917628
  0
LINE
  5
5D6
100
AcDbEntity
  8
0
100
AcDbLine
 62
7
  6
CONTINUOUS
 10
122.7878746223
 20
129.1354593531
 11
134.0309192521
 21
122.6444313562
  0
LINE
  5
5D7
100
AcDbEntity
  8
0
100
AcDbLine
 62
7
  6
CONTINUOUS
 10
119.1286882189
 20
111.5094757941
 11
119.1286882189
 21
105.6306583908
  0
LINE
  5
5D8
100
AcDbEntity
  8
0
100
AcDbLine
 62
7
  6
CONTINUOUS
 10
119.1286882189
 20
104.3242545234
 11
119.1286882189
 21
98.6087376035
  0
LINE
  5
5D9
100
AcDbEntity
  8
0
100
AcDbLine
 62
7
  6
CONTINUOUS
 10
119.818038506
 20
125.1424917811
 11
119.818038506
 21
127.4208339068
  0
LINE
  5
5DA
100
AcDbEntity
  8
0
100
AcDbLine
 62
7
  6
CONTINUOUS
 10
119.9595281621
 20
113.9487474655
 11
119.9595281621
 21
107.0901271616
  0
LINE
  5
5DB
100
AcDbEntity
  8
0
100
AcDbLine
 62
7
  6
CONTINUOUS
 10
119.9595281621
 20
104.8039373249
 11
119.9595281621
 21
100.0682063743
  0
LINE
  5
5DC
100
AcDbEntity
  8
0
100
AcDbLine
 62
7
  6
CONTINUOUS
 10
120.3075286734
 20
84.7830226415
 11
120.3075286425
 21
85.5995250407
  0
LINE
  5
5DD
100
AcDbEntity
  8
0
100
AcDbLine
 62
7
  6
CONTINUOUS
 10
120.6601902598
 20
125.1837235737
 11
120.6601902598
 21
122.985849807
  0
LINE
  5
5DE
100
AcDbEntity
  8
0
100
AcDbLine
 62
7
  6
CONTINUOUS
 10
120.8080598323
 20
106.6002382562
 11
120.8080598323
 21
105.2938343888
  0
LINE
  5
5DF
100
AcDbEntity
  8
0
100
AcDbLine
 62
7
  6
CONTINUOUS
 10
121.0146325095
 20
86.0077692131
 11
121.0146325404
 21
85.1912668138
  0
LINE
  5
5E0
100
AcDbEntity
  8
0
100
AcDbLine
 62
7
  6
CONTINUOUS
 10
122.0850013004
 20
125.8634531221
 11
122.0850013004
 21
126.2063690835
  0
LINE
  5
5E1
100
AcDbEntity
  8
0
100
AcDbLine
 62
7
  6
CONTINUOUS
 10
122.7878746223
 20
126.0455185512
 11
122.7878746223
 21
129.1354593531
  0
LINE
  5
5E2
100
AcDbEntity
  8
0
100
AcDbLine
 62
7
  6
CONTINUOUS
 10
85.3467485214
 20
77.7166553108
 11
85.1699710901
 21
77.6145934225
  0
LINE
  5
5E3
100
AcDbEntity
  8
0
100
AcDbLine
 62
7
  6
CONTINUOUS
 10
81.2808587699
 20
75.287463664
 11
80.5737490448
 21
74.8792161107
  0
LINE
  5
5E4
100
AcDbEntity
  8
0
100
AcDbLine
 62
7
  6
CONTINUOUS
 10
123.2734234619
 20
98.1549713141
 11
95.6963738106
 21
82.2334493131
  0
LINE
  5
5E5
100
AcDbEntity
  8
0
100
AcDbLine
 62
7
  6
CONTINUOUS
 10
131.4853695784
 20
99.3742096509
 11
143.506134811
 21
106.3143602667
  0
LINE
  5
5E6
100
AcDbEntity
  8
0
100
AcDbLine
 62
7
  6
CONTINUOUS
 10
80.5737490448
 20
69.979289592
 11
79.513093289
 21
69.3669233612
  0
LINE
  5
5E7
100
AcDbEntity
  8
0
100
AcDbLine
 62
7
  6
CONTINUOUS
 10
131.8146859536
 20
98.8659634633
 11
143.0434959729
 21
105.3488800007
  0
LINE
  5
5E8
100
AcDbEntity
  8
0
100
AcDbLine
 62
7
  6
CONTINUOUS
 10
83.6623954923
 20
70.7071820207
 11
85.0766031668
 21
71.5236703285
  0
LINE
  5
5E9
100
AcDbEntity
  8
0
100
AcDbLine
 62
7
  6
CONTINUOUS
 10
96.7652983847
 20
78.2686594736
 11
124.342348036
 21
94.1901814746
  0
LINE
  5
5EA
100
AcDbEntity
  8
0
100
AcDbLine
 62
7
  6
CONTINUOUS
 10
124.5374563947
 20
148.2549110128
 11
124.7683855732
 21
140.4855913949
  0
LINE
  5
5EB
100
AcDbEntity
  8
0
100
AcDbLine
 62
7
  6
CONTINUOUS
 10
123.8430480085
 20
86.8242435032
 11
123.8430479776
 21
87.6407459025
  0
LINE
  5
5EC
100
AcDbEntity
  8
0
100
AcDbLine
 62
7
  6
CONTINUOUS
 10
124.5501518446
 20
88.0489900749
 11
124.5501518755
 21
87.2324876756
  0
LINE
  5
5ED
100
AcDbEntity
  8
0
100
AcDbLine
 62
7
  6
CONTINUOUS
 10
125.8285388807
 20
93.3321482017
 11
125.8285388807
 21
112.9282062128
  0
LINE
  5
5EE
100
AcDbEntity
  8
0
100
AcDbLine
 62
7
  6
CONTINUOUS
 10
126.8128905161
 20
84.8074729929
 11
126.8128905161
 21
85.9260813044
  0
LINE
  5
5EF
100
AcDbEntity
  8
0
100
AcDbLine
 62
7
  6
CONTINUOUS
 10
126.8128905161
 20
90.7475280776
 11
126.8128905161
 21
91.4211425716
  0
LINE
  5
5F0
100
AcDbEntity
  8
0
100
AcDbLine
 62
7
  6
CONTINUOUS
 10
127.2427465437
 20
84.9221589238
 11
127.2427465551
 21
94.1486365094
  0
LINE
  5
5F1
100
AcDbEntity
  8
0
100
AcDbLine
 62
7
  6
CONTINUOUS
 10
128.7283122237
 20
120.5256965646
 11
128.7283122237
 21
119.8357596915
  0
LINE
  5
5F2
100
AcDbEntity
  8
0
100
AcDbLine
 62
7
  6
CONTINUOUS
 10
103.4784454195
 20
80.8067919954
 11
124.69156143
 21
93.0541160954
  0
LINE
  5
5F3
100
AcDbEntity
  8
0
100
AcDbLine
 62
7
  6
CONTINUOUS
 10
101.922793091
 20
79.8840862014
 11
102.3424300823
 21
80.1263622858
  0
LINE
  5
5F4
100
AcDbEntity
  8
0
100
AcDbLine
 62
7
  6
CONTINUOUS
 10
85.0766031668
 20
70.0874415055
 11
82.6017397365
 21
68.658586967
  0
LINE
  5
5F5
100
AcDbEntity
  8
0
100
AcDbLine
 62
7
  6
CONTINUOUS
 10
127.2427465551
 20
94.1486365094
 11
125.8285388807
 21
93.3321482017
  0
LINE
  5
5F6
100
AcDbEntity
  8
0
100
AcDbLine
 62
7
  6
CONTINUOUS
 10
135.1383217911
 20
98.5394720475
 11
139.7344971768
 21
101.1930587914
  0
LINE
  5
5F7
100
AcDbEntity
  8
0
100
AcDbLine
 62
7
  6
CONTINUOUS
 10
104.628390545
 20
80.1428858313
 11
125.8415065555
 21
92.3902099313
  0
LINE
  5
5F8
100
AcDbEntity
  8
0
100
AcDbLine
 62
7
  6
CONTINUOUS
 10
133.1864674912
 20
96.4163473837
 11
135.1383217911
 21
97.5432440448
  0
LINE
  5
5F9
100
AcDbEntity
  8
0
100
AcDbLine
 62
7
  6
CONTINUOUS
 10
139.7344971768
 20
100.1968307887
 11
141.6717143572
 21
101.3152767571
  0
LINE
  5
5FA
100
AcDbEntity
  8
0
100
AcDbLine
 62
7
  6
CONTINUOUS
 10
105.5997745056
 20
79.1738184717
 11
126.8128905161
 21
91.4211425716
  0
LINE
  5
5FB
100
AcDbEntity
  8
0
100
AcDbLine
 62
7
  6
CONTINUOUS
 10
105.5997745056
 20
78.5002039776
 11
126.8128905161
 21
90.7475280776
  0
LINE
  5
5FC
100
AcDbEntity
  8
0
100
AcDbLine
 62
7
  6
CONTINUOUS
 10
106.165451263
 20
77.434641571
 11
106.8725551301
 21
77.8428857434
  0
LINE
  5
5FD
100
AcDbEntity
  8
0
100
AcDbLine
 62
7
  6
CONTINUOUS
 10
109.7009705981
 20
79.4758624328
 11
110.4080744651
 21
79.8841066052
  0
LINE
  5
5FE
100
AcDbEntity
  8
0
100
AcDbLine
 62
7
  6
CONTINUOUS
 10
113.2364899332
 20
81.5170832946
 11
113.9435938002
 21
81.925327467
  0
LINE
  5
5FF
100
AcDbEntity
  8
0
100
AcDbLine
 62
7
  6
CONTINUOUS
 10
116.7720092683
 20
83.5583041564
 11
117.4791131353
 21
83.9665483287
  0
LINE
  5
600
100
AcDbEntity
  8
0
100
AcDbLine
 62
7
  6
CONTINUOUS
 10
120.3075286425
 20
85.5995250407
 11
121.0146325095
 21
86.0077692131
  0
LINE
  5
601
100
AcDbEntity
  8
0
100
AcDbLine
 62
7
  6
CONTINUOUS
 10
123.8430479776
 20
87.6407459025
 11
124.5501518446
 21
88.0489900749
  0
LINE
  5
602
100
AcDbEntity
  8
0
100
AcDbLine
 62
7
  6
CONTINUOUS
 10
99.06048846
 20
75.5205833871
 11
99.4140403261
 21
75.7245629406
  0
LINE
  5
603
100
AcDbEntity
  8
0
100
AcDbLine
 62
7
  6
CONTINUOUS
 10
98.3533875261
 20
74.7045242351
 11
99.4140433535
 21
75.3164630276
  0
LINE
  5
604
100
AcDbEntity
  8
0
100
AcDbLine
 62
7
  6
CONTINUOUS
 10
99.7675952196
 20
75.5204425811
 11
103.3031136522
 21
77.560237984
  0
LINE
  5
605
100
AcDbEntity
  8
0
100
AcDbLine
 62
7
  6
CONTINUOUS
 10
103.6566689475
 20
77.3561173569
 11
98.7069423887
 21
74.5004038579
  0
LINE
  5
606
100
AcDbEntity
  8
0
100
AcDbLine
 62
7
  6
CONTINUOUS
 10
99.0602723954
 20
73.9694031729
 11
100.8280318807
 21
74.9893009404
  0
LINE
  5
607
100
AcDbEntity
  8
0
100
AcDbLine
 62
7
  6
CONTINUOUS
 10
101.5351356749
 20
75.3972600474
 11
103.3028951602
 21
76.4171578148
  0
LINE
  5
608
100
AcDbEntity
  8
0
100
AcDbLine
 62
7
  6
CONTINUOUS
 10
103.3027347184
 20
75.8863386455
 11
102.9138276317
 21
75.6619611366
  0
LINE
  5
609
100
AcDbEntity
  8
0
100
AcDbLine
 62
7
  6
CONTINUOUS
 10
101.9238823199
 20
75.0908183869
 11
101.5349752331
 21
74.866440878
  0
LINE
  5
60A
100
AcDbEntity
  8
0
100
AcDbLine
 62
7
  6
CONTINUOUS
 10
100.827871439
 20
74.458481771
 11
100.4389643522
 21
74.2341042622
  0
LINE
  5
60B
100
AcDbEntity
  8
0
100
AcDbLine
 62
7
  6
CONTINUOUS
 10
99.4490190404
 20
73.6629615124
 11
99.0601119537
 21
73.4385840036
  0
LINE
  5
60C
100
AcDbEntity
  8
0
100
AcDbLine
 62
7
  6
CONTINUOUS
 10
99.4488585987
 20
73.132142343
 11
98.706399287
 21
72.7037850916
  0
LINE
  5
60D
100
AcDbEntity
  8
0
100
AcDbLine
 62
7
  6
CONTINUOUS
 10
100.4388039104
 20
73.7032850928
 11
101.0398421355
 21
74.0500503338
  0
LINE
  5
60E
100
AcDbEntity
  8
0
100
AcDbLine
 62
7
  6
CONTINUOUS
 10
101.3226836531
 20
74.2132339766
 11
101.9237218781
 21
74.5599992175
  0
LINE
  5
60F
100
AcDbEntity
  8
0
100
AcDbLine
 62
7
  6
CONTINUOUS
 10
102.9136671899
 20
75.1311419673
 11
103.6561258459
 21
75.5594988405
  0
LINE
  5
610
100
AcDbEntity
  8
0
100
AcDbLine
 62
7
  6
CONTINUOUS
 10
145.2031722445
 20
127.3800706799
 11
130.7074228791
 21
135.7490061475
  0
LINE
  5
611
100
AcDbEntity
  8
0
100
AcDbLine
 62
7
  6
CONTINUOUS
 10
84.7452907446
 20
162.2846551913
 11
70.2495413792
 21
170.6535906589
  0
LINE
  5
612
100
AcDbEntity
  8
0
100
AcDbLine
 62
7
  6
CONTINUOUS
 10
131.8387890187
 20
136.4021967937
 11
124.7677847246
 21
140.4845506711
  0
LINE
  5
613
100
AcDbEntity
  8
0
100
AcDbLine
 62
7
  6
CONTINUOUS
 10
86.5651146708
 20
162.540373541
 11
85.8766568841
 21
162.9378458375
  0
LINE
  5
614
100
AcDbEntity
  8
0
100
AcDbLine
 62
7
  6
CONTINUOUS
 10
130.0293832842
 20
121.2768658077
 11
130.0293832842
 21
120.5869289346
  0
LINE
  5
615
100
AcDbEntity
  8
0
100
AcDbLine
 62
7
  6
CONTINUOUS
 10
131.4853695784
 20
99.3742096509
 11
131.4853695784
 21
87.3716241191
  0
LINE
  5
616
100
AcDbEntity
  8
0
100
AcDbLine
 62
7
  6
CONTINUOUS
 10
131.8146859536
 20
87.843180832
 11
131.8146859536
 21
98.8659634633
  0
LINE
  5
617
100
AcDbEntity
  8
0
100
AcDbLine
 62
7
  6
CONTINUOUS
 10
133.1864674912
 20
90.8805560493
 11
133.1864674912
 21
96.4163473837
  0
LINE
  5
618
100
AcDbEntity
  8
0
100
AcDbLine
 62
7
  6
CONTINUOUS
 10
124.5501518755
 20
87.2324876756
 11
123.8430480085
 21
86.8242435032
  0
LINE
  5
619
100
AcDbEntity
  8
0
100
AcDbLine
 62
7
  6
CONTINUOUS
 10
121.0146325404
 20
85.1912668138
 11
120.3075286734
 21
84.7830226415
  0
LINE
  5
61A
100
AcDbEntity
  8
0
100
AcDbLine
 62
7
  6
CONTINUOUS
 10
117.4791131662
 20
83.1500459295
 11
116.7720092992
 21
82.7418017571
  0
LINE
  5
61B
100
AcDbEntity
  8
0
100
AcDbLine
 62
7
  6
CONTINUOUS
 10
113.9435938311
 20
81.1088250677
 11
113.2364899641
 21
80.7005808953
  0
LINE
  5
61C
100
AcDbEntity
  8
0
100
AcDbLine
 62
7
  6
CONTINUOUS
 10
110.408074496
 20
79.0676042059
 11
109.700970629
 21
78.6593600335
  0
LINE
  5
61D
100
AcDbEntity
  8
0
100
AcDbLine
 62
7
  6
CONTINUOUS
 10
106.872555161
 20
77.0263833441
 11
106.1654512939
 21
76.6181391718
  0
LINE
  5
61E
100
AcDbEntity
  8
0
100
AcDbLine
 62
7
  6
CONTINUOUS
 10
147.4712175848
 20
100.35752651
 11
146.6173916948
 21
99.8645728451
  0
LINE
  5
61F
100
AcDbEntity
  8
0
100
AcDbLine
 62
7
  6
CONTINUOUS
 10
97.9739489798
 20
71.780435739
 11
96.5597413054
 21
70.9639474312
  0
LINE
  5
620
100
AcDbEntity
  8
0
100
AcDbLine
 62
7
  6
CONTINUOUS
 10
141.6717143572
 20
95.7794854227
 11
133.1864674912
 21
90.8805560493
  0
LINE
  5
621
100
AcDbEntity
  8
0
100
AcDbLine
 62
7
  6
CONTINUOUS
 10
104.8080837127
 20
74.3807805201
 11
105.1336290594
 21
74.5687330811
  0
LINE
  5
622
100
AcDbEntity
  8
0
100
AcDbLine
 62
7
  6
CONTINUOUS
 10
108.0180576921
 20
76.2340486477
 11
108.6691483944
 21
76.6099537644
  0
LINE
  5
623
100
AcDbEntity
  8
0
100
AcDbLine
 62
7
  6
CONTINUOUS
 10
111.5535770272
 20
78.275269331
 11
112.2046677295
 21
78.6511744477
  0
LINE
  5
624
100
AcDbEntity
  8
0
100
AcDbLine
 62
7
  6
CONTINUOUS
 10
115.0890963623
 20
80.3164900143
 11
115.7401870646
 21
80.692395131
  0
LINE
  5
625
100
AcDbEntity
  8
0
100
AcDbLine
 62
7
  6
CONTINUOUS
 10
118.6246156974
 20
82.3577106976
 11
119.2757067478
 21
82.7336160154
  0
LINE
  5
626
100
AcDbEntity
  8
0
100
AcDbLine
 62
7
  6
CONTINUOUS
 10
122.1601353806
 20
84.398931582
 11
122.8112262496
 21
84.7748367949
  0
LINE
  5
627
100
AcDbEntity
  8
0
100
AcDbLine
 62
7
  6
CONTINUOUS
 10
125.695654549
 20
86.4401521691
 11
126.0211997232
 21
86.6281046201
  0
LINE
  5
628
100
AcDbEntity
  8
0
100
AcDbLine
 62
7
  6
CONTINUOUS
 10
104.5500106132
 20
73.1662166988
 11
103.1340590223
 21
72.3487215464
  0
LINE
  5
629
100
AcDbEntity
  8
0
100
AcDbLine
 62
7
  6
CONTINUOUS
 10
105.5997745056
 20
73.6787572044
 11
106.1949354153
 21
74.0223714358
  0
LINE
  5
62A
100
AcDbEntity
  8
0
100
AcDbLine
 62
7
  6
CONTINUOUS
 10
108.540132931
 20
75.3763636564
 11
109.7304547503
 21
76.0635921191
  0
LINE
  5
62B
100
AcDbEntity
  8
0
100
AcDbLine
 62
7
  6
CONTINUOUS
 10
112.075652266
 20
77.4175843397
 11
113.2659740854
 21
78.1048128024
  0
LINE
  5
62C
100
AcDbEntity
  8
0
100
AcDbLine
 62
7
  6
CONTINUOUS
 10
115.6111716011
 20
79.458805023
 11
116.8014934205
 21
80.1460334857
  0
LINE
  5
62D
100
AcDbEntity
  8
0
100
AcDbLine
 62
7
  6
CONTINUOUS
 10
119.1466909362
 20
81.5000257064
 11
120.3370131037
 21
82.1872543701
  0
LINE
  5
62E
100
AcDbEntity
  8
0
100
AcDbLine
 62
7
  6
CONTINUOUS
 10
122.6822106194
 20
83.5412465907
 11
123.8725326718
 21
84.2284751879
  0
LINE
  5
62F
100
AcDbEntity
  8
0
100
AcDbLine
 62
7
  6
CONTINUOUS
 10
126.2177297215
 20
85.5824671395
 11
126.8128905161
 21
85.9260813044
  0
LINE
  5
630
100
AcDbEntity
  8
0
100
AcDbLine
 62
7
  6
CONTINUOUS
 10
103.3039981036
 20
72.2506093917
 11
104.7199496873
 21
73.0681045399
  0
LINE
  5
631
100
AcDbEntity
  8
0
100
AcDbLine
 62
7
  6
CONTINUOUS
 10
143.0434959729
 20
94.3260973695
 11
131.8146859536
 21
87.843180832
  0
LINE
  5
632
100
AcDbEntity
  8
0
100
AcDbLine
 62
7
  6
CONTINUOUS
 10
105.5997745056
 20
72.5601488929
 11
126.8128905161
 21
84.8074729929
  0
LINE
  5
633
100
AcDbEntity
  8
0
100
AcDbLine
 62
7
  6
CONTINUOUS
 10
147.7487578343
 20
96.7612396581
 11
96.8372815549
 21
67.3676605794
  0
LINE
  5
634
100
AcDbEntity
  8
0
100
AcDbLine
 62
7
  6
CONTINUOUS
 10
147.7038479015
 20
96.1954556095
 11
96.7923716222
 21
66.8018765308
  0
LINE
  5
635
100
AcDbEntity
  8
0
100
AcDbLine
 62
7
  6
CONTINUOUS
 10
98.812050662
 20
72.3969548606
 11
99.3777336973
 21
72.7233221461
  0
LINE
  5
636
100
AcDbEntity
  8
0
100
AcDbLine
 62
7
  6
CONTINUOUS
 10
101.3225724695
 20
73.8453846995
 11
101.8525969768
 21
74.1511790206
  0
LINE
  5
637
100
AcDbEntity
  8
0
100
AcDbLine
 62
7
  6
CONTINUOUS
 10
101.85239951
 20
73.4978631199
 11
101.3223750027
 21
73.1920687987
  0
LINE
  5
638
100
AcDbEntity
  8
0
100
AcDbLine
 62
7
  6
CONTINUOUS
 10
99.3775362305
 20
72.0700062454
 11
98.8118531952
 21
71.7436389598
  0
LINE
  5
639
100
AcDbEntity
  8
0
100
AcDbLine
 62
7
  6
CONTINUOUS
 10
101.7695618179
 20
70.9600969282
 11
101.3216222691
 21
70.70166101
  0
LINE
  5
63A
100
AcDbEntity
  8
0
100
AcDbLine
 62
7
  6
CONTINUOUS
 10
101.0387807515
 20
70.5384773672
 11
100.5908412027
 21
70.280041449
  0
LINE
  5
63B
100
AcDbEntity
  8
0
100
AcDbLine
 62
7
  6
CONTINUOUS
 10
99.2946985384
 20
69.5322400538
 11
98.7053377701
 21
69.1922120484
  0
LINE
  5
63C
100
AcDbEntity
  8
0
100
AcDbLine
 62
7
  6
CONTINUOUS
 10
103.0657044822
 20
71.7078983235
 11
103.655064329
 21
72.0479257973
  0
LINE
  5
63D
100
AcDbEntity
  8
0
100
AcDbLine
 62
7
  6
CONTINUOUS
 10
103.6548791806
 20
71.4354418771
 11
98.7051526218
 21
68.579728378
  0
LINE
  5
63E
100
AcDbEntity
  8
0
100
AcDbLine
 62
7
  6
CONTINUOUS
 10
135.1383217911
 20
97.5432440448
 11
135.1383217911
 21
98.5394720475
  0
LINE
  5
63F
100
AcDbEntity
  8
0
100
AcDbLine
 62
7
  6
CONTINUOUS
 10
139.7344971768
 20
101.1930587914
 11
139.7344971768
 21
100.1968307887
  0
LINE
  5
640
100
AcDbEntity
  8
0
100
AcDbLine
 62
7
  6
CONTINUOUS
 10
115.3283301227
 20
74.6953778698
 11
114.5194024269
 21
74.0648655002
  0
LINE
  5
641
100
AcDbEntity
  8
0
100
AcDbLine
 62
7
  6
CONTINUOUS
 10
125.4795119037
 20
80.3926498852
 11
126.2884395995
 21
81.0231622548
  0
LINE
  5
642
100
AcDbEntity
  8
0
100
AcDbLine
 62
7
  6
CONTINUOUS
 10
115.3283301227
 20
74.6953778698
 11
126.2884395996
 21
81.0231622548
  0
LINE
  5
643
100
AcDbEntity
  8
0
100
AcDbLine
 62
7
  6
CONTINUOUS
 10
94.5437384486
 20
62.5319345212
 11
114.5194218498
 21
74.064831868
  0
LINE
  5
644
100
AcDbEntity
  8
0
100
AcDbLine
 62
7
  6
CONTINUOUS
 10
125.4795313267
 20
80.392616253
 11
145.455214728
 21
91.9255135999
  0
LINE
  5
645
100
AcDbEntity
  8
0
100
AcDbLine
 62
7
  6
CONTINUOUS
 10
141.6717143572
 20
101.3152767571
 11
141.6717143572
 21
95.7794854227
  0
LINE
  5
646
100
AcDbEntity
  8
0
100
AcDbLine
 62
7
  6
CONTINUOUS
 10
143.0434959729
 20
105.3488800007
 11
143.0434959729
 21
94.3260973695
  0
LINE
  5
647
100
AcDbEntity
  8
0
100
AcDbLine
 62
7
  6
CONTINUOUS
 10
143.506134811
 20
106.3143602667
 11
143.506134811
 21
94.3117747349
  0
LINE
  5
648
100
AcDbEntity
  8
0
100
AcDbLine
 62
7
  6
CONTINUOUS
 10
146.6173916948
 20
104.0632144774
 11
147.4712175847
 21
100.3575265104
  0
LINE
  5
649
100
AcDbEntity
  8
0
100
AcDbLine
 62
7
  6
CONTINUOUS
 10
146.6173916948
 20
96.1080490119
 11
146.6173916948
 21
124.9305843366
  0
LINE
  5
64A
100
AcDbEntity
  8
0
100
AcDbLine
 62
7
  6
CONTINUOUS
 10
147.7487578343
 20
96.761239658
 11
147.7038479015
 21
96.1954556093
  0
ARC
  5
64B
100
AcDbEntity
  8
0
100
AcDbCircle
 62
7
  6
CONTINUOUS
 10
-208.9492341928
 20
-375.6200158381
 40
530.3061667197
100
AcDbArc
 50
55.8982694681
 51
56.2234884598
  0
ARC
  5
64C
100
AcDbEntity
  8
0
100
AcDbCircle
 62
7
  6
CONTINUOUS
 10
-200.453851849
 20
-363.7669971804
 40
516.8291340017
100
AcDbArc
 50
56.7921875724
 51
57.0604832747
  0
ARC
  5
64D
100
AcDbEntity
  8
0
100
AcDbCircle
 62
7
  6
CONTINUOUS
 10
-195.1513678579
 20
-354.4826674682
 40
505.0634038053
100
AcDbArc
 50
57.0558175287
 51
58.1853704757
  0
ARC
  5
64E
100
AcDbEntity
  8
0
100
AcDbCircle
 62
7
  6
CONTINUOUS
 10
-155.1489757312
 20
-285.1384648284
 40
426.0352848974
100
AcDbArc
 50
63.2845510812
 51
63.4300967138
  0
ARC
  5
64F
100
AcDbEntity
  8
0
100
AcDbCircle
 62
7
  6
CONTINUOUS
 10
-151.7158245237
 20
-278.2047916844
 40
418.2981776138
100
AcDbArc
 50
63.8042877784
 51
64.0880462702
  0
ARC
  5
650
100
AcDbEntity
  8
0
100
AcDbCircle
 62
7
  6
CONTINUOUS
 10
-150.9257426816
 20
-275.000351761
 40
414.0563350481
100
AcDbArc
 50
64.087599682
 51
64.4711671897
  0
ARC
  5
651
100
AcDbEntity
  8
0
100
AcDbCircle
 62
7
  6
CONTINUOUS
 10
-15.7214714264
 20
-10.5674617645
 40
171.6055152501
100
AcDbArc
 50
53.1318171223
 51
54.0608837035
  0
ARC
  5
652
100
AcDbEntity
  8
0
100
AcDbCircle
 62
7
  6
CONTINUOUS
 10
8.6736109581
 20
3.516961545
 40
171.605515249
100
AcDbArc
 50
53.1318171223
 51
54.0608837035
  0
ARC
  5
653
100
AcDbEntity
  8
0
100
AcDbCircle
 62
7
  6
CONTINUOUS
 10
8.4252543921
 20
3.7308640804
 40
170.8325494619
100
AcDbArc
 50
53.1297152028
 51
54.062985623
  0
ARC
  5
654
100
AcDbEntity
  8
0
100
AcDbCircle
 62
7
  6
CONTINUOUS
 10
-15.9698279911
 20
-10.3535592271
 40
170.8325494606
100
AcDbArc
 50
53.1297152028
 51
54.062985623
  0
ARC
  5
655
100
AcDbEntity
  8
0
100
AcDbCircle
 62
7
  6
CONTINUOUS
 10
-12.7080113155
 20
6.3773886485
 40
141.3217362599
100
AcDbArc
 50
59.3384864738
 51
60.6626360525
  0
ARC
  5
656
100
AcDbEntity
  8
0
100
AcDbCircle
 62
7
  6
CONTINUOUS
 10
38.8471179656
 20
36.8909503923
 40
140.0300335141
100
AcDbArc
 50
59.5311675489
 51
60.6676965557
  0
ARC
  5
657
100
AcDbEntity
  8
0
100
AcDbCircle
 62
7
  6
CONTINUOUS
 10
37.5253964844
 20
53.3183627899
 40
113.9158135538
100
AcDbArc
 50
66.738306627
 51
67.9589180889
  0
ARC
  5
658
100
AcDbEntity
  8
0
100
AcDbCircle
 62
7
  6
CONTINUOUS
 10
13.1303141007
 20
39.2339394818
 40
113.9158135533
100
AcDbArc
 50
66.738306627
 51
67.9589180889
  0
ARC
  5
659
100
AcDbEntity
  8
0
100
AcDbCircle
 62
7
  6
CONTINUOUS
 10
37.0779197059
 20
53.5322592499
 40
113.2417117191
100
AcDbArc
 50
66.7346734789
 51
67.962551237
  0
ARC
  5
65A
100
AcDbEntity
  8
0
100
AcDbCircle
 62
7
  6
CONTINUOUS
 10
12.6828373222
 20
39.4478359418
 40
113.2417117185
100
AcDbArc
 50
66.7346734789
 51
67.962551237
  0
ARC
  5
65B
100
AcDbEntity
  8
0
100
AcDbCircle
 62
7
  6
CONTINUOUS
 10
77.0126789381
 20
108.4380002512
 40
61.5459067269
100
AcDbArc
 50
25.1656698811
 51
27.0239703591
  0
ARC
  5
65C
100
AcDbEntity
  8
0
100
AcDbCircle
 62
7
  6
CONTINUOUS
 10
123.6150314481
 20
83.6300018698
 40
3.7358647865
100
AcDbArc
 50
287.0942257812
 51
299.9388288034
  0
ARC
  5
65D
100
AcDbEntity
  8
0
100
AcDbCircle
 62
7
  6
CONTINUOUS
 10
103.5179587905
 20
78.9883184973
 40
2.2280171504
100
AcDbArc
 50
139.6205351397
 51
141.2085563564
  0
ARC
  5
65E
100
AcDbEntity
  8
0
100
AcDbCircle
 62
7
  6
CONTINUOUS
 10
99.596771153
 20
139.3719500321
 40
1.5588558031
100
AcDbArc
 50
53.3754163701
 51
58.1763585446
  0
ARC
  5
65F
100
AcDbEntity
  8
0
100
AcDbCircle
 62
7
  6
CONTINUOUS
 10
44.4052679482
 20
129.5854121298
 40
0.4591000324
100
AcDbArc
 50
178.2448916623
 51
180.007771504
  0
ARC
  5
660
100
AcDbEntity
  8
0
100
AcDbCircle
 62
7
  6
CONTINUOUS
 10
71.6997033298
 20
113.8273190055
 40
0.4591000233
100
AcDbArc
 50
178.2448916506
 51
180.0077714935
  0
SPLINE
  5
661
100
AcDbEntity
  8
0
100
AcDbSpline
 62
7
  6
CONTINUOUS
 70
0
 71
3
 72
15
 73
11
 74
0
 42
0.0000001
 43
0.0000001
 44
0.0000000001
 40
0.0
 40
0.0
 40
0.0
 40
0.0
 40
0.0941232664
 40
0.1957666872
 40
0.3069607657
 40
0.4284691146
 40
0.5599602366
 40
0.7002734421
 40
0.8476918979
 40
1.0
 40
1.0
 40
1.0
 40
1.0
 10
103.0657044822
 20
71.7078983235
 30
0.0
 10
103.0178689349
 20
71.7208102433
 30
0.0
 10
102.9144010742
 20
71.7341436346
 30
0.0
 10
102.7525653906
 20
71.7172196771
 30
0.0
 10
102.5834074565
 20
71.6653584185
 30
0.0
 10
102.4108559883
 20
71.5802513415
 30
0.0
 10
102.2388063589
 20
71.4640967221
 30
0.0
 10
102.0712759108
 20
71.3197554058
 30
0.0
 10
101.9123232205
 20
71.1507450189
 30
0.0
 10
101.8156525208
 20
71.0257013838
 30
0.0
 10
101.7695618179
 20
70.9600969282
 30
0.0
  0
SPLINE
  5
662
100
AcDbEntity
  8
0
100
AcDbSpline
 62
7
  6
CONTINUOUS
 70
0
 71
3
 72
15
 73
11
 74
0
 42
0.0000001
 43
0.0000001
 44
0.0000000001
 40
0.0
 40
0.0
 40
0.0
 40
0.0
 40
0.0941232664
 40
0.1957666872
 40
0.3069607657
 40
0.4284691146
 40
0.5599602366
 40
0.7002734421
 40
0.8476918979
 40
1.0
 40
1.0
 40
1.0
 40
1.0
 10
100.5908412027
 20
70.280041449
 30
0.0
 10
100.5430056555
 20
70.2929533689
 30
0.0
 10
100.4395377947
 20
70.3062867602
 30
0.0
 10
100.2777021111
 20
70.2893628027
 30
0.0
 10
100.1085441771
 20
70.237501544
 30
0.0
 10
99.9359927088
 20
70.152394467
 30
0.0
 10
99.7639430794
 20
70.0362398477
 30
0.0
 10
99.5964126314
 20
69.8918985313
 30
0.0
 10
99.437459941
 20
69.7228881444
 30
0.0
 10
99.3407892414
 20
69.5978445093
 30
0.0
 10
99.2946985384
 20
69.5322400538
 30
0.0
  0
SPLINE
  5
663
100
AcDbEntity
  8
0
100
AcDbSpline
 62
7
  6
CONTINUOUS
 70
0
 71
3
 72
11
 73
7
 74
0
 42
0.0000001
 43
0.0000001
 44
0.0000000001
 40
0.0
 40
0.0
 40
0.0
 40
0.0
 40
0.2124040574
 40
0.4490323332
 40
0.7120655337
 40
1.0
 40
1.0
 40
1.0
 40
1.0
 10
101.7813721273
 20
78.4042301657
 30
0.0
 10
101.8385094216
 20
78.3991262474
 30
0.0
 10
101.9612517561
 20
78.4069643044
 30
0.0
 10
102.1460903131
 20
78.464623794
 30
0.0
 10
102.3345107921
 20
78.565529053
 30
0.0
 10
102.4537086265
 20
78.6555725301
 30
0.0
 10
102.5126307115
 20
78.7063205821
 30
0.0
  0
SPLINE
  5
664
100
AcDbEntity
  8
0
100
AcDbSpline
 62
7
  6
CONTINUOUS
 70
0
 71
3
 72
9
 73
5
 74
0
 42
0.0000001
 43
0.0000001
 44
0.0000000001
 40
0.0
 40
0.0
 40
0.0
 40
0.0
 40
0.2427600764
 40
1.0
 40
1.0
 40
1.0
 40
1.0
 10
102.1006001414
 20
78.0235771024
 30
0.0
 10
102.1508378386
 20
78.067594119
 30
0.0
 10
102.3531374134
 20
78.2541798596
 30
0.0
 10
102.5370849644
 20
78.4603889097
 30
0.0
 10
102.6656907959
 20
78.6243071388
 30
0.0
  0
SPLINE
  5
665
100
AcDbEntity
  8
0
100
AcDbSpline
 62
7
  6
CONTINUOUS
 70
0
 71
3
 72
14
 73
10
 74
0
 42
0.0000001
 43
0.0000001
 44
0.0000000001
 40
0.0
 40
0.0
 40
0.0
 40
0.0
 40
0.2968650129
 40
0.4361225788
 40
0.5671217022
 40
0.6888878465
 40
0.8011026103
 40
0.9043015079
 40
1.0
 40
1.0
 40
1.0
 40
1.0
 10
108.540132931
 20
75.3763636564
 30
0.0
 10
108.3727050407
 20
75.1514583133
 30
0.0
 10
108.0982516888
 20
74.8401272261
 30
0.0
 10
107.6875418828
 20
74.4951211166
 30
0.0
 10
107.3788913049
 20
74.289011593
 30
0.0
 10
107.0695570316
 20
74.1345622281
 30
0.0
 10
106.76556114
 20
74.0351288845
 30
0.0
 10
106.4730561792
 20
73.9933199397
 30
0.0
 10
106.2837547391
 20
74.0056198257
 30
0.0
 10
106.1949354153
 20
74.0223714358
 30
0.0
  0
SPLINE
  5
666
100
AcDbEntity
  8
0
100
AcDbSpline
 62
7
  6
CONTINUOUS
 70
0
 71
3
 72
14
 73
10
 74
0
 42
0.0000001
 43
0.0000001
 44
0.0000000001
 40
0.0
 40
0.0
 40
0.0
 40
0.0
 40
0.2968650129
 40
0.4361225788
 40
0.5671217022
 40
0.6888878465
 40
0.8011026103
 40
0.9043015079
 40
1.0
 40
1.0
 40
1.0
 40
1.0
 10
112.075652266
 20
77.4175843397
 30
0.0
 10
111.9082243758
 20
77.1926789966
 30
0.0
 10
111.6337710238
 20
76.8813479094
 30
0.0
 10
111.2230612179
 20
76.5363417999
 30
0.0
 10
110.91441064
 20
76.3302322763
 30
0.0
 10
110.6050763667
 20
76.1757829114
 30
0.0
 10
110.3010804751
 20
76.0763495679
 30
0.0
 10
110.0085755142
 20
76.034540623
 30
0.0
 10
109.8192740742
 20
76.0468405091
 30
0.0
 10
109.7304547503
 20
76.0635921191
 30
0.0
  0
SPLINE
  5
667
100
AcDbEntity
  8
0
100
AcDbSpline
 62
7
  6
CONTINUOUS
 70
0
 71
3
 72
14
 73
10
 74
0
 42
0.0000001
 43
0.0000001
 44
0.0000000001
 40
0.0
 40
0.0
 40
0.0
 40
0.0
 40
0.2968650129
 40
0.4361225788
 40
0.5671217022
 40
0.6888878465
 40
0.8011026103
 40
0.9043015079
 40
1.0
 40
1.0
 40
1.0
 40
1.0
 10
115.6111716011
 20
79.458805023
 30
0.0
 10
115.4437437109
 20
79.23389968
 30
0.0
 10
115.1692903589
 20
78.9225685927
 30
0.0
 10
114.758580553
 20
78.5775624832
 30
0.0
 10
114.4499299751
 20
78.3714529597
 30
0.0
 10
114.1405957018
 20
78.2170035947
 30
0.0
 10
113.8365998101
 20
78.1175702512
 30
0.0
 10
113.5440948493
 20
78.0757613064
 30
0.0
 10
113.3547934093
 20
78.0880611924
 30
0.0
 10
113.2659740854
 20
78.1048128024
 30
0.0
  0
SPLINE
  5
668
100
AcDbEntity
  8
0
100
AcDbSpline
 62
7
  6
CONTINUOUS
 70
0
 71
3
 72
14
 73
10
 74
0
 42
0.0000001
 43
0.0000001
 44
0.0000000001
 40
0.0
 40
0.0
 40
0.0
 40
0.0
 40
0.2968650129
 40
0.4361225788
 40
0.5671217022
 40
0.6888878465
 40
0.8011026103
 40
0.9043015079
 40
1.0
 40
1.0
 40
1.0
 40
1.0
 10
119.1466909362
 20
81.5000257064
 30
0.0
 10
118.9792630459
 20
81.2751203633
 30
0.0
 10
118.704809694
 20
80.963789276
 30
0.0
 10
118.2940998881
 20
80.6187831665
 30
0.0
 10
117.9854493101
 20
80.412673643
 30
0.0
 10
117.6761150369
 20
80.258224278
 30
0.0
 10
117.3721191452
 20
80.1587909345
 30
0.0
 10
117.0796141844
 20
80.1169819897
 30
0.0
 10
116.8903127443
 20
80.1292818757
 30
0.0
 10
116.8014934205
 20
80.1460334857
 30
0.0
  0
SPLINE
  5
669
100
AcDbEntity
  8
0
100
AcDbSpline
 62
7
  6
CONTINUOUS
 70
0
 71
3
 72
14
 73
10
 74
0
 42
0.0000001
 43
0.0000001
 44
0.0000000001
 40
0.0
 40
0.0
 40
0.0
 40
0.0
 40
0.2968650129
 40
0.4361225788
 40
0.5671217022
 40
0.6888878465
 40
0.8011026103
 40
0.9043015079
 40
1.0
 40
1.0
 40
1.0
 40
1.0
 10
122.6822106194
 20
83.5412465907
 30
0.0
 10
122.5147827292
 20
83.3163412476
 30
0.0
 10
122.2403293772
 20
83.0050101604
 30
0.0
 10
121.8296195713
 20
82.6600040509
 30
0.0
 10
121.5209689934
 20
82.4538945273
 30
0.0
 10
121.2116347201
 20
82.2994451624
 30
0.0
 10
120.9076388284
 20
82.2000118189
 30
0.0
 10
120.6151338676
 20
82.158202874
 30
0.0
 10
120.4258324276
 20
82.1705027601
 30
0.0
 10
120.3370131037
 20
82.1872543701
 30
0.0
  0
SPLINE
  5
66A
100
AcDbEntity
  8
0
100
AcDbSpline
 62
7
  6
CONTINUOUS
 70
0
 71
3
 72
14
 73
10
 74
0
 42
0.0000001
 43
0.0000001
 44
0.0000000001
 40
0.0
 40
0.0
 40
0.0
 40
0.0
 40
0.2968650053
 40
0.436122568
 40
0.5671216899
 40
0.6888878349
 40
0.8011026014
 40
0.9043015033
 40
1.0
 40
1.0
 40
1.0
 40
1.0
 10
126.2177297215
 20
85.5824671395
 30
0.0
 10
126.0503018549
 20
85.3575618649
 30
0.0
 10
125.7758485515
 20
85.046230872
 30
0.0
 10
125.3651388328
 20
84.7012248611
 30
0.0
 10
125.0564883233
 20
84.49511539
 30
0.0
 10
124.7471541192
 20
84.3406660546
 30
0.0
 10
124.4431582935
 20
84.2412327156
 30
0.0
 10
124.1506533916
 20
84.1994237484
 30
0.0
 10
123.9613519839
 20
84.2117235996
 30
0.0
 10
123.8725326718
 20
84.2284751879
 30
0.0
  0
SPLINE
  5
66B
100
AcDbEntity
  8
0
100
AcDbSpline
 62
7
  6
CONTINUOUS
 70
0
 71
3
 72
17
 73
13
 74
0
 42
0.0000001
 43
0.0000001
 44
0.0000000001
 40
0.0
 40
0.0
 40
0.0
 40
0.0
 40
0.0411237849
 40
0.0838021075
 40
0.1297735813
 40
0.1801680333
 40
0.2955780408
 40
0.4292015032
 40
0.5750120053
 40
0.7246141956
 40
0.8689496927
 40
1.0
 40
1.0
 40
1.0
 40
1.0
 10
83.666325046
 20
149.7057558778
 30
0.0
 10
83.6648406175
 20
149.6578897046
 30
0.0
 10
83.6753983539
 20
149.559435654
 30
0.0
 10
83.7312018965
 20
149.4173443676
 30
0.0
 10
83.8246308189
 20
149.2835388382
 30
0.0
 10
84.003389543
 20
149.1118397062
 30
0.0
 10
84.310677277
 20
148.9369009428
 30
0.0
 10
84.7528319455
 20
148.801964015
 30
0.0
 10
85.2513254243
 20
148.7423855455
 30
0.0
 10
85.7652159828
 20
148.7641218719
 30
0.0
 10
86.2517772819
 20
148.8658385453
 30
0.0
 10
86.550707504
 20
148.9901020109
 30
0.0
 10
86.6828716618
 20
149.0664065675
 30
0.0
  0
SPLINE
  5
66C
100
AcDbEntity
  8
0
100
AcDbSpline
 62
7
  6
CONTINUOUS
 70
0
 71
3
 72
17
 73
13
 74
0
 42
0.0000001
 43
0.0000001
 44
0.0000000001
 40
0.0
 40
0.0
 40
0.0
 40
0.0
 40
0.0425908728
 40
0.0868255706
 40
0.1342508794
 40
0.1858608727
 40
0.3027419228
 40
0.4364840678
 40
0.5812055806
 40
0.7288638443
 40
0.8709181937
 40
1.0
 40
1.0
 40
1.0
 40
1.0
 10
88.2672713713
 20
147.2059840817
 30
0.0
 10
88.2657181001
 20
147.1558557713
 30
0.0
 10
88.2761648051
 20
147.0527868718
 30
0.0
 10
88.331550966
 20
146.9031783433
 30
0.0
 10
88.4245811366
 20
146.7609653205
 30
0.0
 10
88.6022922938
 20
146.577430216
 30
0.0
 10
88.9085057009
 20
146.3864862791
 30
0.0
 10
89.3510977912
 20
146.2336284604
 30
0.0
 10
89.8498523602
 20
146.1585005014
 30
0.0
 10
90.3638015009
 20
146.1681613729
 30
0.0
 10
90.8503662998
 20
146.2621342464
 30
0.0
 10
91.1489118821
 20
146.384340407
 30
0.0
 10
91.2805468372
 20
146.4603394301
 30
0.0
  0
SPLINE
  5
66D
100
AcDbEntity
  8
0
100
AcDbSpline
 62
7
  6
CONTINUOUS
 70
0
 71
3
 72
17
 73
13
 74
0
 42
0.0000001
 43
0.0000001
 44
0.0000000001
 40
0.0
 40
0.0
 40
0.0
 40
0.0
 40
0.0439963381
 40
0.0897228995
 40
0.1385453041
 40
0.1913303962
 40
0.3096318887
 40
0.4434569948
 40
0.5870996861
 40
0.7328792652
 40
0.8727641852
 40
1.0
 40
1.0
 40
1.0
 40
1.0
 10
92.8612256376
 20
144.4790280213
 30
0.0
 10
92.859602827
 20
144.4266392116
 30
0.0
 10
92.8699492684
 20
144.3189546263
 30
0.0
 10
92.9249378048
 20
144.1618838816
 30
0.0
 10
93.0175424503
 20
144.0113805806
 30
0.0
 10
93.1941221995
 20
143.8162370151
 30
0.0
 10
93.4988997133
 20
143.6095366317
 30
0.0
 10
93.9414939933
 20
143.438732766
 30
0.0
 10
94.4403036309
 20
143.3479007849
 30
0.0
 10
94.9544453638
 20
143.345317529
 30
0.0
 10
95.4414416077
 20
143.4314833396
 30
0.0
 10
95.739971562
 20
143.5517480845
 30
0.0
 10
95.8712432033
 20
143.6275373495
 30
0.0
  0
SPLINE
  5
66E
100
AcDbEntity
  8
0
100
AcDbSpline
 62
7
  6
CONTINUOUS
 70
0
 71
3
 72
17
 73
13
 74
0
 42
0.0000001
 43
0.0000001
 44
0.0000000001
 40
0.0
 40
0.0
 40
0.0
 40
0.0
 40
0.0453482016
 40
0.0925096381
 40
0.1426784962
 40
0.1965956995
 40
0.3162564653
 40
0.4501327369
 40
0.5927097067
 40
0.7366810051
 40
0.8745041694
 40
1.0
 40
1.0
 40
1.0
 40
1.0
 10
97.4482063469
 20
141.5255052663
 30
0.0
 10
97.4465136291
 20
141.4708454615
 30
0.0
 10
97.4567645477
 20
141.35852108
 30
0.0
 10
97.5113737713
 20
141.1939978945
 30
0.0
 10
97.6035330536
 20
141.0352785874
 30
0.0
 10
97.7788847626
 20
140.8286893094
 30
0.0
 10
98.0818894997
 20
140.6064469596
 30
0.0
 10
98.524028376
 20
140.4175955299
 30
0.0
 10
99.0226860013
 20
140.310821207
 30
0.0
 10
99.5371565349
 20
140.2957169488
 30
0.0
 10
100.0250172204
 20
140.3739325761
 30
0.0
 10
100.3238992389
 20
140.492347123
 30
0.0
 10
100.4549612224
 20
140.5680153428
 30
0.0
  0
SPLINE
  5
66F
100
AcDbEntity
  8
0
100
AcDbSpline
 62
7
  6
CONTINUOUS
 70
0
 71
3
 72
9
 73
5
 74
0
 42
0.0000001
 43
0.0000001
 44
0.0000000001
 40
0.0
 40
0.0
 40
0.0
 40
0.0
 40
0.2442149694
 40
1.0
 40
1.0
 40
1.0
 40
1.0
 10
110.2726362076
 20
157.8251662682
 30
0.0
 10
111.4758891112
 20
157.1119566037
 30
0.0
 10
116.3602864872
 20
154.1199453711
 30
0.0
 10
121.0743169061
 20
150.8520053447
 30
0.0
 10
124.5374563947
 20
148.2549110128
 30
0.0
  0
SPLINE
  5
670
100
AcDbEntity
  8
0
100
AcDbSpline
 62
7
  6
CONTINUOUS
 70
0
 71
3
 72
9
 73
5
 74
0
 42
0.0000001
 43
0.0000001
 44
0.0000000001
 40
0.0
 40
0.0
 40
0.0
 40
0.0
 40
0.2432580891
 40
1.0
 40
1.0
 40
1.0
 40
1.0
 10
93.17937712
 20
166.3590969518
 30
0.0
 10
94.3708965988
 20
165.8768299496
 30
0.0
 10
99.2346272149
 20
163.8097033917
 30
0.0
 10
103.9581447419
 20
161.4170809195
 30
0.0
 10
107.4441973071
 20
159.4581292863
 30
0.0
  0
SPLINE
  5
671
100
AcDbEntity
  8
0
100
AcDbSpline
 62
7
  6
CONTINUOUS
 70
0
 71
3
 72
15
 73
11
 74
0
 42
0.0000001
 43
0.0000001
 44
0.0000000001
 40
0.0
 40
0.0
 40
0.0
 40
0.0
 40
0.0869340065
 40
0.1863989392
 40
0.3037770834
 40
0.4375857741
 40
0.5821005873
 40
0.7293638007
 40
0.8712356377
 40
1.0
 40
1.0
 40
1.0
 40
1.0
 10
71.3441604603
 20
114.0561478032
 30
0.0
 10
71.3691361941
 20
114.0705659066
 30
0.0
 10
71.4318907603
 20
114.0866516909
 30
0.0
 10
71.5328769902
 20
114.0664455173
 30
0.0
 10
71.6360553303
 20
114.0100936059
 30
0.0
 10
71.7350135893
 20
113.9225051703
 30
0.0
 10
71.8223140545
 20
113.8106741333
 30
0.0
 10
71.8911518965
 20
113.6835682917
 30
0.0
 10
71.9356986652
 20
113.5516017854
 30
0.0
 10
71.9477130359
 20
113.4617310606
 30
0.0
 10
71.9477130359
 20
113.4190159791
 30
0.0
  0
SPLINE
  5
672
100
AcDbEntity
  8
0
100
AcDbSpline
 62
7
  6
CONTINUOUS
 70
0
 71
3
 72
15
 73
11
 74
0
 42
0.0000001
 43
0.0000001
 44
0.0000000001
 40
0.0
 40
0.0
 40
0.0
 40
0.0
 40
0.0869340065
 40
0.1863989392
 40
0.3037770834
 40
0.4375857741
 40
0.5821005873
 40
0.7293638007
 40
0.8712356377
 40
1.0
 40
1.0
 40
1.0
 40
1.0
 10
44.0497250696
 20
129.8142409277
 30
0.0
 10
44.0747008035
 20
129.8286590311
 30
0.0
 10
44.1374553697
 20
129.8447448154
 30
0.0
 10
44.2384415995
 20
129.8245386418
 30
0.0
 10
44.3416199396
 20
129.7681867304
 30
0.0
 10
44.4405781986
 20
129.6805982948
 30
0.0
 10
44.5278786638
 20
129.5687672578
 30
0.0
 10
44.5967165058
 20
129.4416614161
 30
0.0
 10
44.6412632745
 20
129.3096949099
 30
0.0
 10
44.6532776452
 20
129.2198241851
 30
0.0
 10
44.6532776452
 20
129.1771091035
 30
0.0
  0
SPLINE
  5
673
100
AcDbEntity
  8
0
100
AcDbSpline
 62
7
  6
CONTINUOUS
 70
0
 71
3
 72
11
 73
7
 74
0
 42
0.0000001
 43
0.0000001
 44
0.0000000001
 40
0.0
 40
0.0
 40
0.0
 40
0.0
 40
0.292330531
 40
0.5531923583
 40
0.7857517095
 40
1.0
 40
1.0
 40
1.0
 40
1.0
 10
86.6828716618
 20
149.0664065675
 30
0.0
 10
86.7585008002
 20
149.1100708103
 30
0.0
 10
86.8957965433
 20
149.2037955275
 30
0.0
 10
87.0613746068
 20
149.3728352977
 30
0.0
 10
87.1685544163
 20
149.5581581921
 30
0.0
 10
87.1968363497
 20
149.6916160976
 30
0.0
 10
87.1988181628
 20
149.7555885153
 30
0.0
  0
SPLINE
  5
674
100
AcDbEntity
  8
0
100
AcDbSpline
 62
7
  6
CONTINUOUS
 70
0
 71
3
 72
11
 73
7
 74
0
 42
0.0000001
 43
0.0000001
 44
0.0000000001
 40
0.0
 40
0.0
 40
0.0
 40
0.0
 40
0.2880738644
 40
0.5472725785
 40
0.7812920994
 40
1.0
 40
1.0
 40
1.0
 40
1.0
 10
91.2805468372
 20
146.4603394301
 30
0.0
 10
91.3563473269
 20
146.504102602
 30
0.0
 10
91.494220875
 20
146.5989501806
 30
0.0
 10
91.6599839528
 20
146.7716751344
 30
0.0
 10
91.767026786
 20
146.9628000474
 30
0.0
 10
91.7949679404
 20
147.1003980281
 30
0.0
 10
91.7970255453
 20
147.1668171374
 30
0.0
  0
SPLINE
  5
675
100
AcDbEntity
  8
0
100
AcDbSpline
 62
7
  6
CONTINUOUS
 70
0
 71
3
 72
9
 73
5
 74
0
 42
0.0000001
 43
0.0000001
 44
0.0000000001
 40
0.0
 40
0.0
 40
0.0
 40
0.0
 40
0.2432580891
 40
1.0
 40
1.0
 40
1.0
 40
1.0
 10
72.4965898815
 20
154.4179554511
 30
0.0
 10
73.6881093603
 20
153.9356884488
 30
0.0
 10
78.5518399764
 20
151.8685618909
 30
0.0
 10
83.2753575034
 20
149.4759394188
 30
0.0
 10
86.7614100686
 20
147.5169877855
 30
0.0
  0
SPLINE
  5
676
100
AcDbEntity
  8
0
100
AcDbSpline
 62
7
  6
CONTINUOUS
 70
0
 71
3
 72
9
 73
5
 74
0
 42
0.0000001
 43
0.0000001
 44
0.0000000001
 40
0.0
 40
0.0
 40
0.0
 40
0.0
 40
0.2442149694
 40
1.0
 40
1.0
 40
1.0
 40
1.0
 10
89.5898489691
 20
145.8840247674
 30
0.0
 10
90.7931018727
 20
145.170815103
 30
0.0
 10
95.6774992487
 20
142.1788038704
 30
0.0
 10
100.3915296676
 20
138.9108638439
 30
0.0
 10
103.8546691562
 20
136.3137695121
 30
0.0
  0
SPLINE
  5
677
100
AcDbEntity
  8
0
100
AcDbSpline
 62
7
  6
CONTINUOUS
 70
0
 71
3
 72
11
 73
7
 74
0
 42
0.0000001
 43
0.0000001
 44
0.0000000001
 40
0.0
 40
0.0
 40
0.0
 40
0.0
 40
0.2840422218
 40
0.5416780619
 40
0.7770878634
 40
1.0
 40
1.0
 40
1.0
 40
1.0
 10
95.8712432033
 20
143.6275373495
 30
0.0
 10
95.9472385912
 20
143.6714130453
 30
0.0
 10
96.0857172167
 20
143.7674226665
 30
0.0
 10
96.2516459602
 20
143.9438660118
 30
0.0
 10
96.3584998976
 20
144.1407370884
 30
0.0
 10
96.3861205856
 20
144.282423622
 30
0.0
 10
96.3882525665
 20
144.3512569159
 30
0.0
  0
SPLINE
  5
678
100
AcDbEntity
  8
0
100
AcDbSpline
 62
7
  6
CONTINUOUS
 70
0
 71
3
 72
11
 73
7
 74
0
 42
0.0000001
 43
0.0000001
 44
0.0000000001
 40
0.0
 40
0.0
 40
0.0
 40
0.0
 40
0.2802013847
 40
0.5363620575
 40
0.7731082974
 40
1.0
 40
1.0
 40
1.0
 40
1.0
 10
100.4549612224
 20
140.5680153428
 30
0.0
 10
100.5311754621
 20
140.6120173919
 30
0.0
 10
100.6702896767
 20
140.709233921
 30
0.0
 10
100.8363626106
 20
140.8894521727
 30
0.0
 10
100.9429799093
 20
141.0920455186
 30
0.0
 10
100.9702979341
 20
141.2377938999
 30
0.0
 10
100.9725028324
 20
141.3090209885
 30
0.0
  0
SPLINE
  5
679
100
AcDbEntity
  8
0
100
AcDbSpline
 62
7
  6
CONTINUOUS
 70
0
 71
3
 72
17
 73
13
 74
0
 42
0.0000001
 43
0.0000001
 44
0.0000000001
 40
0.0
 40
0.0
 40
0.0
 40
0.0
 40
0.0445791026
 40
0.0907967009
 40
0.1399517441
 40
0.1928898073
 40
0.3110261998
 40
0.4443595195
 40
0.5875290642
 40
0.7330506063
 40
0.8728696055
 40
1.0
 40
1.0
 40
1.0
 40
1.0
 10
96.3882525665
 20
144.3512569159
 30
0.0
 10
96.3899002109
 20
144.4044528849
 30
0.0
 10
96.3796448355
 20
144.5136409178
 30
0.0
 10
96.3248484931
 20
144.6729196468
 30
0.0
 10
96.2323911105
 20
144.8253336217
 30
0.0
 10
96.0561847328
 20
145.0221209247
 30
0.0
 10
95.751393188
 20
145.2294850524
 30
0.0
 10
95.3081505286
 20
145.3981187837
 30
0.0
 10
94.80886948
 20
145.4845290957
 30
0.0
 10
94.2945999823
 20
145.4820220049
 30
0.0
 10
93.8078720332
 20
145.391892833
 30
0.0
 10
93.5094297738
 20
145.2705824966
 30
0.0
 10
93.3779871274
 20
145.1946945023
 30
0.0
  0
SPLINE
  5
67A
100
AcDbEntity
  8
0
100
AcDbSpline
 62
7
  6
CONTINUOUS
 70
0
 71
3
 72
9
 73
5
 74
0
 42
0.0000001
 43
0.0000001
 44
0.0000000001
 40
0.0
 40
0.0
 40
0.0
 40
0.0
 40
0.2456378234
 40
1.0
 40
1.0
 40
1.0
 40
1.0
 10
86.7598268796
 20
149.1256624417
 30
0.0
 10
86.7508708996
 20
149.132384442
 30
0.0
 10
86.7140982382
 20
149.1593318701
 30
0.0
 10
86.676116865
 20
149.1846227662
 30
0.0
 10
86.6469204245
 20
149.2027941278
 30
0.0
  0
SPLINE
  5
67B
100
AcDbEntity
  8
0
100
AcDbSpline
 62
7
  6
CONTINUOUS
 70
0
 71
3
 72
11
 73
7
 74
0
 42
0.0000001
 43
0.0000001
 44
0.0000000001
 40
0.0
 40
0.0
 40
0.0
 40
0.0
 40
0.2390781761
 40
0.5019382151
 40
0.76373123
 40
1.0
 40
1.0
 40
1.0
 40
1.0
 10
86.6469204245
 20
149.2027941278
 30
0.0
 10
86.4711219638
 20
149.3122080618
 30
0.0
 10
86.0605909329
 20
149.4761508252
 30
0.0
 10
85.3997689956
 20
149.5650281759
 30
0.0
 10
84.7381673984
 20
149.504793609
 30
0.0
 10
84.3244225073
 20
149.3579899717
 30
0.0
 10
84.1472046959
 20
149.2556738313
 30
0.0
  0
SPLINE
  5
67C
100
AcDbEntity
  8
0
100
AcDbSpline
 62
7
  6
CONTINUOUS
 70
0
 71
3
 72
11
 73
7
 74
0
 42
0.0000001
 43
0.0000001
 44
0.0000000001
 40
0.0
 40
0.0
 40
0.0
 40
0.0
 40
0.2412981183
 40
0.5021572234
 40
0.7618312049
 40
1.0
 40
1.0
 40
1.0
 40
1.0
 10
91.1439628024
 20
146.4216226155
 30
0.0
 10
90.9743756266
 20
146.5132763157
 30
0.0
 10
90.591991794
 20
146.6507647279
 30
0.0
 10
89.9838110918
 20
146.7256387651
 30
0.0
 10
89.3756696508
 20
146.6744641551
 30
0.0
 10
88.9918275097
 20
146.5511764199
 30
0.0
 10
88.8218988969
 20
146.4655791766
 30
0.0
  0
SPLINE
  5
67D
100
AcDbEntity
  8
0
100
AcDbSpline
 62
7
  6
CONTINUOUS
 70
0
 71
3
 72
9
 73
5
 74
0
 42
0.0000001
 43
0.0000001
 44
0.0000000001
 40
0.0
 40
0.0
 40
0.0
 40
0.0
 40
0.2568323556
 40
1.0
 40
1.0
 40
1.0
 40
1.0
 10
56.5327210277
 20
130.0645502075
 30
0.0
 10
55.3495979945
 20
130.7293941119
 30
0.0
 10
50.7054275572
 20
133.2501164661
 30
0.0
 10
45.9080122782
 20
135.4921843169
 30
0.0
 10
42.2679008407
 20
136.9655178731
 30
0.0
  0
SPLINE
  5
67E
100
AcDbEntity
  8
0
100
AcDbSpline
 62
7
  6
CONTINUOUS
 70
0
 71
3
 72
11
 73
7
 74
0
 42
0.0000001
 43
0.0000001
 44
0.0000000001
 40
0.0
 40
0.0
 40
0.0
 40
0.0
 40
0.2390781761
 40
0.5019382151
 40
0.76373123
 40
1.0
 40
1.0
 40
1.0
 40
1.0
 10
100.4187658483
 20
140.6964711289
 30
0.0
 10
100.2429673876
 20
140.8058850629
 30
0.0
 10
99.8324363567
 20
140.9698278263
 30
0.0
 10
99.1716144194
 20
141.0587051769
 30
0.0
 10
98.5100128222
 20
140.9984706101
 30
0.0
 10
98.0962679311
 20
140.8516669728
 30
0.0
 10
97.9190501197
 20
140.7493508324
 30
0.0
  0
SPLINE
  5
67F
100
AcDbEntity
  8
0
100
AcDbSpline
 62
7
  6
CONTINUOUS
 70
0
 71
3
 72
9
 73
5
 74
0
 42
0.0000001
 43
0.0000001
 44
0.0000000001
 40
0.0
 40
0.0
 40
0.0
 40
0.0
 40
0.2557707521
 40
1.0
 40
1.0
 40
1.0
 40
1.0
 10
73.6259801153
 20
118.861331934
 30
0.0
 10
72.4540036285
 20
119.740226215
 30
0.0
 10
67.8286520733
 20
123.1182228523
 30
0.0
 10
63.0279638763
 20
126.2581455083
 30
0.0
 10
59.3611599283
 20
128.4315871894
 30
0.0
  0
SPLINE
  5
680
100
AcDbEntity
  8
0
100
AcDbSpline
 62
7
  6
CONTINUOUS
 70
0
 71
3
 72
9
 73
5
 74
0
 42
0.0000001
 43
0.0000001
 44
0.0000000001
 40
0.0
 40
0.0
 40
0.0
 40
0.0
 40
0.2553748787
 40
1.0
 40
1.0
 40
1.0
 40
1.0
 10
84.1472046959
 20
149.2556738313
 30
0.0
 10
84.1349063661
 20
149.2485734297
 30
0.0
 10
84.0871242795
 20
149.220126409
 30
0.0
 10
84.0408801103
 20
149.1890744486
 30
0.0
 10
84.0075981464
 20
149.1644400161
 30
0.0
  0
SPLINE
  5
681
100
AcDbEntity
  8
0
100
AcDbSpline
 62
7
  6
CONTINUOUS
 70
0
 71
3
 72
16
 73
12
 74
0
 42
0.0000001
 43
0.0000001
 44
0.0000000001
 40
0.0
 40
0.0
 40
0.0
 40
0.0
 40
0.0459264167
 40
0.0935759128
 40
0.1977393442
 40
0.3172706932
 40
0.4507183614
 40
0.5929062146
 40
0.7367112554
 40
0.8745490571
 40
1.0
 40
1.0
 40
1.0
 40
1.0
 10
100.9725028324
 20
141.3090209885
 30
0.0
 10
100.9742192182
 20
141.3644671562
 30
0.0
 10
100.9640632663
 20
141.4782567608
 30
0.0
 10
100.8894766263
 20
141.7069678959
 30
0.0
 10
100.6916569433
 20
141.9782728663
 30
0.0
 10
100.3402170127
 20
142.2363164838
 30
0.0
 10
99.8971554947
 20
142.4235337371
 30
0.0
 10
99.3979582099
 20
142.5258506452
 30
0.0
 10
98.8831751121
 20
142.5358898173
 30
0.0
 10
98.3955172751
 20
142.4536513691
 30
0.0
 10
98.0967254947
 20
142.3341882588
 30
0.0
 10
97.9654988068
 20
142.2584249475
 30
0.0
  0
SPLINE
  5
682
100
AcDbEntity
  8
0
100
AcDbSpline
 62
7
  6
CONTINUOUS
 70
0
 71
3
 72
11
 73
7
 74
0
 42
0.0000001
 43
0.0000001
 44
0.0000000001
 40
0.0
 40
0.0
 40
0.0
 40
0.0
 40
0.2943117698
 40
0.5558124439
 40
0.7875767416
 40
1.0
 40
1.0
 40
1.0
 40
1.0
 10
84.1820206823
 20
150.3868124534
 30
0.0
 10
84.1064810655
 20
150.3431998956
 30
0.0
 10
83.9694768789
 20
150.2500706661
 30
0.0
 10
83.8039462004
 20
150.0829141344
 30
0.0
 10
83.6966464543
 20
149.9002952859
 30
0.0
 10
83.6682765066
 20
149.7686817427
 30
0.0
 10
83.666325046
 20
149.7057558778
 30
0.0
  0
SPLINE
  5
683
100
AcDbEntity
  8
0
100
AcDbSpline
 62
7
  6
CONTINUOUS
 70
0
 71
3
 72
11
 73
7
 74
0
 42
0.0000001
 43
0.0000001
 44
0.0000000001
 40
0.0
 40
0.0
 40
0.0
 40
0.0
 40
0.285823578
 40
0.5440157514
 40
0.7786970067
 40
1.0
 40
1.0
 40
1.0
 40
1.0
 10
93.3779871274
 20
145.1946945023
 30
0.0
 10
93.3020995195
 20
145.150881033
 30
0.0
 10
93.1639332558
 20
145.0554975109
 30
0.0
 10
92.9980277836
 20
144.88095601
 30
0.0
 10
92.8910232789
 20
144.6867265695
 30
0.0
 10
92.8633262691
 20
144.5468422085
 30
0.0
 10
92.8612256376
 20
144.4790280213
 30
0.0
  0
SPLINE
  5
684
100
AcDbEntity
  8
0
100
AcDbSpline
 62
7
  6
CONTINUOUS
 70
0
 71
3
 72
17
 73
13
 74
0
 42
0.0000001
 43
0.0000001
 44
0.0000000001
 40
0.0
 40
0.0
 40
0.0
 40
0.0
 40
0.043199442
 40
0.0879477787
 40
0.1357220066
 40
0.1874996275
 40
0.3042332176
 40
0.4374758943
 40
0.5816979652
 40
0.7290636525
 40
0.8710308029
 40
1.0
 40
1.0
 40
1.0
 40
1.0
 10
91.7970255453
 20
147.1668171374
 30
0.0
 10
91.7986041993
 20
147.2177758039
 30
0.0
 10
91.7882385398
 20
147.3223918395
 30
0.0
 10
91.7330079776
 20
147.4742762656
 30
0.0
 10
91.6400556939
 20
147.6184610772
 30
0.0
 10
91.4625974799
 20
147.8036853303
 30
0.0
 10
91.1562445032
 20
147.9952581065
 30
0.0
 10
90.7130123477
 20
148.14580422
 30
0.0
 10
90.2139360314
 20
148.2164331043
 30
0.0
 10
89.7000133533
 20
148.2016664472
 30
0.0
 10
89.213781906
 20
148.1037566831
 30
0.0
 10
88.9153169686
 20
147.9804988815
 30
0.0
 10
88.7835017691
 20
147.9043957948
 30
0.0
  0
SPLINE
  5
685
100
AcDbEntity
  8
0
100
AcDbSpline
 62
7
  6
CONTINUOUS
 70
0
 71
3
 72
17
 73
13
 74
0
 42
0.0000001
 43
0.0000001
 44
0.0000000001
 40
0.0
 40
0.0
 40
0.0
 40
0.0
 40
0.0417588319
 40
0.084975478
 40
0.1313168734
 40
0.1818933725
 40
0.2971724833
 40
0.4302968668
 40
0.5755809823
 40
0.7248592377
 40
0.8690840051
 40
1.0
 40
1.0
 40
1.0
 40
1.0
 10
87.1988181628
 20
149.7555885153
 30
0.0
 10
87.200327482
 20
149.8043089482
 30
0.0
 10
87.1898471137
 20
149.9043570368
 30
0.0
 10
87.1341575128
 20
150.0488029437
 30
0.0
 10
87.0407268119
 20
150.1846465456
 30
0.0
 10
86.8621072535
 20
150.3580957746
 30
0.0
 10
86.5545357684
 20
150.5336072886
 30
0.0
 10
86.111756152
 20
150.666107653
 30
0.0
 10
85.6130689501
 20
150.7210875063
 30
0.0
 10
85.0993498828
 20
150.6942078825
 30
0.0
 10
84.6131995885
 20
150.5885441178
 30
0.0
 10
84.3143618875
 20
150.4632192278
 30
0.0
 10
84.1820206823
 20
150.3868124534
 30
0.0
  0
SPLINE
  5
686
100
AcDbEntity
  8
0
100
AcDbSpline
 62
7
  6
CONTINUOUS
 70
0
 71
3
 72
11
 73
7
 74
0
 42
0.0000001
 43
0.0000001
 44
0.0000000001
 40
0.0
 40
0.0
 40
0.0
 40
0.0
 40
0.2399560758
 40
0.4991378097
 40
0.7587594301
 40
1.0
 40
1.0
 40
1.0
 40
1.0
 10
95.7291826733
 20
143.5890860512
 30
0.0
 10
95.5668337005
 20
143.6761400903
 30
0.0
 10
95.2024514049
 20
143.8086938608
 30
0.0
 10
94.6215359346
 20
143.887162832
 30
0.0
 10
94.0355511008
 20
143.8496940433
 30
0.0
 10
93.6614222471
 20
143.7431829007
 30
0.0
 10
93.492216756
 20
143.6678875754
 30
0.0
  0
SPLINE
  5
687
100
AcDbEntity
  8
0
100
AcDbSpline
 62
7
  6
CONTINUOUS
 70
0
 71
3
 72
9
 73
5
 74
0
 42
0.0000001
 43
0.0000001
 44
0.0000000001
 40
0.0
 40
0.0
 40
0.0
 40
0.0
 40
0.2557707521
 40
1.0
 40
1.0
 40
1.0
 40
1.0
 10
107.3901883422
 20
138.3549902814
 30
0.0
 10
106.2182118555
 20
139.2338845624
 30
0.0
 10
101.5928603003
 20
142.6118811996
 30
0.0
 10
96.7921721033
 20
145.7518038556
 30
0.0
 10
93.1253681552
 20
147.9252455368
 30
0.0
  0
SPLINE
  5
688
100
AcDbEntity
  8
0
100
AcDbSpline
 62
7
  6
CONTINUOUS
 70
0
 71
3
 72
9
 73
5
 74
0
 42
0.0000001
 43
0.0000001
 44
0.0000000001
 40
0.0
 40
0.0
 40
0.0
 40
0.0
 40
0.2441881421
 40
1.0
 40
1.0
 40
1.0
 40
1.0
 10
93.1253681552
 20
147.435300359
 30
0.0
 10
94.3299880853
 20
146.7212059071
 30
0.0
 10
99.2202492043
 20
143.7247953336
 30
0.0
 10
103.9390390157
 20
140.4507618438
 30
0.0
 10
107.4052482445
 20
137.8483189496
 30
0.0
  0
SPLINE
  5
689
100
AcDbEntity
  8
0
100
AcDbSpline
 62
7
  6
CONTINUOUS
 70
0
 71
3
 72
11
 73
7
 74
0
 42
0.0000001
 43
0.0000001
 44
0.0000000001
 40
0.0
 40
0.0
 40
0.0
 40
0.0
 40
0.2818991257
 40
0.5385813843
 40
0.7746252595
 40
1.0
 40
1.0
 40
1.0
 40
1.0
 10
97.9654988068
 20
142.2584249475
 30
0.0
 10
97.8894037121
 20
142.2144916863
 30
0.0
 10
97.7506156487
 20
142.1179236342
 30
0.0
 10
97.5845542361
 20
141.9396341081
 30
0.0
 10
97.4777677277
 20
141.7396737777
 30
0.0
 10
97.4503807759
 20
141.595720079
 30
0.0
 10
97.4482063469
 20
141.5255052663
 30
0.0
  0
SPLINE
  5
68A
100
AcDbEntity
  8
0
100
AcDbSpline
 62
7
  6
CONTINUOUS
 70
0
 71
3
 72
9
 73
5
 74
0
 42
0.0000001
 43
0.0000001
 44
0.0000000001
 40
0.0
 40
0.0
 40
0.0
 40
0.0
 40
0.2432220392
 40
1.0
 40
1.0
 40
1.0
 40
1.0
 10
76.0170491653
 20
155.9698941726
 30
0.0
 10
77.2098024867
 20
155.4881760965
 30
0.0
 10
82.0791588203
 20
153.4224034927
 30
0.0
 10
86.8075570285
 20
151.0288646488
 30
0.0
 10
90.2969292546
 20
149.0682633771
 30
0.0
  0
SPLINE
  5
68B
100
AcDbEntity
  8
0
100
AcDbSpline
 62
7
  6
CONTINUOUS
 70
0
 71
3
 72
11
 73
7
 74
0
 42
0.0000001
 43
0.0000001
 44
0.0000000001
 40
0.0
 40
0.0
 40
0.0
 40
0.0
 40
0.2899536561
 40
0.5497496891
 40
0.7830059928
 40
1.0
 40
1.0
 40
1.0
 40
1.0
 10
88.7835017691
 20
147.9043957948
 30
0.0
 10
88.7077980285
 20
147.8606884807
 30
0.0
 10
88.5702247993
 20
147.7664468727
 30
0.0
 10
88.4044947575
 20
147.5956092244
 30
0.0
 10
88.2973212361
 20
147.4071489809
 30
0.0
 10
88.269297472
 20
147.2713718961
 30
0.0
 10
88.2672713713
 20
147.2059840817
 30
0.0
  0
SPLINE
  5
68C
100
AcDbEntity
  8
0
100
AcDbSpline
 62
7
  6
CONTINUOUS
 70
0
 71
3
 72
9
 73
5
 74
0
 42
0.0000001
 43
0.0000001
 44
0.0000000001
 40
0.0
 40
0.0
 40
0.0
 40
0.0
 40
0.2568323556
 40
1.0
 40
1.0
 40
1.0
 40
1.0
 10
90.2969292546
 20
149.5582085549
 30
0.0
 10
89.1138062214
 20
150.2230524592
 30
0.0
 10
84.4696357842
 20
152.7437748134
 30
0.0
 10
79.6722205052
 20
154.9858426643
 30
0.0
 10
76.0321090676
 20
156.4591762205
 30
0.0
  0
SPLINE
  5
68D
100
AcDbEntity
  8
0
100
AcDbSpline
 62
7
  6
CONTINUOUS
 70
0
 71
3
 72
11
 73
7
 74
0
 42
0.0000001
 43
0.0000001
 44
0.0000000001
 40
0.0
 40
0.0
 40
0.0
 40
0.0
 40
0.2177833598
 40
0.4509104088
 40
0.7102966711
 40
1.0
 40
1.0
 40
1.0
 40
1.0
 10
48.4606980318
 20
158.7502524504
 30
0.0
 10
48.3947248471
 20
158.71216303
 30
0.0
 10
48.2712917302
 20
158.6083930548
 30
0.0
 10
48.139882548
 20
158.3935330584
 30
0.0
 10
48.0618332216
 20
158.1287456642
 30
0.0
 10
48.0464691148
 20
157.9360254986
 30
0.0
 10
48.0464691148
 20
157.8346892098
 30
0.0
  0
SPLINE
  5
68E
100
AcDbEntity
  8
0
100
AcDbSpline
 62
7
  6
CONTINUOUS
 70
0
 71
3
 72
11
 73
7
 74
0
 42
0.0000001
 43
0.0000001
 44
0.0000000001
 40
0.0
 40
0.0
 40
0.0
 40
0.0
 40
0.2177843137
 40
0.4509117637
 40
0.7102976701
 40
1.0
 40
1.0
 40
1.0
 40
1.0
 10
69.2495508459
 20
170.7526305742
 30
0.0
 10
69.3155225737
 20
170.7907191125
 30
0.0
 10
69.4671028748
 20
170.8457288452
 30
0.0
 10
69.7188751719
 20
170.8521036712
 30
0.0
 10
69.987205435
 20
170.7873066962
 30
0.0
 10
70.1617837311
 20
170.7042564144
 30
0.0
 10
70.2495413792
 20
170.6535906589
 30
0.0
  0
SPLINE
  5
68F
100
AcDbEntity
  8
0
100
AcDbSpline
 62
7
  6
CONTINUOUS
 70
0
 71
3
 72
12
 73
8
 74
0
 42
0.0000001
 43
0.0000001
 44
0.0000000001
 40
0.0
 40
0.0
 40
0.0
 40
0.0
 40
0.2843610286
 40
0.5416832077
 40
0.7768531226
 40
0.8892571451
 40
1.0
 40
1.0
 40
1.0
 40
1.0
 10
147.7038479015
 20
96.1954556093
 30
0.0
 10
147.6663199241
 20
95.7218153922
 30
0.0
 10
147.5239193979
 20
94.8221836614
 30
0.0
 10
147.0677856212
 20
93.59642781
 30
0.0
 10
146.4870761429
 20
92.7526766992
 30
0.0
 10
145.9246658847
 20
92.2294236266
 30
0.0
 10
145.6154298064
 20
92.0180822835
 30
0.0
 10
145.455186792
 20
91.9255619316
 30
0.0
  0
SPLINE
  5
690
100
AcDbEntity
  8
0
100
AcDbSpline
 62
7
  6
CONTINUOUS
 70
0
 71
3
 72
9
 73
5
 74
0
 42
0.0000001
 43
0.0000001
 44
0.0000000001
 40
0.0
 40
0.0
 40
0.0
 40
0.0
 40
0.2559303704
 40
1.0
 40
1.0
 40
1.0
 40
1.0
 10
147.4712175847
 20
100.3575265104
 30
0.0
 10
147.5114929937
 20
100.0523721677
 30
0.0
 10
147.6532800606
 20
98.8580691904
 30
0.0
 10
147.731515512
 20
97.6559464811
 30
0.0
 10
147.7487578343
 20
96.761239658
 30
0.0
  0
SPLINE
  5
691
100
AcDbEntity
  8
0
100
AcDbSpline
 62
7
  6
CONTINUOUS
 70
0
 71
3
 72
9
 73
5
 74
0
 42
0.0000001
 43
0.0000001
 44
0.0000000001
 40
0.0
 40
0.0
 40
0.0
 40
0.0
 40
0.2487799678
 40
1.0
 40
1.0
 40
1.0
 40
1.0
 10
36.379400055
 20
94.2696093869
 30
0.0
 10
37.1130320353
 20
93.8978275518
 30
0.0
 10
40.057648157
 20
92.3949297978
 30
0.0
 10
42.9850575945
 20
90.8583327814
 30
0.0
 10
45.17432726
 20
89.6857662984
 30
0.0
  0
SPLINE
  5
692
100
AcDbEntity
  8
0
100
AcDbSpline
 62
7
  6
CONTINUOUS
 70
0
 71
3
 72
15
 73
11
 74
0
 42
0.0000001
 43
0.0000001
 44
0.0000000001
 40
0.0
 40
0.0
 40
0.0
 40
0.0
 40
0.1186618419
 40
0.2453145856
 40
0.377127876
 40
0.5108421494
 40
0.6430481485
 40
0.770454872
 40
0.8901674144
 40
1.0
 40
1.0
 40
1.0
 40
1.0
 10
19.1001217218
 20
111.656503178
 30
0.0
 10
19.1462704411
 20
111.0207739203
 30
0.0
 10
19.3477706143
 20
109.7130318225
 30
0.0
 10
19.918801729
 20
107.7643930095
 30
0.0
 10
20.7490583936
 20
105.823054826
 30
0.0
 10
21.8074876185
 20
103.962061939
 30
0.0
 10
23.0544701182
 20
102.2508136848
 30
0.0
 10
24.4437968575
 20
100.7530728686
 30
0.0
 10
25.9234070757
 20
99.5248081026
 30
0.0
 10
26.9857727766
 20
98.8853096006
 30
0.0
 10
27.5181484341
 20
98.6310525895
 30
0.0
  0
SPLINE
  5
693
100
AcDbEntity
  8
0
100
AcDbSpline
 62
7
  6
CONTINUOUS
 70
0
 71
3
 72
9
 73
5
 74
0
 42
0.0000001
 43
0.0000001
 44
0.0000000001
 40
0.0
 40
0.0
 40
0.0
 40
0.0
 40
0.2429058384
 40
1.0
 40
1.0
 40
1.0
 40
1.0
 10
19.3327524026
 20
115.5499641402
 30
0.0
 10
19.2917787873
 20
115.2868309831
 30
0.0
 10
19.1430005921
 20
114.2005013625
 30
0.0
 10
19.0715684108
 20
113.1040048933
 30
0.0
 10
19.0552117891
 20
112.2741435764
 30
0.0
  0
SPLINE
  5
694
100
AcDbEntity
  8
0
100
AcDbSpline
 62
7
  6
CONTINUOUS
 70
0
 71
3
 72
11
 73
7
 74
0
 42
0.0000001
 43
0.0000001
 44
0.0000000001
 40
0.0
 40
0.0
 40
0.0
 40
0.0
 40
0.230892016
 40
0.4733913204
 40
0.7293889475
 40
1.0
 40
1.0
 40
1.0
 40
1.0
 10
24.0756908374
 20
127.5059665999
 30
0.0
 10
23.4679823154
 20
126.7123331339
 30
0.0
 10
22.3465790865
 20
124.9867458228
 30
0.0
 10
21.0033469359
 20
122.1195781424
 30
0.0
 10
19.9732102351
 20
118.9453695997
 30
0.0
 10
19.5130048828
 20
116.7075483717
 30
0.0
 10
19.3327524026
 20
115.5499641402
 30
0.0
  0
SPLINE
  5
695
100
AcDbEntity
  8
0
100
AcDbSpline
 62
7
  6
CONTINUOUS
 70
0
 71
3
 72
9
 73
5
 74
0
 42
0.0000001
 43
0.0000001
 44
0.0000000001
 40
0.0
 40
0.0
 40
0.0
 40
0.0
 40
0.4933597125
 40
1.0
 40
1.0
 40
1.0
 40
1.0
 10
34.9651806047
 20
133.5442667587
 30
0.0
 10
34.5085210276
 20
133.1762166097
 30
0.0
 10
33.6355550729
 20
132.3627422972
 30
0.0
 10
32.8820612312
 20
131.4382438625
 30
0.0
 10
32.5316033502
 20
130.9483996126
 30
0.0
  0
SPLINE
  5
696
100
AcDbEntity
  8
0
100
AcDbSpline
 62
7
  6
CONTINUOUS
 70
0
 71
3
 72
14
 73
10
 74
0
 42
0.0000001
 43
0.0000001
 44
0.0000000001
 40
0.0
 40
0.0
 40
0.0
 40
0.0
 40
0.2938492909
 40
0.42847443
 40
0.5549027504
 40
0.6738373211
 40
0.7864453625
 40
0.8944427206
 40
1.0
 40
1.0
 40
1.0
 40
1.0
 10
88.3743449099
 20
63.496506022
 30
0.0
 10
88.9072793729
 20
63.1356641228
 30
0.0
 10
89.7312177756
 20
62.6699211576
 30
0.0
 10
90.8754155351
 20
62.253508357
 30
0.0
 10
91.68877831
 20
62.0659923598
 30
0.0
 10
92.4726055239
 20
61.9969809769
 30
0.0
 10
93.217947574
 20
62.0484455924
 30
0.0
 10
93.9150533138
 20
62.2206725394
 30
0.0
 10
94.343490195
 20
62.4163805793
 30
0.0
 10
94.543710515
 20
62.5319828484
 30
0.0
  0
SPLINE
  5
697
100
AcDbEntity
  8
0
100
AcDbSpline
 62
7
  6
CONTINUOUS
 70
0
 71
3
 72
9
 73
5
 74
0
 42
0.0000001
 43
0.0000001
 44
0.0000000001
 40
0.0
 40
0.0
 40
0.0
 40
0.0
 40
0.255930371
 40
1.0
 40
1.0
 40
1.0
 40
1.0
 10
97.9739489797
 20
71.7804357398
 30
0.0
 10
98.0142243919
 20
71.4752813726
 30
0.0
 10
98.1560114693
 20
70.2809783022
 30
0.0
 10
98.2342469141
 20
69.0788554984
 30
0.0
 10
98.2514892335
 20
68.1841486062
 30
0.0
  0
SPLINE
  5
698
100
AcDbEntity
  8
0
100
AcDbSpline
 62
7
  6
CONTINUOUS
 70
0
 71
3
 72
9
 73
5
 74
0
 42
0.0000001
 43
0.0000001
 44
0.0000000001
 40
0.0
 40
0.0
 40
0.0
 40
0.0
 40
0.2549155301
 40
1.0
 40
1.0
 40
1.0
 40
1.0
 10
96.7652983847
 20
78.2686594736
 30
0.0
 10
96.8955759519
 20
77.7230593287
 30
0.0
 10
97.3805303153
 20
75.5766387461
 30
0.0
 10
97.7594157194
 20
73.4058880375
 30
0.0
 10
97.9739489797
 20
71.7804357398
 30
0.0
  0
SPLINE
  5
699
100
AcDbEntity
  8
0
100
AcDbSpline
 62
7
  6
CONTINUOUS
 70
0
 71
3
 72
9
 73
5
 74
0
 42
0.0000001
 43
0.0000001
 44
0.0000000001
 40
0.0
 40
0.0
 40
0.0
 40
0.0
 40
0.2528987384
 40
1.0
 40
1.0
 40
1.0
 40
1.0
 10
93.231010181
 20
89.2129906248
 30
0.0
 10
93.4659931317
 20
88.6347871838
 30
0.0
 10
94.3689814612
 20
86.3379624062
 30
0.0
 10
95.166355365
 20
83.9993960603
 30
0.0
 10
95.6963738106
 20
82.2334493131
 30
0.0
  0
SPLINE
  5
69A
100
AcDbEntity
  8
0
100
AcDbSpline
 62
7
  6
CONTINUOUS
 70
0
 71
3
 72
9
 73
5
 74
0
 42
0.0000001
 43
0.0000001
 44
0.0000000001
 40
0.0
 40
0.0
 40
0.0
 40
0.0
 40
0.2516934888
 40
1.0
 40
1.0
 40
1.0
 40
1.0
 10
107.0901547162
 20
122.1136514082
 30
0.0
 10
107.3161905887
 20
121.6704773031
 30
0.0
 10
108.1929634982
 20
119.898947376
 30
0.0
 10
108.9841792016
 20
118.0849498215
 30
0.0
 10
109.5237319707
 20
116.7077948665
 30
0.0
  0
SPLINE
  5
69B
100
AcDbEntity
  8
0
100
AcDbSpline
 62
7
  6
CONTINUOUS
 70
0
 71
3
 72
9
 73
5
 74
0
 42
0.0000001
 43
0.0000001
 44
0.0000000001
 40
0.0
 40
0.0
 40
0.0
 40
0.0
 40
0.2485324319
 40
1.0
 40
1.0
 40
1.0
 40
1.0
 10
62.542230256
 20
149.4657887597
 30
0.0
 10
62.4467324096
 20
149.3888211489
 30
0.0
 10
62.0671374995
 20
149.0733976307
 30
0.0
 10
61.7064137019
 20
148.7353192513
 30
0.0
 10
61.4470037866
 20
148.4702880336
 30
0.0
  0
SPLINE
  5
69C
100
AcDbEntity
  8
0
100
AcDbSpline
 62
7
  6
CONTINUOUS
 70
0
 71
3
 72
8
 73
4
 74
0
 42
0.0000001
 43
0.0000001
 44
0.0000000001
 40
0.0
 40
0.0
 40
0.0
 40
0.0
 40
1.0
 40
1.0
 40
1.0
 40
1.0
 10
85.0759242737
 20
67.028992207
 30
0.0
 10
85.3431416616
 20
66.8519044201
 30
0.0
 10
85.6101967587
 20
66.6745715013
 30
0.0
 10
85.8770894026
 20
66.4969946635
 30
0.0
  0
SPLINE
  5
69D
100
AcDbEntity
  8
0
100
AcDbSpline
 62
7
  6
CONTINUOUS
 70
0
 71
3
 72
9
 73
5
 74
0
 42
0.0000001
 43
0.0000001
 44
0.0000000001
 40
0.0
 40
0.0
 40
0.0
 40
0.0
 40
0.2516934888
 40
1.0
 40
1.0
 40
1.0
 40
1.0
 10
84.4628319253
 20
109.0498384843
 30
0.0
 10
84.6888677979
 20
108.6066643792
 30
0.0
 10
85.5656407073
 20
106.8351344521
 30
0.0
 10
86.3568564108
 20
105.0211368976
 30
0.0
 10
86.8964091798
 20
103.6439819426
 30
0.0
  0
SPLINE
  5
69E
100
AcDbEntity
  8
0
100
AcDbSpline
 62
7
  6
CONTINUOUS
 70
0
 71
3
 72
9
 73
5
 74
0
 42
0.0000001
 43
0.0000001
 44
0.0000000001
 40
0.0
 40
0.0
 40
0.0
 40
0.0
 40
0.2516934888
 40
1.0
 40
1.0
 40
1.0
 40
1.0
 10
87.2912472742
 20
110.6828150998
 30
0.0
 10
87.5172831467
 20
110.2396409947
 30
0.0
 10
88.3940560562
 20
108.4681110676
 30
0.0
 10
89.1852717597
 20
106.6541135131
 30
0.0
 10
89.7248245287
 20
105.2769585581
 30
0.0
  0
SPLINE
  5
69F
100
AcDbEntity
  8
0
100
AcDbSpline
 62
7
  6
CONTINUOUS
 70
0
 71
3
 72
9
 73
5
 74
0
 42
0.0000001
 43
0.0000001
 44
0.0000000001
 40
0.0
 40
0.0
 40
0.0
 40
0.0
 40
0.2516934888
 40
1.0
 40
1.0
 40
1.0
 40
1.0
 10
90.1196626231
 20
112.3157917152
 30
0.0
 10
90.3456984956
 20
111.8726176102
 30
0.0
 10
91.222471405
 20
110.101087683
 30
0.0
 10
92.0136871085
 20
108.2870901286
 30
0.0
 10
92.5532398776
 20
106.9099351736
 30
0.0
  0
SPLINE
  5
6A0
100
AcDbEntity
  8
0
100
AcDbSpline
 62
7
  6
CONTINUOUS
 70
0
 71
3
 72
9
 73
5
 74
0
 42
0.0000001
 43
0.0000001
 44
0.0000000001
 40
0.0
 40
0.0
 40
0.0
 40
0.0
 40
0.2516934888
 40
1.0
 40
1.0
 40
1.0
 40
1.0
 10
92.9480779719
 20
113.9487683307
 30
0.0
 10
93.1741138444
 20
113.5055942257
 30
0.0
 10
94.0508867539
 20
111.7340642985
 30
0.0
 10
94.8421024574
 20
109.9200667441
 30
0.0
 10
95.3816552264
 20
108.542911789
 30
0.0
  0
SPLINE
  5
6A1
100
AcDbEntity
  8
0
100
AcDbSpline
 62
7
  6
CONTINUOUS
 70
0
 71
3
 72
9
 73
5
 74
0
 42
0.0000001
 43
0.0000001
 44
0.0000000001
 40
0.0
 40
0.0
 40
0.0
 40
0.0
 40
0.2516934888
 40
1.0
 40
1.0
 40
1.0
 40
1.0
 10
95.7764933208
 20
115.5817449462
 30
0.0
 10
96.0025291933
 20
115.1385708411
 30
0.0
 10
96.8793021028
 20
113.367040914
 30
0.0
 10
97.6705178062
 20
111.5530433596
 30
0.0
 10
98.2100705753
 20
110.1758884045
 30
0.0
  0
SPLINE
  5
6A2
100
AcDbEntity
  8
0
100
AcDbSpline
 62
7
  6
CONTINUOUS
 70
0
 71
3
 72
9
 73
5
 74
0
 42
0.0000001
 43
0.0000001
 44
0.0000000001
 40
0.0
 40
0.0
 40
0.0
 40
0.0
 40
0.2516934888
 40
1.0
 40
1.0
 40
1.0
 40
1.0
 10
98.6049086696
 20
117.2147215617
 30
0.0
 10
98.8309445421
 20
116.7715474566
 30
0.0
 10
99.7077174516
 20
115.0000175295
 30
0.0
 10
100.4989331551
 20
113.1860199751
 30
0.0
 10
101.0384859241
 20
111.80886502
 30
0.0
  0
SPLINE
  5
6A3
100
AcDbEntity
  8
0
100
AcDbSpline
 62
7
  6
CONTINUOUS
 70
0
 71
3
 72
9
 73
5
 74
0
 42
0.0000001
 43
0.0000001
 44
0.0000000001
 40
0.0
 40
0.0
 40
0.0
 40
0.0
 40
0.2516934888
 40
1.0
 40
1.0
 40
1.0
 40
1.0
 10
101.4333240185
 20
118.8476981772
 30
0.0
 10
101.659359891
 20
118.4045240721
 30
0.0
 10
102.5361328005
 20
116.632994145
 30
0.0
 10
103.3273485039
 20
114.8189965906
 30
0.0
 10
103.866901273
 20
113.4418416355
 30
0.0
  0
SPLINE
  5
6A4
100
AcDbEntity
  8
0
100
AcDbSpline
 62
7
  6
CONTINUOUS
 70
0
 71
3
 72
9
 73
5
 74
0
 42
0.0000001
 43
0.0000001
 44
0.0000000001
 40
0.0
 40
0.0
 40
0.0
 40
0.0
 40
0.2485324319
 40
1.0
 40
1.0
 40
1.0
 40
1.0
 10
59.7138149072
 20
147.8328121442
 30
0.0
 10
59.6183170608
 20
147.7558445334
 30
0.0
 10
59.2387221507
 20
147.4404210153
 30
0.0
 10
58.8779983531
 20
147.1023426358
 30
0.0
 10
58.6185884377
 20
146.8373114182
 30
0.0
  0
SPLINE
  5
6A5
100
AcDbEntity
  8
0
100
AcDbSpline
 62
7
  6
CONTINUOUS
 70
0
 71
3
 72
9
 73
5
 74
0
 42
0.0000001
 43
0.0000001
 44
0.0000000001
 40
0.0
 40
0.0
 40
0.0
 40
0.0
 40
0.2516934888
 40
1.0
 40
1.0
 40
1.0
 40
1.0
 10
104.2617393673
 20
120.4806747927
 30
0.0
 10
104.4877752398
 20
120.0375006876
 30
0.0
 10
105.3645481493
 20
118.2659707605
 30
0.0
 10
106.1557638528
 20
116.451973206
 30
0.0
 10
106.6953166218
 20
115.074818251
 30
0.0
  0
SPLINE
  5
6A6
100
AcDbEntity
  8
0
100
AcDbSpline
 62
7
  6
CONTINUOUS
 70
0
 71
3
 72
9
 73
5
 74
0
 42
0.0000001
 43
0.0000001
 44
0.0000000001
 40
0.0
 40
0.0
 40
0.0
 40
0.0
 40
0.2485324319
 40
1.0
 40
1.0
 40
1.0
 40
1.0
 10
56.8853995583
 20
146.1998355288
 30
0.0
 10
56.7899017119
 20
146.1228679179
 30
0.0
 10
56.4103068018
 20
145.8074443998
 30
0.0
 10
56.0495830042
 20
145.4693660204
 30
0.0
 10
55.7901730888
 20
145.2043348027
 30
0.0
  0
SPLINE
  5
6A7
100
AcDbEntity
  8
0
100
AcDbSpline
 62
7
  6
CONTINUOUS
 70
0
 71
3
 72
11
 73
7
 74
0
 42
0.0000001
 43
0.0000001
 44
0.0000000001
 40
0.0
 40
0.0
 40
0.0
 40
0.0
 40
0.237239768
 40
0.4999988393
 40
0.7627585384
 40
1.0
 40
1.0
 40
1.0
 40
1.0
 10
145.2031722445
 20
127.3800706799
 30
0.0
 10
145.4039515649
 20
127.2641533076
 30
0.0
 10
145.7838991121
 20
126.9443794215
 30
0.0
 10
146.2273495363
 20
126.3383909869
 30
0.0
 10
146.5304295527
 20
125.6513573189
 30
0.0
 10
146.6173916948
 20
125.1624246697
 30
0.0
 10
146.6173916948
 20
124.9305843366
 30
0.0
  0
SPLINE
  5
6A8
100
AcDbEntity
  8
0
100
AcDbSpline
 62
7
  6
CONTINUOUS
 70
0
 71
3
 72
9
 73
5
 74
0
 42
0.0000001
 43
0.0000001
 44
0.0000000001
 40
0.0
 40
0.0
 40
0.0
 40
0.0
 40
0.2485324319
 40
1.0
 40
1.0
 40
1.0
 40
1.0
 10
54.0569842095
 20
144.5668589133
 30
0.0
 10
53.9614863631
 20
144.4898913024
 30
0.0
 10
53.581891453
 20
144.1744677843
 30
0.0
 10
53.2211676553
 20
143.8363894049
 30
0.0
 10
52.96175774
 20
143.5713581872
 30
0.0
  0
SPLINE
  5
6A9
100
AcDbEntity
  8
0
100
AcDbSpline
 62
7
  6
CONTINUOUS
 70
0
 71
3
 72
9
 73
5
 74
0
 42
0.0000001
 43
0.0000001
 44
0.0000000001
 40
0.0
 40
0.0
 40
0.0
 40
0.0
 40
0.2485324319
 40
1.0
 40
1.0
 40
1.0
 40
1.0
 10
51.2285688606
 20
142.9338822978
 30
0.0
 10
51.1330710142
 20
142.856914687
 30
0.0
 10
50.7534761041
 20
142.5414911688
 30
0.0
 10
50.3927523065
 20
142.2034127894
 30
0.0
 10
50.1333423911
 20
141.9383815717
 30
0.0
  0
SPLINE
  5
6AA
100
AcDbEntity
  8
0
100
AcDbSpline
 62
7
  6
CONTINUOUS
 70
0
 71
3
 72
9
 73
5
 74
0
 42
0.0000001
 43
0.0000001
 44
0.0000000001
 40
0.0
 40
0.0
 40
0.0
 40
0.0
 40
0.2485324319
 40
1.0
 40
1.0
 40
1.0
 40
1.0
 10
48.4001535118
 20
141.3009056823
 30
0.0
 10
48.3046556653
 20
141.2239380715
 30
0.0
 10
47.9250607552
 20
140.9085145533
 30
0.0
 10
47.5643369576
 20
140.5704361739
 30
0.0
 10
47.3049270423
 20
140.3054049562
 30
0.0
  0
SPLINE
  5
6AB
100
AcDbEntity
  8
0
100
AcDbSpline
 62
7
  6
CONTINUOUS
 70
0
 71
3
 72
9
 73
5
 74
0
 42
0.0000001
 43
0.0000001
 44
0.0000000001
 40
0.0
 40
0.0
 40
0.0
 40
0.0
 40
0.2485324319
 40
1.0
 40
1.0
 40
1.0
 40
1.0
 10
39.9149074652
 20
136.4019758358
 30
0.0
 10
39.8194096188
 20
136.325008225
 30
0.0
 10
39.4398147087
 20
136.0095847069
 30
0.0
 10
39.0790909111
 20
135.6715063274
 30
0.0
 10
38.8196809957
 20
135.4064751098
 30
0.0
  0
SPLINE
  5
6AC
100
AcDbEntity
  8
0
100
AcDbSpline
 62
7
  6
CONTINUOUS
 70
0
 71
3
 72
9
 73
5
 74
0
 42
0.0000001
 43
0.0000001
 44
0.0000000001
 40
0.0
 40
0.0
 40
0.0
 40
0.0
 40
0.2485324319
 40
1.0
 40
1.0
 40
1.0
 40
1.0
 10
45.5717381629
 20
139.6679290668
 30
0.0
 10
45.4762403165
 20
139.590961456
 30
0.0
 10
45.0966454064
 20
139.2755379378
 30
0.0
 10
44.7359216088
 20
138.9374595584
 30
0.0
 10
44.4765116934
 20
138.6724283407
 30
0.0
  0
SPLINE
  5
6AD
100
AcDbEntity
  8
0
100
AcDbSpline
 62
7
  6
CONTINUOUS
 70
0
 71
3
 72
9
 73
5
 74
0
 42
0.0000001
 43
0.0000001
 44
0.0000000001
 40
0.0
 40
0.0
 40
0.0
 40
0.0
 40
0.2485324319
 40
1.0
 40
1.0
 40
1.0
 40
1.0
 10
42.7433228141
 20
138.0349524513
 30
0.0
 10
42.6478249676
 20
137.9579848405
 30
0.0
 10
42.2682300575
 20
137.6425613223
 30
0.0
 10
41.9075062599
 20
137.3044829429
 30
0.0
 10
41.6480963446
 20
137.0394517252
 30
0.0
  0
SPLINE
  5
6AE
100
AcDbEntity
  8
0
100
AcDbSpline
 62
7
  6
CONTINUOUS
 70
0
 71
3
 72
9
 73
5
 74
0
 42
0.0000001
 43
0.0000001
 44
0.0000000001
 40
0.0
 40
0.0
 40
0.0
 40
0.0
 40
0.2523306055
 40
1.0
 40
1.0
 40
1.0
 40
1.0
 10
123.273423462
 20
98.1549713141
 30
0.0
 10
123.3727173633
 20
97.8241380317
 30
0.0
 10
123.7570971215
 20
96.5103097226
 30
0.0
 10
124.104646197
 20
95.1856725682
 30
0.0
 10
124.342348036
 20
94.1901814746
 30
0.0
  0
SPLINE
  5
6AF
100
AcDbEntity
  8
0
100
AcDbSpline
 62
7
  6
CONTINUOUS
 70
0
 71
3
 72
9
 73
5
 74
0
 42
0.0000001
 43
0.0000001
 44
0.0000000001
 40
0.0
 40
0.0
 40
0.0
 40
0.0
 40
0.2516934888
 40
1.0
 40
1.0
 40
1.0
 40
1.0
 10
109.918570065
 20
123.7466280236
 30
0.0
 10
110.1446059376
 20
123.3034539186
 30
0.0
 10
111.021378847
 20
121.5319239914
 30
0.0
 10
111.8125945505
 20
119.717926437
 30
0.0
 10
112.3521473195
 20
118.340771482
 30
0.0
  0
SPLINE
  5
6B0
100
AcDbEntity
  8
0
100
AcDbSpline
 62
7
  6
CONTINUOUS
 70
0
 71
3
 72
11
 73
7
 74
0
 42
0.0000001
 43
0.0000001
 44
0.0000000001
 40
0.0
 40
0.0
 40
0.0
 40
0.0
 40
0.2372413576
 40
0.5000010231
 40
0.762760128
 40
1.0
 40
1.0
 40
1.0
 40
1.0
 10
125.8285388807
 20
112.9282062128
 30
0.0
 10
125.8285388807
 20
113.1600464442
 30
0.0
 10
125.7415768008
 20
113.6489789595
 30
0.0
 10
125.4384968939
 20
114.3360125658
 30
0.0
 10
124.9950464709
 20
114.9420011261
 30
0.0
 10
124.6150988388
 20
115.261775133
 30
0.0
 10
124.4143194304
 20
115.3776925561
 30
0.0
  0
SPLINE
  5
6B1
100
AcDbEntity
  8
0
100
AcDbSpline
 62
7
  6
CONTINUOUS
 70
0
 71
3
 72
9
 73
5
 74
0
 42
0.0000001
 43
0.0000001
 44
0.0000000001
 40
0.0
 40
0.0
 40
0.0
 40
0.0
 40
0.2480924003
 40
1.0
 40
1.0
 40
1.0
 40
1.0
 10
83.3608899938
 20
101.6027611732
 30
0.0
 10
83.1820071028
 20
102.0593420191
 30
0.0
 10
82.4378092458
 20
103.8905609841
 30
0.0
 10
81.6025723972
 20
105.6846792122
 30
0.0
 10
80.9273127393
 20
107.0086177149
 30
0.0
  0
SPLINE
  5
6B2
100
AcDbEntity
  8
0
100
AcDbSpline
 62
7
  6
CONTINUOUS
 70
0
 71
3
 72
9
 73
5
 74
0
 42
0.0000001
 43
0.0000001
 44
0.0000000001
 40
0.0
 40
0.0
 40
0.0
 40
0.0
 40
0.4862509094
 40
1.0
 40
1.0
 40
1.0
 40
1.0
 10
96.5597413053
 20
70.9639474317
 30
0.0
 10
96.1758173771
 20
73.8728205376
 30
0.0
 10
94.942710218
 20
79.800934561
 30
0.0
 10
92.983955871
 20
85.5245829313
 30
0.0
 10
91.8168025065
 20
88.396502317
 30
0.0
  0
SPLINE
  5
6B3
100
AcDbEntity
  8
0
100
AcDbSpline
 62
7
  6
CONTINUOUS
 70
0
 71
3
 72
9
 73
5
 74
0
 42
0.0000001
 43
0.0000001
 44
0.0000000001
 40
0.0
 40
0.0
 40
0.0
 40
0.0
 40
0.2440475463
 40
1.0
 40
1.0
 40
1.0
 40
1.0
 10
96.8372815549
 20
67.3676605792
 30
0.0
 10
96.831626191
 20
67.6611183768
 30
0.0
 10
96.7903460506
 20
68.8631948937
 30
0.0
 10
96.678705605
 20
70.0625916515
 30
0.0
 10
96.5597413053
 20
70.9639474317
 30
0.0
  0
SPLINE
  5
6B4
100
AcDbEntity
  8
0
100
AcDbSpline
 62
7
  6
CONTINUOUS
 70
0
 71
3
 72
9
 73
5
 74
0
 42
0.0000001
 43
0.0000001
 44
0.0000000001
 40
0.0
 40
0.0
 40
0.0
 40
0.0
 40
0.251769537
 40
1.0
 40
1.0
 40
1.0
 40
1.0
 10
107.4907079288
 20
122.3687838586
 30
0.0
 10
107.7052518502
 20
121.9452971307
 30
0.0
 10
108.5368309803
 20
120.2529320631
 30
0.0
 10
109.2857432638
 20
118.5198215269
 30
0.0
 10
109.7952616737
 20
117.2041907834
 30
0.0
  0
SPLINE
  5
6B5
100
AcDbEntity
  8
0
100
AcDbSpline
 62
7
  6
CONTINUOUS
 70
0
 71
3
 72
9
 73
5
 74
0
 42
0.0000001
 43
0.0000001
 44
0.0000000001
 40
0.0
 40
0.0
 40
0.0
 40
0.0
 40
0.2480924003
 40
1.0
 40
1.0
 40
1.0
 40
1.0
 10
110.9379396451
 20
117.5242831742
 30
0.0
 10
110.7590567541
 20
117.9808640201
 30
0.0
 10
110.0148588971
 20
119.8120829851
 30
0.0
 10
109.1796220486
 20
121.6062012132
 30
0.0
 10
108.5043623906
 20
122.9301397159
 30
0.0
  0
SPLINE
  5
6B6
100
AcDbEntity
  8
0
100
AcDbSpline
 62
7
  6
CONTINUOUS
 70
0
 71
3
 72
12
 73
8
 74
0
 42
0.0000001
 43
0.0000001
 44
0.0000000001
 40
0.0
 40
0.0
 40
0.0
 40
0.0
 40
0.1107428604
 40
0.2231468857
 40
0.4583168096
 40
0.715638975
 40
1.0
 40
1.0
 40
1.0
 40
1.0
 10
94.543710515
 20
62.5319828484
 30
0.0
 10
94.7039535342
 20
62.624503211
 30
0.0
 10
95.0131896173
 20
62.8358445694
 30
0.0
 10
95.5755999282
 20
63.3590976317
 30
0.0
 10
96.1563093556
 20
64.2028487821
 30
0.0
 10
96.6124431491
 20
65.4286046078
 30
0.0
 10
96.7548436452
 20
66.3282363188
 30
0.0
 10
96.7923716221
 20
66.8018765307
 30
0.0
  0
SPLINE
  5
6B7
100
AcDbEntity
  8
0
100
AcDbSpline
 62
7
  6
CONTINUOUS
 70
0
 71
3
 72
11
 73
7
 74
0
 42
0.0000001
 43
0.0000001
 44
0.0000000001
 40
0.0
 40
0.0
 40
0.0
 40
0.0
 40
0.289702329
 40
0.5490881649
 40
0.7822156415
 40
1.0
 40
1.0
 40
1.0
 40
1.0
 10
49.4606885651
 20
158.6512125351
 30
0.0
 10
49.372930917
 20
158.7018782906
 30
0.0
 10
49.1983526569
 20
158.7849285915
 30
0.0
 10
48.9300223973
 20
158.8497255416
 30
0.0
 10
48.6782501136
 20
158.8433507131
 30
0.0
 10
48.5266697557
 20
158.7883410274
 30
0.0
 10
48.4606980318
 20
158.7502524504
 30
0.0
  0
SPLINE
  5
6B8
100
AcDbEntity
  8
0
100
AcDbSpline
 62
7
  6
CONTINUOUS
 70
0
 71
3
 72
13
 73
9
 74
0
 42
0.0000001
 43
0.0000001
 44
0.0000000001
 40
0.0
 40
0.0
 40
0.0
 40
0.0
 40
0.0871398081
 40
0.1868484731
 40
0.3045123423
 40
0.4386460221
 40
0.7300494215
 40
1.0
 40
1.0
 40
1.0
 40
1.0
 10
31.6796181777
 20
102.8189418629
 30
0.0
 10
31.6546367968
 20
102.804537977
 30
0.0
 10
31.5918967664
 20
102.7884219945
 30
0.0
 10
31.4909138077
 20
102.8086563412
 30
0.0
 10
31.3877122859
 20
102.8649799753
 30
0.0
 10
31.2523448124
 20
102.9850303257
 30
0.0
 10
31.1251930988
 20
103.1815797177
 30
0.0
 10
31.0760682845
 20
103.3667364081
 30
0.0
 10
31.0760682845
 20
103.4560689272
 30
0.0
  0
SPLINE
  5
6B9
100
AcDbEntity
  8
0
100
AcDbSpline
 62
7
  6
CONTINUOUS
 70
0
 71
3
 72
9
 73
5
 74
0
 42
0.0000001
 43
0.0000001
 44
0.0000000001
 40
0.0
 40
0.0
 40
0.0
 40
0.0
 40
0.2480924003
 40
1.0
 40
1.0
 40
1.0
 40
1.0
 10
88.3106168543
 20
104.4604702503
 30
0.0
 10
88.1317339633
 20
104.9170510962
 30
0.0
 10
87.3875361063
 20
106.7482700612
 30
0.0
 10
86.5522992577
 20
108.5423882893
 30
0.0
 10
85.8770395998
 20
109.866326792
 30
0.0
  0
SPLINE
  5
6BA
100
AcDbEntity
  8
0
100
AcDbSpline
 62
7
  6
CONTINUOUS
 70
0
 71
3
 72
9
 73
5
 74
0
 42
0.0000001
 43
0.0000001
 44
0.0000000001
 40
0.0
 40
0.0
 40
0.0
 40
0.0
 40
0.251769537
 40
1.0
 40
1.0
 40
1.0
 40
1.0
 10
84.863385138
 20
109.3049709347
 30
0.0
 10
85.0779290594
 20
108.8814842068
 30
0.0
 10
85.9095081895
 20
107.1891191392
 30
0.0
 10
86.6584204729
 20
105.456008603
 30
0.0
 10
87.1679388828
 20
104.1403778595
 30
0.0
  0
SPLINE
  5
6BB
100
AcDbEntity
  8
0
100
AcDbSpline
 62
7
  6
CONTINUOUS
 70
0
 71
3
 72
13
 73
9
 74
0
 42
0.0000001
 43
0.0000001
 44
0.0000000001
 40
0.0
 40
0.0
 40
0.0
 40
0.0
 40
0.0871398081
 40
0.1868484731
 40
0.3045123423
 40
0.4386460221
 40
0.7300494215
 40
1.0
 40
1.0
 40
1.0
 40
1.0
 10
81.177298938
 20
74.2420890465
 30
0.0
 10
81.152317557
 20
74.2276851606
 30
0.0
 10
81.0895775267
 20
74.2115691781
 30
0.0
 10
80.988594568
 20
74.2318035248
 30
0.0
 10
80.8853930462
 20
74.2881271589
 30
0.0
 10
80.7500255727
 20
74.4081775093
 30
0.0
 10
80.6228738591
 20
74.6047269013
 30
0.0
 10
80.5737490448
 20
74.7898835917
 30
0.0
 10
80.5737490448
 20
74.8792161107
 30
0.0
  0
SPLINE
  5
6BC
100
AcDbEntity
  8
0
100
AcDbSpline
 62
7
  6
CONTINUOUS
 70
0
 71
3
 72
9
 73
5
 74
0
 42
0.0000001
 43
0.0000001
 44
0.0000000001
 40
0.0
 40
0.0
 40
0.0
 40
0.0
 40
0.2480924003
 40
1.0
 40
1.0
 40
1.0
 40
1.0
 10
91.1390322031
 20
106.0934468658
 30
0.0
 10
90.9601493121
 20
106.5500277117
 30
0.0
 10
90.2159514551
 20
108.3812466767
 30
0.0
 10
89.3807146066
 20
110.1753649048
 30
0.0
 10
88.7054549486
 20
111.4993034075
 30
0.0
  0
SPLINE
  5
6BD
100
AcDbEntity
  8
0
100
AcDbSpline
 62
7
  6
CONTINUOUS
 70
0
 71
3
 72
9
 73
5
 74
0
 42
0.0000001
 43
0.0000001
 44
0.0000000001
 40
0.0
 40
0.0
 40
0.0
 40
0.0
 40
0.251769537
 40
1.0
 40
1.0
 40
1.0
 40
1.0
 10
87.6918004868
 20
110.9379475502
 30
0.0
 10
87.9063444082
 20
110.5144608223
 30
0.0
 10
88.7379235383
 20
108.8220957547
 30
0.0
 10
89.4868358218
 20
107.0889852185
 30
0.0
 10
89.9963542317
 20
105.773354475
 30
0.0
  0
SPLINE
  5
6BE
100
AcDbEntity
  8
0
100
AcDbSpline
 62
7
  6
CONTINUOUS
 70
0
 71
3
 72
9
 73
5
 74
0
 42
0.0000001
 43
0.0000001
 44
0.0000000001
 40
0.0
 40
0.0
 40
0.0
 40
0.0
 40
0.2480924003
 40
1.0
 40
1.0
 40
1.0
 40
1.0
 10
93.967447552
 20
107.7264234813
 30
0.0
 10
93.788564661
 20
108.1830043272
 30
0.0
 10
93.044366804
 20
110.0142232922
 30
0.0
 10
92.2091299554
 20
111.8083415203
 30
0.0
 10
91.5338702975
 20
113.132280023
 30
0.0
  0
SPLINE
  5
6BF
100
AcDbEntity
  8
0
100
AcDbSpline
 62
7
  6
CONTINUOUS
 70
0
 71
3
 72
9
 73
5
 74
0
 42
0.0000001
 43
0.0000001
 44
0.0000000001
 40
0.0
 40
0.0
 40
0.0
 40
0.0
 40
0.251769537
 40
1.0
 40
1.0
 40
1.0
 40
1.0
 10
90.5202158357
 20
112.5709241656
 30
0.0
 10
90.7347597571
 20
112.1474374378
 30
0.0
 10
91.5663388872
 20
110.4550723702
 30
0.0
 10
92.3152511707
 20
108.721961834
 30
0.0
 10
92.8247695805
 20
107.4063310905
 30
0.0
  0
SPLINE
  5
6C0
100
AcDbEntity
  8
0
100
AcDbSpline
 62
7
  6
CONTINUOUS
 70
0
 71
3
 72
9
 73
5
 74
0
 42
0.0000001
 43
0.0000001
 44
0.0000000001
 40
0.0
 40
0.0
 40
0.0
 40
0.0
 40
0.2480924003
 40
1.0
 40
1.0
 40
1.0
 40
1.0
 10
96.7958629008
 20
109.3594000968
 30
0.0
 10
96.6169800098
 20
109.8159809427
 30
0.0
 10
95.8727821529
 20
111.6471999077
 30
0.0
 10
95.0375453043
 20
113.4413181358
 30
0.0
 10
94.3622856463
 20
114.7652566385
 30
0.0
  0
SPLINE
  5
6C1
100
AcDbEntity
  8
0
100
AcDbSpline
 62
7
  6
CONTINUOUS
 70
0
 71
3
 72
9
 73
5
 74
0
 42
0.0000001
 43
0.0000001
 44
0.0000000001
 40
0.0
 40
0.0
 40
0.0
 40
0.0
 40
0.251769537
 40
1.0
 40
1.0
 40
1.0
 40
1.0
 10
93.3486311846
 20
114.2039007811
 30
0.0
 10
93.563175106
 20
113.7804140532
 30
0.0
 10
94.394754236
 20
112.0880489857
 30
0.0
 10
95.1436665195
 20
110.3549384495
 30
0.0
 10
95.6531849294
 20
109.039307706
 30
0.0
  0
SPLINE
  5
6C2
100
AcDbEntity
  8
0
100
AcDbSpline
 62
7
  6
CONTINUOUS
 70
0
 71
3
 72
9
 73
5
 74
0
 42
0.0000001
 43
0.0000001
 44
0.0000000001
 40
0.0
 40
0.0
 40
0.0
 40
0.0
 40
0.2480924003
 40
1.0
 40
1.0
 40
1.0
 40
1.0
 10
99.6242782497
 20
110.9923767123
 30
0.0
 10
99.4453953587
 20
111.4489575582
 30
0.0
 10
98.7011975017
 20
113.2801765232
 30
0.0
 10
97.8659606532
 20
115.0742947513
 30
0.0
 10
97.1907009952
 20
116.398233254
 30
0.0
  0
SPLINE
  5
6C3
100
AcDbEntity
  8
0
100
AcDbSpline
 62
7
  6
CONTINUOUS
 70
0
 71
3
 72
9
 73
5
 74
0
 42
0.0000001
 43
0.0000001
 44
0.0000000001
 40
0.0
 40
0.0
 40
0.0
 40
0.0
 40
0.251769537
 40
1.0
 40
1.0
 40
1.0
 40
1.0
 10
96.1770465334
 20
115.8368773966
 30
0.0
 10
96.3915904548
 20
115.4133906687
 30
0.0
 10
97.2231695849
 20
113.7210256012
 30
0.0
 10
97.9720818684
 20
111.987915065
 30
0.0
 10
98.4816002783
 20
110.6722843215
 30
0.0
  0
SPLINE
  5
6C4
100
AcDbEntity
  8
0
100
AcDbSpline
 62
7
  6
CONTINUOUS
 70
0
 71
3
 72
9
 73
5
 74
0
 42
0.0000001
 43
0.0000001
 44
0.0000000001
 40
0.0
 40
0.0
 40
0.0
 40
0.0
 40
0.2480924003
 40
1.0
 40
1.0
 40
1.0
 40
1.0
 10
102.4526935985
 20
112.6253533278
 30
0.0
 10
102.2738107076
 20
113.0819341737
 30
0.0
 10
101.5296128506
 20
114.9131531387
 30
0.0
 10
100.694376002
 20
116.7072713667
 30
0.0
 10
100.0191163441
 20
118.0312098694
 30
0.0
  0
SPLINE
  5
6C5
100
AcDbEntity
  8
0
100
AcDbSpline
 62
7
  6
CONTINUOUS
 70
0
 71
3
 72
9
 73
5
 74
0
 42
0.0000001
 43
0.0000001
 44
0.0000000001
 40
0.0
 40
0.0
 40
0.0
 40
0.0
 40
0.251769537
 40
1.0
 40
1.0
 40
1.0
 40
1.0
 10
99.0054618823
 20
117.4698540121
 30
0.0
 10
99.2200058037
 20
117.0463672842
 30
0.0
 10
100.0515849338
 20
115.3540022167
 30
0.0
 10
100.8004972172
 20
113.6208916805
 30
0.0
 10
101.3100156271
 20
112.305260937
 30
0.0
  0
SPLINE
  5
6C6
100
AcDbEntity
  8
0
100
AcDbSpline
 62
7
  6
CONTINUOUS
 70
0
 71
3
 72
9
 73
5
 74
0
 42
0.0000001
 43
0.0000001
 44
0.0000000001
 40
0.0
 40
0.0
 40
0.0
 40
0.0
 40
0.2480924003
 40
1.0
 40
1.0
 40
1.0
 40
1.0
 10
105.2811089474
 20
114.2583299432
 30
0.0
 10
105.1022260564
 20
114.7149107892
 30
0.0
 10
104.3580281994
 20
116.5461297541
 30
0.0
 10
103.5227913509
 20
118.3402479822
 30
0.0
 10
102.8475316929
 20
119.6641864849
 30
0.0
  0
SPLINE
  5
6C7
100
AcDbEntity
  8
0
100
AcDbSpline
 62
7
  6
CONTINUOUS
 70
0
 71
3
 72
9
 73
5
 74
0
 42
0.0000001
 43
0.0000001
 44
0.0000000001
 40
0.0
 40
0.0
 40
0.0
 40
0.0
 40
0.251769537
 40
1.0
 40
1.0
 40
1.0
 40
1.0
 10
101.8338772311
 20
119.1028306276
 30
0.0
 10
102.0484211525
 20
118.6793438997
 30
0.0
 10
102.8800002826
 20
116.9869788322
 30
0.0
 10
103.6289125661
 20
115.253868296
 30
0.0
 10
104.138430976
 20
113.9382375525
 30
0.0
  0
SPLINE
  5
6C8
100
AcDbEntity
  8
0
100
AcDbSpline
 62
7
  6
CONTINUOUS
 70
0
 71
3
 72
9
 73
5
 74
0
 42
0.0000001
 43
0.0000001
 44
0.0000000001
 40
0.0
 40
0.0
 40
0.0
 40
0.0
 40
0.2480924003
 40
1.0
 40
1.0
 40
1.0
 40
1.0
 10
108.1095242963
 20
115.8913065587
 30
0.0
 10
107.9306414053
 20
116.3478874046
 30
0.0
 10
107.1864435483
 20
118.1791063696
 30
0.0
 10
106.3512066997
 20
119.9732245977
 30
0.0
 10
105.6759470418
 20
121.2971631004
 30
0.0
  0
SPLINE
  5
6C9
100
AcDbEntity
  8
0
100
AcDbSpline
 62
7
  6
CONTINUOUS
 70
0
 71
3
 72
9
 73
5
 74
0
 42
0.0000001
 43
0.0000001
 44
0.0000000001
 40
0.0
 40
0.0
 40
0.0
 40
0.0
 40
0.251769537
 40
1.0
 40
1.0
 40
1.0
 40
1.0
 10
104.66229258
 20
120.7358072431
 30
0.0
 10
104.8768365014
 20
120.3123205152
 30
0.0
 10
105.7084156315
 20
118.6199554476
 30
0.0
 10
106.4573279149
 20
116.8868449114
 30
0.0
 10
106.9668463248
 20
115.5712141679
 30
0.0
  0
ELLIPSE
  5
6CA
100
AcDbEntity
  8
0
100
AcDbEllipse
 62
7
  6
CONTINUOUS
 10
111.3766680398
 20
86.6732246603
 30
0.0
 11
8.0562432752
 21
-6.9056718091
 31
0.0
 40
0.2183843948
 41
-0.824327925
 42
-0.662429081
  0
ELLIPSE
  5
6CB
100
AcDbEntity
  8
0
100
AcDbEllipse
 62
7
  6
CONTINUOUS
 10
111.3766680398
 20
86.6732246603
 30
0.0
 11
8.0562432752
 21
-6.9056718091
 31
0.0
 40
0.2183843948
 41
0.5089416105
 42
0.6708404544
  0
ELLIPSE
  5
6CC
100
AcDbEntity
  8
0
100
AcDbEllipse
 62
7
  6
CONTINUOUS
 10
114.912187723
 20
88.7144455446
 30
0.0
 11
8.0562432752
 21
-6.9056718091
 31
0.0
 40
0.2183843948
 41
-0.824327925
 42
-0.662429081
  0
ELLIPSE
  5
6CD
100
AcDbEntity
  8
0
100
AcDbEllipse
 62
7
  6
CONTINUOUS
 10
118.4477064813
 20
90.7556667394
 30
0.0
 11
8.0562432752
 21
-6.9056718091
 31
0.0
 40
0.2183843948
 41
-0.8243278178
 42
-0.6624289493
  0
ELLIPSE
  5
6CE
100
AcDbEntity
  8
0
100
AcDbEllipse
 62
7
  6
CONTINUOUS
 10
114.912187723
 20
88.7144455446
 30
0.0
 11
8.0562432752
 21
-6.9056718091
 31
0.0
 40
0.2183843948
 41
0.5089416105
 42
0.6708404544
  0
ELLIPSE
  5
6CF
100
AcDbEntity
  8
0
100
AcDbEllipse
 62
7
  6
CONTINUOUS
 10
118.4477064813
 20
90.7556667394
 30
0.0
 11
8.0562432752
 21
-6.9056718091
 31
0.0
 40
0.2183843948
 41
0.5089414787
 42
0.6708403472
  0
ELLIPSE
  5
6D0
100
AcDbEntity
  8
0
100
AcDbEllipse
 62
7
  6
CONTINUOUS
 10
100.7701100345
 20
80.5495626103
 30
0.0
 11
8.0562432752
 21
-6.9056718091
 31
0.0
 40
0.2183843948
 41
-0.824327925
 42
-0.662429081
  0
ELLIPSE
  5
6D1
100
AcDbEntity
  8
0
100
AcDbEllipse
 62
7
  6
CONTINUOUS
 10
100.7701100345
 20
80.5495626103
 30
0.0
 11
8.0562432752
 21
-6.9056718091
 31
0.0
 40
0.2183843948
 41
0.5089416105
 42
0.6708404544
  0
ELLIPSE
  5
6D2
100
AcDbEntity
  8
0
100
AcDbEllipse
 62
7
  6
CONTINUOUS
 10
104.3056293696
 20
82.5907832936
 30
0.0
 11
8.0562432752
 21
-6.9056718091
 31
0.0
 40
0.2183843948
 41
-0.824327925
 42
-0.662429081
  0
ELLIPSE
  5
6D3
100
AcDbEntity
  8
0
100
AcDbEllipse
 62
7
  6
CONTINUOUS
 10
104.3056293696
 20
82.5907832936
 30
0.0
 11
8.0562432752
 21
-6.9056718091
 31
0.0
 40
0.2183843948
 41
0.5089416105
 42
0.6708404544
  0
ELLIPSE
  5
6D4
100
AcDbEntity
  8
0
100
AcDbEllipse
 62
7
  6
CONTINUOUS
 10
107.8411487047
 20
84.632003977
 30
0.0
 11
8.0562432752
 21
-6.9056718091
 31
0.0
 40
0.2183843948
 41
-0.824327925
 42
-0.662429081
  0
ELLIPSE
  5
6D5
100
AcDbEntity
  8
0
100
AcDbEllipse
 62
7
  6
CONTINUOUS
 10
107.8411487047
 20
84.632003977
 30
0.0
 11
8.0562432752
 21
-6.9056718091
 31
0.0
 40
0.2183843948
 41
0.5089416105
 42
0.6708404544
  0
ENDSEC
  0
SECTION
  2
OBJECTS
  0
DICTIONARY
  5
C
100
AcDbDictionary
280
0
281
1
  3
ACAD_GROUP
350
D
  3
ACAD_MLINESTYLE
350
17
  3
ACAD_LAYOUT
350
1A
  3
ACAD_PLOTSETTINGS
350
19
  3
ACAD_PLOTSTYLENAME
350
E
  0
DICTIONARY
  5
D
102
{ACAD_REACTORS
330
C
102
}
100
AcDbDictionary
280
0
281
1
  0
ACDBDICTIONARYWDFLT
  5
E
102
{ACAD_REACTORS
330
C
102
}
100
AcDbDictionary
281
1
  3
Normal
350
F
100
AcDbDictionaryWithDefault
340
F
  0
DICTIONARY
  5
17
102
{ACAD_REACTORS
330
C
102
}
100
AcDbDictionary
280
0
281
1
  3
Standard
350
18
  0
DICTIONARY
  5
19
102
{ACAD_REACTORS
330
C
102
}
100
AcDbDictionary
281
1
  0
DICTIONARY
  5
1A
102
{ACAD_REACTORS
330
C
102
}
100
AcDbDictionary
281
1
  3
Model
350
6D6
  3
Layout1
350
6D7
  0
ACDBPLACEHOLDER
  5
F
102
{ACAD_REACTORS
330
E
102
}
  0
MLINESTYLE
  5
18
102
{ACAD_REACTORS
330
17
102
}
100
AcDbMlineStyle
  2
STANDARD
 70
0
  3

 62
256
 51
90.0
 52
90.0
 71
2
 49
0.5
 62
256
  6
BYLAYER
 49
-0.5
 62
256
  6
BYLAYER
  0
LAYOUT
  5
6D6
102
{ACAD_REACTORS
330
1A
102
}
100
AcDbPlotSettings
  1

  2
none_device
  4

  6

 40
0.0
 41
0.0
 42
0.0
 43
0.0
 44
210.0
 45
297.0
 46
0.0
 47
0.0
 48
0.0
 49
0.0
140
0.0
141
0.0
142
1.0
143
1.0
 70
1024
 72
1
 73
0
 74
0
  7

 75
0
147
1.0
148
0.0
149
0.0
100
AcDbLayout
  1
Model
 70
0
 71
0
 10
0.0
 20
0.0
 11
210.0
 21
297.0
 12
0.0
 22
0.0
 32
0.0
 14
0.0
 24
0.0
 34
0.0
 15
0.0
 25
0.0
 35
0.0
146
0.0
 13
0.0
 23
0.0
 33
0.0
 16
1.0
 26
0.0
 36
0.0
 17
0.0
 27
1.0
 37
0.0
 76
0
330
210
345
0
346
0
  0
LAYOUT
  5
6D7
102
{ACAD_REACTORS
330
1A
102
}
100
AcDbPlotSettings
  1

  2
none_device
  4

  6

 40
0.0
 41
0.0
 42
0.0
 43
0.0
 44
210.0
 45
297.0
 46
0.0
 47
0.0
 48
0.0
 49
0.0
140
0.0
141
0.0
142
1.0
143
1.0
 70
0
 72
1
 73
0
 74
0
  7

 75
0
147
1.0
148
0.0
149
0.0
100
AcDbLayout
  1
Layout1
 70
0
 71
1
 10
0.0
 20
0.0
 11
210.0
 21
297.0
 12
0.0
 22
0.0
 32
0.0
 14
0.0
 24
0.0
 34
0.0
 15
0.0
 25
0.0
 35
0.0
146
0.0
 13
0.0
 23
0.0
 33
0.0
 16
1.0
 26
0.0
 36
0.0
 17
0.0
 27
1.0
 37
0.0
 76
0
330
211
345
0
346
0
  0
ENDSEC
  0
EOF
