999
DXF file: C:\Users\sesa63760\Dev\_Creo\CAD\MCADID0001963_3D-CAD\drw0001_5.dxf
999
Pro/ENGINEER 2019471 by Parametric Technology Corporation
  0
SECTION
  2
HEADER
  9
$ACADVER
  1
AC1024
  9
$DWGCODEPAGE
  3
ANSI_1252
  9
$EXTMAX
 10
90.6159635571
 20
128.1568627451
 30
0.0
  9
$EXTMIN
 10
0.0
 20
0.0
 30
0.0
  9
$LIMMIN
 10
0.0
 20
0.0
  9
$LIMMAX
 10
90.6159635571
 20
128.1568627451
  9
$VIEWCTR
 10
45.3079817786
 20
64.0784313725
  9
$VIEWSIZE
 40
128.1568627451
  9
$CLAYER
  8
0
  9
$LTSCALE
 40
8.3539288308
  9
$CELTYPE
  6
BYLAYER
  9
$DIMSCALE
 40
1.0
  9
$DIMASZ
 40
1.0787614709
  9
$DIMEXO
 40
1.0
  9
$DIMDLI
 40
5.771805374
  9
$DIMEXE
 40
1.0
  9
$DIMCEN
 40
1.3670065359
  9
$DIMLFAC
 40
1.0
  9
$DIMBLK
  1
_FILLED
  9
$DIMALT
 70
0
  9
$DIMALTF
 40
0.0393700787
  9
$DIMTXT
 40
1.5102660593
  9
$DIMTOL
 70
1
  9
$DIMLIM
 70
0
  9
$DIMTFAC
 40
1.0
  9
$DIMTP
 40
0.01
  9
$DIMTM
 40
0.01
  9
$DIMGAP
 40
0.625
  9
$DIMDSEP
 70
46
  9
$AUNITS
 70
0
  9
$PDMODE
 70
3
  9
$PDSIZE
 40
0.3125
  9
$HANDSEED
  5
49F
  9
$TILEMODE
 70
1
  9
$MEASUREMENT
 70
1
  9
$INSUNITS
 70
4
  0
ENDSEC
  0
SECTION
  2
CLASSES
  0
CLASS
  1
ACDBDICTIONARYWDFLT
  2
AcDbDictionaryWithDefault
  3
AutoCAD 2000
 90
0
 91
1
280
0
281
0
  0
CLASS
  1
ACDBPLACEHOLDER
  2
AcDbPlaceHolder
  3
AutoCAD 2000
 90
0
 91
1
280
0
281
0
  0
CLASS
  1
LAYOUT
  2
AcDbLayout
  3
AutoCAD 2000
 90
0
 91
0
280
0
281
0
  0
ENDSEC
  0
SECTION
  2
TABLES
  0
TABLE
  2
VPORT
  5
8
100
AcDbSymbolTable
 70
2
  0
VPORT
  5
1F4
100
AcDbSymbolTableRecord
100
AcDbViewportTableRecord
  2
*ACTIVE
 70
0
 10
0.0
 20
0.0
 11
1.0
 21
1.0
 12
45.3079817786
 22
64.0784313725
 13
0.0
 23
0.0
 14
1.0
 24
1.0
 15
0.0
 25
0.0
 16
0.0
 26
0.0
 36
1.0
 17
0.0
 27
0.0
 37
0.0
 40
128.1568627451
 41
0.7070707071
 42
50.0
 43
0.0
 44
0.0
 50
0.0
 51
0.0
 71
0
 72
100
 73
1
 74
1
 75
0
 76
0
 77
0
 78
0
  0
ENDTAB
  0
TABLE
  2
LTYPE
  5
5
100
AcDbSymbolTable
 70
6
  0
LTYPE
  5
14
100
AcDbSymbolTableRecord
100
AcDbLinetypeTableRecord
  2
BYBLOCK
 70
0
  3

 72
65
 73
0
 40
0.0
  0
LTYPE
  5
15
100
AcDbSymbolTableRecord
100
AcDbLinetypeTableRecord
  2
BYLAYER
 70
0
  3

 72
65
 73
0
 40
0.0
  0
LTYPE
  5
16
100
AcDbSymbolTableRecord
100
AcDbLinetypeTableRecord
  2
CONTINUOUS
 70
64
  3
Solid line
 72
65
 73
0
 40
0.0
  0
LTYPE
  5
1F5
100
AcDbSymbolTableRecord
100
AcDbLinetypeTableRecord
  2
CENTER
 70
64
  3
____ _ ____ _ ____ _ ____ _ ____ _ ____ _ ____
 72
65
 73
4
 40
0.6
 49
0.375
 74
0
 49
-0.075
 74
0
 49
0.075
 74
0
 49
-0.075
 74
0
  0
LTYPE
  5
1F6
100
AcDbSymbolTableRecord
100
AcDbLinetypeTableRecord
  2
HIDDEN
 70
64
  3
- - - - - - - - - - - - - - - - - - - -
 72
65
 73
2
 40
0.2
 49
0.1
 74
0
 49
-0.1
 74
0
  0
LTYPE
  5
1F7
100
AcDbSymbolTableRecord
100
AcDbLinetypeTableRecord
  2
PHANTOM
 70
64
  3
_____ _ _ _____ _ _ _____ _ _ _____
 72
65
 73
6
 40
0.8
 49
0.45
 74
0
 49
-0.05
 74
0
 49
0.1
 74
0
 49
-0.05
 74
0
 49
0.1
 74
0
 49
-0.05
 74
0
  0
LTYPE
  5
1F8
100
AcDbSymbolTableRecord
100
AcDbLinetypeTableRecord
  2
DOT
 70
64
  3
. . . . . . . . . . . . . . . . . . . .
 72
65
 73
2
 40
0.2
 49
0.1
 74
0
 49
-0.1
 74
0
  0
LTYPE
  5
1F9
100
AcDbSymbolTableRecord
100
AcDbLinetypeTableRecord
  2
DASHED
 70
64
  3
- - - - - - - - - - - - - - - - - - - -
 72
65
 73
2
 40
0.2
 49
0.1
 74
0
 49
-0.1
 74
0
  0
ENDTAB
  0
TABLE
  2
LAYER
  5
2
100
AcDbSymbolTable
 70
36
  0
LAYER
  5
10
100
AcDbSymbolTableRecord
100
AcDbLayerTableRecord
  2
0
 70
0
 62
7
  6
CONTINUOUS
370
-3
390
F
  0
LAYER
  5
1FA
100
AcDbSymbolTableRecord
100
AcDbLayerTableRecord
  2
DEFAULT_1
 70
0
 62
7
  6
CENTER
370
-3
390
F
  0
LAYER
  5
1FB
100
AcDbSymbolTableRecord
100
AcDbLayerTableRecord
  2
DEFAULT_2
 70
0
 62
8
  6
HIDDEN
370
-3
390
F
  0
LAYER
  5
1FC
100
AcDbSymbolTableRecord
100
AcDbLayerTableRecord
  2
DEFAULT_3
 70
0
 62
7
  6
PHANTOM
370
-3
390
F
  0
LAYER
  5
1FD
100
AcDbSymbolTableRecord
100
AcDbLayerTableRecord
  2
00_COMPONENTS
 70
0
 62
7
  6
CONTINUOUS
370
-3
390
F
  0
LAYER
  5
1FE
100
AcDbSymbolTableRecord
100
AcDbLayerTableRecord
  2
01_1_DEFAULT_DATUMS
 70
0
 62
7
  6
CONTINUOUS
370
-3
390
F
  0
LAYER
  5
1FF
100
AcDbSymbolTableRecord
100
AcDbLayerTableRecord
  2
01_PLANES
 70
0
 62
7
  6
CONTINUOUS
370
-3
390
F
  0
LAYER
  5
200
100
AcDbSymbolTableRecord
100
AcDbLayerTableRecord
  2
02_COORD_SYS
 70
0
 62
7
  6
CONTINUOUS
370
-3
390
F
  0
LAYER
  5
201
100
AcDbSymbolTableRecord
100
AcDbLayerTableRecord
  2
03_AXES
 70
0
 62
7
  6
CONTINUOUS
370
-3
390
F
  0
LAYER
  5
202
100
AcDbSymbolTableRecord
100
AcDbLayerTableRecord
  2
04_POINTS
 70
0
 62
7
  6
CONTINUOUS
370
-3
390
F
  0
LAYER
  5
203
100
AcDbSymbolTableRecord
100
AcDbLayerTableRecord
  2
05_CURVES
 70
0
 62
7
  6
CONTINUOUS
370
-3
390
F
  0
LAYER
  5
204
100
AcDbSymbolTableRecord
100
AcDbLayerTableRecord
  2
06_SURFS
 70
0
 62
7
  6
CONTINUOUS
370
-3
390
F
  0
LAYER
  5
205
100
AcDbSymbolTableRecord
100
AcDbLayerTableRecord
  2
07_COSMETICS
 70
0
 62
7
  6
CONTINUOUS
370
-3
390
F
  0
LAYER
  5
206
100
AcDbSymbolTableRecord
100
AcDbLayerTableRecord
  2
10_NOTES
 70
0
 62
7
  6
CONTINUOUS
370
-3
390
F
  0
LAYER
  5
207
100
AcDbSymbolTableRecord
100
AcDbLayerTableRecord
  2
11_NOTES_PUB
 70
0
 62
7
  6
CONTINUOUS
370
-3
390
F
  0
LAYER
  5
208
100
AcDbSymbolTableRecord
100
AcDbLayerTableRecord
  2
13_REF_GTOL
 70
0
 62
7
  6
CONTINUOUS
370
-3
390
F
  0
LAYER
  5
209
100
AcDbSymbolTableRecord
100
AcDbLayerTableRecord
  2
16_MISC
 70
0
 62
7
  6
CONTINUOUS
370
-3
390
F
  0
LAYER
  5
20A
100
AcDbSymbolTableRecord
100
AcDbLayerTableRecord
  2
17_NO_PRINT
 70
0
 62
7
  6
CONTINUOUS
370
-3
390
F
  0
LAYER
  5
20B
100
AcDbSymbolTableRecord
100
AcDbLayerTableRecord
  2
18_DATUM_CAMS_JOINTS
 70
0
 62
7
  6
CONTINUOUS
370
-3
390
F
  0
LAYER
  5
20C
100
AcDbSymbolTableRecord
100
AcDbLayerTableRecord
  2
19_DATUM_FUNCTIONAL
 70
0
 62
7
  6
CONTINUOUS
370
-3
390
F
  0
LAYER
  5
20D
100
AcDbSymbolTableRecord
100
AcDbLayerTableRecord
  2
20_DATUM_KINEMATIC_SCHEME
 70
0
 62
7
  6
CONTINUOUS
370
-3
390
F
  0
ENDTAB
  0
TABLE
  2
STYLE
  5
3
100
AcDbSymbolTable
 70
1
  0
STYLE
  5
11
100
AcDbSymbolTableRecord
100
AcDbTextStyleTableRecord
  2
STANDARD
 70
0
 40
0.0
 41
0.8
 50
0.0
 71
0
 42
0.2
  3
txt
  4

  0
STYLE
  5
20E
100
AcDbSymbolTableRecord
100
AcDbTextStyleTableRecord
  2
TEXTSTYLE_1
 70
0
 40
0.0
 41
0.8
 50
0.0
 71
0
 42
0.2
  3
gdt
  4

  0
ENDTAB
  0
TABLE
  2
VIEW
  5
6
100
AcDbSymbolTable
 70
0
  0
ENDTAB
  0
TABLE
  2
UCS
  5
7
100
AcDbSymbolTable
 70
0
  0
ENDTAB
  0
TABLE
  2
APPID
  5
9
100
AcDbSymbolTable
 70
1
  0
APPID
  5
20F
100
AcDbSymbolTableRecord
100
AcDbRegAppTableRecord
  2
ACAD
 70
0
  0
ENDTAB
  0
TABLE
  2
BLOCK_RECORD
  5
1
100
AcDbSymbolTable
 70
0
  0
BLOCK_RECORD
  5
210
100
AcDbSymbolTableRecord
100
AcDbBlockTableRecord
  2
*Model_Space
  0
BLOCK_RECORD
  5
211
100
AcDbSymbolTableRecord
100
AcDbBlockTableRecord
  2
*Paper_Space
  0
BLOCK_RECORD
  5
212
100
AcDbSymbolTableRecord
100
AcDbBlockTableRecord
  2
_FILLED
  0
ENDTAB
  0
TABLE
  2
DIMSTYLE
  5
A
100
AcDbSymbolTable
 70
1
100
AcDbDimStyleTable
 71
0
  0
DIMSTYLE
105
213
100
AcDbSymbolTableRecord
100
AcDbDimStyleTableRecord
  2
STANDARD
 70
0
  3

  4

 40
1.0
 41
1.0787614709
 42
1.0
 43
0.38
 44
1.0
 45
0.0
 46
0.0
 47
0.01
 48
0.01
140
1.5102660593
141
0.09
142
0.0
143
25.4
144
1.0
145
0.0
146
1.0
147
0.625
 71
1
 72
0
 73
0
 74
0
 75
0
 76
0
 77
1
 78
8
 79
2
170
0
171
1
172
0
173
0
174
0
175
0
176
0
177
0
178
0
270
2
179
2
271
2
272
2
273
2
274
2
275
0
280
0
281
0
282
0
283
1
284
8
285
0
286
0
287
3
288
0
340
11
278
46
341
212
342
212
343
212
344
212
  0
ENDTAB
  0
ENDSEC
  0
SECTION
  2
BLOCKS
  0
BLOCK
  5
20
100
AcDbEntity
  8
0
100
AcDbBlockBegin
  2
*Model_Space
 70
0
 10
0.0
 20
0.0
 30
0.0
  3
*Model_Space
  1

  0
ENDBLK
  5
21
100
AcDbEntity
  8
0
100
AcDbBlockEnd
  0
BLOCK
  5
1C
100
AcDbEntity
  8
0
100
AcDbBlockBegin
  2
*Paper_Space
 70
0
 10
0.0
 20
0.0
 30
0.0
  3
*Paper_Space
  1

  0
ENDBLK
  5
1D
100
AcDbEntity
  8
0
100
AcDbBlockEnd
  0
BLOCK
  5
214
100
AcDbEntity
  8
0
100
AcDbBlockBegin
  2
_FILLED
 70
64
 10
0.0
 20
0.0
  3
_FILLED
  1

  0
SOLID
  5
215
100
AcDbEntity
  8
0
  6
BYBLOCK
 62
0
100
AcDbTrace
 10
0.0
 20
0.0
 11
-1.0
 21
0.25
 12
-1.0
 22
-0.25
 13
-1.0
 23
-0.25
  0
ENDBLK
  5
216
100
AcDbEntity
  8
0
  6
BYBLOCK
 62
0
100
AcDbBlockEnd
  0
ENDSEC
  0
SECTION
  2
ENTITIES
  0
LINE
  5
217
100
AcDbEntity
  8
0
100
AcDbLine
 62
7
  6
CONTINUOUS
 10
10.5628837394
 20
34.9257101813
 11
10.5628837394
 21
82.9911113489
  0
LINE
  5
218
100
AcDbEntity
  8
0
100
AcDbLine
 62
7
  6
CONTINUOUS
 10
10.5628837394
 20
82.9928108124
 11
10.5628837394
 21
93.9794768864
  0
LINE
  5
219
100
AcDbEntity
  8
0
100
AcDbLine
 62
7
  6
CONTINUOUS
 10
12.1628837394
 20
45.6911110864
 11
12.1628837394
 21
82.9911113489
  0
LINE
  5
21A
100
AcDbEntity
  8
0
100
AcDbLine
 62
7
  6
CONTINUOUS
 10
13.5628837394
 20
34.4911113489
 11
13.5628837394
 21
34.9251331877
  0
LINE
  5
21B
100
AcDbEntity
  8
0
100
AcDbLine
 62
7
  6
CONTINUOUS
 10
13.1121257285
 20
45.9471878709
 11
13.1146568518
 21
53.1971874291
  0
LINE
  5
21C
100
AcDbEntity
  8
0
100
AcDbLine
 62
7
  6
CONTINUOUS
 10
13.6141156846
 20
51.6470129633
 11
13.6143426129
 21
52.2970129237
  0
LINE
  5
21D
100
AcDbEntity
  8
0
100
AcDbLine
 62
7
  6
CONTINUOUS
 10
14.1638887228
 20
50.9968209867
 11
14.1641156511
 21
51.6468209471
  0
LINE
  5
21E
100
AcDbEntity
  8
0
100
AcDbLine
 62
7
  6
CONTINUOUS
 10
14.4630337296
 20
48.5467163997
 11
14.4633130259
 21
49.3467163509
  0
LINE
  5
21F
100
AcDbEntity
  8
0
100
AcDbLine
 62
7
  6
CONTINUOUS
 10
15.2633129772
 20
49.3464370545
 11
15.2630336808
 21
48.5464371033
  0
LINE
  5
220
100
AcDbEntity
  8
0
100
AcDbLine
 62
7
  6
CONTINUOUS
 10
15.5641155658
 20
51.6463321784
 11
15.5638886375
 21
50.9963322181
  0
LINE
  5
221
100
AcDbEntity
  8
0
100
AcDbLine
 62
7
  6
CONTINUOUS
 10
16.1143424606
 20
52.2961401226
 11
16.1141155323
 21
51.6461401622
  0
LINE
  5
222
100
AcDbEntity
  8
0
100
AcDbLine
 62
7
  6
CONTINUOUS
 10
16.4138885857
 20
50.9960354657
 11
16.4123873677
 21
46.6960357277
  0
LINE
  5
223
100
AcDbEntity
  8
0
100
AcDbLine
 62
7
  6
CONTINUOUS
 10
16.8123878204
 20
46.6958960794
 11
16.8138890384
 21
50.9958958173
  0
LINE
  5
224
100
AcDbEntity
  8
0
100
AcDbLine
 62
7
  6
CONTINUOUS
 10
17.1141159484
 20
51.6457910416
 11
17.1143428767
 21
52.2957910019
  0
LINE
  5
225
100
AcDbEntity
  8
0
100
AcDbLine
 62
7
  6
CONTINUOUS
 10
17.6638889866
 20
50.9955990649
 11
17.6641159149
 21
51.6455990253
  0
LINE
  5
226
100
AcDbEntity
  8
0
100
AcDbLine
 62
7
  6
CONTINUOUS
 10
17.9630335163
 20
48.5454944781
 11
17.9633128126
 21
49.3454944293
  0
LINE
  5
227
100
AcDbEntity
  8
0
100
AcDbLine
 62
7
  6
CONTINUOUS
 10
18.7633127639
 20
49.3452151329
 11
18.7630334675
 21
48.5452151817
  0
LINE
  5
228
100
AcDbEntity
  8
0
100
AcDbLine
 62
7
  6
CONTINUOUS
 10
13.5628837394
 20
34.4911113489
 11
79.5628837394
 21
34.4911113489
  0
LINE
  5
229
100
AcDbEntity
  8
0
100
AcDbLine
 62
7
  6
CONTINUOUS
 10
82.5628837394
 20
34.9251331877
 11
52.3128837394
 21
34.9251331877
  0
LINE
  5
22A
100
AcDbEntity
  8
0
100
AcDbLine
 62
7
  6
CONTINUOUS
 10
40.8128837394
 20
34.9251331877
 11
10.5628837394
 21
34.9251331877
  0
LINE
  5
22B
100
AcDbEntity
  8
0
100
AcDbLine
 62
7
  6
CONTINUOUS
 10
54.3128837394
 20
35.7265072419
 11
52.3128837394
 21
35.7265072419
  0
LINE
  5
22C
100
AcDbEntity
  8
0
100
AcDbLine
 62
7
  6
CONTINUOUS
 10
40.8128837394
 20
35.7265072419
 11
38.8128837394
 21
35.7265072419
  0
LINE
  5
22D
100
AcDbEntity
  8
0
100
AcDbLine
 62
7
  6
CONTINUOUS
 10
41.5628837394
 20
36.4971134489
 11
51.5628837394
 21
36.4971134489
  0
LINE
  5
22E
100
AcDbEntity
  8
0
100
AcDbLine
 62
7
  6
CONTINUOUS
 10
19.0641158295
 20
51.6451102567
 11
19.0638889012
 21
50.9951102963
  0
LINE
  5
22F
100
AcDbEntity
  8
0
100
AcDbLine
 62
7
  6
CONTINUOUS
 10
19.6143427243
 20
52.2949182008
 11
19.614115796
 21
51.6449182404
  0
LINE
  5
230
100
AcDbEntity
  8
0
100
AcDbLine
 62
7
  6
CONTINUOUS
 10
19.913889981
 20
50.9948135435
 11
19.912388763
 21
46.6948138055
  0
LINE
  5
231
100
AcDbEntity
  8
0
100
AcDbLine
 62
7
  6
CONTINUOUS
 10
20.3123887386
 20
46.6946741574
 11
20.3138899566
 21
50.9946738953
  0
LINE
  5
232
100
AcDbEntity
  8
0
100
AcDbLine
 62
7
  6
CONTINUOUS
 10
20.6141168666
 20
51.6445691196
 11
20.6143437949
 21
52.2945690799
  0
LINE
  5
233
100
AcDbEntity
  8
0
100
AcDbLine
 62
7
  6
CONTINUOUS
 10
21.1638899048
 20
50.9943771429
 11
21.1641168331
 21
51.6443771033
  0
LINE
  5
234
100
AcDbEntity
  8
0
100
AcDbLine
 62
7
  6
CONTINUOUS
 10
21.4630341753
 20
48.5442725561
 11
21.4633134716
 21
49.3442725074
  0
LINE
  5
235
100
AcDbEntity
  8
0
100
AcDbLine
 62
7
  6
CONTINUOUS
 10
40.8128837394
 20
36.9911113489
 11
38.8128837394
 21
36.9911113489
  0
LINE
  5
236
100
AcDbEntity
  8
0
100
AcDbLine
 62
7
  6
CONTINUOUS
 10
52.3128837394
 20
36.9911113489
 11
54.3128837394
 21
36.9911113489
  0
LINE
  5
237
100
AcDbEntity
  8
0
100
AcDbLine
 62
7
  6
CONTINUOUS
 10
41.5628837394
 20
38.1411113489
 11
51.5628837394
 21
38.1411113489
  0
LINE
  5
238
100
AcDbEntity
  8
0
100
AcDbLine
 62
7
  6
CONTINUOUS
 10
38.8128837394
 20
39.4911113489
 11
54.3128837394
 21
39.4911113489
  0
LINE
  5
239
100
AcDbEntity
  8
0
100
AcDbLine
 62
7
  6
CONTINUOUS
 10
22.2633134229
 20
49.343993211
 11
22.2630341265
 21
48.5439932598
  0
LINE
  5
23A
100
AcDbEntity
  8
0
100
AcDbLine
 62
7
  6
CONTINUOUS
 10
22.5641167478
 20
51.6438883347
 11
22.5638898195
 21
50.9938883743
  0
LINE
  5
23B
100
AcDbEntity
  8
0
100
AcDbLine
 62
7
  6
CONTINUOUS
 10
23.1143436425
 20
52.2936962788
 11
23.1141167142
 21
51.6436963184
  0
LINE
  5
23C
100
AcDbEntity
  8
0
100
AcDbLine
 62
7
  6
CONTINUOUS
 10
23.4138897677
 20
50.9935916219
 11
23.4123885497
 21
46.6935918839
  0
LINE
  5
23D
100
AcDbEntity
  8
0
100
AcDbLine
 62
7
  6
CONTINUOUS
 10
23.8123885253
 20
46.6934522357
 11
23.8138897433
 21
50.9934519737
  0
LINE
  5
23E
100
AcDbEntity
  8
0
100
AcDbLine
 62
7
  6
CONTINUOUS
 10
24.1141166533
 20
51.6433471979
 11
24.1143435816
 21
52.2933471583
  0
LINE
  5
23F
100
AcDbEntity
  8
0
100
AcDbLine
 62
7
  6
CONTINUOUS
 10
24.6638896915
 20
50.9931552213
 11
24.6641166198
 21
51.6431551817
  0
LINE
  5
240
100
AcDbEntity
  8
0
100
AcDbLine
 62
7
  6
CONTINUOUS
 10
24.963033962
 20
48.5430506345
 11
24.9633132583
 21
49.3430505858
  0
LINE
  5
241
100
AcDbEntity
  8
0
100
AcDbLine
 62
7
  6
CONTINUOUS
 10
25.7633132096
 20
49.3427712894
 11
25.7630339132
 21
48.5427713382
  0
LINE
  5
242
100
AcDbEntity
  8
0
100
AcDbLine
 62
7
  6
CONTINUOUS
 10
26.0641165345
 20
51.642666413
 11
26.0638896062
 21
50.9926664527
  0
LINE
  5
243
100
AcDbEntity
  8
0
100
AcDbLine
 62
7
  6
CONTINUOUS
 10
26.6143434292
 20
52.2924743572
 11
26.6141165009
 21
51.6424743968
  0
LINE
  5
244
100
AcDbEntity
  8
0
100
AcDbLine
 62
7
  6
CONTINUOUS
 10
26.9138895544
 20
50.9923697003
 11
26.9123883364
 21
46.6923699623
  0
LINE
  5
245
100
AcDbEntity
  8
0
100
AcDbLine
 62
7
  6
CONTINUOUS
 10
27.312388312
 20
46.6922303141
 11
27.31388953
 21
50.9922300521
  0
LINE
  5
246
100
AcDbEntity
  8
0
100
AcDbLine
 62
7
  6
CONTINUOUS
 10
27.61411644
 20
51.6421252763
 11
27.6143433683
 21
52.2921252367
  0
LINE
  5
247
100
AcDbEntity
  8
0
100
AcDbLine
 62
7
  6
CONTINUOUS
 10
28.1638894782
 20
50.9919332997
 11
28.1641164065
 21
51.6419332601
  0
LINE
  5
248
100
AcDbEntity
  8
0
100
AcDbLine
 62
7
  6
CONTINUOUS
 10
82.5628837394
 20
44.9664200174
 11
10.5628837394
 21
44.9664200174
  0
LINE
  5
249
100
AcDbEntity
  8
0
100
AcDbLine
 62
7
  6
CONTINUOUS
 10
82.5628837394
 20
45.6911113489
 11
10.5628837394
 21
45.6911113489
  0
LINE
  5
24A
100
AcDbEntity
  8
0
100
AcDbLine
 62
7
  6
CONTINUOUS
 10
12.1628837394
 20
45.9314359289
 11
80.5628837394
 21
45.9314359289
  0
LINE
  5
24B
100
AcDbEntity
  8
0
100
AcDbLine
 62
7
  6
CONTINUOUS
 10
34.1121244487
 20
45.9398563413
 11
13.1121257285
 21
45.9471878709
  0
LINE
  5
24C
100
AcDbEntity
  8
0
100
AcDbLine
 62
7
  6
CONTINUOUS
 10
58.1371488628
 20
45.9410653619
 11
40.6371499293
 21
45.94717497
  0
LINE
  5
24D
100
AcDbEntity
  8
0
100
AcDbLine
 62
7
  6
CONTINUOUS
 10
79.1371488628
 20
45.9398563413
 11
58.1371501426
 21
45.9471878709
  0
LINE
  5
24E
100
AcDbEntity
  8
0
100
AcDbLine
 62
7
  6
CONTINUOUS
 10
34.1129972499
 20
48.4398564308
 11
34.712876694
 21
48.0932365757
  0
LINE
  5
24F
100
AcDbEntity
  8
0
100
AcDbLine
 62
7
  6
CONTINUOUS
 10
28.8128837394
 20
85.3928108124
 11
28.8128837394
 21
92.7838236224
  0
LINE
  5
250
100
AcDbEntity
  8
0
100
AcDbLine
 62
7
  6
CONTINUOUS
 10
29.8128837394
 20
85.3928108124
 11
29.8128837394
 21
92.7838236224
  0
LINE
  5
251
100
AcDbEntity
  8
0
100
AcDbLine
 62
7
  6
CONTINUOUS
 10
28.4630337487
 20
48.5418287129
 11
28.463313045
 21
49.3418286642
  0
LINE
  5
252
100
AcDbEntity
  8
0
100
AcDbLine
 62
7
  6
CONTINUOUS
 10
29.2633129963
 20
49.3415493678
 11
29.2630336999
 21
48.5415494165
  0
LINE
  5
253
100
AcDbEntity
  8
0
100
AcDbLine
 62
7
  6
CONTINUOUS
 10
29.5641163212
 20
51.6414444914
 11
29.5638893929
 21
50.991444531
  0
LINE
  5
254
100
AcDbEntity
  8
0
100
AcDbLine
 62
7
  6
CONTINUOUS
 10
30.1143432159
 20
52.2912524356
 11
30.1141162876
 21
51.6412524752
  0
LINE
  5
255
100
AcDbEntity
  8
0
100
AcDbLine
 62
7
  6
CONTINUOUS
 10
30.4138893411
 20
50.9911477786
 11
30.4123881231
 21
46.6911480407
  0
LINE
  5
256
100
AcDbEntity
  8
0
100
AcDbLine
 62
7
  6
CONTINUOUS
 10
30.8123880987
 20
46.6910083925
 11
30.8138893167
 21
50.9910081305
  0
LINE
  5
257
100
AcDbEntity
  8
0
100
AcDbLine
 62
7
  6
CONTINUOUS
 10
31.1141162267
 20
51.6409033547
 11
31.114343155
 21
52.2909033151
  0
LINE
  5
258
100
AcDbEntity
  8
0
100
AcDbLine
 62
7
  6
CONTINUOUS
 10
31.4458729211
 20
46.69078723
 11
30.8123880987
 21
46.6910083925
  0
LINE
  5
259
100
AcDbEntity
  8
0
100
AcDbLine
 62
7
  6
CONTINUOUS
 10
30.4123881231
 20
46.6911480407
 11
29.7789033007
 21
46.6913692032
  0
LINE
  5
25A
100
AcDbEntity
  8
0
100
AcDbLine
 62
7
  6
CONTINUOUS
 10
27.9458731344
 20
46.6920091516
 11
27.312388312
 21
46.6922303141
  0
LINE
  5
25B
100
AcDbEntity
  8
0
100
AcDbLine
 62
7
  6
CONTINUOUS
 10
26.9123883364
 20
46.6923699623
 11
26.278903514
 21
46.6925911248
  0
LINE
  5
25C
100
AcDbEntity
  8
0
100
AcDbLine
 62
7
  6
CONTINUOUS
 10
24.4458733477
 20
46.6932310732
 11
23.8123885253
 21
46.6934522357
  0
LINE
  5
25D
100
AcDbEntity
  8
0
100
AcDbLine
 62
7
  6
CONTINUOUS
 10
20.945873561
 20
46.6944529948
 11
20.3123887386
 21
46.6946741574
  0
LINE
  5
25E
100
AcDbEntity
  8
0
100
AcDbLine
 62
7
  6
CONTINUOUS
 10
17.4458726428
 20
46.6956749168
 11
16.8123878204
 21
46.6958960794
  0
LINE
  5
25F
100
AcDbEntity
  8
0
100
AcDbLine
 62
7
  6
CONTINUOUS
 10
16.4123873677
 20
46.6960357277
 11
15.7789025453
 21
46.6962568902
  0
LINE
  5
260
100
AcDbEntity
  8
0
100
AcDbLine
 62
7
  6
CONTINUOUS
 10
13.945872379
 20
46.6968968386
 11
13.1123875688
 21
46.6971878252
  0
LINE
  5
261
100
AcDbEntity
  8
0
100
AcDbLine
 62
7
  6
CONTINUOUS
 10
19.2789030786
 20
46.6950349684
 11
19.912388763
 21
46.6948138055
  0
LINE
  5
262
100
AcDbEntity
  8
0
100
AcDbLine
 62
7
  6
CONTINUOUS
 10
22.7789037273
 20
46.6938130465
 11
23.4123885497
 21
46.6935918839
  0
LINE
  5
263
100
AcDbEntity
  8
0
100
AcDbLine
 62
7
  6
CONTINUOUS
 10
33.2789030874
 20
46.6901472816
 11
34.112386289
 21
46.6898562956
  0
LINE
  5
264
100
AcDbEntity
  8
0
100
AcDbLine
 62
7
  6
CONTINUOUS
 10
55.4708973352
 20
46.6919962506
 11
54.8374125128
 21
46.6922174131
  0
LINE
  5
265
100
AcDbEntity
  8
0
100
AcDbLine
 62
7
  6
CONTINUOUS
 10
54.4374125372
 20
46.6923570613
 11
53.8039277148
 21
46.6925782239
  0
LINE
  5
266
100
AcDbEntity
  8
0
100
AcDbLine
 62
7
  6
CONTINUOUS
 10
51.9708975485
 20
46.6932181722
 11
51.3374127261
 21
46.6934393348
  0
LINE
  5
267
100
AcDbEntity
  8
0
100
AcDbLine
 62
7
  6
CONTINUOUS
 10
50.9374127505
 20
46.6935789829
 11
50.3039279281
 21
46.6938001455
  0
LINE
  5
268
100
AcDbEntity
  8
0
100
AcDbLine
 62
7
  6
CONTINUOUS
 10
48.4708977618
 20
46.6944400938
 11
47.8374129394
 21
46.6946612564
  0
LINE
  5
269
100
AcDbEntity
  8
0
100
AcDbLine
 62
7
  6
CONTINUOUS
 10
44.9708968436
 20
46.6956620158
 11
44.3374120212
 21
46.6958831784
  0
LINE
  5
26A
100
AcDbEntity
  8
0
100
AcDbLine
 62
7
  6
CONTINUOUS
 10
43.9374115685
 20
46.6960228267
 11
43.3039267461
 21
46.6962439893
  0
LINE
  5
26B
100
AcDbEntity
  8
0
100
AcDbLine
 62
7
  6
CONTINUOUS
 10
41.4708965798
 20
46.6968839376
 11
40.6374117696
 21
46.6971749242
  0
LINE
  5
26C
100
AcDbEntity
  8
0
100
AcDbLine
 62
7
  6
CONTINUOUS
 10
46.8039272794
 20
46.6950220674
 11
47.4374129638
 21
46.6948009046
  0
LINE
  5
26D
100
AcDbEntity
  8
0
100
AcDbLine
 62
7
  6
CONTINUOUS
 10
57.3039275015
 20
46.6913563022
 11
58.1374107031
 21
46.6910653162
  0
LINE
  5
26E
100
AcDbEntity
  8
0
100
AcDbLine
 62
7
  6
CONTINUOUS
 10
76.4708973352
 20
46.69078723
 11
75.8374125128
 21
46.6910083925
  0
LINE
  5
26F
100
AcDbEntity
  8
0
100
AcDbLine
 62
7
  6
CONTINUOUS
 10
75.4374125372
 20
46.6911480407
 11
74.8039277148
 21
46.6913692032
  0
LINE
  5
270
100
AcDbEntity
  8
0
100
AcDbLine
 62
7
  6
CONTINUOUS
 10
72.9708975485
 20
46.6920091516
 11
72.3374127261
 21
46.6922303141
  0
LINE
  5
271
100
AcDbEntity
  8
0
100
AcDbLine
 62
7
  6
CONTINUOUS
 10
71.9374127505
 20
46.6923699623
 11
71.3039279281
 21
46.6925911248
  0
LINE
  5
272
100
AcDbEntity
  8
0
100
AcDbLine
 62
7
  6
CONTINUOUS
 10
69.4708977618
 20
46.6932310732
 11
68.8374129394
 21
46.6934522357
  0
LINE
  5
273
100
AcDbEntity
  8
0
100
AcDbLine
 62
7
  6
CONTINUOUS
 10
65.9708979751
 20
46.6944529948
 11
65.3374131527
 21
46.6946741574
  0
LINE
  5
274
100
AcDbEntity
  8
0
100
AcDbLine
 62
7
  6
CONTINUOUS
 10
62.4708970569
 20
46.6956749168
 11
61.8374122345
 21
46.6958960794
  0
LINE
  5
275
100
AcDbEntity
  8
0
100
AcDbLine
 62
7
  6
CONTINUOUS
 10
61.4374117818
 20
46.6960357277
 11
60.8039269594
 21
46.6962568902
  0
LINE
  5
276
100
AcDbEntity
  8
0
100
AcDbLine
 62
7
  6
CONTINUOUS
 10
58.9708967931
 20
46.6968968386
 11
58.1374119829
 21
46.6971878252
  0
LINE
  5
277
100
AcDbEntity
  8
0
100
AcDbLine
 62
7
  6
CONTINUOUS
 10
64.3039274927
 20
46.6950349684
 11
64.9374131771
 21
46.6948138055
  0
LINE
  5
278
100
AcDbEntity
  8
0
100
AcDbLine
 62
7
  6
CONTINUOUS
 10
67.8039281414
 20
46.6938130465
 11
68.4374129638
 21
46.6935918839
  0
LINE
  5
279
100
AcDbEntity
  8
0
100
AcDbLine
 62
7
  6
CONTINUOUS
 10
78.3039275015
 20
46.6901472816
 11
79.1374107031
 21
46.6898562956
  0
LINE
  5
27A
100
AcDbEntity
  8
0
100
AcDbLine
 62
7
  6
CONTINUOUS
 10
32.7630334866
 20
48.5403274949
 11
31.9630335354
 21
48.5406067913
  0
LINE
  5
27B
100
AcDbEntity
  8
0
100
AcDbLine
 62
7
  6
CONTINUOUS
 10
29.2630336999
 20
48.5415494165
 11
28.4630337487
 21
48.5418287129
  0
LINE
  5
27C
100
AcDbEntity
  8
0
100
AcDbLine
 62
7
  6
CONTINUOUS
 10
25.7630339132
 20
48.5427713382
 11
24.963033962
 21
48.5430506345
  0
LINE
  5
27D
100
AcDbEntity
  8
0
100
AcDbLine
 62
7
  6
CONTINUOUS
 10
22.2630341265
 20
48.5439932598
 11
21.4630341753
 21
48.5442725561
  0
LINE
  5
27E
100
AcDbEntity
  8
0
100
AcDbLine
 62
7
  6
CONTINUOUS
 10
18.7630334675
 20
48.5452151817
 11
17.9630335163
 21
48.5454944781
  0
LINE
  5
27F
100
AcDbEntity
  8
0
100
AcDbLine
 62
7
  6
CONTINUOUS
 10
15.2630336808
 20
48.5464371033
 11
14.4630337296
 21
48.5467163997
  0
LINE
  5
280
100
AcDbEntity
  8
0
100
AcDbLine
 62
7
  6
CONTINUOUS
 10
56.7880579007
 20
48.5415365156
 11
55.9880579495
 21
48.5418158119
  0
LINE
  5
281
100
AcDbEntity
  8
0
100
AcDbLine
 62
7
  6
CONTINUOUS
 10
53.288058114
 20
48.5427584372
 11
52.4880581628
 21
48.5430377335
  0
LINE
  5
282
100
AcDbEntity
  8
0
100
AcDbLine
 62
7
  6
CONTINUOUS
 10
49.7880583273
 20
48.5439803588
 11
48.9880583761
 21
48.5442596551
  0
LINE
  5
283
100
AcDbEntity
  8
0
100
AcDbLine
 62
7
  6
CONTINUOUS
 10
46.2880576683
 20
48.5452022807
 11
45.4880577171
 21
48.5454815771
  0
LINE
  5
284
100
AcDbEntity
  8
0
100
AcDbLine
 62
7
  6
CONTINUOUS
 10
42.7880578816
 20
48.5464242023
 11
41.9880579304
 21
48.5467034987
  0
LINE
  5
285
100
AcDbEntity
  8
0
100
AcDbLine
 62
7
  6
CONTINUOUS
 10
77.7880579007
 20
48.5403274949
 11
76.9880579495
 21
48.5406067913
  0
LINE
  5
286
100
AcDbEntity
  8
0
100
AcDbLine
 62
7
  6
CONTINUOUS
 10
74.288058114
 20
48.5415494165
 11
73.4880581628
 21
48.5418287129
  0
LINE
  5
287
100
AcDbEntity
  8
0
100
AcDbLine
 62
7
  6
CONTINUOUS
 10
70.7880583273
 20
48.5427713382
 11
69.9880583761
 21
48.5430506345
  0
LINE
  5
288
100
AcDbEntity
  8
0
100
AcDbLine
 62
7
  6
CONTINUOUS
 10
67.2880585406
 20
48.5439932598
 11
66.4880585894
 21
48.5442725561
  0
LINE
  5
289
100
AcDbEntity
  8
0
100
AcDbLine
 62
7
  6
CONTINUOUS
 10
63.7880578816
 20
48.5452151817
 11
62.9880579304
 21
48.5454944781
  0
LINE
  5
28A
100
AcDbEntity
  8
0
100
AcDbLine
 62
7
  6
CONTINUOUS
 10
60.2880580949
 20
48.5464371033
 11
59.4880581437
 21
48.5467163997
  0
LINE
  5
28B
100
AcDbEntity
  8
0
100
AcDbLine
 62
7
  6
CONTINUOUS
 10
41.2379021746
 20
48.1005552044
 11
40.6380227305
 21
48.4471750595
  0
LINE
  5
28C
100
AcDbEntity
  8
0
100
AcDbLine
 62
7
  6
CONTINUOUS
 10
31.6638892649
 20
50.9907113781
 11
31.6641161932
 21
51.6407113385
  0
LINE
  5
28D
100
AcDbEntity
  8
0
100
AcDbLine
 62
7
  6
CONTINUOUS
 10
31.9630335354
 20
48.5406067913
 11
31.9633128317
 21
49.3406067425
  0
LINE
  5
28E
100
AcDbEntity
  8
0
100
AcDbLine
 62
7
  6
CONTINUOUS
 10
32.763312783
 20
49.3403274462
 11
32.7630334866
 21
48.5403274949
  0
LINE
  5
28F
100
AcDbEntity
  8
0
100
AcDbLine
 62
7
  6
CONTINUOUS
 10
33.0641161079
 20
51.6402225698
 11
33.0638891796
 21
50.9902226094
  0
LINE
  5
290
100
AcDbEntity
  8
0
100
AcDbLine
 62
7
  6
CONTINUOUS
 10
33.6143430027
 20
52.2900305139
 11
33.6141160744
 21
51.6400305536
  0
LINE
  5
291
100
AcDbEntity
  8
0
100
AcDbLine
 62
7
  6
CONTINUOUS
 10
34.114655572
 20
53.1898558994
 11
34.1133463702
 21
49.4398558853
  0
LINE
  5
292
100
AcDbEntity
  8
0
100
AcDbLine
 62
7
  6
CONTINUOUS
 10
34.1129972499
 20
48.4398564308
 11
34.1121244487
 21
45.9398563413
  0
LINE
  5
293
100
AcDbEntity
  8
0
100
AcDbLine
 62
7
  6
CONTINUOUS
 10
80.5628837394
 20
49.8993705543
 11
82.5628837394
 21
49.8993705543
  0
LINE
  5
294
100
AcDbEntity
  8
0
100
AcDbLine
 62
7
  6
CONTINUOUS
 10
10.5628837394
 20
49.8993721147
 11
12.1628837394
 21
49.8993721147
  0
LINE
  5
295
100
AcDbEntity
  8
0
100
AcDbLine
 62
7
  6
CONTINUOUS
 10
14.4633130259
 20
49.3467163509
 11
15.2633129772
 21
49.3464370545
  0
LINE
  5
296
100
AcDbEntity
  8
0
100
AcDbLine
 62
7
  6
CONTINUOUS
 10
17.9633128126
 20
49.3454944293
 11
18.7633127639
 21
49.3452151329
  0
LINE
  5
297
100
AcDbEntity
  8
0
100
AcDbLine
 62
7
  6
CONTINUOUS
 10
21.4633134716
 20
49.3442725074
 11
22.2633134229
 21
49.343993211
  0
LINE
  5
298
100
AcDbEntity
  8
0
100
AcDbLine
 62
7
  6
CONTINUOUS
 10
24.9633132583
 20
49.3430505858
 11
25.7633132096
 21
49.3427712894
  0
LINE
  5
299
100
AcDbEntity
  8
0
100
AcDbLine
 62
7
  6
CONTINUOUS
 10
28.463313045
 20
49.3418286642
 11
29.2633129963
 21
49.3415493678
  0
LINE
  5
29A
100
AcDbEntity
  8
0
100
AcDbLine
 62
7
  6
CONTINUOUS
 10
31.9633128317
 20
49.3406067425
 11
32.763312783
 21
49.3403274462
  0
LINE
  5
29B
100
AcDbEntity
  8
0
100
AcDbLine
 62
7
  6
CONTINUOUS
 10
41.9883372267
 20
49.3467034499
 11
42.788337178
 21
49.3464241536
  0
LINE
  5
29C
100
AcDbEntity
  8
0
100
AcDbLine
 62
7
  6
CONTINUOUS
 10
45.4883370134
 20
49.3454815283
 11
46.2883369647
 21
49.3452022319
  0
LINE
  5
29D
100
AcDbEntity
  8
0
100
AcDbLine
 62
7
  6
CONTINUOUS
 10
48.9883376724
 20
49.3442596064
 11
49.7883376237
 21
49.34398031
  0
LINE
  5
29E
100
AcDbEntity
  8
0
100
AcDbLine
 62
7
  6
CONTINUOUS
 10
52.4883374591
 20
49.3430376848
 11
53.2883374104
 21
49.3427583884
  0
LINE
  5
29F
100
AcDbEntity
  8
0
100
AcDbLine
 62
7
  6
CONTINUOUS
 10
55.9883372458
 20
49.3418157632
 11
56.7883371971
 21
49.3415364668
  0
LINE
  5
2A0
100
AcDbEntity
  8
0
100
AcDbLine
 62
7
  6
CONTINUOUS
 10
59.48833744
 20
49.3467163509
 11
60.2883373913
 21
49.3464370545
  0
LINE
  5
2A1
100
AcDbEntity
  8
0
100
AcDbLine
 62
7
  6
CONTINUOUS
 10
62.9883372267
 20
49.3454944293
 11
63.788337178
 21
49.3452151329
  0
LINE
  5
2A2
100
AcDbEntity
  8
0
100
AcDbLine
 62
7
  6
CONTINUOUS
 10
66.4883378857
 20
49.3442725074
 11
67.288337837
 21
49.343993211
  0
LINE
  5
2A3
100
AcDbEntity
  8
0
100
AcDbLine
 62
7
  6
CONTINUOUS
 10
69.9883376724
 20
49.3430505858
 11
70.7883376237
 21
49.3427712894
  0
LINE
  5
2A4
100
AcDbEntity
  8
0
100
AcDbLine
 62
7
  6
CONTINUOUS
 10
73.4883374591
 20
49.3418286642
 11
74.2883374104
 21
49.3415493678
  0
LINE
  5
2A5
100
AcDbEntity
  8
0
100
AcDbLine
 62
7
  6
CONTINUOUS
 10
76.9883372458
 20
49.3406067425
 11
77.7883371971
 21
49.3403274462
  0
LINE
  5
2A6
100
AcDbEntity
  8
0
100
AcDbLine
 62
7
  6
CONTINUOUS
 10
14.1638887228
 20
50.9968209867
 11
13.1138887868
 21
50.9971875632
  0
LINE
  5
2A7
100
AcDbEntity
  8
0
100
AcDbLine
 62
7
  6
CONTINUOUS
 10
15.5638886375
 20
50.9963322181
 11
16.4138885857
 21
50.9960354657
  0
LINE
  5
2A8
100
AcDbEntity
  8
0
100
AcDbLine
 62
7
  6
CONTINUOUS
 10
16.8138890384
 20
50.9958958173
 11
17.6638889866
 21
50.9955990649
  0
LINE
  5
2A9
100
AcDbEntity
  8
0
100
AcDbLine
 62
7
  6
CONTINUOUS
 10
19.0638889012
 20
50.9951102963
 11
19.913889981
 21
50.9948135435
  0
LINE
  5
2AA
100
AcDbEntity
  8
0
100
AcDbLine
 62
7
  6
CONTINUOUS
 10
20.3138899566
 20
50.9946738953
 11
21.1638899048
 21
50.9943771429
  0
LINE
  5
2AB
100
AcDbEntity
  8
0
100
AcDbLine
 62
7
  6
CONTINUOUS
 10
22.5638898195
 20
50.9938883743
 11
23.4138897677
 21
50.9935916219
  0
LINE
  5
2AC
100
AcDbEntity
  8
0
100
AcDbLine
 62
7
  6
CONTINUOUS
 10
23.8138897433
 20
50.9934519737
 11
24.6638896915
 21
50.9931552213
  0
LINE
  5
2AD
100
AcDbEntity
  8
0
100
AcDbLine
 62
7
  6
CONTINUOUS
 10
26.0638896062
 20
50.9926664527
 11
26.9138895544
 21
50.9923697003
  0
LINE
  5
2AE
100
AcDbEntity
  8
0
100
AcDbLine
 62
7
  6
CONTINUOUS
 10
27.31388953
 20
50.9922300521
 11
28.1638894782
 21
50.9919332997
  0
LINE
  5
2AF
100
AcDbEntity
  8
0
100
AcDbLine
 62
7
  6
CONTINUOUS
 10
29.5638893929
 20
50.991444531
 11
30.4138893411
 21
50.9911477786
  0
LINE
  5
2B0
100
AcDbEntity
  8
0
100
AcDbLine
 62
7
  6
CONTINUOUS
 10
30.8138893167
 20
50.9910081305
 11
31.6638892649
 21
50.9907113781
  0
LINE
  5
2B1
100
AcDbEntity
  8
0
100
AcDbLine
 62
7
  6
CONTINUOUS
 10
33.0638891796
 20
50.9902226094
 11
34.113887507
 21
50.9898560335
  0
LINE
  5
2B2
100
AcDbEntity
  8
0
100
AcDbLine
 62
7
  6
CONTINUOUS
 10
41.6889129236
 20
50.9968080857
 11
40.6389129876
 21
50.9971746622
  0
LINE
  5
2B3
100
AcDbEntity
  8
0
100
AcDbLine
 62
7
  6
CONTINUOUS
 10
43.0889128383
 20
50.9963193171
 11
43.9389127865
 21
50.9960225647
  0
LINE
  5
2B4
100
AcDbEntity
  8
0
100
AcDbLine
 62
7
  6
CONTINUOUS
 10
44.3389132392
 20
50.9958829163
 11
45.1889131874
 21
50.9955861639
  0
LINE
  5
2B5
100
AcDbEntity
  8
0
100
AcDbLine
 62
7
  6
CONTINUOUS
 10
46.588913102
 20
50.9950973953
 11
47.4389141818
 21
50.9948006425
  0
LINE
  5
2B6
100
AcDbEntity
  8
0
100
AcDbLine
 62
7
  6
CONTINUOUS
 10
47.8389141574
 20
50.9946609943
 11
48.6889141056
 21
50.9943642419
  0
LINE
  5
2B7
100
AcDbEntity
  8
0
100
AcDbLine
 62
7
  6
CONTINUOUS
 10
50.0889140203
 20
50.9938754733
 11
50.9389139685
 21
50.9935787209
  0
LINE
  5
2B8
100
AcDbEntity
  8
0
100
AcDbLine
 62
7
  6
CONTINUOUS
 10
51.3389139441
 20
50.9934390727
 11
52.1889138923
 21
50.9931423203
  0
LINE
  5
2B9
100
AcDbEntity
  8
0
100
AcDbLine
 62
7
  6
CONTINUOUS
 10
53.588912618
 20
50.9926535521
 11
54.4389137552
 21
50.9923567993
  0
LINE
  5
2BA
100
AcDbEntity
  8
0
100
AcDbLine
 62
7
  6
CONTINUOUS
 10
54.8389137308
 20
50.9922171511
 11
55.688913679
 21
50.9919203987
  0
LINE
  5
2BB
100
AcDbEntity
  8
0
100
AcDbLine
 62
7
  6
CONTINUOUS
 10
57.0889135937
 20
50.99143163
 11
58.1389119211
 21
50.9910650541
  0
LINE
  5
2BC
100
AcDbEntity
  8
0
100
AcDbLine
 62
7
  6
CONTINUOUS
 10
59.1889131369
 20
50.9968209867
 11
58.1389132009
 21
50.9971875632
  0
LINE
  5
2BD
100
AcDbEntity
  8
0
100
AcDbLine
 62
7
  6
CONTINUOUS
 10
60.5889130516
 20
50.9963322181
 11
61.4389129998
 21
50.9960354657
  0
LINE
  5
2BE
100
AcDbEntity
  8
0
100
AcDbLine
 62
7
  6
CONTINUOUS
 10
61.8389134525
 20
50.9958958173
 11
62.6889134007
 21
50.9955990649
  0
LINE
  5
2BF
100
AcDbEntity
  8
0
100
AcDbLine
 62
7
  6
CONTINUOUS
 10
64.0889133153
 20
50.9951102963
 11
64.9389143951
 21
50.9948135435
  0
LINE
  5
2C0
100
AcDbEntity
  8
0
100
AcDbLine
 62
7
  6
CONTINUOUS
 10
65.3389143707
 20
50.9946738953
 11
66.1889143189
 21
50.9943771429
  0
LINE
  5
2C1
100
AcDbEntity
  8
0
100
AcDbLine
 62
7
  6
CONTINUOUS
 10
67.5889142336
 20
50.9938883743
 11
68.4389141818
 21
50.9935916219
  0
LINE
  5
2C2
100
AcDbEntity
  8
0
100
AcDbLine
 62
7
  6
CONTINUOUS
 10
68.8389141574
 20
50.9934519737
 11
69.6889141056
 21
50.9931552213
  0
LINE
  5
2C3
100
AcDbEntity
  8
0
100
AcDbLine
 62
7
  6
CONTINUOUS
 10
71.0889140203
 20
50.9926664527
 11
71.9389139685
 21
50.9923697003
  0
LINE
  5
2C4
100
AcDbEntity
  8
0
100
AcDbLine
 62
7
  6
CONTINUOUS
 10
72.3389139441
 20
50.9922300521
 11
73.1889138923
 21
50.9919332997
  0
LINE
  5
2C5
100
AcDbEntity
  8
0
100
AcDbLine
 62
7
  6
CONTINUOUS
 10
74.588913807
 20
50.991444531
 11
75.4389137552
 21
50.9911477786
  0
LINE
  5
2C6
100
AcDbEntity
  8
0
100
AcDbLine
 62
7
  6
CONTINUOUS
 10
75.8389137308
 20
50.9910081305
 11
76.688913679
 21
50.9907113781
  0
LINE
  5
2C7
100
AcDbEntity
  8
0
100
AcDbLine
 62
7
  6
CONTINUOUS
 10
78.0889135937
 20
50.9902226094
 11
79.1389119211
 21
50.9898560335
  0
LINE
  5
2C8
100
AcDbEntity
  8
0
100
AcDbLine
 62
7
  6
CONTINUOUS
 10
33.6141160744
 20
51.6400305536
 11
33.0641161079
 21
51.6402225698
  0
LINE
  5
2C9
100
AcDbEntity
  8
0
100
AcDbLine
 62
7
  6
CONTINUOUS
 10
31.6641161932
 20
51.6407113385
 11
31.1141162267
 21
51.6409033547
  0
LINE
  5
2CA
100
AcDbEntity
  8
0
100
AcDbLine
 62
7
  6
CONTINUOUS
 10
30.1141162876
 20
51.6412524752
 11
29.5641163212
 21
51.6414444914
  0
LINE
  5
2CB
100
AcDbEntity
  8
0
100
AcDbLine
 62
7
  6
CONTINUOUS
 10
28.1641164065
 20
51.6419332601
 11
27.61411644
 21
51.6421252763
  0
LINE
  5
2CC
100
AcDbEntity
  8
0
100
AcDbLine
 62
7
  6
CONTINUOUS
 10
26.6141165009
 20
51.6424743968
 11
26.0641165345
 21
51.642666413
  0
LINE
  5
2CD
100
AcDbEntity
  8
0
100
AcDbLine
 62
7
  6
CONTINUOUS
 10
24.6641166198
 20
51.6431551817
 11
24.1141166533
 21
51.6433471979
  0
LINE
  5
2CE
100
AcDbEntity
  8
0
100
AcDbLine
 62
7
  6
CONTINUOUS
 10
23.1141167142
 20
51.6436963184
 11
22.5641167478
 21
51.6438883347
  0
LINE
  5
2CF
100
AcDbEntity
  8
0
100
AcDbLine
 62
7
  6
CONTINUOUS
 10
21.1641168331
 20
51.6443771033
 11
20.6141168666
 21
51.6445691196
  0
LINE
  5
2D0
100
AcDbEntity
  8
0
100
AcDbLine
 62
7
  6
CONTINUOUS
 10
19.614115796
 20
51.6449182404
 11
19.0641158295
 21
51.6451102567
  0
LINE
  5
2D1
100
AcDbEntity
  8
0
100
AcDbLine
 62
7
  6
CONTINUOUS
 10
17.6641159149
 20
51.6455990253
 11
17.1141159484
 21
51.6457910416
  0
LINE
  5
2D2
100
AcDbEntity
  8
0
100
AcDbLine
 62
7
  6
CONTINUOUS
 10
16.1141155323
 20
51.6461401622
 11
15.5641155658
 21
51.6463321784
  0
LINE
  5
2D3
100
AcDbEntity
  8
0
100
AcDbLine
 62
7
  6
CONTINUOUS
 10
14.1641156511
 20
51.6468209471
 11
13.6141156846
 21
51.6470129633
  0
LINE
  5
2D4
100
AcDbEntity
  8
0
100
AcDbLine
 62
7
  6
CONTINUOUS
 10
57.6391404884
 20
51.6412395742
 11
57.089140522
 21
51.6414315904
  0
LINE
  5
2D5
100
AcDbEntity
  8
0
100
AcDbLine
 62
7
  6
CONTINUOUS
 10
55.6891406073
 20
51.6419203591
 11
55.1391406408
 21
51.6421123753
  0
LINE
  5
2D6
100
AcDbEntity
  8
0
100
AcDbLine
 62
7
  6
CONTINUOUS
 10
54.1391407017
 20
51.6424614958
 11
53.5891395463
 21
51.6426535125
  0
LINE
  5
2D7
100
AcDbEntity
  8
0
100
AcDbLine
 62
7
  6
CONTINUOUS
 10
52.1891408206
 20
51.6431422807
 11
51.6391408541
 21
51.6433342969
  0
LINE
  5
2D8
100
AcDbEntity
  8
0
100
AcDbLine
 62
7
  6
CONTINUOUS
 10
50.639140915
 20
51.6436834174
 11
50.0891409486
 21
51.6438754337
  0
LINE
  5
2D9
100
AcDbEntity
  8
0
100
AcDbLine
 62
7
  6
CONTINUOUS
 10
48.6891410339
 20
51.6443642023
 11
48.1391410674
 21
51.6445562186
  0
LINE
  5
2DA
100
AcDbEntity
  8
0
100
AcDbLine
 62
7
  6
CONTINUOUS
 10
47.1391399968
 20
51.6449053394
 11
46.5891400303
 21
51.6450973557
  0
LINE
  5
2DB
100
AcDbEntity
  8
0
100
AcDbLine
 62
7
  6
CONTINUOUS
 10
45.1891401157
 20
51.6455861243
 11
44.6391401492
 21
51.6457781406
  0
LINE
  5
2DC
100
AcDbEntity
  8
0
100
AcDbLine
 62
7
  6
CONTINUOUS
 10
43.6391397331
 20
51.6461272612
 11
43.0891397666
 21
51.6463192775
  0
LINE
  5
2DD
100
AcDbEntity
  8
0
100
AcDbLine
 62
7
  6
CONTINUOUS
 10
41.6891398519
 20
51.6468080461
 11
41.1391398854
 21
51.6470000624
  0
LINE
  5
2DE
100
AcDbEntity
  8
0
100
AcDbLine
 62
7
  6
CONTINUOUS
 10
78.6391404885
 20
51.6400305536
 11
78.089140522
 21
51.6402225698
  0
LINE
  5
2DF
100
AcDbEntity
  8
0
100
AcDbLine
 62
7
  6
CONTINUOUS
 10
76.6891406073
 20
51.6407113385
 11
76.1391406408
 21
51.6409033547
  0
LINE
  5
2E0
100
AcDbEntity
  8
0
100
AcDbLine
 62
7
  6
CONTINUOUS
 10
75.1391407017
 20
51.6412524752
 11
74.5891407353
 21
51.6414444914
  0
LINE
  5
2E1
100
AcDbEntity
  8
0
100
AcDbLine
 62
7
  6
CONTINUOUS
 10
73.1891408206
 20
51.6419332601
 11
72.6391408541
 21
51.6421252763
  0
LINE
  5
2E2
100
AcDbEntity
  8
0
100
AcDbLine
 62
7
  6
CONTINUOUS
 10
71.639140915
 20
51.6424743968
 11
71.0891409486
 21
51.642666413
  0
LINE
  5
2E3
100
AcDbEntity
  8
0
100
AcDbLine
 62
7
  6
CONTINUOUS
 10
69.6891410339
 20
51.6431551817
 11
69.1391410674
 21
51.6433471979
  0
LINE
  5
2E4
100
AcDbEntity
  8
0
100
AcDbLine
 62
7
  6
CONTINUOUS
 10
68.1391411283
 20
51.6436963184
 11
67.5891411619
 21
51.6438883347
  0
LINE
  5
2E5
100
AcDbEntity
  8
0
100
AcDbLine
 62
7
  6
CONTINUOUS
 10
66.1891412472
 20
51.6443771033
 11
65.6391412807
 21
51.6445691196
  0
LINE
  5
2E6
100
AcDbEntity
  8
0
100
AcDbLine
 62
7
  6
CONTINUOUS
 10
64.6391402101
 20
51.6449182404
 11
64.0891402436
 21
51.6451102567
  0
LINE
  5
2E7
100
AcDbEntity
  8
0
100
AcDbLine
 62
7
  6
CONTINUOUS
 10
62.689140329
 20
51.6455990253
 11
62.1391403625
 21
51.6457910416
  0
LINE
  5
2E8
100
AcDbEntity
  8
0
100
AcDbLine
 62
7
  6
CONTINUOUS
 10
61.1391399464
 20
51.6461401622
 11
60.5891399799
 21
51.6463321784
  0
LINE
  5
2E9
100
AcDbEntity
  8
0
100
AcDbLine
 62
7
  6
CONTINUOUS
 10
59.1891400652
 20
51.6468209471
 11
58.6391400987
 21
51.6470129633
  0
LINE
  5
2EA
100
AcDbEntity
  8
0
100
AcDbLine
 62
7
  6
CONTINUOUS
 10
34.8128837394
 20
91.7350003897
 11
34.8128837394
 21
93.9794768864
  0
LINE
  5
2EB
100
AcDbEntity
  8
0
100
AcDbLine
 62
7
  6
CONTINUOUS
 10
35.1628837394
 20
54.4911113489
 11
35.1628837394
 21
45.9314359289
  0
LINE
  5
2EC
100
AcDbEntity
  8
0
100
AcDbLine
 62
7
  6
CONTINUOUS
 10
34.7134676922
 20
49.7860567955
 11
34.712876694
 21
48.0932365757
  0
LINE
  5
2ED
100
AcDbEntity
  8
0
100
AcDbLine
 62
7
  6
CONTINUOUS
 10
12.1628837394
 20
54.4911113489
 11
35.1628837394
 21
54.4911113489
  0
LINE
  5
2EE
100
AcDbEntity
  8
0
100
AcDbLine
 62
7
  6
CONTINUOUS
 10
39.8628837394
 20
54.4911113489
 11
80.5628837394
 21
54.4911113489
  0
LINE
  5
2EF
100
AcDbEntity
  8
0
100
AcDbLine
 62
7
  6
CONTINUOUS
 10
13.6143426129
 20
52.2970129237
 11
16.1143424606
 21
52.2961401226
  0
LINE
  5
2F0
100
AcDbEntity
  8
0
100
AcDbLine
 62
7
  6
CONTINUOUS
 10
17.1143428767
 20
52.2957910019
 11
19.6143427243
 21
52.2949182008
  0
LINE
  5
2F1
100
AcDbEntity
  8
0
100
AcDbLine
 62
7
  6
CONTINUOUS
 10
20.6143437949
 20
52.2945690799
 11
23.1143436425
 21
52.2936962788
  0
LINE
  5
2F2
100
AcDbEntity
  8
0
100
AcDbLine
 62
7
  6
CONTINUOUS
 10
24.1143435816
 20
52.2933471583
 11
26.6143434292
 21
52.2924743572
  0
LINE
  5
2F3
100
AcDbEntity
  8
0
100
AcDbLine
 62
7
  6
CONTINUOUS
 10
27.6143433683
 20
52.2921252367
 11
30.1143432159
 21
52.2912524356
  0
LINE
  5
2F4
100
AcDbEntity
  8
0
100
AcDbLine
 62
7
  6
CONTINUOUS
 10
31.114343155
 20
52.2909033151
 11
33.6143430027
 21
52.2900305139
  0
LINE
  5
2F5
100
AcDbEntity
  8
0
100
AcDbLine
 62
7
  6
CONTINUOUS
 10
41.1393668137
 20
52.2970000227
 11
43.6393666614
 21
52.2961272216
  0
LINE
  5
2F6
100
AcDbEntity
  8
0
100
AcDbLine
 62
7
  6
CONTINUOUS
 10
44.6393670775
 20
52.295778101
 11
47.1393669251
 21
52.2949052998
  0
LINE
  5
2F7
100
AcDbEntity
  8
0
100
AcDbLine
 62
7
  6
CONTINUOUS
 10
48.1393679957
 20
52.294556179
 11
50.6393678433
 21
52.2936833778
  0
LINE
  5
2F8
100
AcDbEntity
  8
0
100
AcDbLine
 62
7
  6
CONTINUOUS
 10
51.6393677824
 20
52.2933342573
 11
54.13936763
 21
52.2924614562
  0
LINE
  5
2F9
100
AcDbEntity
  8
0
100
AcDbLine
 62
7
  6
CONTINUOUS
 10
55.1393675691
 20
52.2921123357
 11
57.6393674167
 21
52.2912395346
  0
LINE
  5
2FA
100
AcDbEntity
  8
0
100
AcDbLine
 62
7
  6
CONTINUOUS
 10
58.639367027
 20
52.2970129237
 11
61.1393668747
 21
52.2961401226
  0
LINE
  5
2FB
100
AcDbEntity
  8
0
100
AcDbLine
 62
7
  6
CONTINUOUS
 10
62.1393672908
 20
52.2957910019
 11
64.6393671384
 21
52.2949182008
  0
LINE
  5
2FC
100
AcDbEntity
  8
0
100
AcDbLine
 62
7
  6
CONTINUOUS
 10
65.639368209
 20
52.2945690799
 11
68.1393680566
 21
52.2936962788
  0
LINE
  5
2FD
100
AcDbEntity
  8
0
100
AcDbLine
 62
7
  6
CONTINUOUS
 10
69.1393679957
 20
52.2933471583
 11
71.6393678433
 21
52.2924743572
  0
LINE
  5
2FE
100
AcDbEntity
  8
0
100
AcDbLine
 62
7
  6
CONTINUOUS
 10
72.6393677824
 20
52.2921252367
 11
75.13936763
 21
52.2912524356
  0
LINE
  5
2FF
100
AcDbEntity
  8
0
100
AcDbLine
 62
7
  6
CONTINUOUS
 10
76.1393675691
 20
52.2909033151
 11
78.6393674168
 21
52.2900305139
  0
LINE
  5
300
100
AcDbEntity
  8
0
100
AcDbLine
 62
7
  6
CONTINUOUS
 10
34.114655572
 20
53.1898558994
 11
13.1146568518
 21
53.1971874291
  0
LINE
  5
301
100
AcDbEntity
  8
0
100
AcDbLine
 62
7
  6
CONTINUOUS
 10
58.1396810585
 20
53.1910649197
 11
40.6396810526
 21
53.1971745281
  0
LINE
  5
302
100
AcDbEntity
  8
0
100
AcDbLine
 62
7
  6
CONTINUOUS
 10
79.1396799861
 20
53.1898558994
 11
58.1396812659
 21
53.1971874291
  0
LINE
  5
303
100
AcDbEntity
  8
0
100
AcDbLine
 62
7
  6
CONTINUOUS
 10
38.8128837394
 20
39.4911113489
 11
38.8128837394
 21
35.7265072419
  0
LINE
  5
304
100
AcDbEntity
  8
0
100
AcDbLine
 62
7
  6
CONTINUOUS
 10
39.8128837394
 20
91.7350003897
 11
39.8128837394
 21
93.9794768864
  0
LINE
  5
305
100
AcDbEntity
  8
0
100
AcDbLine
 62
7
  6
CONTINUOUS
 10
39.8628837394
 20
45.9314359289
 11
39.8628837394
 21
54.4911113489
  0
LINE
  5
306
100
AcDbEntity
  8
0
100
AcDbLine
 62
7
  6
CONTINUOUS
 10
40.6371499293
 20
45.94717497
 11
40.6396810526
 21
53.1971745281
  0
LINE
  5
307
100
AcDbEntity
  8
0
100
AcDbLine
 62
7
  6
CONTINUOUS
 10
43.4134061706
 20
69.3220952229
 11
44.0135274623
 21
69.6682961856
  0
LINE
  5
308
100
AcDbEntity
  8
0
100
AcDbLine
 62
7
  6
CONTINUOUS
 10
58.138021664
 20
48.4410654514
 11
58.7379011081
 21
48.0944455963
  0
LINE
  5
309
100
AcDbEntity
  8
0
100
AcDbLine
 62
7
  6
CONTINUOUS
 10
40.8128837394
 20
34.4911113489
 11
40.8128837394
 21
36.9911113489
  0
LINE
  5
30A
100
AcDbEntity
  8
0
100
AcDbLine
 62
7
  6
CONTINUOUS
 10
41.5628837394
 20
82.9911113489
 11
41.5628837394
 21
54.4911113489
  0
LINE
  5
30B
100
AcDbEntity
  8
0
100
AcDbLine
 62
7
  6
CONTINUOUS
 10
41.5628837394
 20
34.4911113489
 11
41.5628837394
 21
38.1411113489
  0
LINE
  5
30C
100
AcDbEntity
  8
0
100
AcDbLine
 62
7
  6
CONTINUOUS
 10
42.4128845779
 20
64.166031707
 11
42.4128844345
 21
65.806356087
  0
LINE
  5
30D
100
AcDbEntity
  8
0
100
AcDbLine
 62
7
  6
CONTINUOUS
 10
43.5628837394
 20
82.9911113489
 11
43.5628837394
 21
78.0911113489
  0
LINE
  5
30E
100
AcDbEntity
  8
0
100
AcDbLine
 62
7
  6
CONTINUOUS
 10
41.1391398854
 20
51.6470000624
 11
41.1393668137
 21
52.2970000227
  0
LINE
  5
30F
100
AcDbEntity
  8
0
100
AcDbLine
 62
7
  6
CONTINUOUS
 10
41.2384931728
 20
49.7933754242
 11
41.2379021746
 21
48.1005552044
  0
LINE
  5
310
100
AcDbEntity
  8
0
100
AcDbLine
 62
7
  6
CONTINUOUS
 10
41.6889129236
 20
50.9968080857
 11
41.6891398519
 21
51.6468080461
  0
LINE
  5
311
100
AcDbEntity
  8
0
100
AcDbLine
 62
7
  6
CONTINUOUS
 10
41.9880579304
 20
48.5467034987
 11
41.9883372267
 21
49.3467034499
  0
LINE
  5
312
100
AcDbEntity
  8
0
100
AcDbLine
 62
7
  6
CONTINUOUS
 10
42.788337178
 20
49.3464241536
 11
42.7880578816
 21
48.5464242023
  0
LINE
  5
313
100
AcDbEntity
  8
0
100
AcDbLine
 62
7
  6
CONTINUOUS
 10
43.0891397666
 20
51.6463192775
 11
43.0889128383
 21
50.9963193171
  0
LINE
  5
314
100
AcDbEntity
  8
0
100
AcDbLine
 62
7
  6
CONTINUOUS
 10
43.4121845548
 20
65.8220950843
 11
43.4147150443
 21
73.0720946427
  0
LINE
  5
315
100
AcDbEntity
  8
0
100
AcDbLine
 62
7
  6
CONTINUOUS
 10
43.6393666614
 20
52.2961272216
 11
43.6391397331
 21
51.6461272612
  0
LINE
  5
316
100
AcDbEntity
  8
0
100
AcDbLine
 62
7
  6
CONTINUOUS
 10
80.5628837394
 20
61.0911113489
 11
41.5628837394
 21
61.0911113489
  0
LINE
  5
317
100
AcDbEntity
  8
0
100
AcDbLine
 62
7
  6
CONTINUOUS
 10
45.5628837394
 20
78.0911113489
 11
45.5628837394
 21
82.9911113489
  0
LINE
  5
318
100
AcDbEntity
  8
0
100
AcDbLine
 62
7
  6
CONTINUOUS
 10
43.9141740127
 20
71.5219202206
 11
43.9144008841
 21
72.171920181
  0
LINE
  5
319
100
AcDbEntity
  8
0
100
AcDbLine
 62
7
  6
CONTINUOUS
 10
43.9389127865
 20
50.9960225647
 11
43.9374115685
 21
46.6960228267
  0
LINE
  5
31A
100
AcDbEntity
  8
0
100
AcDbLine
 62
7
  6
CONTINUOUS
 10
44.0135274623
 20
69.6682961856
 11
44.0129366121
 21
67.9754759657
  0
LINE
  5
31B
100
AcDbEntity
  8
0
100
AcDbLine
 62
7
  6
CONTINUOUS
 10
44.3374120212
 20
46.6958831784
 11
44.3389132392
 21
50.9958829163
  0
LINE
  5
31C
100
AcDbEntity
  8
0
100
AcDbLine
 62
7
  6
CONTINUOUS
 10
44.4639471077
 20
70.871728292
 11
44.4641739792
 21
71.5217282524
  0
LINE
  5
31D
100
AcDbEntity
  8
0
100
AcDbLine
 62
7
  6
CONTINUOUS
 10
44.6391401492
 20
51.6457781406
 11
44.6393670775
 21
52.295778101
  0
LINE
  5
31E
100
AcDbEntity
  8
0
100
AcDbLine
 62
7
  6
CONTINUOUS
 10
44.7630923287
 20
68.421623836
 11
44.7633715551
 21
69.2216237873
  0
LINE
  5
31F
100
AcDbEntity
  8
0
100
AcDbLine
 62
7
  6
CONTINUOUS
 10
45.1889131874
 20
50.9955861639
 11
45.1891401157
 21
51.6455861243
  0
LINE
  5
320
100
AcDbEntity
  8
0
100
AcDbLine
 62
7
  6
CONTINUOUS
 10
45.4880577171
 20
48.5454815771
 11
45.4883370134
 21
49.3454815283
  0
LINE
  5
321
100
AcDbEntity
  8
0
100
AcDbLine
 62
7
  6
CONTINUOUS
 10
45.5633715064
 20
69.2213445609
 11
45.5630922799
 21
68.4213446096
  0
LINE
  5
322
100
AcDbEntity
  8
0
100
AcDbLine
 62
7
  6
CONTINUOUS
 10
45.8641738939
 20
71.5212396061
 11
45.8639470224
 21
70.8712396457
  0
LINE
  5
323
100
AcDbEntity
  8
0
100
AcDbLine
 62
7
  6
CONTINUOUS
 10
46.2883369647
 20
49.3452022319
 11
46.2880576683
 21
48.5452022807
  0
LINE
  5
324
100
AcDbEntity
  8
0
100
AcDbLine
 62
7
  6
CONTINUOUS
 10
46.4144007319
 20
72.1710475984
 11
46.4141738604
 21
71.521047638
  0
LINE
  5
325
100
AcDbEntity
  8
0
100
AcDbLine
 62
7
  6
CONTINUOUS
 10
46.5891400303
 20
51.6450973557
 11
46.588913102
 21
50.9950973953
  0
LINE
  5
326
100
AcDbEntity
  8
0
100
AcDbLine
 62
7
  6
CONTINUOUS
 10
46.7139469706
 20
70.8709429677
 11
46.7124461286
 21
66.5709432296
  0
LINE
  5
327
100
AcDbEntity
  8
0
100
AcDbLine
 62
7
  6
CONTINUOUS
 10
80.4128822379
 20
64.1660350291
 11
42.4128845779
 21
64.166031707
  0
LINE
  5
328
100
AcDbEntity
  8
0
100
AcDbLine
 62
7
  6
CONTINUOUS
 10
47.5628837394
 20
82.9911113489
 11
47.5628837394
 21
78.0911113489
  0
LINE
  5
329
100
AcDbEntity
  8
0
100
AcDbLine
 62
7
  6
CONTINUOUS
 10
49.5628837394
 20
78.0911113489
 11
49.5628837394
 21
82.9911113489
  0
LINE
  5
32A
100
AcDbEntity
  8
0
100
AcDbLine
 62
7
  6
CONTINUOUS
 10
47.1124465813
 20
66.5708036162
 11
47.1139474233
 21
70.8708033543
  0
LINE
  5
32B
100
AcDbEntity
  8
0
100
AcDbLine
 62
7
  6
CONTINUOUS
 10
47.1393669251
 20
52.2949052998
 11
47.1391399968
 21
51.6449053394
  0
LINE
  5
32C
100
AcDbEntity
  8
0
100
AcDbLine
 62
7
  6
CONTINUOUS
 10
47.4141742765
 20
71.5206986048
 11
47.414401148
 21
72.1706985652
  0
LINE
  5
32D
100
AcDbEntity
  8
0
100
AcDbLine
 62
7
  6
CONTINUOUS
 10
47.4389141818
 20
50.9948006425
 11
47.4374129638
 21
46.6948009046
  0
LINE
  5
32E
100
AcDbEntity
  8
0
100
AcDbLine
 62
7
  6
CONTINUOUS
 10
47.8374129394
 20
46.6946612564
 11
47.8389141574
 21
50.9946609943
  0
LINE
  5
32F
100
AcDbEntity
  8
0
100
AcDbLine
 62
7
  6
CONTINUOUS
 10
47.9639473716
 20
70.8705066762
 11
47.964174243
 21
71.5205066366
  0
LINE
  5
330
100
AcDbEntity
  8
0
100
AcDbLine
 62
7
  6
CONTINUOUS
 10
48.1391410674
 20
51.6445562186
 11
48.1393679957
 21
52.294556179
  0
LINE
  5
331
100
AcDbEntity
  8
0
100
AcDbLine
 62
7
  6
CONTINUOUS
 10
48.2630921155
 20
68.4204022204
 11
48.2633713419
 21
69.2204021717
  0
LINE
  5
332
100
AcDbEntity
  8
0
100
AcDbLine
 62
7
  6
CONTINUOUS
 10
48.6889141056
 20
50.9943642419
 11
48.6891410339
 21
51.6443642023
  0
LINE
  5
333
100
AcDbEntity
  8
0
100
AcDbLine
 62
7
  6
CONTINUOUS
 10
48.9880583761
 20
48.5442596551
 11
48.9883376724
 21
49.3442596064
  0
LINE
  5
334
100
AcDbEntity
  8
0
100
AcDbLine
 62
7
  6
CONTINUOUS
 10
49.0633712932
 20
69.2201229452
 11
49.0630920668
 21
68.420122994
  0
LINE
  5
335
100
AcDbEntity
  8
0
100
AcDbLine
 62
7
  6
CONTINUOUS
 10
49.3641741578
 20
71.5200179903
 11
49.3639472863
 21
70.8700180299
  0
LINE
  5
336
100
AcDbEntity
  8
0
100
AcDbLine
 62
7
  6
CONTINUOUS
 10
49.7883376237
 20
49.34398031
 11
49.7880583273
 21
48.5439803588
  0
LINE
  5
337
100
AcDbEntity
  8
0
100
AcDbLine
 62
7
  6
CONTINUOUS
 10
49.9144009957
 20
72.1698259826
 11
49.9141741243
 21
71.5198260222
  0
LINE
  5
338
100
AcDbEntity
  8
0
100
AcDbLine
 62
7
  6
CONTINUOUS
 10
50.0891409486
 20
51.6438754337
 11
50.0889140203
 21
50.9938754733
  0
LINE
  5
339
100
AcDbEntity
  8
0
100
AcDbLine
 62
7
  6
CONTINUOUS
 10
60.9134061706
 20
69.3220967528
 11
61.5135274623
 21
69.6682977155
  0
LINE
  5
33A
100
AcDbEntity
  8
0
100
AcDbLine
 62
7
  6
CONTINUOUS
 10
61.5135263964
 20
69.6621881074
 11
60.9134051046
 21
69.3159871447
  0
LINE
  5
33B
100
AcDbEntity
  8
0
100
AcDbLine
 62
7
  6
CONTINUOUS
 10
42.4128844345
 20
65.806356087
 11
80.4128820945
 21
65.8063594091
  0
LINE
  5
33C
100
AcDbEntity
  8
0
100
AcDbLine
 62
7
  6
CONTINUOUS
 10
60.9121834888
 20
65.8159870061
 11
43.4121845548
 21
65.8220950843
  0
LINE
  5
33D
100
AcDbEntity
  8
0
100
AcDbLine
 62
7
  6
CONTINUOUS
 10
78.4121834888
 20
65.815988536
 11
60.9121845548
 21
65.8220966142
  0
LINE
  5
33E
100
AcDbEntity
  8
0
100
AcDbLine
 62
7
  6
CONTINUOUS
 10
58.2459318956
 20
66.5669176618
 11
57.6124470732
 21
66.5671387689
  0
LINE
  5
33F
100
AcDbEntity
  8
0
100
AcDbLine
 62
7
  6
CONTINUOUS
 10
57.2124470976
 20
66.5672783821
 11
56.5789622752
 21
66.5674994893
  0
LINE
  5
340
100
AcDbEntity
  8
0
100
AcDbLine
 62
7
  6
CONTINUOUS
 10
54.7459321088
 20
66.5681392774
 11
54.1124472864
 21
66.5683603845
  0
LINE
  5
341
100
AcDbEntity
  8
0
100
AcDbLine
 62
7
  6
CONTINUOUS
 10
53.7124473108
 20
66.5684999977
 11
53.0789624883
 21
66.5687211049
  0
LINE
  5
342
100
AcDbEntity
  8
0
100
AcDbLine
 62
7
  6
CONTINUOUS
 10
51.245932322
 20
66.569360893
 11
50.6124474996
 21
66.5695820002
  0
LINE
  5
343
100
AcDbEntity
  8
0
100
AcDbLine
 62
7
  6
CONTINUOUS
 10
47.7459314037
 20
66.5705825091
 11
47.1124465813
 21
66.5708036162
  0
LINE
  5
344
100
AcDbEntity
  8
0
100
AcDbLine
 62
7
  6
CONTINUOUS
 10
46.7124461286
 20
66.5709432296
 11
46.0789613062
 21
66.5711643367
  0
LINE
  5
345
100
AcDbEntity
  8
0
100
AcDbLine
 62
7
  6
CONTINUOUS
 10
44.2459311398
 20
66.5718041249
 11
43.4124463296
 21
66.5720950386
  0
LINE
  5
346
100
AcDbEntity
  8
0
100
AcDbLine
 62
7
  6
CONTINUOUS
 10
49.5789618396
 20
66.5699427208
 11
50.212447524
 21
66.5697216134
  0
LINE
  5
347
100
AcDbEntity
  8
0
100
AcDbLine
 62
7
  6
CONTINUOUS
 10
60.078962062
 20
66.5662778736
 11
60.9124452636
 21
66.5659869604
  0
LINE
  5
348
100
AcDbEntity
  8
0
100
AcDbLine
 62
7
  6
CONTINUOUS
 10
75.7459318956
 20
66.5669191917
 11
75.1124470732
 21
66.5671402988
  0
LINE
  5
349
100
AcDbEntity
  8
0
100
AcDbLine
 62
7
  6
CONTINUOUS
 10
74.7124470976
 20
66.567279912
 11
74.0789622752
 21
66.5675010192
  0
LINE
  5
34A
100
AcDbEntity
  8
0
100
AcDbLine
 62
7
  6
CONTINUOUS
 10
72.2459321088
 20
66.5681408073
 11
71.6124472864
 21
66.5683619144
  0
LINE
  5
34B
100
AcDbEntity
  8
0
100
AcDbLine
 62
7
  6
CONTINUOUS
 10
71.2124473108
 20
66.5685015276
 11
70.5789624883
 21
66.5687226348
  0
LINE
  5
34C
100
AcDbEntity
  8
0
100
AcDbLine
 62
7
  6
CONTINUOUS
 10
68.745932322
 20
66.5693624229
 11
68.1124474996
 21
66.5695835301
  0
LINE
  5
34D
100
AcDbEntity
  8
0
100
AcDbLine
 62
7
  6
CONTINUOUS
 10
65.2459314037
 20
66.570584039
 11
64.6124465813
 21
66.5708051461
  0
LINE
  5
34E
100
AcDbEntity
  8
0
100
AcDbLine
 62
7
  6
CONTINUOUS
 10
64.2124461286
 20
66.5709447595
 11
63.5789613062
 21
66.5711658666
  0
LINE
  5
34F
100
AcDbEntity
  8
0
100
AcDbLine
 62
7
  6
CONTINUOUS
 10
61.7459311398
 20
66.5718056548
 11
60.9124463296
 21
66.5720965685
  0
LINE
  5
350
100
AcDbEntity
  8
0
100
AcDbLine
 62
7
  6
CONTINUOUS
 10
67.0789618396
 20
66.5699442507
 11
67.712447524
 21
66.5697231433
  0
LINE
  5
351
100
AcDbEntity
  8
0
100
AcDbLine
 62
7
  6
CONTINUOUS
 10
77.578962062
 20
66.5662794035
 11
78.4124452636
 21
66.5659884903
  0
LINE
  5
352
100
AcDbEntity
  8
0
100
AcDbLine
 62
7
  6
CONTINUOUS
 10
44.0129366121
 20
67.9754759657
 11
43.4130571377
 21
68.3220957683
  0
LINE
  5
353
100
AcDbEntity
  8
0
100
AcDbLine
 62
7
  6
CONTINUOUS
 10
79.138021664
 20
48.4398564308
 11
79.7379011081
 21
48.0932365757
  0
LINE
  5
354
100
AcDbEntity
  8
0
100
AcDbLine
 62
7
  6
CONTINUOUS
 10
51.5628837394
 20
82.9911113489
 11
51.5628837394
 21
78.0911113489
  0
LINE
  5
355
100
AcDbEntity
  8
0
100
AcDbLine
 62
7
  6
CONTINUOUS
 10
51.5628837394
 20
38.1411113489
 11
51.5628837394
 21
34.4911113489
  0
LINE
  5
356
100
AcDbEntity
  8
0
100
AcDbLine
 62
7
  6
CONTINUOUS
 10
52.3128837394
 20
34.4911113489
 11
52.3128837394
 21
36.9911113489
  0
LINE
  5
357
100
AcDbEntity
  8
0
100
AcDbLine
 62
7
  6
CONTINUOUS
 10
50.213948366
 20
70.8697213515
 11
50.212447524
 21
66.5697216134
  0
LINE
  5
358
100
AcDbEntity
  8
0
100
AcDbLine
 62
7
  6
CONTINUOUS
 10
50.6124474996
 20
66.5695820002
 11
50.6139483417
 21
70.8695817382
  0
LINE
  5
359
100
AcDbEntity
  8
0
100
AcDbLine
 62
7
  6
CONTINUOUS
 10
50.6393678433
 20
52.2936833778
 11
50.639140915
 21
51.6436834174
  0
LINE
  5
35A
100
AcDbEntity
  8
0
100
AcDbLine
 62
7
  6
CONTINUOUS
 10
50.9141751949
 20
71.5194769887
 11
50.9144020663
 21
72.1694769491
  0
LINE
  5
35B
100
AcDbEntity
  8
0
100
AcDbLine
 62
7
  6
CONTINUOUS
 10
50.9389139685
 20
50.9935787209
 11
50.9374127505
 21
46.6935789829
  0
LINE
  5
35C
100
AcDbEntity
  8
0
100
AcDbLine
 62
7
  6
CONTINUOUS
 10
51.3374127261
 20
46.6934393348
 11
51.3389139441
 21
50.9934390727
  0
LINE
  5
35D
100
AcDbEntity
  8
0
100
AcDbLine
 62
7
  6
CONTINUOUS
 10
51.4639482899
 20
70.8692850602
 11
51.4641751614
 21
71.5192850206
  0
LINE
  5
35E
100
AcDbEntity
  8
0
100
AcDbLine
 62
7
  6
CONTINUOUS
 10
51.6391408541
 20
51.6433342969
 11
51.6393677824
 21
52.2933342573
  0
LINE
  5
35F
100
AcDbEntity
  8
0
100
AcDbLine
 62
7
  6
CONTINUOUS
 10
51.7630927746
 20
68.4191806044
 11
51.763372001
 21
69.2191805557
  0
LINE
  5
360
100
AcDbEntity
  8
0
100
AcDbLine
 62
7
  6
CONTINUOUS
 10
52.1889138923
 20
50.9931423203
 11
52.1891408206
 21
51.6431422807
  0
LINE
  5
361
100
AcDbEntity
  8
0
100
AcDbLine
 62
7
  6
CONTINUOUS
 10
52.4880581628
 20
48.5430377335
 11
52.4883374591
 21
49.3430376848
  0
LINE
  5
362
100
AcDbEntity
  8
0
100
AcDbLine
 62
7
  6
CONTINUOUS
 10
52.5633719523
 20
69.2189013293
 11
52.5630927259
 21
68.418901378
  0
LINE
  5
363
100
AcDbEntity
  8
0
100
AcDbLine
 62
7
  6
CONTINUOUS
 10
52.8641750761
 20
71.5187963743
 11
52.8639482046
 21
70.8687964139
  0
LINE
  5
364
100
AcDbEntity
  8
0
100
AcDbLine
 62
7
  6
CONTINUOUS
 10
34.7134676922
 20
49.7860567955
 11
34.1133463702
 21
49.4398558853
  0
LINE
  5
365
100
AcDbEntity
  8
0
100
AcDbLine
 62
7
  6
CONTINUOUS
 10
82.5628837394
 20
67.8959842314
 11
80.5628837394
 21
67.8959842314
  0
LINE
  5
366
100
AcDbEntity
  8
0
100
AcDbLine
 62
7
  6
CONTINUOUS
 10
59.5630922995
 20
68.4164581468
 11
58.7630923482
 21
68.4167373732
  0
LINE
  5
367
100
AcDbEntity
  8
0
100
AcDbLine
 62
7
  6
CONTINUOUS
 10
56.0630925127
 20
68.4176797624
 11
55.2630925614
 21
68.4179589888
  0
LINE
  5
368
100
AcDbEntity
  8
0
100
AcDbLine
 62
7
  6
CONTINUOUS
 10
52.5630927259
 20
68.418901378
 11
51.7630927746
 21
68.4191806044
  0
LINE
  5
369
100
AcDbEntity
  8
0
100
AcDbLine
 62
7
  6
CONTINUOUS
 10
49.0630920668
 20
68.420122994
 11
48.2630921155
 21
68.4204022204
  0
LINE
  5
36A
100
AcDbEntity
  8
0
100
AcDbLine
 62
7
  6
CONTINUOUS
 10
45.5630922799
 20
68.4213446096
 11
44.7630923287
 21
68.421623836
  0
LINE
  5
36B
100
AcDbEntity
  8
0
100
AcDbLine
 62
7
  6
CONTINUOUS
 10
77.0630922995
 20
68.4164596767
 11
76.2630923482
 21
68.4167389031
  0
LINE
  5
36C
100
AcDbEntity
  8
0
100
AcDbLine
 62
7
  6
CONTINUOUS
 10
73.5630925127
 20
68.4176812923
 11
72.7630925614
 21
68.4179605187
  0
LINE
  5
36D
100
AcDbEntity
  8
0
100
AcDbLine
 62
7
  6
CONTINUOUS
 10
70.0630927259
 20
68.4189029079
 11
69.2630927746
 21
68.4191821343
  0
LINE
  5
36E
100
AcDbEntity
  8
0
100
AcDbLine
 62
7
  6
CONTINUOUS
 10
66.5630920668
 20
68.4201245239
 11
65.7630921155
 21
68.4204037503
  0
LINE
  5
36F
100
AcDbEntity
  8
0
100
AcDbLine
 62
7
  6
CONTINUOUS
 10
63.0630922799
 20
68.4213461395
 11
62.2630923287
 21
68.4216253659
  0
LINE
  5
370
100
AcDbEntity
  8
0
100
AcDbLine
 62
7
  6
CONTINUOUS
 10
44.7633715551
 20
69.2216237873
 11
45.5633715064
 21
69.2213445609
  0
LINE
  5
371
100
AcDbEntity
  8
0
100
AcDbLine
 62
7
  6
CONTINUOUS
 10
48.2633713419
 20
69.2204021717
 11
49.0633712932
 21
69.2201229452
  0
LINE
  5
372
100
AcDbEntity
  8
0
100
AcDbLine
 62
7
  6
CONTINUOUS
 10
51.763372001
 20
69.2191805557
 11
52.5633719523
 21
69.2189013293
  0
LINE
  5
373
100
AcDbEntity
  8
0
100
AcDbLine
 62
7
  6
CONTINUOUS
 10
55.2633717878
 20
69.2179589401
 11
56.0633717391
 21
69.2176797137
  0
LINE
  5
374
100
AcDbEntity
  8
0
100
AcDbLine
 62
7
  6
CONTINUOUS
 10
58.7633715746
 20
69.2167373245
 11
59.5633715259
 21
69.216458098
  0
LINE
  5
375
100
AcDbEntity
  8
0
100
AcDbLine
 62
7
  6
CONTINUOUS
 10
62.2633715551
 20
69.2216253172
 11
63.0633715064
 21
69.2213460908
  0
LINE
  5
376
100
AcDbEntity
  8
0
100
AcDbLine
 62
7
  6
CONTINUOUS
 10
65.7633713419
 20
69.2204037016
 11
66.5633712932
 21
69.2201244751
  0
LINE
  5
377
100
AcDbEntity
  8
0
100
AcDbLine
 62
7
  6
CONTINUOUS
 10
69.263372001
 20
69.2191820856
 11
70.0633719523
 21
69.2189028592
  0
LINE
  5
378
100
AcDbEntity
  8
0
100
AcDbLine
 62
7
  6
CONTINUOUS
 10
72.7633717878
 20
69.21796047
 11
73.5633717391
 21
69.2176812436
  0
LINE
  5
379
100
AcDbEntity
  8
0
100
AcDbLine
 62
7
  6
CONTINUOUS
 10
76.2633715746
 20
69.2167388544
 11
77.0633715259
 21
69.2164596279
  0
LINE
  5
37A
100
AcDbEntity
  8
0
100
AcDbLine
 62
7
  6
CONTINUOUS
 10
44.4639471077
 20
70.871728292
 11
43.4139471717
 21
70.8720947767
  0
LINE
  5
37B
100
AcDbEntity
  8
0
100
AcDbLine
 62
7
  6
CONTINUOUS
 10
45.8639470224
 20
70.8712396457
 11
46.7139469706
 21
70.8709429677
  0
LINE
  5
37C
100
AcDbEntity
  8
0
100
AcDbLine
 62
7
  6
CONTINUOUS
 10
47.1139474233
 20
70.8708033543
 11
47.9639473716
 21
70.8705066762
  0
LINE
  5
37D
100
AcDbEntity
  8
0
100
AcDbLine
 62
7
  6
CONTINUOUS
 10
49.3639472863
 20
70.8700180299
 11
50.213948366
 21
70.8697213515
  0
LINE
  5
37E
100
AcDbEntity
  8
0
100
AcDbLine
 62
7
  6
CONTINUOUS
 10
50.6139483417
 20
70.8695817382
 11
51.4639482899
 21
70.8692850602
  0
LINE
  5
37F
100
AcDbEntity
  8
0
100
AcDbLine
 62
7
  6
CONTINUOUS
 10
52.8639482046
 20
70.8687964139
 11
53.7139481528
 21
70.8684997358
  0
LINE
  5
380
100
AcDbEntity
  8
0
100
AcDbLine
 62
7
  6
CONTINUOUS
 10
54.1139481285
 20
70.8683601226
 11
54.9639480767
 21
70.8680634445
  0
LINE
  5
381
100
AcDbEntity
  8
0
100
AcDbLine
 62
7
  6
CONTINUOUS
 10
56.3639468025
 20
70.8675747987
 11
57.2139479396
 21
70.8672781202
  0
LINE
  5
382
100
AcDbEntity
  8
0
100
AcDbLine
 62
7
  6
CONTINUOUS
 10
57.6139479153
 20
70.867138507
 11
58.4639478635
 21
70.8668418289
  0
LINE
  5
383
100
AcDbEntity
  8
0
100
AcDbLine
 62
7
  6
CONTINUOUS
 10
59.8639477782
 20
70.8663531826
 11
60.9139461057
 21
70.8659866985
  0
LINE
  5
384
100
AcDbEntity
  8
0
100
AcDbLine
 62
7
  6
CONTINUOUS
 10
61.9639471077
 20
70.8717298219
 11
60.9139471717
 21
70.8720963066
  0
LINE
  5
385
100
AcDbEntity
  8
0
100
AcDbLine
 62
7
  6
CONTINUOUS
 10
63.3639470224
 20
70.8712411756
 11
64.2139469706
 21
70.8709444976
  0
LINE
  5
386
100
AcDbEntity
  8
0
100
AcDbLine
 62
7
  6
CONTINUOUS
 10
64.6139474233
 20
70.8708048842
 11
65.4639473716
 21
70.8705082061
  0
LINE
  5
387
100
AcDbEntity
  8
0
100
AcDbLine
 62
7
  6
CONTINUOUS
 10
66.8639472863
 20
70.8700195598
 11
67.713948366
 21
70.8697228814
  0
LINE
  5
388
100
AcDbEntity
  8
0
100
AcDbLine
 62
7
  6
CONTINUOUS
 10
68.1139483417
 20
70.8695832681
 11
68.9639482899
 21
70.8692865901
  0
LINE
  5
389
100
AcDbEntity
  8
0
100
AcDbLine
 62
7
  6
CONTINUOUS
 10
70.3639482046
 20
70.8687979438
 11
71.2139481528
 21
70.8685012657
  0
LINE
  5
38A
100
AcDbEntity
  8
0
100
AcDbLine
 62
7
  6
CONTINUOUS
 10
71.6139481285
 20
70.8683616525
 11
72.4639480767
 21
70.8680649744
  0
LINE
  5
38B
100
AcDbEntity
  8
0
100
AcDbLine
 62
7
  6
CONTINUOUS
 10
73.8639468025
 20
70.8675763286
 11
74.7139479396
 21
70.8672796501
  0
LINE
  5
38C
100
AcDbEntity
  8
0
100
AcDbLine
 62
7
  6
CONTINUOUS
 10
75.1139479153
 20
70.8671400369
 11
75.9639478635
 21
70.8668433588
  0
LINE
  5
38D
100
AcDbEntity
  8
0
100
AcDbLine
 62
7
  6
CONTINUOUS
 10
77.3639477782
 20
70.8663547125
 11
78.4139461057
 21
70.8659882284
  0
LINE
  5
38E
100
AcDbEntity
  8
0
100
AcDbLine
 62
7
  6
CONTINUOUS
 10
53.5628837394
 20
78.0911113489
 11
53.5628837394
 21
82.9911113489
  0
LINE
  5
38F
100
AcDbEntity
  8
0
100
AcDbLine
 62
7
  6
CONTINUOUS
 10
54.3128837394
 20
35.7265072419
 11
54.3128837394
 21
39.4911113489
  0
LINE
  5
390
100
AcDbEntity
  8
0
100
AcDbLine
 62
7
  6
CONTINUOUS
 10
55.5628837394
 20
82.9911113489
 11
55.5628837394
 21
78.0911113489
  0
LINE
  5
391
100
AcDbEntity
  8
0
100
AcDbLine
 62
7
  6
CONTINUOUS
 10
53.2883374104
 20
49.3427583884
 11
53.288058114
 21
48.5427584372
  0
LINE
  5
392
100
AcDbEntity
  8
0
100
AcDbLine
 62
7
  6
CONTINUOUS
 10
53.4144019141
 20
72.1686043666
 11
53.4141750426
 21
71.5186044061
  0
LINE
  5
393
100
AcDbEntity
  8
0
100
AcDbLine
 62
7
  6
CONTINUOUS
 10
53.5891395463
 20
51.6426535125
 11
53.588912618
 21
50.9926535521
  0
LINE
  5
394
100
AcDbEntity
  8
0
100
AcDbLine
 62
7
  6
CONTINUOUS
 10
53.7139481528
 20
70.8684997358
 11
53.7124473108
 21
66.5684999977
  0
LINE
  5
395
100
AcDbEntity
  8
0
100
AcDbLine
 62
7
  6
CONTINUOUS
 10
54.1124472864
 20
66.5683603845
 11
54.1139481285
 21
70.8683601226
  0
LINE
  5
396
100
AcDbEntity
  8
0
100
AcDbLine
 62
7
  6
CONTINUOUS
 10
54.13936763
 20
52.2924614562
 11
54.1391407017
 21
51.6424614958
  0
LINE
  5
397
100
AcDbEntity
  8
0
100
AcDbLine
 62
7
  6
CONTINUOUS
 10
54.4141749817
 20
71.5182553731
 11
54.4144018531
 21
72.1682553335
  0
LINE
  5
398
100
AcDbEntity
  8
0
100
AcDbLine
 62
7
  6
CONTINUOUS
 10
54.4389137552
 20
50.9923567993
 11
54.4374125372
 21
46.6923570613
  0
LINE
  5
399
100
AcDbEntity
  8
0
100
AcDbLine
 62
7
  6
CONTINUOUS
 10
54.8374125128
 20
46.6922174131
 11
54.8389137308
 21
50.9922171511
  0
LINE
  5
39A
100
AcDbEntity
  8
0
100
AcDbLine
 62
7
  6
CONTINUOUS
 10
54.9639480767
 20
70.8680634445
 11
54.9641749482
 21
71.5180634049
  0
LINE
  5
39B
100
AcDbEntity
  8
0
100
AcDbLine
 62
7
  6
CONTINUOUS
 10
55.1391406408
 20
51.6421123753
 11
55.1393675691
 21
52.2921123357
  0
LINE
  5
39C
100
AcDbEntity
  8
0
100
AcDbLine
 62
7
  6
CONTINUOUS
 10
55.2630925614
 20
68.4179589888
 11
55.2633717878
 21
69.2179589401
  0
LINE
  5
39D
100
AcDbEntity
  8
0
100
AcDbLine
 62
7
  6
CONTINUOUS
 10
55.688913679
 20
50.9919203987
 11
55.6891406073
 21
51.6419203591
  0
LINE
  5
39E
100
AcDbEntity
  8
0
100
AcDbLine
 62
7
  6
CONTINUOUS
 10
55.9880579495
 20
48.5418158119
 11
55.9883372458
 21
49.3418157632
  0
LINE
  5
39F
100
AcDbEntity
  8
0
100
AcDbLine
 62
7
  6
CONTINUOUS
 10
56.0633717391
 20
69.2176797137
 11
56.0630925127
 21
68.4176797624
  0
LINE
  5
3A0
100
AcDbEntity
  8
0
100
AcDbLine
 62
7
  6
CONTINUOUS
 10
12.1628837394
 20
73.9911113489
 11
10.5628837394
 21
73.9911113489
  0
LINE
  5
3A1
100
AcDbEntity
  8
0
100
AcDbLine
 62
7
  6
CONTINUOUS
 10
60.4141746162
 20
71.5161611749
 11
59.8641746497
 21
71.516353143
  0
LINE
  5
3A2
100
AcDbEntity
  8
0
100
AcDbLine
 62
7
  6
CONTINUOUS
 10
58.464174735
 20
71.5168417893
 11
57.9141747685
 21
71.5170337575
  0
LINE
  5
3A3
100
AcDbEntity
  8
0
100
AcDbLine
 62
7
  6
CONTINUOUS
 10
56.9141748294
 20
71.5173827905
 11
56.3641736739
 21
71.5175747591
  0
LINE
  5
3A4
100
AcDbEntity
  8
0
100
AcDbLine
 62
7
  6
CONTINUOUS
 10
54.9641749482
 20
71.5180634049
 11
54.4141749817
 21
71.5182553731
  0
LINE
  5
3A5
100
AcDbEntity
  8
0
100
AcDbLine
 62
7
  6
CONTINUOUS
 10
53.4141750426
 20
71.5186044061
 11
52.8641750761
 21
71.5187963743
  0
LINE
  5
3A6
100
AcDbEntity
  8
0
100
AcDbLine
 62
7
  6
CONTINUOUS
 10
51.4641751614
 20
71.5192850206
 11
50.9141751949
 21
71.5194769887
  0
LINE
  5
3A7
100
AcDbEntity
  8
0
100
AcDbLine
 62
7
  6
CONTINUOUS
 10
49.9141741243
 20
71.5198260222
 11
49.3641741578
 21
71.5200179903
  0
LINE
  5
3A8
100
AcDbEntity
  8
0
100
AcDbLine
 62
7
  6
CONTINUOUS
 10
47.964174243
 20
71.5205066366
 11
47.4141742765
 21
71.5206986048
  0
LINE
  5
3A9
100
AcDbEntity
  8
0
100
AcDbLine
 62
7
  6
CONTINUOUS
 10
46.4141738604
 20
71.521047638
 11
45.8641738939
 21
71.5212396061
  0
LINE
  5
3AA
100
AcDbEntity
  8
0
100
AcDbLine
 62
7
  6
CONTINUOUS
 10
44.4641739792
 20
71.5217282524
 11
43.9141740127
 21
71.5219202206
  0
LINE
  5
3AB
100
AcDbEntity
  8
0
100
AcDbLine
 62
7
  6
CONTINUOUS
 10
77.9141746162
 20
71.5161627048
 11
77.3641746497
 21
71.5163546729
  0
LINE
  5
3AC
100
AcDbEntity
  8
0
100
AcDbLine
 62
7
  6
CONTINUOUS
 10
75.964174735
 20
71.5168433192
 11
75.4141747685
 21
71.5170352874
  0
LINE
  5
3AD
100
AcDbEntity
  8
0
100
AcDbLine
 62
7
  6
CONTINUOUS
 10
74.4141748294
 20
71.5173843204
 11
73.8641736739
 21
71.517576289
  0
LINE
  5
3AE
100
AcDbEntity
  8
0
100
AcDbLine
 62
7
  6
CONTINUOUS
 10
72.4641749482
 20
71.5180649348
 11
71.9141749817
 21
71.518256903
  0
LINE
  5
3AF
100
AcDbEntity
  8
0
100
AcDbLine
 62
7
  6
CONTINUOUS
 10
70.9141750426
 20
71.518605936
 11
70.3641750761
 21
71.5187979042
  0
LINE
  5
3B0
100
AcDbEntity
  8
0
100
AcDbLine
 62
7
  6
CONTINUOUS
 10
68.9641751614
 20
71.5192865505
 11
68.4141751949
 21
71.5194785186
  0
LINE
  5
3B1
100
AcDbEntity
  8
0
100
AcDbLine
 62
7
  6
CONTINUOUS
 10
67.4141741243
 20
71.5198275521
 11
66.8641741578
 21
71.5200195202
  0
LINE
  5
3B2
100
AcDbEntity
  8
0
100
AcDbLine
 62
7
  6
CONTINUOUS
 10
65.464174243
 20
71.5205081665
 11
64.9141742765
 21
71.5207001347
  0
LINE
  5
3B3
100
AcDbEntity
  8
0
100
AcDbLine
 62
7
  6
CONTINUOUS
 10
63.9141738604
 20
71.5210491679
 11
63.3641738939
 21
71.521241136
  0
LINE
  5
3B4
100
AcDbEntity
  8
0
100
AcDbLine
 62
7
  6
CONTINUOUS
 10
61.9641739792
 20
71.5217297823
 11
61.4141740127
 21
71.5219217505
  0
LINE
  5
3B5
100
AcDbEntity
  8
0
100
AcDbLine
 62
7
  6
CONTINUOUS
 10
43.9144008841
 20
72.171920181
 11
46.4144007319
 21
72.1710475984
  0
LINE
  5
3B6
100
AcDbEntity
  8
0
100
AcDbLine
 62
7
  6
CONTINUOUS
 10
47.414401148
 20
72.1706985652
 11
49.9144009957
 21
72.1698259826
  0
LINE
  5
3B7
100
AcDbEntity
  8
0
100
AcDbLine
 62
7
  6
CONTINUOUS
 10
50.9144020663
 20
72.1694769491
 11
53.4144019141
 21
72.1686043666
  0
LINE
  5
3B8
100
AcDbEntity
  8
0
100
AcDbLine
 62
7
  6
CONTINUOUS
 10
54.4144018531
 20
72.1682553335
 11
56.9144017009
 21
72.1673827509
  0
LINE
  5
3B9
100
AcDbEntity
  8
0
100
AcDbLine
 62
7
  6
CONTINUOUS
 10
57.91440164
 20
72.1670337179
 11
60.4144014877
 21
72.1661611353
  0
LINE
  5
3BA
100
AcDbEntity
  8
0
100
AcDbLine
 62
7
  6
CONTINUOUS
 10
61.4144008841
 20
72.1719217109
 11
63.9144007319
 21
72.1710491283
  0
LINE
  5
3BB
100
AcDbEntity
  8
0
100
AcDbLine
 62
7
  6
CONTINUOUS
 10
64.914401148
 20
72.1707000951
 11
67.4144009957
 21
72.1698275125
  0
LINE
  5
3BC
100
AcDbEntity
  8
0
100
AcDbLine
 62
7
  6
CONTINUOUS
 10
68.4144020663
 20
72.169478479
 11
70.9144019141
 21
72.1686058965
  0
LINE
  5
3BD
100
AcDbEntity
  8
0
100
AcDbLine
 62
7
  6
CONTINUOUS
 10
71.9144018531
 20
72.1682568634
 11
74.4144017009
 21
72.1673842808
  0
LINE
  5
3BE
100
AcDbEntity
  8
0
100
AcDbLine
 62
7
  6
CONTINUOUS
 10
75.41440164
 20
72.1670352478
 11
77.9144014877
 21
72.1661626652
  0
LINE
  5
3BF
100
AcDbEntity
  8
0
100
AcDbLine
 62
7
  6
CONTINUOUS
 10
60.9147150508
 20
73.0659865641
 11
43.4147150443
 21
73.0720946427
  0
LINE
  5
3C0
100
AcDbEntity
  8
0
100
AcDbLine
 62
7
  6
CONTINUOUS
 10
78.4147150508
 20
73.065988094
 11
60.9147150443
 21
73.0720961726
  0
LINE
  5
3C1
100
AcDbEntity
  8
0
100
AcDbLine
 62
7
  6
CONTINUOUS
 10
57.5628837394
 20
78.0911113489
 11
57.5628837394
 21
82.9911113489
  0
LINE
  5
3C2
100
AcDbEntity
  8
0
100
AcDbLine
 62
7
  6
CONTINUOUS
 10
56.3641736739
 20
71.5175747591
 11
56.3639468025
 21
70.8675747987
  0
LINE
  5
3C3
100
AcDbEntity
  8
0
100
AcDbLine
 62
7
  6
CONTINUOUS
 10
56.7883371971
 20
49.3415364668
 11
56.7880579007
 21
48.5415365156
  0
LINE
  5
3C4
100
AcDbEntity
  8
0
100
AcDbLine
 62
7
  6
CONTINUOUS
 10
56.9144017009
 20
72.1673827509
 11
56.9141748294
 21
71.5173827905
  0
LINE
  5
3C5
100
AcDbEntity
  8
0
100
AcDbLine
 62
7
  6
CONTINUOUS
 10
57.089140522
 20
51.6414315904
 11
57.0889135937
 21
50.99143163
  0
LINE
  5
3C6
100
AcDbEntity
  8
0
100
AcDbLine
 62
7
  6
CONTINUOUS
 10
57.2139479396
 20
70.8672781202
 11
57.2124470976
 21
66.5672783821
  0
LINE
  5
3C7
100
AcDbEntity
  8
0
100
AcDbLine
 62
7
  6
CONTINUOUS
 10
57.6124470732
 20
66.5671387689
 11
57.6139479153
 21
70.867138507
  0
LINE
  5
3C8
100
AcDbEntity
  8
0
100
AcDbLine
 62
7
  6
CONTINUOUS
 10
57.6393674167
 20
52.2912395346
 11
57.6391404884
 21
51.6412395742
  0
LINE
  5
3C9
100
AcDbEntity
  8
0
100
AcDbLine
 62
7
  6
CONTINUOUS
 10
57.9141747685
 20
71.5170337575
 11
57.91440164
 21
72.1670337179
  0
LINE
  5
3CA
100
AcDbEntity
  8
0
100
AcDbLine
 62
7
  6
CONTINUOUS
 10
58.1396812659
 20
53.1971874291
 11
58.1371488628
 21
45.9410653619
  0
LINE
  5
3CB
100
AcDbEntity
  8
0
100
AcDbLine
 62
7
  6
CONTINUOUS
 10
58.4639478635
 20
70.8668418289
 11
58.464174735
 21
71.5168417893
  0
LINE
  5
3CC
100
AcDbEntity
  8
0
100
AcDbLine
 62
7
  6
CONTINUOUS
 10
58.6391400987
 20
51.6470129633
 11
58.639367027
 21
52.2970129237
  0
LINE
  5
3CD
100
AcDbEntity
  8
0
100
AcDbLine
 62
7
  6
CONTINUOUS
 10
58.7384921063
 20
49.7872658162
 11
58.7379011081
 21
48.0944455963
  0
LINE
  5
3CE
100
AcDbEntity
  8
0
100
AcDbLine
 62
7
  6
CONTINUOUS
 10
58.7630923482
 20
68.4167373732
 11
58.7633715746
 21
69.2167373245
  0
LINE
  5
3CF
100
AcDbEntity
  8
0
100
AcDbLine
 62
7
  6
CONTINUOUS
 10
59.1889131369
 20
50.9968209867
 11
59.1891400652
 21
51.6468209471
  0
LINE
  5
3D0
100
AcDbEntity
  8
0
100
AcDbLine
 62
7
  6
CONTINUOUS
 10
40.6383718508
 20
49.447174514
 11
41.2384931728
 21
49.7933754242
  0
LINE
  5
3D1
100
AcDbEntity
  8
0
100
AcDbLine
 62
7
  6
CONTINUOUS
 10
79.0135263964
 20
69.6621896373
 11
78.4134051046
 21
69.3159886746
  0
LINE
  5
3D2
100
AcDbEntity
  8
0
100
AcDbLine
 62
7
  6
CONTINUOUS
 10
80.5628837394
 20
76.8911113489
 11
41.5628837394
 21
76.8911113489
  0
LINE
  5
3D3
100
AcDbEntity
  8
0
100
AcDbLine
 62
7
  6
CONTINUOUS
 10
60.9130560717
 20
68.3159876902
 11
61.5129355461
 21
67.9693678875
  0
LINE
  5
3D4
100
AcDbEntity
  8
0
100
AcDbLine
 62
7
  6
CONTINUOUS
 10
61.5129366121
 20
67.9754774956
 11
60.9130571377
 21
68.3220972982
  0
LINE
  5
3D5
100
AcDbEntity
  8
0
100
AcDbLine
 62
7
  6
CONTINUOUS
 10
59.5628837394
 20
82.9911113489
 11
59.5628837394
 21
78.0911113489
  0
LINE
  5
3D6
100
AcDbEntity
  8
0
100
AcDbLine
 62
7
  6
CONTINUOUS
 10
61.5628837394
 20
78.0911113489
 11
61.5628837394
 21
82.9911113489
  0
LINE
  5
3D7
100
AcDbEntity
  8
0
100
AcDbLine
 62
7
  6
CONTINUOUS
 10
59.4880581437
 20
48.5467163997
 11
59.48833744
 21
49.3467163509
  0
LINE
  5
3D8
100
AcDbEntity
  8
0
100
AcDbLine
 62
7
  6
CONTINUOUS
 10
59.5633715259
 20
69.216458098
 11
59.5630922995
 21
68.4164581468
  0
LINE
  5
3D9
100
AcDbEntity
  8
0
100
AcDbLine
 62
7
  6
CONTINUOUS
 10
59.8641746497
 20
71.516353143
 11
59.8639477782
 21
70.8663531826
  0
LINE
  5
3DA
100
AcDbEntity
  8
0
100
AcDbLine
 62
7
  6
CONTINUOUS
 10
60.2883373913
 20
49.3464370545
 11
60.2880580949
 21
48.5464371033
  0
LINE
  5
3DB
100
AcDbEntity
  8
0
100
AcDbLine
 62
7
  6
CONTINUOUS
 10
60.4144014877
 20
72.1661611353
 11
60.4141746162
 21
71.5161611749
  0
LINE
  5
3DC
100
AcDbEntity
  8
0
100
AcDbLine
 62
7
  6
CONTINUOUS
 10
60.5891399799
 20
51.6463321784
 11
60.5889130516
 21
50.9963322181
  0
LINE
  5
3DD
100
AcDbEntity
  8
0
100
AcDbLine
 62
7
  6
CONTINUOUS
 10
60.9147150443
 20
73.0720961726
 11
60.9134051046
 21
69.3159871447
  0
LINE
  5
3DE
100
AcDbEntity
  8
0
100
AcDbLine
 62
7
  6
CONTINUOUS
 10
60.9130571377
 20
68.3220972982
 11
60.9121834888
 21
65.8159870061
  0
LINE
  5
3DF
100
AcDbEntity
  8
0
100
AcDbLine
 62
7
  6
CONTINUOUS
 10
61.1393668747
 20
52.2961401226
 11
61.1391399464
 21
51.6461401622
  0
LINE
  5
3E0
100
AcDbEntity
  8
0
100
AcDbLine
 62
7
  6
CONTINUOUS
 10
61.4141740127
 20
71.5219217505
 11
61.4144008841
 21
72.1719217109
  0
LINE
  5
3E1
100
AcDbEntity
  8
0
100
AcDbLine
 62
7
  6
CONTINUOUS
 10
61.4389129998
 20
50.9960354657
 11
61.4374117818
 21
46.6960357277
  0
LINE
  5
3E2
100
AcDbEntity
  8
0
100
AcDbLine
 62
7
  6
CONTINUOUS
 10
61.5135274623
 20
69.6682977155
 11
61.5129355461
 21
67.9693678875
  0
LINE
  5
3E3
100
AcDbEntity
  8
0
100
AcDbLine
 62
7
  6
CONTINUOUS
 10
61.8374122345
 20
46.6958960794
 11
61.8389134525
 21
50.9958958173
  0
LINE
  5
3E4
100
AcDbEntity
  8
0
100
AcDbLine
 62
7
  6
CONTINUOUS
 10
61.9639471077
 20
70.8717298219
 11
61.9641739792
 21
71.5217297823
  0
LINE
  5
3E5
100
AcDbEntity
  8
0
100
AcDbLine
 62
7
  6
CONTINUOUS
 10
62.1391403625
 20
51.6457910416
 11
62.1393672908
 21
52.2957910019
  0
LINE
  5
3E6
100
AcDbEntity
  8
0
100
AcDbLine
 62
7
  6
CONTINUOUS
 10
62.2630923287
 20
68.4216253659
 11
62.2633715551
 21
69.2216253172
  0
LINE
  5
3E7
100
AcDbEntity
  8
0
100
AcDbLine
 62
7
  6
CONTINUOUS
 10
41.5628837394
 20
78.0911113489
 11
82.5628837394
 21
78.0911113489
  0
LINE
  5
3E8
100
AcDbEntity
  8
0
100
AcDbLine
 62
7
  6
CONTINUOUS
 10
63.3128837394
 20
85.3928108124
 11
63.3128837394
 21
92.7838236224
  0
LINE
  5
3E9
100
AcDbEntity
  8
0
100
AcDbLine
 62
7
  6
CONTINUOUS
 10
63.5628837394
 20
82.9911113489
 11
63.5628837394
 21
78.0911113489
  0
LINE
  5
3EA
100
AcDbEntity
  8
0
100
AcDbLine
 62
7
  6
CONTINUOUS
 10
64.3128837394
 20
85.3928108124
 11
64.3128837394
 21
92.7838236224
  0
LINE
  5
3EB
100
AcDbEntity
  8
0
100
AcDbLine
 62
7
  6
CONTINUOUS
 10
65.5628837394
 20
78.0911113489
 11
65.5628837394
 21
82.9911113489
  0
LINE
  5
3EC
100
AcDbEntity
  8
0
100
AcDbLine
 62
7
  6
CONTINUOUS
 10
62.6889134007
 20
50.9955990649
 11
62.689140329
 21
51.6455990253
  0
LINE
  5
3ED
100
AcDbEntity
  8
0
100
AcDbLine
 62
7
  6
CONTINUOUS
 10
62.9880579304
 20
48.5454944781
 11
62.9883372267
 21
49.3454944293
  0
LINE
  5
3EE
100
AcDbEntity
  8
0
100
AcDbLine
 62
7
  6
CONTINUOUS
 10
63.0633715064
 20
69.2213460908
 11
63.0630922799
 21
68.4213461395
  0
LINE
  5
3EF
100
AcDbEntity
  8
0
100
AcDbLine
 62
7
  6
CONTINUOUS
 10
63.3641738939
 20
71.521241136
 11
63.3639470224
 21
70.8712411756
  0
LINE
  5
3F0
100
AcDbEntity
  8
0
100
AcDbLine
 62
7
  6
CONTINUOUS
 10
63.788337178
 20
49.3452151329
 11
63.7880578816
 21
48.5452151817
  0
LINE
  5
3F1
100
AcDbEntity
  8
0
100
AcDbLine
 62
7
  6
CONTINUOUS
 10
63.9144007319
 20
72.1710491283
 11
63.9141738604
 21
71.5210491679
  0
LINE
  5
3F2
100
AcDbEntity
  8
0
100
AcDbLine
 62
7
  6
CONTINUOUS
 10
64.0891402436
 20
51.6451102567
 11
64.0889133153
 21
50.9951102963
  0
LINE
  5
3F3
100
AcDbEntity
  8
0
100
AcDbLine
 62
7
  6
CONTINUOUS
 10
64.2139469706
 20
70.8709444976
 11
64.2124461286
 21
66.5709447595
  0
LINE
  5
3F4
100
AcDbEntity
  8
0
100
AcDbLine
 62
7
  6
CONTINUOUS
 10
64.6124465813
 20
66.5708051461
 11
64.6139474233
 21
70.8708048842
  0
LINE
  5
3F5
100
AcDbEntity
  8
0
100
AcDbLine
 62
7
  6
CONTINUOUS
 10
64.6393671384
 20
52.2949182008
 11
64.6391402101
 21
51.6449182404
  0
LINE
  5
3F6
100
AcDbEntity
  8
0
100
AcDbLine
 62
7
  6
CONTINUOUS
 10
64.9141742765
 20
71.5207001347
 11
64.914401148
 21
72.1707000951
  0
LINE
  5
3F7
100
AcDbEntity
  8
0
100
AcDbLine
 62
7
  6
CONTINUOUS
 10
64.9389143951
 20
50.9948135435
 11
64.9374131771
 21
46.6948138055
  0
LINE
  5
3F8
100
AcDbEntity
  8
0
100
AcDbLine
 62
7
  6
CONTINUOUS
 10
65.3374131527
 20
46.6946741574
 11
65.3389143707
 21
50.9946738953
  0
LINE
  5
3F9
100
AcDbEntity
  8
0
100
AcDbLine
 62
7
  6
CONTINUOUS
 10
65.4639473716
 20
70.8705082061
 11
65.464174243
 21
71.5205081665
  0
LINE
  5
3FA
100
AcDbEntity
  8
0
100
AcDbLine
 62
7
  6
CONTINUOUS
 10
65.6391412807
 20
51.6445691196
 11
65.639368209
 21
52.2945690799
  0
LINE
  5
3FB
100
AcDbEntity
  8
0
100
AcDbLine
 62
7
  6
CONTINUOUS
 10
58.7384921063
 20
49.7872658162
 11
58.1383707843
 21
49.4410649059
  0
LINE
  5
3FC
100
AcDbEntity
  8
0
100
AcDbLine
 62
7
  6
CONTINUOUS
 10
12.1628837394
 20
80.9911113489
 11
41.5628837394
 21
80.9911113489
  0
LINE
  5
3FD
100
AcDbEntity
  8
0
100
AcDbLine
 62
7
  6
CONTINUOUS
 10
77.5628837394
 20
81.5857661521
 11
75.5628837394
 21
81.5857661521
  0
LINE
  5
3FE
100
AcDbEntity
  8
0
100
AcDbLine
 62
7
  6
CONTINUOUS
 10
73.5628837394
 20
81.5857661521
 11
71.5628837394
 21
81.5857661521
  0
LINE
  5
3FF
100
AcDbEntity
  8
0
100
AcDbLine
 62
7
  6
CONTINUOUS
 10
69.5628837394
 20
81.5857661521
 11
67.5628837394
 21
81.5857661521
  0
LINE
  5
400
100
AcDbEntity
  8
0
100
AcDbLine
 62
7
  6
CONTINUOUS
 10
65.5628837394
 20
81.5857661521
 11
63.5628837394
 21
81.5857661521
  0
LINE
  5
401
100
AcDbEntity
  8
0
100
AcDbLine
 62
7
  6
CONTINUOUS
 10
61.5628837394
 20
81.5857661521
 11
59.5628837394
 21
81.5857661521
  0
LINE
  5
402
100
AcDbEntity
  8
0
100
AcDbLine
 62
7
  6
CONTINUOUS
 10
57.5628837394
 20
81.5857661521
 11
55.5628837394
 21
81.5857661521
  0
LINE
  5
403
100
AcDbEntity
  8
0
100
AcDbLine
 62
7
  6
CONTINUOUS
 10
53.5628837394
 20
81.5857661521
 11
51.5628837394
 21
81.5857661521
  0
LINE
  5
404
100
AcDbEntity
  8
0
100
AcDbLine
 62
7
  6
CONTINUOUS
 10
49.5628837394
 20
81.5857661521
 11
47.5628837394
 21
81.5857661521
  0
LINE
  5
405
100
AcDbEntity
  8
0
100
AcDbLine
 62
7
  6
CONTINUOUS
 10
45.5628837394
 20
81.5857661521
 11
43.5628837394
 21
81.5857661521
  0
LINE
  5
406
100
AcDbEntity
  8
0
100
AcDbLine
 62
7
  6
CONTINUOUS
 10
82.5628837394
 20
82.9911113489
 11
10.5628837394
 21
82.9911113489
  0
LINE
  5
407
100
AcDbEntity
  8
0
100
AcDbLine
 62
7
  6
CONTINUOUS
 10
67.5628837394
 20
82.9911113489
 11
67.5628837394
 21
78.0911113489
  0
LINE
  5
408
100
AcDbEntity
  8
0
100
AcDbLine
 62
7
  6
CONTINUOUS
 10
65.7630921155
 20
68.4204037503
 11
65.7633713419
 21
69.2204037016
  0
LINE
  5
409
100
AcDbEntity
  8
0
100
AcDbLine
 62
7
  6
CONTINUOUS
 10
66.1889143189
 20
50.9943771429
 11
66.1891412472
 21
51.6443771033
  0
LINE
  5
40A
100
AcDbEntity
  8
0
100
AcDbLine
 62
7
  6
CONTINUOUS
 10
66.4880585894
 20
48.5442725561
 11
66.4883378857
 21
49.3442725074
  0
LINE
  5
40B
100
AcDbEntity
  8
0
100
AcDbLine
 62
7
  6
CONTINUOUS
 10
66.5633712932
 20
69.2201244751
 11
66.5630920668
 21
68.4201245239
  0
LINE
  5
40C
100
AcDbEntity
  8
0
100
AcDbLine
 62
7
  6
CONTINUOUS
 10
66.8641741578
 20
71.5200195202
 11
66.8639472863
 21
70.8700195598
  0
LINE
  5
40D
100
AcDbEntity
  8
0
100
AcDbLine
 62
7
  6
CONTINUOUS
 10
67.288337837
 20
49.343993211
 11
67.2880585406
 21
48.5439932598
  0
LINE
  5
40E
100
AcDbEntity
  8
0
100
AcDbLine
 62
7
  6
CONTINUOUS
 10
67.4144009957
 20
72.1698275125
 11
67.4141741243
 21
71.5198275521
  0
LINE
  5
40F
100
AcDbEntity
  8
0
100
AcDbLine
 62
7
  6
CONTINUOUS
 10
67.5891411619
 20
51.6438883347
 11
67.5889142336
 21
50.9938883743
  0
LINE
  5
410
100
AcDbEntity
  8
0
100
AcDbLine
 62
7
  6
CONTINUOUS
 10
67.713948366
 20
70.8697228814
 11
67.712447524
 21
66.5697231433
  0
LINE
  5
411
100
AcDbEntity
  8
0
100
AcDbLine
 62
7
  6
CONTINUOUS
 10
68.1124474996
 20
66.5695835301
 11
68.1139483417
 21
70.8695832681
  0
LINE
  5
412
100
AcDbEntity
  8
0
100
AcDbLine
 62
7
  6
CONTINUOUS
 10
68.1393680566
 20
52.2936962788
 11
68.1391411283
 21
51.6436963184
  0
LINE
  5
413
100
AcDbEntity
  8
0
100
AcDbLine
 62
7
  6
CONTINUOUS
 10
68.4141751949
 20
71.5194785186
 11
68.4144020663
 21
72.169478479
  0
LINE
  5
414
100
AcDbEntity
  8
0
100
AcDbLine
 62
7
  6
CONTINUOUS
 10
68.4389141818
 20
50.9935916219
 11
68.4374129638
 21
46.6935918839
  0
LINE
  5
415
100
AcDbEntity
  8
0
100
AcDbLine
 62
7
  6
CONTINUOUS
 10
64.3128837394
 20
85.3928108124
 11
63.3128837394
 21
85.3928108124
  0
LINE
  5
416
100
AcDbEntity
  8
0
100
AcDbLine
 62
7
  6
CONTINUOUS
 10
29.8128837394
 20
85.3928108124
 11
28.8128837394
 21
85.3928108124
  0
LINE
  5
417
100
AcDbEntity
  8
0
100
AcDbLine
 62
7
  6
CONTINUOUS
 10
78.4130560717
 20
68.3159892201
 11
79.0129355461
 21
67.9693694174
  0
LINE
  5
418
100
AcDbEntity
  8
0
100
AcDbLine
 62
7
  6
CONTINUOUS
 10
69.5628837394
 20
78.0911113489
 11
69.5628837394
 21
82.9911113489
  0
LINE
  5
419
100
AcDbEntity
  8
0
100
AcDbLine
 62
7
  6
CONTINUOUS
 10
71.5628837394
 20
82.9911113489
 11
71.5628837394
 21
78.0911113489
  0
LINE
  5
41A
100
AcDbEntity
  8
0
100
AcDbLine
 62
7
  6
CONTINUOUS
 10
68.8374129394
 20
46.6934522357
 11
68.8389141574
 21
50.9934519737
  0
LINE
  5
41B
100
AcDbEntity
  8
0
100
AcDbLine
 62
7
  6
CONTINUOUS
 10
68.9639482899
 20
70.8692865901
 11
68.9641751614
 21
71.5192865505
  0
LINE
  5
41C
100
AcDbEntity
  8
0
100
AcDbLine
 62
7
  6
CONTINUOUS
 10
69.1391410674
 20
51.6433471979
 11
69.1393679957
 21
52.2933471583
  0
LINE
  5
41D
100
AcDbEntity
  8
0
100
AcDbLine
 62
7
  6
CONTINUOUS
 10
69.2630927746
 20
68.4191821343
 11
69.263372001
 21
69.2191820856
  0
LINE
  5
41E
100
AcDbEntity
  8
0
100
AcDbLine
 62
7
  6
CONTINUOUS
 10
69.6889141056
 20
50.9931552213
 11
69.6891410339
 21
51.6431551817
  0
LINE
  5
41F
100
AcDbEntity
  8
0
100
AcDbLine
 62
7
  6
CONTINUOUS
 10
69.9880583761
 20
48.5430506345
 11
69.9883376724
 21
49.3430505858
  0
LINE
  5
420
100
AcDbEntity
  8
0
100
AcDbLine
 62
7
  6
CONTINUOUS
 10
70.0633719523
 20
69.2189028592
 11
70.0630927259
 21
68.4189029079
  0
LINE
  5
421
100
AcDbEntity
  8
0
100
AcDbLine
 62
7
  6
CONTINUOUS
 10
70.3641750761
 20
71.5187979042
 11
70.3639482046
 21
70.8687979438
  0
LINE
  5
422
100
AcDbEntity
  8
0
100
AcDbLine
 62
7
  6
CONTINUOUS
 10
70.7883376237
 20
49.3427712894
 11
70.7880583273
 21
48.5427713382
  0
LINE
  5
423
100
AcDbEntity
  8
0
100
AcDbLine
 62
7
  6
CONTINUOUS
 10
70.9144019141
 20
72.1686058965
 11
70.9141750426
 21
71.518605936
  0
LINE
  5
424
100
AcDbEntity
  8
0
100
AcDbLine
 62
7
  6
CONTINUOUS
 10
71.0891409486
 20
51.642666413
 11
71.0889140203
 21
50.9926664527
  0
LINE
  5
425
100
AcDbEntity
  8
0
100
AcDbLine
 62
7
  6
CONTINUOUS
 10
71.2139481528
 20
70.8685012657
 11
71.2124473108
 21
66.5685015276
  0
LINE
  5
426
100
AcDbEntity
  8
0
100
AcDbLine
 62
7
  6
CONTINUOUS
 10
71.6124472864
 20
66.5683619144
 11
71.6139481285
 21
70.8683616525
  0
LINE
  5
427
100
AcDbEntity
  8
0
100
AcDbLine
 62
7
  6
CONTINUOUS
 10
71.6393678433
 20
52.2924743572
 11
71.639140915
 21
51.6424743968
  0
LINE
  5
428
100
AcDbEntity
  8
0
100
AcDbLine
 62
7
  6
CONTINUOUS
 10
73.5628837394
 20
78.0911113489
 11
73.5628837394
 21
82.9911113489
  0
LINE
  5
429
100
AcDbEntity
  8
0
100
AcDbLine
 62
7
  6
CONTINUOUS
 10
71.9141749817
 20
71.518256903
 11
71.9144018531
 21
72.1682568634
  0
LINE
  5
42A
100
AcDbEntity
  8
0
100
AcDbLine
 62
7
  6
CONTINUOUS
 10
71.9389139685
 20
50.9923697003
 11
71.9374127505
 21
46.6923699623
  0
LINE
  5
42B
100
AcDbEntity
  8
0
100
AcDbLine
 62
7
  6
CONTINUOUS
 10
72.3374127261
 20
46.6922303141
 11
72.3389139441
 21
50.9922300521
  0
LINE
  5
42C
100
AcDbEntity
  8
0
100
AcDbLine
 62
7
  6
CONTINUOUS
 10
72.4639480767
 20
70.8680649744
 11
72.4641749482
 21
71.5180649348
  0
LINE
  5
42D
100
AcDbEntity
  8
0
100
AcDbLine
 62
7
  6
CONTINUOUS
 10
72.6391408541
 20
51.6421252763
 11
72.6393677824
 21
52.2921252367
  0
LINE
  5
42E
100
AcDbEntity
  8
0
100
AcDbLine
 62
7
  6
CONTINUOUS
 10
72.7630925614
 20
68.4179605187
 11
72.7633717878
 21
69.21796047
  0
LINE
  5
42F
100
AcDbEntity
  8
0
100
AcDbLine
 62
7
  6
CONTINUOUS
 10
73.1889138923
 20
50.9919332997
 11
73.1891408206
 21
51.6419332601
  0
LINE
  5
430
100
AcDbEntity
  8
0
100
AcDbLine
 62
7
  6
CONTINUOUS
 10
73.4880581628
 20
48.5418287129
 11
73.4883374591
 21
49.3418286642
  0
LINE
  5
431
100
AcDbEntity
  8
0
100
AcDbLine
 62
7
  6
CONTINUOUS
 10
73.5633717391
 20
69.2176812436
 11
73.5630925127
 21
68.4176812923
  0
LINE
  5
432
100
AcDbEntity
  8
0
100
AcDbLine
 62
7
  6
CONTINUOUS
 10
73.8641736739
 20
71.517576289
 11
73.8639468025
 21
70.8675763286
  0
LINE
  5
433
100
AcDbEntity
  8
0
100
AcDbLine
 62
7
  6
CONTINUOUS
 10
74.2883374104
 20
49.3415493678
 11
74.288058114
 21
48.5415494165
  0
LINE
  5
434
100
AcDbEntity
  8
0
100
AcDbLine
 62
7
  6
CONTINUOUS
 10
74.4144017009
 20
72.1673842808
 11
74.4141748294
 21
71.5173843204
  0
LINE
  5
435
100
AcDbEntity
  8
0
100
AcDbLine
 62
7
  6
CONTINUOUS
 10
74.5891407353
 20
51.6414444914
 11
74.588913807
 21
50.991444531
  0
LINE
  5
436
100
AcDbEntity
  8
0
100
AcDbLine
 62
7
  6
CONTINUOUS
 10
74.7139479396
 20
70.8672796501
 11
74.7124470976
 21
66.567279912
  0
LINE
  5
437
100
AcDbEntity
  8
0
100
AcDbLine
 62
7
  6
CONTINUOUS
 10
34.8128837394
 20
91.7350003897
 11
39.8128837394
 21
91.7350003897
  0
LINE
  5
438
100
AcDbEntity
  8
0
100
AcDbLine
 62
7
  6
CONTINUOUS
 10
10.5628837394
 20
92.3448904273
 11
28.8128837394
 21
92.3448904273
  0
LINE
  5
439
100
AcDbEntity
  8
0
100
AcDbLine
 62
7
  6
CONTINUOUS
 10
29.8128837394
 20
92.3448904273
 11
34.8128837394
 21
92.3448904273
  0
LINE
  5
43A
100
AcDbEntity
  8
0
100
AcDbLine
 62
7
  6
CONTINUOUS
 10
39.8128837394
 20
92.3448904273
 11
63.3128837394
 21
92.3448904273
  0
LINE
  5
43B
100
AcDbEntity
  8
0
100
AcDbLine
 62
7
  6
CONTINUOUS
 10
64.3128837394
 20
92.3448904273
 11
82.5628837394
 21
92.3448904273
  0
LINE
  5
43C
100
AcDbEntity
  8
0
100
AcDbLine
 62
7
  6
CONTINUOUS
 10
75.5628837394
 20
82.9911113489
 11
75.5628837394
 21
78.0911113489
  0
LINE
  5
43D
100
AcDbEntity
  8
0
100
AcDbLine
 62
7
  6
CONTINUOUS
 10
77.5628837394
 20
78.0911113489
 11
77.5628837394
 21
82.9911113489
  0
LINE
  5
43E
100
AcDbEntity
  8
0
100
AcDbLine
 62
7
  6
CONTINUOUS
 10
75.1124470732
 20
66.5671402988
 11
75.1139479153
 21
70.8671400369
  0
LINE
  5
43F
100
AcDbEntity
  8
0
100
AcDbLine
 62
7
  6
CONTINUOUS
 10
75.13936763
 20
52.2912524356
 11
75.1391407017
 21
51.6412524752
  0
LINE
  5
440
100
AcDbEntity
  8
0
100
AcDbLine
 62
7
  6
CONTINUOUS
 10
75.4141747685
 20
71.5170352874
 11
75.41440164
 21
72.1670352478
  0
LINE
  5
441
100
AcDbEntity
  8
0
100
AcDbLine
 62
7
  6
CONTINUOUS
 10
75.4389137552
 20
50.9911477786
 11
75.4374125372
 21
46.6911480407
  0
LINE
  5
442
100
AcDbEntity
  8
0
100
AcDbLine
 62
7
  6
CONTINUOUS
 10
75.8374125128
 20
46.6910083925
 11
75.8389137308
 21
50.9910081305
  0
LINE
  5
443
100
AcDbEntity
  8
0
100
AcDbLine
 62
7
  6
CONTINUOUS
 10
75.9639478635
 20
70.8668433588
 11
75.964174735
 21
71.5168433192
  0
LINE
  5
444
100
AcDbEntity
  8
0
100
AcDbLine
 62
7
  6
CONTINUOUS
 10
76.1391406408
 20
51.6409033547
 11
76.1393675691
 21
52.2909033151
  0
LINE
  5
445
100
AcDbEntity
  8
0
100
AcDbLine
 62
7
  6
CONTINUOUS
 10
76.2630923482
 20
68.4167389031
 11
76.2633715746
 21
69.2167388544
  0
LINE
  5
446
100
AcDbEntity
  8
0
100
AcDbLine
 62
7
  6
CONTINUOUS
 10
76.688913679
 20
50.9907113781
 11
76.6891406073
 21
51.6407113385
  0
LINE
  5
447
100
AcDbEntity
  8
0
100
AcDbLine
 62
7
  6
CONTINUOUS
 10
76.9880579495
 20
48.5406067913
 11
76.9883372458
 21
49.3406067425
  0
LINE
  5
448
100
AcDbEntity
  8
0
100
AcDbLine
 62
7
  6
CONTINUOUS
 10
77.0633715259
 20
69.2164596279
 11
77.0630922995
 21
68.4164596767
  0
LINE
  5
449
100
AcDbEntity
  8
0
100
AcDbLine
 62
7
  6
CONTINUOUS
 10
77.3641746497
 20
71.5163546729
 11
77.3639477782
 21
70.8663547125
  0
LINE
  5
44A
100
AcDbEntity
  8
0
100
AcDbLine
 62
7
  6
CONTINUOUS
 10
77.7883371971
 20
49.3403274462
 11
77.7880579007
 21
48.5403274949
  0
LINE
  5
44B
100
AcDbEntity
  8
0
100
AcDbLine
 62
7
  6
CONTINUOUS
 10
77.9144014877
 20
72.1661626652
 11
77.9141746162
 21
71.5161627048
  0
LINE
  5
44C
100
AcDbEntity
  8
0
100
AcDbLine
 62
7
  6
CONTINUOUS
 10
78.089140522
 20
51.6402225698
 11
78.0889135937
 21
50.9902226094
  0
LINE
  5
44D
100
AcDbEntity
  8
0
100
AcDbLine
 62
7
  6
CONTINUOUS
 10
79.7384921063
 20
49.7860567955
 11
79.1383707843
 21
49.4398558853
  0
LINE
  5
44E
100
AcDbEntity
  8
0
100
AcDbLine
 62
7
  6
CONTINUOUS
 10
28.8128837394
 20
92.7838236224
 11
29.8128837394
 21
92.7838236224
  0
LINE
  5
44F
100
AcDbEntity
  8
0
100
AcDbLine
 62
7
  6
CONTINUOUS
 10
63.3128837394
 20
92.7838236224
 11
64.3128837394
 21
92.7838236224
  0
LINE
  5
450
100
AcDbEntity
  8
0
100
AcDbLine
 62
7
  6
CONTINUOUS
 10
39.8128837394
 20
93.3928108124
 11
39.0730517575
 21
93.3928108124
  0
LINE
  5
451
100
AcDbEntity
  8
0
100
AcDbLine
 62
7
  6
CONTINUOUS
 10
35.5527157212
 20
93.3928108124
 11
34.8128837394
 21
93.3928108124
  0
LINE
  5
452
100
AcDbEntity
  8
0
100
AcDbLine
 62
7
  6
CONTINUOUS
 10
82.5628837394
 20
93.9794768864
 11
39.8128837394
 21
93.9794768864
  0
LINE
  5
453
100
AcDbEntity
  8
0
100
AcDbLine
 62
7
  6
CONTINUOUS
 10
34.8128837394
 20
93.9794768864
 11
10.5628837394
 21
93.9794768864
  0
LINE
  5
454
100
AcDbEntity
  8
0
100
AcDbLine
 62
7
  6
CONTINUOUS
 10
79.5628837394
 20
34.9251331877
 11
79.5628837394
 21
34.4911113489
  0
LINE
  5
455
100
AcDbEntity
  8
0
100
AcDbLine
 62
7
  6
CONTINUOUS
 10
80.4128820945
 20
65.8063594091
 11
80.4128822379
 21
64.1660350291
  0
LINE
  5
456
100
AcDbEntity
  8
0
100
AcDbLine
 62
7
  6
CONTINUOUS
 10
80.5628837394
 20
45.6911110085
 11
80.5628837394
 21
54.4911113489
  0
LINE
  5
457
100
AcDbEntity
  8
0
100
AcDbLine
 62
7
  6
CONTINUOUS
 10
80.5628837394
 20
61.0911113489
 11
80.5628837394
 21
76.8911113489
  0
LINE
  5
458
100
AcDbEntity
  8
0
100
AcDbLine
 62
7
  6
CONTINUOUS
 10
78.4147139784
 20
73.0659880944
 11
78.4134051046
 21
69.3159886746
  0
LINE
  5
459
100
AcDbEntity
  8
0
100
AcDbLine
 62
7
  6
CONTINUOUS
 10
78.4130560717
 20
68.3159892201
 11
78.4121834888
 21
65.815988536
  0
LINE
  5
45A
100
AcDbEntity
  8
0
100
AcDbLine
 62
7
  6
CONTINUOUS
 10
78.6393674168
 20
52.2900305139
 11
78.6391404885
 21
51.6400305536
  0
LINE
  5
45B
100
AcDbEntity
  8
0
100
AcDbLine
 62
7
  6
CONTINUOUS
 10
79.0135263964
 20
69.6621896373
 11
79.0129355461
 21
67.9693694174
  0
LINE
  5
45C
100
AcDbEntity
  8
0
100
AcDbLine
 62
7
  6
CONTINUOUS
 10
79.1396799861
 20
53.1898558994
 11
79.1383707843
 21
49.4398558853
  0
LINE
  5
45D
100
AcDbEntity
  8
0
100
AcDbLine
 62
7
  6
CONTINUOUS
 10
79.138021664
 20
48.4398564308
 11
79.1371488628
 21
45.9398563413
  0
LINE
  5
45E
100
AcDbEntity
  8
0
100
AcDbLine
 62
7
  6
CONTINUOUS
 10
79.7384921063
 20
49.7860567955
 11
79.7379011081
 21
48.0932365757
  0
LINE
  5
45F
100
AcDbEntity
  8
0
100
AcDbLine
 62
7
  6
CONTINUOUS
 10
82.5628837394
 20
34.9257092713
 11
82.5628837394
 21
82.9911113489
  0
LINE
  5
460
100
AcDbEntity
  8
0
100
AcDbLine
 62
7
  6
CONTINUOUS
 10
82.5628837394
 20
82.9928108124
 11
82.5628837394
 21
93.9794768864
  0
ARC
  5
461
100
AcDbEntity
  8
0
100
AcDbCircle
 62
7
  6
CONTINUOUS
 10
42.3869752624
 20
45.4465640396
 40
1.55
100
AcDbArc
 50
53.7306759877
 51
126.2293177535
  0
ARC
  5
462
100
AcDbEntity
  8
0
100
AcDbCircle
 62
7
  6
CONTINUOUS
 10
45.886975661
 20
45.4453422166
 40
1.55
100
AcDbArc
 50
53.7306698092
 51
126.2293239321
  0
ARC
  5
463
100
AcDbEntity
  8
0
100
AcDbCircle
 62
7
  6
CONTINUOUS
 10
32.3619516037
 20
45.440467332
 40
1.55
100
AcDbArc
 50
53.7306759879
 51
126.2293177534
  0
ARC
  5
464
100
AcDbEntity
  8
0
100
AcDbCircle
 62
7
  6
CONTINUOUS
 10
14.8619510616
 20
45.4465769406
 40
1.55
100
AcDbArc
 50
53.7306759879
 51
126.2293177534
  0
ARC
  5
465
100
AcDbEntity
  8
0
100
AcDbCircle
 62
7
  6
CONTINUOUS
 10
21.8619522436
 20
45.4441330968
 40
1.55
100
AcDbArc
 50
53.7306759879
 51
126.2293177534
  0
ARC
  5
466
100
AcDbEntity
  8
0
100
AcDbCircle
 62
7
  6
CONTINUOUS
 10
25.3619520303
 20
45.4429111752
 40
1.55
100
AcDbArc
 50
53.7306759879
 51
126.2293177534
  0
ARC
  5
467
100
AcDbEntity
  8
0
100
AcDbCircle
 62
7
  6
CONTINUOUS
 10
28.861951817
 20
45.4416892536
 40
1.55
100
AcDbArc
 50
53.7306759879
 51
126.2293177534
  0
ARC
  5
468
100
AcDbEntity
  8
0
100
AcDbCircle
 62
7
  6
CONTINUOUS
 10
18.3619514602
 20
45.4453551176
 40
1.55
100
AcDbArc
 50
53.7306698093
 51
126.229323932
  0
CIRCLE
  5
469
100
AcDbEntity
  8
0
100
AcDbCircle
 62
7
  6
CONTINUOUS
 10
28.8631735302
 20
48.9439969555
 40
0.9000029591
  0
CIRCLE
  5
46A
100
AcDbEntity
  8
0
100
AcDbCircle
 62
7
  6
CONTINUOUS
 10
42.3881972302
 20
48.946563826
 40
0.9
  0
CIRCLE
  5
46B
100
AcDbEntity
  8
0
100
AcDbCircle
 62
7
  6
CONTINUOUS
 10
45.8881970169
 20
48.9453421338
 40
0.9
  0
CIRCLE
  5
46C
100
AcDbEntity
  8
0
100
AcDbCircle
 62
7
  6
CONTINUOUS
 10
18.3631728161
 20
48.9453550348
 40
0.9
  0
CIRCLE
  5
46D
100
AcDbEntity
  8
0
100
AcDbCircle
 62
7
  6
CONTINUOUS
 10
14.8631730294
 20
48.9465768034
 40
0.9
  0
CIRCLE
  5
46E
100
AcDbEntity
  8
0
100
AcDbCircle
 62
7
  6
CONTINUOUS
 10
25.363172132
 20
48.9406030467
 40
0.9
  0
CIRCLE
  5
46F
100
AcDbEntity
  8
0
100
AcDbCircle
 62
7
  6
CONTINUOUS
 10
32.3631717054
 20
48.9381592035
 40
0.9
  0
CIRCLE
  5
470
100
AcDbEntity
  8
0
100
AcDbCircle
 62
7
  6
CONTINUOUS
 10
21.8631731511
 20
48.9441328835
 40
0.9
  0
ARC
  5
471
100
AcDbEntity
  8
0
100
AcDbCircle
 62
7
  6
CONTINUOUS
 10
45.1620099317
 20
65.3214843069
 40
1.55
100
AcDbArc
 50
53.7306809967
 51
126.2293227625
  0
CIRCLE
  5
472
100
AcDbEntity
  8
0
100
AcDbCircle
 62
7
  6
CONTINUOUS
 10
45.1632315937
 20
68.8214846004
 40
0.9
  0
ARC
  5
473
100
AcDbEntity
  8
0
100
AcDbCircle
 62
7
  6
CONTINUOUS
 10
56.3869760178
 20
45.4416763526
 40
1.55
100
AcDbArc
 50
53.7306759877
 51
126.2293177535
  0
ARC
  5
474
100
AcDbEntity
  8
0
100
AcDbCircle
 62
7
  6
CONTINUOUS
 10
49.3869764444
 20
45.4441201958
 40
1.55
100
AcDbArc
 50
53.7306759877
 51
126.2293177535
  0
ARC
  5
475
100
AcDbEntity
  8
0
100
AcDbCircle
 62
7
  6
CONTINUOUS
 10
52.8869762311
 20
45.4428982742
 40
1.55
100
AcDbArc
 50
53.7306759877
 51
126.2293177535
  0
ARC
  5
476
100
AcDbEntity
  8
0
100
AcDbCircle
 62
7
  6
CONTINUOUS
 10
77.3869760178
 20
45.440467332
 40
1.55
100
AcDbArc
 50
53.7306759879
 51
126.2293177534
  0
ARC
  5
477
100
AcDbEntity
  8
0
100
AcDbCircle
 62
7
  6
CONTINUOUS
 10
59.8869754757
 20
45.4465769406
 40
1.55
100
AcDbArc
 50
53.7306759879
 51
126.2293177534
  0
ARC
  5
478
100
AcDbEntity
  8
0
100
AcDbCircle
 62
7
  6
CONTINUOUS
 10
66.8869766577
 20
45.4441330968
 40
1.55
100
AcDbArc
 50
53.7306759879
 51
126.2293177534
  0
ARC
  5
479
100
AcDbEntity
  8
0
100
AcDbCircle
 62
7
  6
CONTINUOUS
 10
70.3869764444
 20
45.4429111752
 40
1.55
100
AcDbArc
 50
53.7306759879
 51
126.2293177534
  0
ARC
  5
47A
100
AcDbEntity
  8
0
100
AcDbCircle
 62
7
  6
CONTINUOUS
 10
73.8869762311
 20
45.4416892536
 40
1.55
100
AcDbArc
 50
53.7306759878
 51
126.2293177534
  0
ARC
  5
47B
100
AcDbEntity
  8
0
100
AcDbCircle
 62
7
  6
CONTINUOUS
 10
63.3869758743
 20
45.4453551176
 40
1.55
100
AcDbArc
 50
53.7306698093
 51
126.229323932
  0
CIRCLE
  5
47C
100
AcDbEntity
  8
0
100
AcDbCircle
 62
7
  6
CONTINUOUS
 10
73.8881979443
 20
48.9439969555
 40
0.9000029591
  0
CIRCLE
  5
47D
100
AcDbEntity
  8
0
100
AcDbCircle
 62
7
  6
CONTINUOUS
 10
49.388197177
 20
48.9441199826
 40
0.9
  0
CIRCLE
  5
47E
100
AcDbEntity
  8
0
100
AcDbCircle
 62
7
  6
CONTINUOUS
 10
63.3881972302
 20
48.9453550348
 40
0.9
  0
CIRCLE
  5
47F
100
AcDbEntity
  8
0
100
AcDbCircle
 62
7
  6
CONTINUOUS
 10
59.8881974435
 20
48.9465768034
 40
0.9
  0
CIRCLE
  5
480
100
AcDbEntity
  8
0
100
AcDbCircle
 62
7
  6
CONTINUOUS
 10
70.3881965461
 20
48.9406030467
 40
0.9
  0
CIRCLE
  5
481
100
AcDbEntity
  8
0
100
AcDbCircle
 62
7
  6
CONTINUOUS
 10
77.3881961195
 20
48.9381592035
 40
0.9
  0
CIRCLE
  5
482
100
AcDbEntity
  8
0
100
AcDbCircle
 62
7
  6
CONTINUOUS
 10
66.8881975652
 20
48.9441328835
 40
0.9
  0
CIRCLE
  5
483
100
AcDbEntity
  8
0
100
AcDbCircle
 62
7
  6
CONTINUOUS
 10
56.3881967504
 20
48.9416761394
 40
0.8999998252
  0
CIRCLE
  5
484
100
AcDbEntity
  8
0
100
AcDbCircle
 62
7
  6
CONTINUOUS
 10
52.888196719
 20
48.9428980611
 40
0.8999995804
  0
ARC
  5
485
100
AcDbEntity
  8
0
100
AcDbCircle
 62
7
  6
CONTINUOUS
 10
76.6620106875
 20
65.3165993737
 40
1.55
100
AcDbArc
 50
53.7306809967
 51
126.2293227625
  0
ARC
  5
486
100
AcDbEntity
  8
0
100
AcDbCircle
 62
7
  6
CONTINUOUS
 10
62.6620099317
 20
65.3214858368
 40
1.55
100
AcDbArc
 50
53.7306809967
 51
126.2293227625
  0
ARC
  5
487
100
AcDbEntity
  8
0
100
AcDbCircle
 62
7
  6
CONTINUOUS
 10
69.6620111139
 20
65.319042605
 40
1.55
100
AcDbArc
 50
53.7306809967
 51
126.2293227625
  0
ARC
  5
488
100
AcDbEntity
  8
0
100
AcDbCircle
 62
7
  6
CONTINUOUS
 10
73.1620109007
 20
65.3178209894
 40
1.55
100
AcDbArc
 50
53.7306809967
 51
126.2293227625
  0
ARC
  5
489
100
AcDbEntity
  8
0
100
AcDbCircle
 62
7
  6
CONTINUOUS
 10
66.1620103304
 20
65.3202643198
 40
1.55
100
AcDbArc
 50
53.7306748182
 51
126.229328941
  0
ARC
  5
48A
100
AcDbEntity
  8
0
100
AcDbCircle
 62
7
  6
CONTINUOUS
 10
59.1620106875
 20
65.3165978438
 40
1.55
100
AcDbArc
 50
53.7306809967
 51
126.2293227625
  0
ARC
  5
48B
100
AcDbEntity
  8
0
100
AcDbCircle
 62
7
  6
CONTINUOUS
 10
52.1620111139
 20
65.3190410751
 40
1.55
100
AcDbArc
 50
53.7306809967
 51
126.2293227625
  0
ARC
  5
48C
100
AcDbEntity
  8
0
100
AcDbCircle
 62
7
  6
CONTINUOUS
 10
55.6620109007
 20
65.3178194595
 40
1.55
100
AcDbArc
 50
53.7306809967
 51
126.2293227625
  0
ARC
  5
48D
100
AcDbEntity
  8
0
100
AcDbCircle
 62
7
  6
CONTINUOUS
 10
48.6620103304
 20
65.3202627899
 40
1.55
100
AcDbArc
 50
53.7306748182
 51
126.229328941
  0
CIRCLE
  5
48E
100
AcDbEntity
  8
0
100
AcDbCircle
 62
7
  6
CONTINUOUS
 10
62.6632315937
 20
68.8214861303
 40
0.9
  0
CIRCLE
  5
48F
100
AcDbEntity
  8
0
100
AcDbCircle
 62
7
  6
CONTINUOUS
 10
66.1632313806
 20
68.8202647442
 40
0.9
  0
CIRCLE
  5
490
100
AcDbEntity
  8
0
100
AcDbCircle
 62
7
  6
CONTINUOUS
 10
69.6632315407
 20
68.8190428989
 40
0.9
  0
CIRCLE
  5
491
100
AcDbEntity
  8
0
100
AcDbCircle
 62
7
  6
CONTINUOUS
 10
48.6632313806
 20
68.8202632143
 40
0.9
  0
CIRCLE
  5
492
100
AcDbEntity
  8
0
100
AcDbCircle
 62
7
  6
CONTINUOUS
 10
52.1632315407
 20
68.819041369
 40
0.9
  0
CIRCLE
  5
493
100
AcDbEntity
  8
0
100
AcDbCircle
 62
7
  6
CONTINUOUS
 10
76.6632311144
 20
68.8165996677
 40
0.8999998252
  0
CIRCLE
  5
494
100
AcDbEntity
  8
0
100
AcDbCircle
 62
7
  6
CONTINUOUS
 10
59.1632311144
 20
68.8165981378
 40
0.8999998252
  0
CIRCLE
  5
495
100
AcDbEntity
  8
0
100
AcDbCircle
 62
7
  6
CONTINUOUS
 10
73.1632310828
 20
68.8178212834
 40
0.8999995804
  0
CIRCLE
  5
496
100
AcDbEntity
  8
0
100
AcDbCircle
 62
7
  6
CONTINUOUS
 10
55.6632310828
 20
68.8178197535
 40
0.8999995804
  0
SPLINE
  5
497
100
AcDbEntity
  8
0
100
AcDbSpline
 62
7
  6
CONTINUOUS
 70
0
 71
3
 72
21
 73
17
 74
0
 42
0.0000001
 43
0.0000001
 44
0.0000000001
 40
0.0
 40
0.0
 40
0.0
 40
0.0
 40
0.0024237126
 40
0.0066000164
 40
0.0215345969
 40
0.045610466
 40
0.0787495132
 40
0.120652437
 40
0.1709743488
 40
0.2292452567
 40
0.2949089174
 40
0.3673771914
 40
0.4459319423
 40
0.6182488824
 40
0.8054311417
 40
1.0
 40
1.0
 40
1.0
 40
1.0
 10
35.5482374892
 20
93.2565625688
 30
0.0
 10
35.5482376873
 20
93.2551312267
 30
0.0
 10
35.5510046082
 20
93.2516702919
 30
0.0
 10
35.5623555024
 20
93.2462771513
 30
0.0
 10
35.5873494326
 20
93.2397605136
 30
0.0
 10
35.6292251667
 20
93.2326209136
 30
0.0
 10
35.6873693975
 20
93.2252514719
 30
0.0
 10
35.7610241894
 20
93.2179470748
 30
0.0
 10
35.8496258877
 20
93.2108109435
 30
0.0
 10
35.9523063311
 20
93.2039685993
 30
0.0
 10
36.06811694
 20
93.197519927
 30
0.0
 10
36.1959460053
 20
93.1915746349
 30
0.0
 10
36.3867559802
 20
93.1841964193
 30
0.0
 10
36.6453590813
 20
93.1769658577
 30
0.0
 10
36.9725314763
 20
93.1716674387
 30
0.0
 10
37.1979796031
 20
93.1704693958
 30
0.0
 10
37.3128837394
 20
93.1704693958
 30
0.0
  0
SPLINE
  5
498
100
AcDbEntity
  8
0
100
AcDbSpline
 62
7
  6
CONTINUOUS
 70
0
 71
3
 72
13
 73
9
 74
0
 42
0.0000001
 43
0.0000001
 44
0.0000000001
 40
0.0
 40
0.0
 40
0.0
 40
0.0
 40
0.0307965577
 40
0.0955462366
 40
0.1919584909
 40
0.3166788337
 40
0.6327708854
 40
1.0
 40
1.0
 40
1.0
 40
1.0
 10
35.5527293726
 20
93.3928093289
 30
0.0
 10
35.5707985683
 20
93.3928076205
 30
0.0
 10
35.6268564948
 20
93.3922431872
 30
0.0
 10
35.7394792163
 20
93.391312917
 30
0.0
 10
35.9072078676
 20
93.3897986986
 30
0.0
 10
36.2224027192
 20
93.3873340685
 30
0.0
 10
36.696496221
 20
93.3846090396
 30
0.0
 10
37.0974202173
 20
93.3838056719
 30
0.0
 10
37.3128837394
 20
93.3838056719
 30
0.0
  0
SPLINE
  5
499
100
AcDbEntity
  8
0
100
AcDbSpline
 62
7
  6
CONTINUOUS
 70
0
 71
3
 72
21
 73
17
 74
0
 42
0.0000001
 43
0.0000001
 44
0.0000000001
 40
0.0
 40
0.0
 40
0.0
 40
0.0
 40
0.1945718065
 40
0.3817609934
 40
0.5540817781
 40
0.6326366862
 40
0.7051054874
 40
0.7707684835
 40
0.8290371126
 40
0.8793575161
 40
0.9212574976
 40
0.9543934654
 40
0.9784677912
 40
0.9934008613
 40
0.997576591
 40
1.0
 40
1.0
 40
1.0
 40
1.0
 10
37.3128837394
 20
93.1704693958
 30
0.0
 10
37.4277896197
 20
93.1704693958
 30
0.0
 10
37.6532435826
 20
93.1716678792
 30
0.0
 10
37.9804240889
 20
93.1769660972
 30
0.0
 10
38.2390336618
 20
93.1841965999
 30
0.0
 10
38.4298462795
 20
93.191575846
 30
0.0
 10
38.5576753396
 20
93.1975215446
 30
0.0
 10
38.6734845185
 20
93.2039702993
 30
0.0
 10
38.77616231
 20
93.210812952
 30
0.0
 10
38.8647600378
 20
93.2179488473
 30
0.0
 10
38.9384103953
 20
93.2252530617
 30
0.0
 10
38.996550096
 20
93.2326224949
 30
0.0
 10
39.038422315
 20
93.2397614645
 30
0.0
 10
39.0634140463
 20
93.2462776524
 30
0.0
 10
39.074763683
 20
93.25167045
 30
0.0
 10
39.0775299147
 20
93.2551312056
 30
0.0
 10
39.0775299943
 20
93.2565623684
 30
0.0
  0
SPLINE
  5
49A
100
AcDbEntity
  8
0
100
AcDbSpline
 62
7
  6
CONTINUOUS
 70
0
 71
3
 72
13
 73
9
 74
0
 42
0.0000001
 43
0.0000001
 44
0.0000000001
 40
0.0
 40
0.0
 40
0.0
 40
0.0
 40
0.3672282451
 40
0.6833129054
 40
0.8080326183
 40
0.9044463254
 40
0.9692010512
 40
1.0
 40
1.0
 40
1.0
 40
1.0
 10
37.3128837394
 20
93.3838056719
 30
0.0
 10
37.5283471035
 20
93.3838056719
 30
0.0
 10
37.9292669075
 20
93.3846093062
 30
0.0
 10
38.4033559709
 20
93.3873337129
 30
0.0
 10
38.718547486
 20
93.3897981077
 30
0.0
 10
38.8862798564
 20
93.3913122005
 30
0.0
 10
38.9989079824
 20
93.39224214
 30
0.0
 10
39.0549703596
 20
93.3928070484
 30
0.0
 10
39.0730409878
 20
93.3928089114
 30
0.0
  0
SPLINE
  5
49B
100
AcDbEntity
  8
0
100
AcDbSpline
 62
7
  6
CONTINUOUS
 70
0
 71
3
 72
20
 73
16
 74
0
 42
0.0000001
 43
0.0000001
 44
0.0000000001
 40
0.0
 40
0.0
 40
0.0
 40
0.0
 40
0.0023991094
 40
0.006533055
 40
0.0213790086
 40
0.0453755823
 40
0.0784508165
 40
0.1203103737
 40
0.1706120632
 40
0.2288825468
 40
0.2945647446
 40
0.4456611672
 40
0.618073232
 40
0.8053510548
 40
1.0
 40
1.0
 40
1.0
 40
1.0
 10
39.0775299943
 20
93.2565623684
 30
0.0
 10
39.077530073
 20
93.2579781065
 30
0.0
 10
39.0747662145
 20
93.2613975769
 30
0.0
 10
39.0633812572
 20
93.2665080884
 30
0.0
 10
39.0384041588
 20
93.2724472268
 30
0.0
 10
38.9965371207
 20
93.2786107985
 30
0.0
 10
38.9384016222
 20
93.2846777925
 30
0.0
 10
38.8647379186
 20
93.2903985323
 30
0.0
 10
38.7761154442
 20
93.2957263398
 30
0.0
 10
38.6734027932
 20
93.3006063904
 30
0.0
 10
38.5112077456
 20
93.3067698701
 30
0.0
 10
38.2816170808
 20
93.3128559291
 30
0.0
 10
37.9802366057
 20
93.3179261349
 30
0.0
 10
37.6531273406
 20
93.3209637594
 30
0.0
 10
37.4277479991
 20
93.3216366598
 30
0.0
 10
37.3128837394
 20
93.3216366598
 30
0.0
  0
SPLINE
  5
49C
100
AcDbEntity
  8
0
100
AcDbSpline
 62
7
  6
CONTINUOUS
 70
0
 71
3
 72
20
 73
16
 74
0
 42
0.0000001
 43
0.0000001
 44
0.0000000001
 40
0.0
 40
0.0
 40
0.0
 40
0.0
 40
0.1946463318
 40
0.381917728
 40
0.5543267261
 40
0.7054221128
 40
0.7711045859
 40
0.8293769472
 40
0.8796795982
 40
0.9215421144
 40
0.9546204583
 40
0.9786183726
 40
0.9934661271
 40
0.9976006854
 40
1.0
 40
1.0
 40
1.0
 40
1.0
 10
37.3128837394
 20
93.3216366598
 30
0.0
 10
37.1980210223
 20
93.3216366598
 30
0.0
 10
36.9726470154
 20
93.320964137
 30
0.0
 10
36.6455448969
 20
93.3179262406
 30
0.0
 10
36.3441706422
 20
93.3128560031
 30
0.0
 10
36.1145822127
 20
93.3067708628
 30
0.0
 10
35.9523865
 20
93.3006075674
 30
0.0
 10
35.8496719885
 20
93.2957279614
 30
0.0
 10
35.7610461022
 20
93.2903998128
 30
0.0
 10
35.6873782483
 20
93.2846791812
 30
0.0
 10
35.6292382826
 20
93.2786125349
 30
0.0
 10
35.5873676721
 20
93.2724482547
 30
0.0
 10
35.5623882894
 20
93.2665086926
 30
0.0
 10
35.5510018175
 20
93.2613982871
 30
0.0
 10
35.5482372932
 20
93.2579784279
 30
0.0
 10
35.5482374892
 20
93.2565625688
 30
0.0
  0
ENDSEC
  0
SECTION
  2
OBJECTS
  0
DICTIONARY
  5
C
100
AcDbDictionary
280
0
281
1
  3
ACAD_GROUP
350
D
  3
ACAD_MLINESTYLE
350
17
  3
ACAD_LAYOUT
350
1A
  3
ACAD_PLOTSETTINGS
350
19
  3
ACAD_PLOTSTYLENAME
350
E
  0
DICTIONARY
  5
D
102
{ACAD_REACTORS
330
C
102
}
100
AcDbDictionary
280
0
281
1
  0
ACDBDICTIONARYWDFLT
  5
E
102
{ACAD_REACTORS
330
C
102
}
100
AcDbDictionary
281
1
  3
Normal
350
F
100
AcDbDictionaryWithDefault
340
F
  0
DICTIONARY
  5
17
102
{ACAD_REACTORS
330
C
102
}
100
AcDbDictionary
280
0
281
1
  3
Standard
350
18
  0
DICTIONARY
  5
19
102
{ACAD_REACTORS
330
C
102
}
100
AcDbDictionary
281
1
  0
DICTIONARY
  5
1A
102
{ACAD_REACTORS
330
C
102
}
100
AcDbDictionary
281
1
  3
Model
350
49D
  3
Layout1
350
49E
  0
ACDBPLACEHOLDER
  5
F
102
{ACAD_REACTORS
330
E
102
}
  0
MLINESTYLE
  5
18
102
{ACAD_REACTORS
330
17
102
}
100
AcDbMlineStyle
  2
STANDARD
 70
0
  3

 62
256
 51
90.0
 52
90.0
 71
2
 49
0.5
 62
256
  6
BYLAYER
 49
-0.5
 62
256
  6
BYLAYER
  0
LAYOUT
  5
49D
102
{ACAD_REACTORS
330
1A
102
}
100
AcDbPlotSettings
  1

  2
none_device
  4

  6

 40
0.0
 41
0.0
 42
0.0
 43
0.0
 44
210.0
 45
297.0
 46
0.0
 47
0.0
 48
0.0
 49
0.0
140
0.0
141
0.0
142
1.0
143
1.0
 70
1024
 72
1
 73
0
 74
0
  7

 75
0
147
1.0
148
0.0
149
0.0
100
AcDbLayout
  1
Model
 70
0
 71
0
 10
0.0
 20
0.0
 11
210.0
 21
297.0
 12
0.0
 22
0.0
 32
0.0
 14
0.0
 24
0.0
 34
0.0
 15
0.0
 25
0.0
 35
0.0
146
0.0
 13
0.0
 23
0.0
 33
0.0
 16
1.0
 26
0.0
 36
0.0
 17
0.0
 27
1.0
 37
0.0
 76
0
330
210
345
0
346
0
  0
LAYOUT
  5
49E
102
{ACAD_REACTORS
330
1A
102
}
100
AcDbPlotSettings
  1

  2
none_device
  4

  6

 40
0.0
 41
0.0
 42
0.0
 43
0.0
 44
210.0
 45
297.0
 46
0.0
 47
0.0
 48
0.0
 49
0.0
140
0.0
141
0.0
142
1.0
143
1.0
 70
0
 72
1
 73
0
 74
0
  7

 75
0
147
1.0
148
0.0
149
0.0
100
AcDbLayout
  1
Layout1
 70
0
 71
1
 10
0.0
 20
0.0
 11
210.0
 21
297.0
 12
0.0
 22
0.0
 32
0.0
 14
0.0
 24
0.0
 34
0.0
 15
0.0
 25
0.0
 35
0.0
146
0.0
 13
0.0
 23
0.0
 33
0.0
 16
1.0
 26
0.0
 36
0.0
 17
0.0
 27
1.0
 37
0.0
 76
0
330
211
345
0
346
0
  0
ENDSEC
  0
EOF
