999
DXF file: C:\Users\sesa63760\Dev\_Creo\CAD\MCADPD0004665_3D-CAD\drw0001_1.dxf
999
Pro/ENGINEER 2019471 by Parametric Technology Corporation
  0
SECTION
  2
HEADER
  9
$ACADVER
  1
AC1024
  9
$DWGCODEPAGE
  3
ANSI_1252
  9
$EXTMAX
 10
210.6193393658
 20
297.8759228174
 30
0.0
  9
$EXTMIN
 10
0.0
 20
0.0
 30
0.0
  9
$LIMMIN
 10
0.0
 20
0.0
  9
$LIMMAX
 10
210.6193393658
 20
297.8759228174
  9
$VIEWCTR
 10
105.3096696829
 20
148.9379614087
  9
$VIEWSIZE
 40
297.8759228174
  9
$CLAYER
  8
0
  9
$LTSCALE
 40
19.4170971911
  9
$CELTYPE
  6
BYLAYER
  9
$DIMSCALE
 40
1.0
  9
$DIMASZ
 40
2.5073730877
  9
$DIMEXO
 40
1.0
  9
$DIMDLI
 40
13.4154489684
  9
$DIMEXE
 40
1.0
  9
$DIMCEN
 40
3.1773431767
  9
$DIMLFAC
 40
1.0
  9
$DIMBLK
  1
_FILLED
  9
$DIMALT
 70
0
  9
$DIMALTF
 40
0.0393700787
  9
$DIMTXT
 40
3.5103223228
  9
$DIMTOL
 70
1
  9
$DIMLIM
 70
0
  9
$DIMTFAC
 40
1.0
  9
$DIMTP
 40
0.01
  9
$DIMTM
 40
0.01
  9
$DIMGAP
 40
0.625
  9
$DIMDSEP
 70
46
  9
$AUNITS
 70
0
  9
$PDMODE
 70
3
  9
$PDSIZE
 40
0.3125
  9
$HANDSEED
  5
343
  9
$TILEMODE
 70
1
  9
$MEASUREMENT
 70
1
  9
$INSUNITS
 70
4
  0
ENDSEC
  0
SECTION
  2
CLASSES
  0
CLASS
  1
ACDBDICTIONARYWDFLT
  2
AcDbDictionaryWithDefault
  3
AutoCAD 2000
 90
0
 91
1
280
0
281
0
  0
CLASS
  1
ACDBPLACEHOLDER
  2
AcDbPlaceHolder
  3
AutoCAD 2000
 90
0
 91
1
280
0
281
0
  0
CLASS
  1
LAYOUT
  2
AcDbLayout
  3
AutoCAD 2000
 90
0
 91
0
280
0
281
0
  0
ENDSEC
  0
SECTION
  2
TABLES
  0
TABLE
  2
VPORT
  5
8
100
AcDbSymbolTable
 70
2
  0
VPORT
  5
1F4
100
AcDbSymbolTableRecord
100
AcDbViewportTableRecord
  2
*ACTIVE
 70
0
 10
0.0
 20
0.0
 11
1.0
 21
1.0
 12
105.3096696829
 22
148.9379614087
 13
0.0
 23
0.0
 14
1.0
 24
1.0
 15
0.0
 25
0.0
 16
0.0
 26
0.0
 36
1.0
 17
0.0
 27
0.0
 37
0.0
 40
297.8759228174
 41
0.7070707071
 42
50.0
 43
0.0
 44
0.0
 50
0.0
 51
0.0
 71
0
 72
100
 73
1
 74
1
 75
0
 76
0
 77
0
 78
0
  0
ENDTAB
  0
TABLE
  2
LTYPE
  5
5
100
AcDbSymbolTable
 70
6
  0
LTYPE
  5
14
100
AcDbSymbolTableRecord
100
AcDbLinetypeTableRecord
  2
BYBLOCK
 70
0
  3

 72
65
 73
0
 40
0.0
  0
LTYPE
  5
15
100
AcDbSymbolTableRecord
100
AcDbLinetypeTableRecord
  2
BYLAYER
 70
0
  3

 72
65
 73
0
 40
0.0
  0
LTYPE
  5
16
100
AcDbSymbolTableRecord
100
AcDbLinetypeTableRecord
  2
CONTINUOUS
 70
64
  3
Solid line
 72
65
 73
0
 40
0.0
  0
LTYPE
  5
1F5
100
AcDbSymbolTableRecord
100
AcDbLinetypeTableRecord
  2
CENTER
 70
64
  3
____ _ ____ _ ____ _ ____ _ ____ _ ____ _ ____
 72
65
 73
4
 40
0.6
 49
0.375
 74
0
 49
-0.075
 74
0
 49
0.075
 74
0
 49
-0.075
 74
0
  0
LTYPE
  5
1F6
100
AcDbSymbolTableRecord
100
AcDbLinetypeTableRecord
  2
HIDDEN
 70
64
  3
- - - - - - - - - - - - - - - - - - - -
 72
65
 73
2
 40
0.2
 49
0.1
 74
0
 49
-0.1
 74
0
  0
LTYPE
  5
1F7
100
AcDbSymbolTableRecord
100
AcDbLinetypeTableRecord
  2
PHANTOM
 70
64
  3
_____ _ _ _____ _ _ _____ _ _ _____
 72
65
 73
6
 40
0.8
 49
0.45
 74
0
 49
-0.05
 74
0
 49
0.1
 74
0
 49
-0.05
 74
0
 49
0.1
 74
0
 49
-0.05
 74
0
  0
LTYPE
  5
1F8
100
AcDbSymbolTableRecord
100
AcDbLinetypeTableRecord
  2
DOT
 70
64
  3
. . . . . . . . . . . . . . . . . . . .
 72
65
 73
2
 40
0.2
 49
0.1
 74
0
 49
-0.1
 74
0
  0
LTYPE
  5
1F9
100
AcDbSymbolTableRecord
100
AcDbLinetypeTableRecord
  2
DASHED
 70
64
  3
- - - - - - - - - - - - - - - - - - - -
 72
65
 73
2
 40
0.2
 49
0.1
 74
0
 49
-0.1
 74
0
  0
ENDTAB
  0
TABLE
  2
LAYER
  5
2
100
AcDbSymbolTable
 70
36
  0
LAYER
  5
10
100
AcDbSymbolTableRecord
100
AcDbLayerTableRecord
  2
0
 70
0
 62
7
  6
CONTINUOUS
370
-3
390
F
  0
LAYER
  5
1FA
100
AcDbSymbolTableRecord
100
AcDbLayerTableRecord
  2
DEFAULT_1
 70
0
 62
7
  6
CENTER
370
-3
390
F
  0
LAYER
  5
1FB
100
AcDbSymbolTableRecord
100
AcDbLayerTableRecord
  2
DEFAULT_2
 70
0
 62
7
  6
HIDDEN
370
-3
390
F
  0
LAYER
  5
1FC
100
AcDbSymbolTableRecord
100
AcDbLayerTableRecord
  2
DEFAULT_3
 70
0
 62
7
  6
PHANTOM
370
-3
390
F
  0
LAYER
  5
1FD
100
AcDbSymbolTableRecord
100
AcDbLayerTableRecord
  2
00_COMPONENTS
 70
0
 62
7
  6
CONTINUOUS
370
-3
390
F
  0
LAYER
  5
1FE
100
AcDbSymbolTableRecord
100
AcDbLayerTableRecord
  2
01_1_DEFAULT_DATUMS
 70
0
 62
7
  6
CONTINUOUS
370
-3
390
F
  0
LAYER
  5
1FF
100
AcDbSymbolTableRecord
100
AcDbLayerTableRecord
  2
01_PLANES
 70
0
 62
7
  6
CONTINUOUS
370
-3
390
F
  0
LAYER
  5
200
100
AcDbSymbolTableRecord
100
AcDbLayerTableRecord
  2
02_COORD_SYS
 70
0
 62
7
  6
CONTINUOUS
370
-3
390
F
  0
LAYER
  5
201
100
AcDbSymbolTableRecord
100
AcDbLayerTableRecord
  2
03_AXES
 70
0
 62
7
  6
CONTINUOUS
370
-3
390
F
  0
LAYER
  5
202
100
AcDbSymbolTableRecord
100
AcDbLayerTableRecord
  2
04_POINTS
 70
0
 62
7
  6
CONTINUOUS
370
-3
390
F
  0
LAYER
  5
203
100
AcDbSymbolTableRecord
100
AcDbLayerTableRecord
  2
05_CURVES
 70
0
 62
7
  6
CONTINUOUS
370
-3
390
F
  0
LAYER
  5
204
100
AcDbSymbolTableRecord
100
AcDbLayerTableRecord
  2
06_SURFS
 70
0
 62
7
  6
CONTINUOUS
370
-3
390
F
  0
LAYER
  5
205
100
AcDbSymbolTableRecord
100
AcDbLayerTableRecord
  2
07_COSMETICS
 70
0
 62
7
  6
CONTINUOUS
370
-3
390
F
  0
LAYER
  5
206
100
AcDbSymbolTableRecord
100
AcDbLayerTableRecord
  2
10_NOTES
 70
0
 62
7
  6
CONTINUOUS
370
-3
390
F
  0
LAYER
  5
207
100
AcDbSymbolTableRecord
100
AcDbLayerTableRecord
  2
11_NOTES_PUB
 70
0
 62
7
  6
CONTINUOUS
370
-3
390
F
  0
LAYER
  5
208
100
AcDbSymbolTableRecord
100
AcDbLayerTableRecord
  2
13_REF_GTOL
 70
0
 62
7
  6
CONTINUOUS
370
-3
390
F
  0
LAYER
  5
209
100
AcDbSymbolTableRecord
100
AcDbLayerTableRecord
  2
16_MISC
 70
0
 62
7
  6
CONTINUOUS
370
-3
390
F
  0
LAYER
  5
20A
100
AcDbSymbolTableRecord
100
AcDbLayerTableRecord
  2
17_NO_PRINT
 70
0
 62
7
  6
CONTINUOUS
370
-3
390
F
  0
LAYER
  5
20B
100
AcDbSymbolTableRecord
100
AcDbLayerTableRecord
  2
18_DATUM_CAMS_JOINTS
 70
0
 62
7
  6
CONTINUOUS
370
-3
390
F
  0
LAYER
  5
20C
100
AcDbSymbolTableRecord
100
AcDbLayerTableRecord
  2
19_DATUM_FUNCTIONAL
 70
0
 62
7
  6
CONTINUOUS
370
-3
390
F
  0
LAYER
  5
20D
100
AcDbSymbolTableRecord
100
AcDbLayerTableRecord
  2
20_DATUM_KINEMATIC_SCHEME
 70
0
 62
7
  6
CONTINUOUS
370
-3
390
F
  0
ENDTAB
  0
TABLE
  2
STYLE
  5
3
100
AcDbSymbolTable
 70
1
  0
STYLE
  5
11
100
AcDbSymbolTableRecord
100
AcDbTextStyleTableRecord
  2
STANDARD
 70
0
 40
0.0
 41
1.0
 50
0.0
 71
0
 42
0.2
  3
ARIAL.TTF
  4

  0
STYLE
  5
20E
100
AcDbSymbolTableRecord
100
AcDbTextStyleTableRecord
  2
TEXTSTYLE_1
 70
0
 40
0.0
 41
0.8
 50
0.0
 71
0
 42
0.2
  3
gdt
  4

  0
ENDTAB
  0
TABLE
  2
VIEW
  5
6
100
AcDbSymbolTable
 70
0
  0
ENDTAB
  0
TABLE
  2
UCS
  5
7
100
AcDbSymbolTable
 70
0
  0
ENDTAB
  0
TABLE
  2
APPID
  5
9
100
AcDbSymbolTable
 70
1
  0
APPID
  5
20F
100
AcDbSymbolTableRecord
100
AcDbRegAppTableRecord
  2
ACAD
 70
0
  0
ENDTAB
  0
TABLE
  2
BLOCK_RECORD
  5
1
100
AcDbSymbolTable
 70
0
  0
BLOCK_RECORD
  5
210
100
AcDbSymbolTableRecord
100
AcDbBlockTableRecord
  2
*Model_Space
  0
BLOCK_RECORD
  5
211
100
AcDbSymbolTableRecord
100
AcDbBlockTableRecord
  2
*Paper_Space
  0
BLOCK_RECORD
  5
212
100
AcDbSymbolTableRecord
100
AcDbBlockTableRecord
  2
_FILLED
  0
ENDTAB
  0
TABLE
  2
DIMSTYLE
  5
A
100
AcDbSymbolTable
 70
1
100
AcDbDimStyleTable
 71
0
  0
DIMSTYLE
105
213
100
AcDbSymbolTableRecord
100
AcDbDimStyleTableRecord
  2
STANDARD
 70
0
  3

  4

 40
1.0
 41
2.5073730877
 42
1.0
 43
0.38
 44
1.0
 45
0.0
 46
0.0
 47
0.01
 48
0.01
140
3.5103223228
141
0.09
142
0.0
143
25.4
144
1.0
145
0.0
146
1.0
147
0.625
 71
1
 72
0
 73
0
 74
0
 75
0
 76
0
 77
1
 78
8
 79
2
170
0
171
1
172
0
173
0
174
0
175
0
176
0
177
0
178
0
270
2
179
2
271
2
272
2
273
2
274
2
275
0
280
0
281
0
282
0
283
1
284
8
285
0
286
0
287
3
288
0
340
11
278
46
341
212
342
212
343
212
344
212
  0
ENDTAB
  0
ENDSEC
  0
SECTION
  2
BLOCKS
  0
BLOCK
  5
20
100
AcDbEntity
  8
0
100
AcDbBlockBegin
  2
*Model_Space
 70
0
 10
0.0
 20
0.0
 30
0.0
  3
*Model_Space
  1

  0
ENDBLK
  5
21
100
AcDbEntity
  8
0
100
AcDbBlockEnd
  0
BLOCK
  5
1C
100
AcDbEntity
  8
0
100
AcDbBlockBegin
  2
*Paper_Space
 70
0
 10
0.0
 20
0.0
 30
0.0
  3
*Paper_Space
  1

  0
ENDBLK
  5
1D
100
AcDbEntity
  8
0
100
AcDbBlockEnd
  0
BLOCK
  5
214
100
AcDbEntity
  8
0
100
AcDbBlockBegin
  2
_FILLED
 70
64
 10
0.0
 20
0.0
  3
_FILLED
  1

  0
SOLID
  5
215
100
AcDbEntity
  8
0
  6
BYBLOCK
 62
0
100
AcDbTrace
 10
0.0
 20
0.0
 11
-1.0
 21
0.25
 12
-1.0
 22
-0.25
 13
-1.0
 23
-0.25
  0
ENDBLK
  5
216
100
AcDbEntity
  8
0
  6
BYBLOCK
 62
0
100
AcDbBlockEnd
  0
ENDSEC
  0
SECTION
  2
ENTITIES
  0
LINE
  5
217
100
AcDbEntity
  8
0
100
AcDbLine
 62
7
  6
BYLAYER
 10
24.4342665995
 20
144.5062706754
 11
24.4342665995
 21
127.1147691905
  0
LINE
  5
218
100
AcDbEntity
  8
0
100
AcDbLine
 62
7
  6
BYLAYER
 10
25.1955379106
 20
159.3238184858
 11
25.1955379106
 21
144.8997972425
  0
LINE
  5
219
100
AcDbEntity
  8
0
100
AcDbLine
 62
7
  6
BYLAYER
 10
71.157332409
 20
200.6385141644
 11
73.2786439171
 21
201.8632466281
  0
LINE
  5
21A
100
AcDbEntity
  8
0
100
AcDbLine
 62
7
  6
BYLAYER
 10
104.6032996745
 20
215.8658192743
 11
108.1388188545
 21
217.9070400472
  0
LINE
  5
21B
100
AcDbEntity
  8
0
100
AcDbLine
 62
7
  6
BYLAYER
 10
105.0989497499
 20
80.6958526856
 11
73.4081082322
 21
98.9921545865
  0
LINE
  5
21C
100
AcDbEntity
  8
0
100
AcDbLine
 62
7
  6
BYLAYER
 10
52.4493359523
 20
109.0488907035
 11
52.4493359523
 21
126.4403921884
  0
LINE
  5
21D
100
AcDbEntity
  8
0
100
AcDbLine
 62
7
  6
BYLAYER
 10
53.9452846382
 20
127.2136980285
 11
53.9452846382
 21
109.8221965437
  0
LINE
  5
21E
100
AcDbEntity
  8
0
100
AcDbLine
 62
7
  6
BYLAYER
 10
56.0252661777
 20
177.1232642123
 11
56.073441242
 21
178.212531075
  0
LINE
  5
21F
100
AcDbEntity
  8
0
100
AcDbLine
 62
7
  6
BYLAYER
 10
58.4519545394
 20
179.5857581751
 11
56.073441242
 21
178.212531075
  0
LINE
  5
220
100
AcDbEntity
  8
0
100
AcDbLine
 62
7
  6
BYLAYER
 10
95.3402394228
 20
199.8216391851
 11
86.0776427456
 21
194.4739084035
  0
LINE
  5
221
100
AcDbEntity
  8
0
100
AcDbLine
 62
7
  6
BYLAYER
 10
79.183258113
 20
190.4934573264
 11
76.9550492038
 21
189.2070079875
  0
LINE
  5
222
100
AcDbEntity
  8
0
100
AcDbLine
 62
7
  6
BYLAYER
 10
71.157332409
 20
185.8597146046
 11
59.3712130671
 21
179.0550360251
  0
LINE
  5
223
100
AcDbEntity
  8
0
100
AcDbLine
 62
7
  6
BYLAYER
 10
56.0252661777
 20
177.1232642123
 11
25.1955379106
 21
159.3238184858
  0
LINE
  5
224
100
AcDbEntity
  8
0
100
AcDbLine
 62
7
  6
BYLAYER
 10
116.8776909286
 20
87.496271506
 11
122.7765456869
 21
85.1864396511
  0
LINE
  5
225
100
AcDbEntity
  8
0
100
AcDbLine
 62
7
  6
BYLAYER
 10
101.4573591041
 20
91.330815488
 11
94.0327069774
 21
95.6173434032
  0
LINE
  5
226
100
AcDbEntity
  8
0
100
AcDbLine
 62
7
  6
BYLAYER
 10
92.2649326615
 20
96.6379452877
 11
88.0222743034
 21
99.0873898107
  0
LINE
  5
227
100
AcDbEntity
  8
0
100
AcDbLine
 62
7
  6
BYLAYER
 10
105.0989497499
 20
92.2085367671
 11
102.8715667761
 21
93.4944878301
  0
LINE
  5
228
100
AcDbEntity
  8
0
100
AcDbLine
 62
7
  6
BYLAYER
 10
94.0327069774
 20
98.5974904515
 11
93.6791403335
 21
98.8016176298
  0
LINE
  5
229
100
AcDbEntity
  8
0
100
AcDbLine
 62
7
  6
BYLAYER
 10
88.0222743034
 20
102.0675368589
 11
73.4081082322
 21
110.504838668
  0
LINE
  5
22A
100
AcDbEntity
  8
0
100
AcDbLine
 62
7
  6
BYLAYER
 10
115.1247877968
 20
209.7913727177
 11
118.6294527161
 21
211.8504068033
  0
LINE
  5
22B
100
AcDbEntity
  8
0
100
AcDbLine
 62
7
  6
BYLAYER
 10
75.7535456304
 20
187.1662922376
 11
77.8748571384
 21
188.3910247013
  0
LINE
  5
22C
100
AcDbEntity
  8
0
100
AcDbLine
 62
7
  6
BYLAYER
 10
85.2995269362
 20
192.4736990879
 11
87.4208384442
 21
193.6984315516
  0
LINE
  5
22D
100
AcDbEntity
  8
0
100
AcDbLine
 62
7
  6
BYLAYER
 10
96.7544588756
 20
199.0051576774
 11
106.0175191272
 21
204.3531561023
  0
LINE
  5
22E
100
AcDbEntity
  8
0
100
AcDbLine
 62
7
  6
BYLAYER
 10
71.0159110528
 20
179.7360519458
 11
71.157332409
 21
179.8177011168
  0
LINE
  5
22F
100
AcDbEntity
  8
0
100
AcDbLine
 62
7
  6
BYLAYER
 10
80.7033137148
 20
184.3086069608
 11
82.8246252229
 21
185.5333394245
  0
LINE
  5
230
100
AcDbEntity
  8
0
100
AcDbLine
 62
7
  6
BYLAYER
 10
63.2650148346
 20
176.8069993916
 11
70.2380903538
 21
180.185116775
  0
LINE
  5
231
100
AcDbEntity
  8
0
100
AcDbLine
 62
7
  6
BYLAYER
 10
70.3925047834
 20
180.0959675797
 11
63.4194292641
 21
176.7178501962
  0
LINE
  5
232
100
AcDbEntity
  8
0
100
AcDbLine
 62
7
  6
BYLAYER
 10
106.513157422
 20
93.0250250762
 11
102.8715667761
 21
95.1274046411
  0
LINE
  5
233
100
AcDbEntity
  8
0
100
AcDbLine
 62
7
  6
BYLAYER
 10
88.0222743034
 20
103.7002652625
 11
74.8273469549
 21
111.3180203357
  0
LINE
  5
234
100
AcDbEntity
  8
0
100
AcDbLine
 62
7
  6
BYLAYER
 10
92.2649326615
 20
101.5369597905
 11
88.0222743034
 21
103.9864043134
  0
LINE
  5
235
100
AcDbEntity
  8
0
100
AcDbLine
 62
7
  6
BYLAYER
 10
94.0327069774
 20
100.516357906
 11
101.4573591041
 21
96.2298299908
  0
LINE
  5
236
100
AcDbEntity
  8
0
100
AcDbLine
 62
7
  6
BYLAYER
 10
93.6791403335
 20
102.3534480997
 11
89.4364819754
 21
104.8028926226
  0
LINE
  5
237
100
AcDbEntity
  8
0
100
AcDbLine
 62
7
  6
BYLAYER
 10
95.4469146494
 20
101.3328462151
 11
102.8715667761
 21
97.0463183
  0
LINE
  5
238
100
AcDbEntity
  8
0
100
AcDbLine
 62
7
  6
BYLAYER
 10
95.9772224992
 20
103.6802258441
 11
93.0073616485
 21
105.3948370102
  0
LINE
  5
239
100
AcDbEntity
  8
0
100
AcDbLine
 62
7
  6
BYLAYER
 10
100.7148576658
 20
103.8844214952
 11
106.5131574219
 21
100.5368473138
  0
LINE
  5
23A
100
AcDbEntity
  8
0
100
AcDbLine
 62
7
  6
BYLAYER
 10
70.2380903538
 20
180.0211612668
 11
70.2380903538
 21
180.185116775
  0
LINE
  5
23B
100
AcDbEntity
  8
0
100
AcDbLine
 62
7
  6
BYLAYER
 10
71.157332409
 20
179.6544041351
 11
71.157332409
 21
200.6385141644
  0
LINE
  5
23C
100
AcDbEntity
  8
0
100
AcDbLine
 62
7
  6
BYLAYER
 10
95.3402394228
 20
199.8216391851
 11
104.6032996745
 21
215.8658192743
  0
LINE
  5
23D
100
AcDbEntity
  8
0
100
AcDbLine
 62
7
  6
BYLAYER
 10
105.9425657084
 20
193.7005217492
 11
105.4524143799
 21
193.4125517675
  0
LINE
  5
23E
100
AcDbEntity
  8
0
100
AcDbLine
 62
7
  6
BYLAYER
 10
117.9285197322
 20
198.4235514571
 11
118.6294527161
 21
198.8353582743
  0
LINE
  5
23F
100
AcDbEntity
  8
0
100
AcDbLine
 62
7
  6
BYLAYER
 10
73.4081082322
 20
110.504838668
 11
73.4081082322
 21
98.9921545865
  0
LINE
  5
240
100
AcDbEntity
  8
0
100
AcDbLine
 62
7
  6
BYLAYER
 10
74.8325621047
 20
130.6665187504
 11
74.827695127
 21
111.3182213517
  0
LINE
  5
241
100
AcDbEntity
  8
0
100
AcDbLine
 62
7
  6
BYLAYER
 10
106.0175191272
 20
215.0493377667
 11
96.7544588756
 21
199.0051576774
  0
LINE
  5
242
100
AcDbEntity
  8
0
100
AcDbLine
 62
7
  6
BYLAYER
 10
99.4417214633
 20
184.3088840115
 11
101.5630329713
 21
185.5336164752
  0
LINE
  5
243
100
AcDbEntity
  8
0
100
AcDbLine
 62
7
  6
BYLAYER
 10
89.6626569382
 20
175.2819050803
 11
99.4417214633
 21
180.927816934
  0
LINE
  5
244
100
AcDbEntity
  8
0
100
AcDbLine
 62
7
  6
BYLAYER
 10
88.3914486479
 20
174.3525024229
 11
89.749088013
 21
175.1363311996
  0
LINE
  5
245
100
AcDbEntity
  8
0
100
AcDbLine
 62
7
  6
BYLAYER
 10
87.4561933196
 20
172.7347328673
 11
85.2995275252
 21
171.4895887186
  0
LINE
  5
246
100
AcDbEntity
  8
0
100
AcDbLine
 62
7
  6
BYLAYER
 10
25.9302152854
 20
145.2795765156
 11
24.4342665995
 21
144.5062706754
  0
LINE
  5
247
100
AcDbEntity
  8
0
100
AcDbLine
 62
7
  6
BYLAYER
 10
136.1403445761
 20
92.901986508
 11
148.9393434046
 21
85.5126482834
  0
LINE
  5
248
100
AcDbEntity
  8
0
100
AcDbLine
 62
7
  6
BYLAYER
 10
74.8352880664
 20
130.6649449512
 11
100.7148576658
 21
115.7237065436
  0
LINE
  5
249
100
AcDbEntity
  8
0
100
AcDbLine
 62
7
  6
BYLAYER
 10
139.8884584814
 20
95.1475963212
 11
139.959168865
 21
95.1067725859
  0
LINE
  5
24A
100
AcDbEntity
  8
0
100
AcDbLine
 62
7
  6
BYLAYER
 10
144.3431301833
 20
93.6776044988
 11
140.9134177007
 21
95.6577051213
  0
LINE
  5
24B
100
AcDbEntity
  8
0
100
AcDbLine
 62
7
  6
BYLAYER
 10
85.2995269362
 20
192.4736990879
 11
85.2995269362
 21
171.4895887186
  0
LINE
  5
24C
100
AcDbEntity
  8
0
100
AcDbLine
 62
7
  6
BYLAYER
 10
115.1247877968
 20
209.7913727177
 11
105.9425657084
 21
193.7005217492
  0
LINE
  5
24D
100
AcDbEntity
  8
0
100
AcDbLine
 62
7
  6
BYLAYER
 10
104.5326658655
 20
194.5145093854
 11
113.7957261171
 21
210.5586894747
  0
LINE
  5
24E
100
AcDbEntity
  8
0
100
AcDbLine
 62
7
  6
BYLAYER
 10
108.5209628779
 20
181.5165446626
 11
117.1360434911
 21
186.6671579793
  0
LINE
  5
24F
100
AcDbEntity
  8
0
100
AcDbLine
 62
7
  6
BYLAYER
 10
94.5582311103
 20
167.8426180682
 11
95.9158704754
 21
168.626446845
  0
LINE
  5
250
100
AcDbEntity
  8
0
100
AcDbLine
 62
7
  6
BYLAYER
 10
96.0316391546
 20
168.5619166124
 11
99.4417214633
 21
170.5307168058
  0
LINE
  5
251
100
AcDbEntity
  8
0
100
AcDbLine
 62
7
  6
BYLAYER
 10
104.7218420067
 20
173.5791776365
 11
106.6010617402
 21
174.6641391829
  0
LINE
  5
252
100
AcDbEntity
  8
0
100
AcDbLine
 62
7
  6
BYLAYER
 10
146.4644416913
 20
94.9023369626
 11
143.0347292087
 21
96.882437585
  0
LINE
  5
253
100
AcDbEntity
  8
0
100
AcDbLine
 62
7
  6
BYLAYER
 10
87.3333701952
 20
172.0137990834
 11
87.3333701952
 21
168.7477311791
  0
LINE
  5
254
100
AcDbEntity
  8
0
100
AcDbLine
 62
7
  6
BYLAYER
 10
87.4208384442
 20
193.6984315516
 11
87.4208384442
 21
172.7959696731
  0
LINE
  5
255
100
AcDbEntity
  8
0
100
AcDbLine
 62
7
  6
BYLAYER
 10
88.0222743034
 20
99.0873898107
 11
88.0222743034
 21
103.9864043134
  0
LINE
  5
256
100
AcDbEntity
  8
0
100
AcDbLine
 62
7
  6
BYLAYER
 10
92.2649326615
 20
96.6379452877
 11
92.2649326615
 21
101.5369597905
  0
LINE
  5
257
100
AcDbEntity
  8
0
100
AcDbLine
 62
7
  6
BYLAYER
 10
117.1360434912
 20
177.8489318743
 11
115.7052274984
 21
176.993504022
  0
LINE
  5
258
100
AcDbEntity
  8
0
100
AcDbLine
 62
7
  6
BYLAYER
 10
104.0379346846
 20
170.8366620847
 11
106.1592461926
 21
172.0613945484
  0
LINE
  5
259
100
AcDbEntity
  8
0
100
AcDbLine
 62
7
  6
BYLAYER
 10
113.5839159904
 20
176.144068935
 11
115.7052274984
 21
177.3688013987
  0
LINE
  5
25A
100
AcDbEntity
  8
0
100
AcDbLine
 62
7
  6
BYLAYER
 10
94.5582311103
 20
164.5765501639
 11
95.9158704754
 21
165.3603789407
  0
LINE
  5
25B
100
AcDbEntity
  8
0
100
AcDbLine
 62
7
  6
BYLAYER
 10
109.3360882233
 20
172.9771883703
 11
106.9545683872
 21
171.6022254546
  0
LINE
  5
25C
100
AcDbEntity
  8
0
100
AcDbLine
 62
7
  6
BYLAYER
 10
99.4417214633
 20
167.2647071373
 11
96.0295904824
 21
165.2947241495
  0
LINE
  5
25D
100
AcDbEntity
  8
0
100
AcDbLine
 62
7
  6
BYLAYER
 10
99.300300107
 20
163.4064217929
 11
99.4417214633
 21
163.4880709639
  0
LINE
  5
25E
100
AcDbEntity
  8
0
100
AcDbLine
 62
7
  6
BYLAYER
 10
108.9877027691
 20
167.9789768079
 11
111.1090142771
 21
169.2037092716
  0
LINE
  5
25F
100
AcDbEntity
  8
0
100
AcDbLine
 62
7
  6
BYLAYER
 10
125.588731816
 20
181.7871065178
 11
116.2354125344
 21
176.5722816647
  0
LINE
  5
260
100
AcDbEntity
  8
0
100
AcDbLine
 62
7
  6
BYLAYER
 10
124.4028351915
 20
117.5606001072
 11
130.2011349476
 21
114.2130259258
  0
LINE
  5
261
100
AcDbEntity
  8
0
100
AcDbLine
 62
7
  6
BYLAYER
 10
93.6791403335
 20
102.3534480997
 11
93.6791403335
 21
97.4544335969
  0
LINE
  5
262
100
AcDbEntity
  8
0
100
AcDbLine
 62
7
  6
BYLAYER
 10
94.0327069774
 20
95.6173434032
 11
94.0327069774
 21
100.516357906
  0
LINE
  5
263
100
AcDbEntity
  8
0
100
AcDbLine
 62
7
  6
BYLAYER
 10
94.5582311103
 20
164.5765501639
 11
94.5582311103
 21
167.8426180682
  0
LINE
  5
264
100
AcDbEntity
  8
0
100
AcDbLine
 62
7
  6
BYLAYER
 10
95.9158704754
 20
165.3603789407
 11
95.9158704754
 21
168.626446845
  0
LINE
  5
265
100
AcDbEntity
  8
0
100
AcDbLine
 62
7
  6
BYLAYER
 10
95.9772224992
 20
101.0266797627
 11
95.9772224992
 21
103.6802258441
  0
LINE
  5
266
100
AcDbEntity
  8
0
100
AcDbLine
 62
7
  6
BYLAYER
 10
96.0295904824
 20
165.2947241495
 11
96.0295904824
 21
168.5607299197
  0
LINE
  5
267
100
AcDbEntity
  8
0
100
AcDbLine
 62
7
  6
BYLAYER
 10
99.4417214633
 20
163.3247739822
 11
99.4417214633
 21
184.3088840115
  0
LINE
  5
268
100
AcDbEntity
  8
0
100
AcDbLine
 62
7
  6
BYLAYER
 10
100.7148576658
 20
103.8844214952
 11
100.7148576658
 21
115.7237065436
  0
LINE
  5
269
100
AcDbEntity
  8
0
100
AcDbLine
 62
7
  6
BYLAYER
 10
124.6713195926
 20
129.5548937721
 11
130.4696193487
 21
126.2073195907
  0
LINE
  5
26A
100
AcDbEntity
  8
0
100
AcDbLine
 62
7
  6
BYLAYER
 10
101.4573591041
 20
96.2298299908
 11
101.4573591041
 21
91.330815488
  0
LINE
  5
26B
100
AcDbEntity
  8
0
100
AcDbLine
 62
7
  6
BYLAYER
 10
102.8715667761
 20
97.0463183
 11
102.8715667761
 21
92.1473037972
  0
LINE
  5
26C
100
AcDbEntity
  8
0
100
AcDbLine
 62
7
  6
BYLAYER
 10
105.0989497499
 20
92.2085367671
 11
105.0989497499
 21
80.6958526856
  0
LINE
  5
26D
100
AcDbEntity
  8
0
100
AcDbLine
 62
7
  6
BYLAYER
 10
106.0175191272
 20
215.0493377667
 11
106.0175191272
 21
204.3531561023
  0
LINE
  5
26E
100
AcDbEntity
  8
0
100
AcDbLine
 62
7
  6
BYLAYER
 10
106.513157422
 20
100.5368473138
 11
106.513157422
 21
93.0250250762
  0
LINE
  5
26F
100
AcDbEntity
  8
0
100
AcDbLine
 62
7
  6
BYLAYER
 10
127.7261105175
 20
167.9792538586
 11
129.8474220255
 21
169.2039863223
  0
LINE
  5
270
100
AcDbEntity
  8
0
100
AcDbLine
 62
7
  6
BYLAYER
 10
117.9470459924
 20
158.9522749274
 11
127.7261105175
 21
164.5981867811
  0
LINE
  5
271
100
AcDbEntity
  8
0
100
AcDbLine
 62
7
  6
BYLAYER
 10
116.6723115003
 20
158.0249080774
 11
118.0299508654
 21
158.8087368542
  0
LINE
  5
272
100
AcDbEntity
  8
0
100
AcDbLine
 62
7
  6
BYLAYER
 10
115.7405823738
 20
156.4051027144
 11
113.5839165794
 21
155.1599585657
  0
LINE
  5
273
100
AcDbEntity
  8
0
100
AcDbLine
 62
7
  6
BYLAYER
 10
52.4493359523
 20
126.4403921884
 11
53.9452846382
 21
127.2136980285
  0
LINE
  5
274
100
AcDbEntity
  8
0
100
AcDbLine
 62
7
  6
BYLAYER
 10
56.0252661777
 20
177.1232642123
 11
137.3428847086
 21
130.1755775227
  0
LINE
  5
275
100
AcDbEntity
  8
0
100
AcDbLine
 62
7
  6
BYLAYER
 10
56.073441242
 20
178.212531075
 11
137.3910597729
 21
131.2648443854
  0
LINE
  5
276
100
AcDbEntity
  8
0
100
AcDbLine
 62
7
  6
BYLAYER
 10
113.5839159904
 20
176.144068935
 11
113.5839159904
 21
155.1599585657
  0
LINE
  5
277
100
AcDbEntity
  8
0
100
AcDbLine
 62
7
  6
BYLAYER
 10
136.8053519321
 20
165.1869145097
 11
145.4204325455
 21
170.3375278264
  0
LINE
  5
278
100
AcDbEntity
  8
0
100
AcDbLine
 62
7
  6
BYLAYER
 10
122.8390939627
 20
151.5150237228
 11
124.1967333278
 21
152.2988524996
  0
LINE
  5
279
100
AcDbEntity
  8
0
100
AcDbLine
 62
7
  6
BYLAYER
 10
124.3160282089
 20
152.2322864595
 11
127.7261105175
 21
154.2010866529
  0
LINE
  5
27A
100
AcDbEntity
  8
0
100
AcDbLine
 62
7
  6
BYLAYER
 10
133.0062310609
 20
157.2495474836
 11
134.8854507944
 21
158.3345090299
  0
LINE
  5
27B
100
AcDbEntity
  8
0
100
AcDbLine
 62
7
  6
BYLAYER
 10
139.888458506
 20
131.645256472
 11
139.8138375143
 21
131.6883379463
  0
LINE
  5
27C
100
AcDbEntity
  8
0
100
AcDbLine
 62
7
  6
BYLAYER
 10
139.8099268947
 20
131.7722438155
 11
139.959168865
 21
131.6860808733
  0
LINE
  5
27D
100
AcDbEntity
  8
0
100
AcDbLine
 62
7
  6
BYLAYER
 10
58.4519545394
 20
179.5857581751
 11
139.7695730703
 21
132.6380714855
  0
LINE
  5
27E
100
AcDbEntity
  8
0
100
AcDbLine
 62
7
  6
BYLAYER
 10
176.6578579537
 20
116.2946442081
 11
185.9209182054
 21
110.9464609685
  0
LINE
  5
27F
100
AcDbEntity
  8
0
100
AcDbLine
 62
7
  6
BYLAYER
 10
87.3333701952
 20
168.7477311791
 11
94.5582311103
 21
164.5765501639
  0
LINE
  5
280
100
AcDbEntity
  8
0
100
AcDbLine
 62
7
  6
BYLAYER
 10
115.6142330477
 20
152.4201368336
 11
122.8390939627
 21
148.2489558185
  0
LINE
  5
281
100
AcDbEntity
  8
0
100
AcDbLine
 62
7
  6
BYLAYER
 10
115.6142330477
 20
155.686204738
 11
115.6142330477
 21
152.4201368336
  0
LINE
  5
282
100
AcDbEntity
  8
0
100
AcDbLine
 62
7
  6
BYLAYER
 10
115.7052274984
 20
177.3688013987
 11
115.7052274984
 21
156.4663395202
  0
LINE
  5
283
100
AcDbEntity
  8
0
100
AcDbLine
 62
7
  6
BYLAYER
 10
117.1360434911
 20
177.8489318743
 11
117.1360434911
 21
186.6671579793
  0
LINE
  5
284
100
AcDbEntity
  8
0
100
AcDbLine
 62
7
  6
BYLAYER
 10
117.9285197322
 20
177.5162521663
 11
117.9285197322
 21
198.4235514571
  0
LINE
  5
285
100
AcDbEntity
  8
0
100
AcDbLine
 62
7
  6
BYLAYER
 10
118.6294527161
 20
211.8504068033
 11
118.6294527161
 21
198.8353582743
  0
LINE
  5
286
100
AcDbEntity
  8
0
100
AcDbLine
 62
7
  6
BYLAYER
 10
145.4204325454
 20
161.5193017214
 11
143.9896165526
 21
160.6638738691
  0
LINE
  5
287
100
AcDbEntity
  8
0
100
AcDbLine
 62
7
  6
BYLAYER
 10
132.3223237388
 20
154.5070319318
 11
134.4436352468
 21
155.7317643955
  0
LINE
  5
288
100
AcDbEntity
  8
0
100
AcDbLine
 62
7
  6
BYLAYER
 10
141.8683050446
 20
159.8144387821
 11
143.9896165526
 21
161.0391712458
  0
LINE
  5
289
100
AcDbEntity
  8
0
100
AcDbLine
 62
7
  6
BYLAYER
 10
122.8390939627
 20
148.2489558185
 11
124.1967333278
 21
149.0327845953
  0
LINE
  5
28A
100
AcDbEntity
  8
0
100
AcDbLine
 62
7
  6
BYLAYER
 10
137.6204772775
 20
156.6475582174
 11
135.2389574414
 21
155.2725953017
  0
LINE
  5
28B
100
AcDbEntity
  8
0
100
AcDbLine
 62
7
  6
BYLAYER
 10
127.7261105175
 20
150.9350769844
 11
124.3139795366
 21
148.9650939966
  0
LINE
  5
28C
100
AcDbEntity
  8
0
100
AcDbLine
 62
7
  6
BYLAYER
 10
127.5846891612
 20
147.07679164
 11
127.7261105175
 21
147.158440811
  0
LINE
  5
28D
100
AcDbEntity
  8
0
100
AcDbLine
 62
7
  6
BYLAYER
 10
137.2720918233
 20
151.649346655
 11
139.3934033313
 21
152.8740791187
  0
LINE
  5
28E
100
AcDbEntity
  8
0
100
AcDbLine
 62
7
  6
BYLAYER
 10
178.9658035238
 20
177.0159866015
 11
175.3994300783
 21
174.992579144
  0
LINE
  5
28F
100
AcDbEntity
  8
0
100
AcDbLine
 62
7
  6
BYLAYER
 10
153.8731208702
 20
165.457476365
 11
144.5198015886
 21
160.2426515117
  0
LINE
  5
290
100
AcDbEntity
  8
0
100
AcDbLine
 62
7
  6
BYLAYER
 10
53.9452846382
 20
109.8221965437
 11
52.4493359523
 21
109.0488907035
  0
LINE
  5
291
100
AcDbEntity
  8
0
100
AcDbLine
 62
7
  6
BYLAYER
 10
70.2380903538
 20
180.185116775
 11
70.3925047834
 21
180.0959675797
  0
LINE
  5
292
100
AcDbEntity
  8
0
100
AcDbLine
 62
7
  6
BYLAYER
 10
71.0159110528
 20
179.7360519458
 11
85.2995275252
 21
171.4895887186
  0
LINE
  5
293
100
AcDbEntity
  8
0
100
AcDbLine
 62
7
  6
BYLAYER
 10
95.9158704754
 20
165.3603789407
 11
96.0295904824
 21
165.2947241495
  0
LINE
  5
294
100
AcDbEntity
  8
0
100
AcDbLine
 62
7
  6
BYLAYER
 10
99.300300107
 20
163.4064217929
 11
113.5839165794
 21
155.1599585657
  0
LINE
  5
295
100
AcDbEntity
  8
0
100
AcDbLine
 62
7
  6
BYLAYER
 10
124.1967333278
 20
149.0327845953
 11
124.3139795366
 21
148.9650939966
  0
LINE
  5
296
100
AcDbEntity
  8
0
100
AcDbLine
 62
7
  6
BYLAYER
 10
127.5846891612
 20
147.07679164
 11
141.8683056336
 21
138.8303284127
  0
LINE
  5
297
100
AcDbEntity
  8
0
100
AcDbLine
 62
7
  6
BYLAYER
 10
142.5300696886
 20
138.4482674022
 11
142.6461263326
 21
138.3812635836
  0
LINE
  5
298
100
AcDbEntity
  8
0
100
AcDbLine
 62
7
  6
BYLAYER
 10
143.9896165526
 20
140.1367093673
 11
144.0603275253
 21
140.0958852919
  0
LINE
  5
299
100
AcDbEntity
  8
0
100
AcDbLine
 62
7
  6
BYLAYER
 10
122.8390939627
 20
148.2489558185
 11
122.8390939627
 21
151.5150237228
  0
LINE
  5
29A
100
AcDbEntity
  8
0
100
AcDbLine
 62
7
  6
BYLAYER
 10
124.1967333278
 20
149.0327845953
 11
124.1967333278
 21
152.2988524996
  0
LINE
  5
29B
100
AcDbEntity
  8
0
100
AcDbLine
 62
7
  6
BYLAYER
 10
124.3139795366
 20
148.9650939966
 11
124.3139795366
 21
152.2310997668
  0
LINE
  5
29C
100
AcDbEntity
  8
0
100
AcDbLine
 62
7
  6
BYLAYER
 10
127.7261105175
 20
146.9951438293
 11
127.7261105175
 21
167.9792538586
  0
LINE
  5
29D
100
AcDbEntity
  8
0
100
AcDbLine
 62
7
  6
BYLAYER
 10
124.4028351915
 20
117.5606001072
 11
124.6713195926
 21
129.5548937721
  0
LINE
  5
29E
100
AcDbEntity
  8
0
100
AcDbLine
 62
7
  6
BYLAYER
 10
73.4081082322
 20
110.504838668
 11
74.8219677322
 21
111.3211259611
  0
LINE
  5
29F
100
AcDbEntity
  8
0
100
AcDbLine
 62
7
  6
BYLAYER
 10
166.0555316511
 20
158.9950699412
 11
165.5567499638
 21
158.7120825869
  0
LINE
  5
2A0
100
AcDbEntity
  8
0
100
AcDbLine
 62
7
  6
BYLAYER
 10
75.7535456304
 20
187.1662922376
 11
80.7033137148
 21
184.3086069608
  0
LINE
  5
2A1
100
AcDbEntity
  8
0
100
AcDbLine
 62
7
  6
BYLAYER
 10
104.0379346846
 20
170.8366620847
 11
108.9877027691
 21
167.9789768079
  0
LINE
  5
2A2
100
AcDbEntity
  8
0
100
AcDbLine
 62
7
  6
BYLAYER
 10
132.3223237388
 20
154.5070319318
 11
137.2720918233
 21
151.649346655
  0
LINE
  5
2A3
100
AcDbEntity
  8
0
100
AcDbLine
 62
7
  6
BYLAYER
 10
77.8748571384
 20
188.3910247013
 11
82.8246252229
 21
185.5333394245
  0
LINE
  5
2A4
100
AcDbEntity
  8
0
100
AcDbLine
 62
7
  6
BYLAYER
 10
106.1592461926
 20
172.0613945484
 11
111.1090142771
 21
169.2037092716
  0
LINE
  5
2A5
100
AcDbEntity
  8
0
100
AcDbLine
 62
7
  6
BYLAYER
 10
134.4436352468
 20
155.7317643955
 11
139.3934033313
 21
152.8740791187
  0
LINE
  5
2A6
100
AcDbEntity
  8
0
100
AcDbLine
 62
7
  6
BYLAYER
 10
188.7493335494
 20
126.4109676235
 11
189.4564373854
 21
126.0027302704
  0
LINE
  5
2A7
100
AcDbEntity
  8
0
100
AcDbLine
 62
7
  6
BYLAYER
 10
137.2720918233
 20
156.9566123663
 11
132.3223237388
 21
159.8142976431
  0
LINE
  5
2A8
100
AcDbEntity
  8
0
100
AcDbLine
 62
7
  6
BYLAYER
 10
108.9877027691
 20
173.2862425193
 11
104.0379346846
 21
176.143927796
  0
LINE
  5
2A9
100
AcDbEntity
  8
0
100
AcDbLine
 62
7
  6
BYLAYER
 10
80.7033137149
 20
189.6158726722
 11
75.7535456304
 21
192.4735579489
  0
LINE
  5
2AA
100
AcDbEntity
  8
0
100
AcDbLine
 62
7
  6
BYLAYER
 10
130.4696193487
 20
126.2073195907
 11
130.2011349477
 21
114.2130259258
  0
LINE
  5
2AB
100
AcDbEntity
  8
0
100
AcDbLine
 62
7
  6
BYLAYER
 10
136.6789731866
 20
134.4223897876
 11
142.5300696886
 21
138.4482674022
  0
LINE
  5
2AC
100
AcDbEntity
  8
0
100
AcDbLine
 62
7
  6
BYLAYER
 10
142.6461263326
 20
138.3812635836
 11
136.7950298306
 21
134.355385969
  0
LINE
  5
2AD
100
AcDbEntity
  8
0
100
AcDbLine
 62
7
  6
BYLAYER
 10
189.4564373854
 20
170.9593533576
 11
185.9209182054
 21
168.9181325847
  0
LINE
  5
2AE
100
AcDbEntity
  8
0
100
AcDbLine
 62
7
  6
BYLAYER
 10
167.465431511
 20
158.1810822952
 11
176.7284917627
 21
163.52908072
  0
LINE
  5
2AF
100
AcDbEntity
  8
0
100
AcDbLine
 62
7
  6
BYLAYER
 10
124.6713195926
 20
129.5548937721
 11
100.7148576658
 21
115.7237065436
  0
LINE
  5
2B0
100
AcDbEntity
  8
0
100
AcDbLine
 62
7
  6
BYLAYER
 10
144.0603275253
 20
140.0958852919
 11
141.8683056336
 21
138.8303284127
  0
LINE
  5
2B1
100
AcDbEntity
  8
0
100
AcDbLine
 62
7
  6
BYLAYER
 10
71.1573324091
 20
200.6385141644
 11
85.2995269362
 21
192.4736990879
  0
LINE
  5
2B2
100
AcDbEntity
  8
0
100
AcDbLine
 62
7
  6
BYLAYER
 10
99.4417214633
 20
184.3088840115
 11
113.5839159904
 21
176.144068935
  0
LINE
  5
2B3
100
AcDbEntity
  8
0
100
AcDbLine
 62
7
  6
BYLAYER
 10
127.7261105175
 20
167.9792538586
 11
141.8683050446
 21
159.8144387821
  0
LINE
  5
2B4
100
AcDbEntity
  8
0
100
AcDbLine
 62
7
  6
BYLAYER
 10
144.5198015886
 20
160.2426515117
 11
143.9896165526
 21
160.5487470591
  0
LINE
  5
2B5
100
AcDbEntity
  8
0
100
AcDbLine
 62
7
  6
BYLAYER
 10
116.2354125344
 20
176.5722816647
 11
115.7052274984
 21
176.8783772121
  0
LINE
  5
2B6
100
AcDbEntity
  8
0
100
AcDbLine
 62
7
  6
BYLAYER
 10
73.2786439171
 20
201.8632466281
 11
87.4208384442
 21
193.6984315516
  0
LINE
  5
2B7
100
AcDbEntity
  8
0
100
AcDbLine
 62
7
  6
BYLAYER
 10
101.5630329713
 20
185.5336164752
 11
115.7052274984
 21
177.3688013987
  0
LINE
  5
2B8
100
AcDbEntity
  8
0
100
AcDbLine
 62
7
  6
BYLAYER
 10
129.8474220255
 20
169.2039863223
 11
143.9896165526
 21
161.0391712458
  0
LINE
  5
2B9
100
AcDbEntity
  8
0
100
AcDbLine
 62
7
  6
BYLAYER
 10
139.8177481346
 20
131.6044320637
 11
139.7695730703
 21
132.6380714855
  0
LINE
  5
2BA
100
AcDbEntity
  8
0
100
AcDbLine
 62
7
  6
BYLAYER
 10
139.8884584814
 20
131.6452564579
 11
139.8884584814
 21
95.0659481705
  0
LINE
  5
2BB
100
AcDbEntity
  8
0
100
AcDbLine
 62
7
  6
BYLAYER
 10
139.959168865
 20
131.6860808733
 11
139.959168865
 21
95.1067725859
  0
LINE
  5
2BC
100
AcDbEntity
  8
0
100
AcDbLine
 62
7
  6
BYLAYER
 10
141.8683050446
 20
159.8144387821
 11
141.8683050446
 21
138.8303284127
  0
LINE
  5
2BD
100
AcDbEntity
  8
0
100
AcDbLine
 62
7
  6
BYLAYER
 10
142.5300696886
 20
138.4482674022
 11
142.5300696886
 21
138.3014102014
  0
LINE
  5
2BE
100
AcDbEntity
  8
0
100
AcDbLine
 62
7
  6
BYLAYER
 10
137.3910597729
 20
131.2648443853
 11
137.3428847086
 21
130.1755775227
  0
LINE
  5
2BF
100
AcDbEntity
  8
0
100
AcDbLine
 62
7
  6
BYLAYER
 10
88.0222743034
 20
103.9864043134
 11
89.4364819754
 21
104.8028926226
  0
LINE
  5
2C0
100
AcDbEntity
  8
0
100
AcDbLine
 62
7
  6
BYLAYER
 10
139.7695730703
 20
132.6380714855
 11
137.3910597729
 21
131.2648443853
  0
LINE
  5
2C1
100
AcDbEntity
  8
0
100
AcDbLine
 62
7
  6
BYLAYER
 10
90.7092904791
 20
104.0680529172
 11
93.0073616485
 21
105.3948370102
  0
LINE
  5
2C2
100
AcDbEntity
  8
0
100
AcDbLine
 62
7
  6
BYLAYER
 10
176.6578579537
 20
152.8739524955
 11
139.959168865
 21
131.6860808733
  0
LINE
  5
2C3
100
AcDbEntity
  8
0
100
AcDbLine
 62
7
  6
BYLAYER
 10
139.888458506
 20
131.645256472
 11
139.8177481346
 21
131.6044320637
  0
LINE
  5
2C4
100
AcDbEntity
  8
0
100
AcDbLine
 62
7
  6
BYLAYER
 10
137.3428847086
 20
130.1755775227
 11
130.4696193487
 21
126.2073195907
  0
LINE
  5
2C5
100
AcDbEntity
  8
0
100
AcDbLine
 62
7
  6
BYLAYER
 10
188.7493335494
 20
157.5360606739
 11
189.4564373854
 21
157.9443048285
  0
LINE
  5
2C6
100
AcDbEntity
  8
0
100
AcDbLine
 62
7
  6
BYLAYER
 10
92.2649326615
 20
101.5369597905
 11
95.9772224992
 21
103.6802258441
  0
LINE
  5
2C7
100
AcDbEntity
  8
0
100
AcDbLine
 62
7
  6
BYLAYER
 10
94.0327069774
 20
100.516357906
 11
95.4469146494
 21
101.3328462151
  0
LINE
  5
2C8
100
AcDbEntity
  8
0
100
AcDbLine
 62
7
  6
BYLAYER
 10
124.4028351915
 20
117.5606001072
 11
100.7148576658
 21
103.8844214952
  0
LINE
  5
2C9
100
AcDbEntity
  8
0
100
AcDbLine
 62
7
  6
BYLAYER
 10
117.1360434911
 20
177.8489318743
 11
117.818510824
 21
177.4549180911
  0
LINE
  5
2CA
100
AcDbEntity
  8
0
100
AcDbLine
 62
7
  6
BYLAYER
 10
145.4204325454
 20
161.5193017214
 11
146.1028998783
 21
161.1252879382
  0
LINE
  5
2CB
100
AcDbEntity
  8
0
100
AcDbLine
 62
7
  6
BYLAYER
 10
143.9896165526
 20
161.0391712458
 11
143.9896165526
 21
140.0550605364
  0
LINE
  5
2CC
100
AcDbEntity
  8
0
100
AcDbLine
 62
7
  6
BYLAYER
 10
145.4204325455
 20
161.5193017214
 11
145.4204325455
 21
170.3375278264
  0
LINE
  5
2CD
100
AcDbEntity
  8
0
100
AcDbLine
 62
7
  6
BYLAYER
 10
148.9393434046
 20
85.5126482834
 11
148.9393434046
 21
100.2914478431
  0
LINE
  5
2CE
100
AcDbEntity
  8
0
100
AcDbLine
 62
7
  6
BYLAYER
 10
94.0327069774
 20
99.1282558298
 11
93.6791403335
 21
98.9241252505
  0
LINE
  5
2CF
100
AcDbEntity
  8
0
100
AcDbLine
 62
7
  6
BYLAYER
 10
99.5027292222
 20
101.1665335762
 11
97.618871858
 21
100.0788945085
  0
LINE
  5
2D0
100
AcDbEntity
  8
0
100
AcDbLine
 62
7
  6
BYLAYER
 10
93.6791403335
 20
97.4544335969
 11
92.2649326615
 21
96.6379452877
  0
LINE
  5
2D1
100
AcDbEntity
  8
0
100
AcDbLine
 62
7
  6
BYLAYER
 10
130.2011349477
 20
114.2130259258
 11
106.513157422
 21
100.5368473138
  0
LINE
  5
2D2
100
AcDbEntity
  8
0
100
AcDbLine
 62
7
  6
BYLAYER
 10
101.4573591041
 20
96.2298299908
 11
102.8715667761
 21
97.0463183
  0
LINE
  5
2D3
100
AcDbEntity
  8
0
100
AcDbLine
 62
7
  6
BYLAYER
 10
105.4524143799
 20
193.4125517675
 11
117.1360434911
 21
186.6671579793
  0
LINE
  5
2D4
100
AcDbEntity
  8
0
100
AcDbLine
 62
7
  6
BYLAYER
 10
125.5887318159
 20
181.7871065178
 11
145.4204325454
 21
170.3375278264
  0
LINE
  5
2D5
100
AcDbEntity
  8
0
100
AcDbLine
 62
7
  6
BYLAYER
 10
153.8731208702
 20
165.457476365
 11
165.5567499638
 21
158.7120825869
  0
LINE
  5
2D6
100
AcDbEntity
  8
0
100
AcDbLine
 62
7
  6
BYLAYER
 10
95.3402394228
 20
199.8216391851
 11
96.7544588756
 21
199.0051576774
  0
LINE
  5
2D7
100
AcDbEntity
  8
0
100
AcDbLine
 62
7
  6
BYLAYER
 10
104.5326658655
 20
194.5145093854
 11
105.9425657084
 21
193.7005217492
  0
LINE
  5
2D8
100
AcDbEntity
  8
0
100
AcDbLine
 62
7
  6
BYLAYER
 10
166.0555316511
 20
158.9950699412
 11
167.465431511
 21
158.1810822951
  0
LINE
  5
2D9
100
AcDbEntity
  8
0
100
AcDbLine
 62
7
  6
BYLAYER
 10
175.243638501
 20
153.6904340031
 11
176.6578579537
 21
152.8739524955
  0
LINE
  5
2DA
100
AcDbEntity
  8
0
100
AcDbLine
 62
7
  6
BYLAYER
 10
151.0606549127
 20
86.7373807471
 11
151.0606549127
 21
101.5161803068
  0
LINE
  5
2DB
100
AcDbEntity
  8
0
100
AcDbLine
 62
7
  6
BYLAYER
 10
176.7284917627
 20
174.2252623844
 11
167.465431511
 21
158.1810822952
  0
LINE
  5
2DC
100
AcDbEntity
  8
0
100
AcDbLine
 62
7
  6
BYLAYER
 10
175.3994300783
 20
174.992579144
 11
166.0555316511
 21
158.9950699412
  0
LINE
  5
2DD
100
AcDbEntity
  8
0
100
AcDbLine
 62
7
  6
BYLAYER
 10
101.4573591041
 20
91.330815488
 11
102.8715667761
 21
92.1473037972
  0
LINE
  5
2DE
100
AcDbEntity
  8
0
100
AcDbLine
 62
7
  6
BYLAYER
 10
106.513157422
 20
93.0250250762
 11
105.0989497499
 21
92.2085367671
  0
LINE
  5
2DF
100
AcDbEntity
  8
0
100
AcDbLine
 62
7
  6
BYLAYER
 10
106.0175191272
 20
204.3531561023
 11
109.1641366871
 21
202.5364967116
  0
LINE
  5
2E0
100
AcDbEntity
  8
0
100
AcDbLine
 62
7
  6
BYLAYER
 10
176.7284917627
 20
163.52908072
 11
179.8751093226
 21
161.7124213293
  0
LINE
  5
2E1
100
AcDbEntity
  8
0
100
AcDbLine
 62
7
  6
BYLAYER
 10
175.2436385009
 20
153.6904340031
 11
184.5066987526
 21
169.7346140924
  0
LINE
  5
2E2
100
AcDbEntity
  8
0
100
AcDbLine
 62
7
  6
BYLAYER
 10
104.6032996745
 20
215.8658192743
 11
115.1247877969
 21
209.7913727177
  0
LINE
  5
2E3
100
AcDbEntity
  8
0
100
AcDbLine
 62
7
  6
BYLAYER
 10
175.3994300783
 20
174.992579144
 11
185.9209182053
 21
168.9181325847
  0
LINE
  5
2E4
100
AcDbEntity
  8
0
100
AcDbLine
 62
7
  6
BYLAYER
 10
185.9209182054
 20
168.9181325847
 11
176.6578579537
 21
152.8739524955
  0
LINE
  5
2E5
100
AcDbEntity
  8
0
100
AcDbLine
 62
7
  6
BYLAYER
 10
116.8776909286
 20
87.496271506
 11
105.0989497499
 21
80.6958526856
  0
LINE
  5
2E6
100
AcDbEntity
  8
0
100
AcDbLine
 62
7
  6
BYLAYER
 10
188.7493335494
 20
125.5944861159
 11
189.4564373854
 21
126.0027302704
  0
LINE
  5
2E7
100
AcDbEntity
  8
0
100
AcDbLine
 62
7
  6
BYLAYER
 10
122.7765456869
 20
85.1864396511
 11
139.888458506
 21
95.0659481846
  0
LINE
  5
2E8
100
AcDbEntity
  8
0
100
AcDbLine
 62
7
  6
BYLAYER
 10
139.959168865
 20
95.1067725859
 11
176.6578579537
 21
116.2946442081
  0
LINE
  5
2E9
100
AcDbEntity
  8
0
100
AcDbLine
 62
7
  6
BYLAYER
 10
108.1388188545
 20
217.9070400472
 11
118.6294527161
 21
211.8504068033
  0
LINE
  5
2EA
100
AcDbEntity
  8
0
100
AcDbLine
 62
7
  6
BYLAYER
 10
178.9658035238
 20
177.0159866015
 11
189.4564373854
 21
170.9593533576
  0
LINE
  5
2EB
100
AcDbEntity
  8
0
100
AcDbLine
 62
7
  6
BYLAYER
 10
176.7284917627
 20
174.2252623844
 11
176.7284917627
 21
163.52908072
  0
LINE
  5
2EC
100
AcDbEntity
  8
0
100
AcDbLine
 62
7
  6
BYLAYER
 10
146.4644416913
 20
94.9023369626
 11
144.3431301833
 21
93.6776044988
  0
LINE
  5
2ED
100
AcDbEntity
  8
0
100
AcDbLine
 62
7
  6
BYLAYER
 10
189.4564373854
 20
112.9876817414
 11
185.9209182053
 21
110.9464609685
  0
LINE
  5
2EE
100
AcDbEntity
  8
0
100
AcDbLine
 62
7
  6
BYLAYER
 10
151.0606549127
 20
86.7373807471
 11
148.9393434046
 21
85.5126482834
  0
LINE
  5
2EF
100
AcDbEntity
  8
0
100
AcDbLine
 62
7
  6
BYLAYER
 10
188.7493335494
 20
125.5944861158
 11
188.7493335494
 21
157.5360606739
  0
LINE
  5
2F0
100
AcDbEntity
  8
0
100
AcDbLine
 62
7
  6
BYLAYER
 10
189.4564373854
 20
170.9593533576
 11
189.4564373854
 21
157.9443048285
  0
LINE
  5
2F1
100
AcDbEntity
  8
0
100
AcDbLine
 62
7
  6
BYLAYER
 10
189.4564373854
 20
126.0027302704
 11
189.4564373854
 21
112.9876817414
  0
ARC
  5
2F2
100
AcDbEntity
  8
0
100
AcDbCircle
 62
7
  6
BYLAYER
 10
135.0530709374
 20
159.7132898283
 40
2.9075425132
100
AcDbArc
 50
176.8485411212
 51
180.0218760703
  0
ARC
  5
2F3
100
AcDbEntity
  8
0
100
AcDbCircle
 62
7
  6
BYLAYER
 10
106.7686818831
 20
176.0429199812
 40
2.9075425131
100
AcDbArc
 50
176.8485411211
 51
180.0218760704
  0
ARC
  5
2F4
100
AcDbEntity
  8
0
100
AcDbCircle
 62
7
  6
BYLAYER
 10
78.4842928289
 20
192.3725501341
 40
2.9075425131
100
AcDbArc
 50
176.8485411211
 51
180.0218760703
  0
ARC
  5
2F5
100
AcDbEntity
  8
0
100
AcDbCircle
 62
7
  6
BYLAYER
 10
84.2793197299
 20
188.0507826377
 40
2.9075172296
100
AcDbArc
 50
239.9787018367
 51
243.1508241763
  0
ARC
  5
2F6
100
AcDbEntity
  8
0
100
AcDbCircle
 62
7
  6
BYLAYER
 10
112.5637087841
 20
171.7211524849
 40
2.9075172296
100
AcDbArc
 50
239.9787018367
 51
243.1508241764
  0
ARC
  5
2F7
100
AcDbEntity
  8
0
100
AcDbCircle
 62
7
  6
BYLAYER
 10
140.8480978384
 20
155.391522332
 40
2.9075172297
100
AcDbArc
 50
239.9787018367
 51
243.1508241758
  0
ARC
  5
2F8
100
AcDbEntity
  8
0
100
AcDbCircle
 62
7
  6
BYLAYER
 10
147.9191361984
 20
97.4197801758
 40
2.9075172296
100
AcDbArc
 50
239.9787018367
 51
243.1508241759
  0
ARC
  5
2F9
100
AcDbEntity
  8
0
100
AcDbCircle
 62
7
  6
BYLAYER
 10
90.5370903093
 20
173.7678072245
 40
1.7484392398
100
AcDbArc
 50
118.712487529
 51
121.1259452541
  0
ARC
  5
2FA
100
AcDbEntity
  8
0
100
AcDbCircle
 62
7
  6
BYLAYER
 10
118.8214380315
 20
157.4382504786
 40
1.7483550016
100
AcDbArc
 50
118.8016267801
 51
121.1648830021
  0
SPLINE
  5
2FB
100
AcDbEntity
  8
0
100
AcDbSpline
 62
7
  6
BYLAYER
 70
0
 71
3
 72
10
 73
6
 74
0
 42
0.0000001
 43
0.0000001
 44
0.0000000001
 40
0.0
 40
0.0
 40
0.0
 40
0.0
 40
0.446731878
 40
0.7122537901
 40
1.0
 40
1.0
 40
1.0
 40
1.0
 10
133.1808697922
 20
167.3609864196
 30
0.0
 10
133.7254484252
 20
167.3328290199
 30
0.0
 10
134.5759555411
 20
167.0043041318
 30
0.0
 10
135.5661403005
 20
166.2935442056
 30
0.0
 10
136.0527788659
 20
165.8195918795
 30
0.0
 10
136.2879292036
 20
165.5586832501
 30
0.0
  0
SPLINE
  5
2FC
100
AcDbEntity
  8
0
100
AcDbSpline
 62
7
  6
BYLAYER
 70
0
 71
3
 72
9
 73
5
 74
0
 42
0.0000001
 43
0.0000001
 44
0.0000000001
 40
0.0
 40
0.0
 40
0.0
 40
0.0
 40
0.2460303515
 40
1.0
 40
1.0
 40
1.0
 40
1.0
 10
117.9166264985
 20
158.9342659951
 30
0.0
 10
117.8656875873
 20
158.9034591566
 30
0.0
 10
117.6650275027
 20
158.7678046572
 30
0.0
 10
117.4931232369
 20
158.5909933708
 30
0.0
 10
117.3845413035
 20
158.4443934826
 30
0.0
  0
SPLINE
  5
2FD
100
AcDbEntity
  8
0
100
AcDbSpline
 62
7
  6
BYLAYER
 70
0
 71
3
 72
10
 73
6
 74
0
 42
0.0000001
 43
0.0000001
 44
0.0000000001
 40
0.0
 40
0.0
 40
0.0
 40
0.0
 40
0.2305001145
 40
0.469848593
 40
1.0
 40
1.0
 40
1.0
 40
1.0
 10
116.6723232927
 20
158.0248877688
 30
0.0
 10
116.5507847766
 20
157.9546957684
 30
0.0
 10
116.3201383819
 20
157.7796331123
 30
0.0
 10
115.9332042089
 20
157.3037283975
 30
0.0
 10
115.7663528724
 20
156.8501350215
 30
0.0
 10
115.6988170095
 20
156.5344697416
 30
0.0
  0
SPLINE
  5
2FE
100
AcDbEntity
  8
0
100
AcDbSpline
 62
7
  6
BYLAYER
 70
0
 71
3
 72
9
 73
5
 74
0
 42
0.0000001
 43
0.0000001
 44
0.0000000001
 40
0.0
 40
0.0
 40
0.0
 40
0.0
 40
0.2393948022
 40
1.0
 40
1.0
 40
1.0
 40
1.0
 10
115.6988170095
 20
156.5344697416
 30
0.0
 10
115.6845699978
 20
156.4678786489
 30
0.0
 10
115.6334555073
 20
156.1879364703
 30
0.0
 10
115.6142330477
 20
155.9025660244
 30
0.0
 10
115.6142330477
 20
155.686204738
 30
0.0
  0
SPLINE
  5
2FF
100
AcDbEntity
  8
0
100
AcDbSpline
 62
7
  6
BYLAYER
 70
0
 71
3
 72
10
 73
6
 74
0
 42
0.0000001
 43
0.0000001
 44
0.0000000001
 40
0.0
 40
0.0
 40
0.0
 40
0.0
 40
0.446731878
 40
0.7122537901
 40
1.0
 40
1.0
 40
1.0
 40
1.0
 10
104.896480738
 20
183.6906165725
 30
0.0
 10
105.441059371
 20
183.6624591728
 30
0.0
 10
106.2915664869
 20
183.3339342847
 30
0.0
 10
107.2817512463
 20
182.6231743585
 30
0.0
 10
107.7683898117
 20
182.1492220324
 30
0.0
 10
108.0035401494
 20
181.888313403
 30
0.0
  0
SPLINE
  5
300
100
AcDbEntity
  8
0
100
AcDbSpline
 62
7
  6
BYLAYER
 70
0
 71
3
 72
9
 73
5
 74
0
 42
0.0000001
 43
0.0000001
 44
0.0000000001
 40
0.0
 40
0.0
 40
0.0
 40
0.0
 40
0.2458751164
 40
1.0
 40
1.0
 40
1.0
 40
1.0
 10
89.6332563159
 20
175.2645118686
 30
0.0
 10
89.5810825426
 20
175.2330066012
 30
0.0
 10
89.3755711396
 20
175.0939184694
 30
0.0
 10
89.200310832
 20
174.9116632707
 30
0.0
 10
89.0902606564
 20
174.7605556993
 30
0.0
  0
SPLINE
  5
301
100
AcDbEntity
  8
0
100
AcDbSpline
 62
7
  6
BYLAYER
 70
0
 71
3
 72
10
 73
6
 74
0
 42
0.0000001
 43
0.0000001
 44
0.0000000001
 40
0.0
 40
0.0
 40
0.0
 40
0.0
 40
0.230516707
 40
0.4698735466
 40
1.0
 40
1.0
 40
1.0
 40
1.0
 10
88.3914604402
 20
174.3524821142
 30
0.0
 10
88.2699862765
 20
174.2823272792
 30
0.0
 10
88.0394574095
 20
174.1073782614
 30
0.0
 10
87.6526694497
 20
173.6318358327
 30
0.0
 10
87.4857815094
 20
173.1785862167
 30
0.0
 10
87.4181861881
 20
172.8631477425
 30
0.0
  0
SPLINE
  5
302
100
AcDbEntity
  8
0
100
AcDbSpline
 62
7
  6
BYLAYER
 70
0
 71
3
 72
9
 73
5
 74
0
 42
0.0000001
 43
0.0000001
 44
0.0000000001
 40
0.0
 40
0.0
 40
0.0
 40
0.0
 40
0.2393789119
 40
1.0
 40
1.0
 40
1.0
 40
1.0
 10
87.4181861881
 20
172.8631477425
 30
0.0
 10
87.403899847
 20
172.7964794946
 30
0.0
 10
87.3526424064
 20
172.5161882841
 30
0.0
 10
87.3333701952
 20
172.2304451429
 30
0.0
 10
87.3333701952
 20
172.0137990834
 30
0.0
  0
SPLINE
  5
303
100
AcDbEntity
  8
0
100
AcDbSpline
 62
7
  6
BYLAYER
 70
0
 71
3
 72
9
 73
5
 74
0
 42
0.0000001
 43
0.0000001
 44
0.0000000001
 40
0.0
 40
0.0
 40
0.0
 40
0.0
 40
0.4901713257
 40
1.0
 40
1.0
 40
1.0
 40
1.0
 10
98.8777730461
 20
92.4510226171
 30
0.0
 10
98.9566449816
 20
92.4966013363
 30
0.0
 10
99.1301681994
 20
92.5691415219
 30
0.0
 10
99.3157008589
 20
92.5973639835
 30
0.0
 10
99.4103449888
 20
92.6017913959
 30
0.0
  0
SPLINE
  5
304
100
AcDbEntity
  8
0
100
AcDbSpline
 62
7
  6
BYLAYER
 70
0
 71
3
 72
11
 73
7
 74
0
 42
0.0000001
 43
0.0000001
 44
0.0000000001
 40
0.0
 40
0.0
 40
0.0
 40
0.0
 40
0.2592935097
 40
0.5208844596
 40
0.7716051993
 40
1.0
 40
1.0
 40
1.0
 40
1.0
 10
101.5232481357
 20
91.4249161027
 30
0.0
 10
101.7177369362
 20
91.2012876785
 30
0.0
 10
102.0700533972
 20
90.7174907643
 30
0.0
 10
102.472727737
 20
89.9288169482
 30
0.0
 10
102.7321260915
 20
89.1189982839
 30
0.0
 10
102.8008432334
 20
88.5707573421
 30
0.0
 10
102.8008432334
 20
88.309703693
 30
0.0
  0
SPLINE
  5
305
100
AcDbEntity
  8
0
100
AcDbSpline
 62
7
  6
BYLAYER
 70
0
 71
3
 72
9
 73
5
 74
0
 42
0.0000001
 43
0.0000001
 44
0.0000000001
 40
0.0
 40
0.0
 40
0.0
 40
0.0
 40
0.4901713257
 40
1.0
 40
1.0
 40
1.0
 40
1.0
 10
91.5945428647
 20
96.6559023814
 30
0.0
 10
91.6734148001
 20
96.7014811007
 30
0.0
 10
91.846938018
 20
96.7740212863
 30
0.0
 10
92.0324706775
 20
96.8022437479
 30
0.0
 10
92.1271148073
 20
96.8066711603
 30
0.0
  0
SPLINE
  5
306
100
AcDbEntity
  8
0
100
AcDbSpline
 62
7
  6
BYLAYER
 70
0
 71
3
 72
9
 73
5
 74
0
 42
0.0000001
 43
0.0000001
 44
0.0000000001
 40
0.0
 40
0.0
 40
0.0
 40
0.0
 40
0.4511591714
 40
1.0
 40
1.0
 40
1.0
 40
1.0
 10
92.3104185789
 20
96.8033687713
 30
0.0
 10
92.6166848063
 20
96.7788075865
 30
0.0
 10
93.2766375136
 20
96.5282458286
 30
0.0
 10
93.8062108492
 20
96.088438682
 30
0.0
 10
94.0659805541
 20
95.8196899586
 30
0.0
  0
SPLINE
  5
307
100
AcDbEntity
  8
0
100
AcDbSpline
 62
7
  6
BYLAYER
 70
0
 71
3
 72
10
 73
6
 74
0
 42
0.0000001
 43
0.0000001
 44
0.0000000001
 40
0.0
 40
0.0
 40
0.0
 40
0.0
 40
0.5210421483
 40
0.7715153295
 40
1.0
 40
1.0
 40
1.0
 40
1.0
 10
94.3133680633
 20
95.5435396768
 30
0.0
 10
94.6810415746
 20
95.1013971436
 30
0.0
 10
95.1248779491
 20
94.3528820786
 30
0.0
 10
95.4534056659
 20
93.2961830345
 30
0.0
 10
95.5176130519
 20
92.7667480613
 30
0.0
 10
95.5176130519
 20
92.5145834574
 30
0.0
  0
SPLINE
  5
308
100
AcDbEntity
  8
0
100
AcDbSpline
 62
7
  6
BYLAYER
 70
0
 71
3
 72
16
 73
12
 74
0
 42
0.0000001
 43
0.0000001
 44
0.0000000001
 40
0.0
 40
0.0
 40
0.0
 40
0.0
 40
0.0428765743
 40
0.0875234668
 40
0.1869286092
 40
0.3042403425
 40
0.4379658106
 40
0.5823707712
 40
0.7295934221
 40
0.8712541043
 40
1.0
 40
1.0
 40
1.0
 40
1.0
 10
83.6749139295
 20
101.2281988243
 30
0.0
 10
83.7550159319
 20
101.2744883778
 30
0.0
 10
83.9316486987
 20
101.3478642908
 30
0.0
 10
84.3341905927
 20
101.4069017136
 30
0.0
 10
84.9024987925
 20
101.2959294325
 30
0.0
 10
85.5719606392
 20
100.9287335249
 30
0.0
 10
86.2154733146
 20
100.359549596
 30
0.0
 10
86.7831244695
 20
99.6326505514
 30
0.0
 10
87.2302111924
 20
98.8064550017
 30
0.0
 10
87.5202572019
 20
97.9488001521
 30
0.0
 10
87.5979841168
 20
97.3646760263
 30
0.0
 10
87.5979841168
 20
97.0868799002
 30
0.0
  0
SPLINE
  5
309
100
AcDbEntity
  8
0
100
AcDbSpline
 62
7
  6
BYLAYER
 70
0
 71
3
 72
16
 73
12
 74
0
 42
0.0000001
 43
0.0000001
 44
0.0000000001
 40
0.0
 40
0.0
 40
0.0
 40
0.0
 40
0.0428765743
 40
0.0875234668
 40
0.1869286092
 40
0.3042403425
 40
0.4379658106
 40
0.5823707712
 40
0.7295934221
 40
0.8712541043
 40
1.0
 40
1.0
 40
1.0
 40
1.0
 10
76.391683748
 20
105.4330785886
 30
0.0
 10
76.4717857504
 20
105.4793681422
 30
0.0
 10
76.6484185172
 20
105.5527440552
 30
0.0
 10
77.0509604113
 20
105.611781478
 30
0.0
 10
77.6192686111
 20
105.5008091969
 30
0.0
 10
78.2887304578
 20
105.1336132893
 30
0.0
 10
78.9322431331
 20
104.5644293604
 30
0.0
 10
79.499894288
 20
103.8375303158
 30
0.0
 10
79.946981011
 20
103.0113347661
 30
0.0
 10
80.2370270204
 20
102.1536799165
 30
0.0
 10
80.3147539353
 20
101.5695557907
 30
0.0
 10
80.3147539353
 20
101.2917596646
 30
0.0
  0
SPLINE
  5
30A
100
AcDbEntity
  8
0
100
AcDbSpline
 62
7
  6
BYLAYER
 70
0
 71
3
 72
16
 73
12
 74
0
 42
0.0000001
 43
0.0000001
 44
0.0000000001
 40
0.0
 40
0.0
 40
0.0
 40
0.0
 40
0.0428765743
 40
0.0875234668
 40
0.1869286092
 40
0.3042403425
 40
0.4379658106
 40
0.5823707712
 40
0.7295934221
 40
0.8712541043
 40
1.0
 40
1.0
 40
1.0
 40
1.0
 10
179.2404632838
 20
169.874451898
 30
0.0
 10
179.3083485153
 20
169.9136815922
 30
0.0
 10
179.458042105
 20
169.975866565
 30
0.0
 10
179.799190252
 20
170.025899885
 30
0.0
 10
180.2808228277
 20
169.9318525607
 30
0.0
 10
180.8481815843
 20
169.6206596008
 30
0.0
 10
181.393548812
 20
169.138284858
 30
0.0
 10
181.8746245522
 20
168.5222489477
 30
0.0
 10
182.2535237657
 20
167.8220607561
 30
0.0
 10
182.4993333576
 20
167.0952112852
 30
0.0
 10
182.5652057385
 20
166.6001749521
 30
0.0
 10
182.5652057385
 20
166.3647469506
 30
0.0
  0
SPLINE
  5
30B
100
AcDbEntity
  8
0
100
AcDbSpline
 62
7
  6
BYLAYER
 70
0
 71
3
 72
16
 73
12
 74
0
 42
0.0000001
 43
0.0000001
 44
0.0000000001
 40
0.0
 40
0.0
 40
0.0
 40
0.0
 40
0.0428559488
 40
0.0874467621
 40
0.1865641251
 40
0.3033708693
 40
0.4365414501
 40
0.5805679354
 40
0.7278118906
 40
0.8700446437
 40
1.0
 40
1.0
 40
1.0
 40
1.0
 10
108.5098367615
 20
210.7325690164
 30
0.0
 10
108.5779722012
 20
210.7719433016
 30
0.0
 10
108.7280328946
 20
210.8345256577
 30
0.0
 10
109.0696878106
 20
210.8859658156
 30
0.0
 10
109.5522066827
 20
210.7949154637
 30
0.0
 10
110.1219359711
 20
210.4876616337
 30
0.0
 10
110.6711284588
 20
210.0091219033
 30
0.0
 10
111.1581388155
 20
209.3958019484
 30
0.0
 10
111.5453418324
 20
208.6960301445
 30
0.0
 10
111.8018934774
 20
207.9660887714
 30
0.0
 10
111.876422608
 20
207.4671317556
 30
0.0
 10
111.8814382337
 20
207.2285541473
 30
0.0
  0
SPLINE
  5
30C
100
AcDbEntity
  8
0
100
AcDbSpline
 62
7
  6
BYLAYER
 70
0
 71
3
 72
11
 73
7
 74
0
 42
0.0000001
 43
0.0000001
 44
0.0000000001
 40
0.0
 40
0.0
 40
0.0
 40
0.0
 40
0.2177843138
 40
0.4509117638
 40
0.7102976702
 40
1.0
 40
1.0
 40
1.0
 40
1.0
 10
130.697339118
 20
159.9752375031
 30
0.0
 10
130.8045431759
 20
160.0371313782
 30
0.0
 10
131.0508611657
 20
160.1265221944
 30
0.0
 10
131.4599911495
 20
160.1368812875
 30
0.0
 10
131.8960278282
 20
160.0315862036
 30
0.0
 10
132.1797175602
 20
159.8966294958
 30
0.0
 10
132.3223237388
 20
159.8142976431
 30
0.0
  0
SPLINE
  5
30D
100
AcDbEntity
  8
0
100
AcDbSpline
 62
7
  6
BYLAYER
 70
0
 71
3
 72
11
 73
7
 74
0
 42
0.0000001
 43
0.0000001
 44
0.0000000001
 40
0.0
 40
0.0
 40
0.0
 40
0.0
 40
0.2372397681
 40
0.4999988395
 40
0.7627585385
 40
1.0
 40
1.0
 40
1.0
 40
1.0
 10
80.7033137148
 20
189.6158726722
 30
0.0
 10
81.0295801109
 20
189.4275069426
 30
0.0
 10
81.6469948761
 20
188.9078743784
 30
0.0
 10
82.3676018168
 20
187.9231431729
 30
0.0
 10
82.8601068444
 20
186.8067134627
 30
0.0
 10
83.0014203255
 20
186.0121979078
 30
0.0
 10
83.0014203255
 20
185.6354573666
 30
0.0
  0
SPLINE
  5
30E
100
AcDbEntity
  8
0
100
AcDbSpline
 62
7
  6
BYLAYER
 70
0
 71
3
 72
11
 73
7
 74
0
 42
0.0000001
 43
0.0000001
 44
0.0000000001
 40
0.0
 40
0.0
 40
0.0
 40
0.0
 40
0.2897033279
 40
0.5490895195
 40
0.7822165951
 40
1.0
 40
1.0
 40
1.0
 40
1.0
 10
83.0014203255
 20
185.6354573666
 30
0.0
 10
83.0014203255
 20
185.4707858975
 30
0.0
 10
82.976453708
 20
185.1576156636
 30
0.0
 10
82.8496235205
 20
184.7273361736
 30
0.0
 10
82.6360836068
 20
184.3781887001
 30
0.0
 10
82.4355048119
 20
184.2095623722
 30
0.0
 10
82.3282983356
 20
184.1476671009
 30
0.0
  0
SPLINE
  5
30F
100
AcDbEntity
  8
0
100
AcDbSpline
 62
7
  6
BYLAYER
 70
0
 71
3
 72
11
 73
7
 74
0
 42
0.0000001
 43
0.0000001
 44
0.0000000001
 40
0.0
 40
0.0
 40
0.0
 40
0.0
 40
0.2177843138
 40
0.4509117638
 40
0.7102976702
 40
1.0
 40
1.0
 40
1.0
 40
1.0
 10
102.4129500638
 20
176.304867656
 30
0.0
 10
102.5201541217
 20
176.3667615311
 30
0.0
 10
102.7664721115
 20
176.4561523473
 30
0.0
 10
103.1756020953
 20
176.4665114404
 30
0.0
 10
103.611638774
 20
176.3612163565
 30
0.0
 10
103.895328506
 20
176.2262596487
 30
0.0
 10
104.0379346846
 20
176.143927796
 30
0.0
  0
SPLINE
  5
310
100
AcDbEntity
  8
0
100
AcDbSpline
 62
7
  6
BYLAYER
 70
0
 71
3
 72
11
 73
7
 74
0
 42
0.0000001
 43
0.0000001
 44
0.0000000001
 40
0.0
 40
0.0
 40
0.0
 40
0.0
 40
0.2372413575
 40
0.500001023
 40
0.7627601279
 40
1.0
 40
1.0
 40
1.0
 40
1.0
 10
75.5767505277
 20
192.3714400069
 30
0.0
 10
75.5767505277
 20
191.9946996308
 30
0.0
 10
75.7180639078
 20
191.2001842935
 30
0.0
 10
76.2105687574
 20
190.0837546838
 30
0.0
 10
76.9311756961
 20
189.0990232739
 30
0.0
 10
77.5485905993
 20
188.5793905134
 30
0.0
 10
77.8748571384
 20
188.3910247013
 30
0.0
  0
SPLINE
  5
311
100
AcDbEntity
  8
0
100
AcDbSpline
 62
7
  6
BYLAYER
 70
0
 71
3
 72
11
 73
7
 74
0
 42
0.0000001
 43
0.0000001
 44
0.0000000001
 40
0.0
 40
0.0
 40
0.0
 40
0.0
 40
0.2177843138
 40
0.4509117638
 40
0.7102976702
 40
1.0
 40
1.0
 40
1.0
 40
1.0
 10
74.1285610096
 20
192.6344978089
 30
0.0
 10
74.2357650675
 20
192.696391684
 30
0.0
 10
74.4820830573
 20
192.7857825002
 30
0.0
 10
74.8912130411
 20
192.7961415933
 30
0.0
 10
75.3272497198
 20
192.6908465094
 30
0.0
 10
75.6109394517
 20
192.5558898017
 30
0.0
 10
75.7535456304
 20
192.4735579489
 30
0.0
  0
SPLINE
  5
312
100
AcDbEntity
  8
0
100
AcDbSpline
 62
7
  6
BYLAYER
 70
0
 71
3
 72
11
 73
7
 74
0
 42
0.0000001
 43
0.0000001
 44
0.0000000001
 40
0.0
 40
0.0
 40
0.0
 40
0.0
 40
0.2372397681
 40
0.4999988395
 40
0.7627585385
 40
1.0
 40
1.0
 40
1.0
 40
1.0
 10
108.9877027691
 20
173.2862425193
 30
0.0
 10
109.3139691651
 20
173.0978767897
 30
0.0
 10
109.9313839303
 20
172.5782442255
 30
0.0
 10
110.651990871
 20
171.59351302
 30
0.0
 10
111.1444958986
 20
170.4770833098
 30
0.0
 10
111.2858093797
 20
169.6825677549
 30
0.0
 10
111.2858093797
 20
169.3058272137
 30
0.0
  0
SPLINE
  5
313
100
AcDbEntity
  8
0
100
AcDbSpline
 62
7
  6
BYLAYER
 70
0
 71
3
 72
11
 73
7
 74
0
 42
0.0000001
 43
0.0000001
 44
0.0000000001
 40
0.0
 40
0.0
 40
0.0
 40
0.0
 40
0.2897033279
 40
0.5490895195
 40
0.7822165951
 40
1.0
 40
1.0
 40
1.0
 40
1.0
 10
111.2858093797
 20
169.3058272137
 30
0.0
 10
111.2858093797
 20
169.1411557445
 30
0.0
 10
111.2608427622
 20
168.8279855107
 30
0.0
 10
111.1340125748
 20
168.3977060207
 30
0.0
 10
110.920472661
 20
168.0485585472
 30
0.0
 10
110.7198938661
 20
167.8799322193
 30
0.0
 10
110.6126873898
 20
167.818036948
 30
0.0
  0
SPLINE
  5
314
100
AcDbEntity
  8
0
100
AcDbSpline
 62
7
  6
BYLAYER
 70
0
 71
3
 72
11
 73
7
 74
0
 42
0.0000001
 43
0.0000001
 44
0.0000000001
 40
0.0
 40
0.0
 40
0.0
 40
0.0
 40
0.2372413575
 40
0.500001023
 40
0.7627601279
 40
1.0
 40
1.0
 40
1.0
 40
1.0
 10
103.8611395819
 20
176.041809854
 30
0.0
 10
103.8611395819
 20
175.6650694779
 30
0.0
 10
104.002452962
 20
174.8705541406
 30
0.0
 10
104.4949578116
 20
173.7541245309
 30
0.0
 10
105.2155647503
 20
172.769393121
 30
0.0
 10
105.8329796535
 20
172.2497603605
 30
0.0
 10
106.1592461926
 20
172.0613945484
 30
0.0
  0
SPLINE
  5
315
100
AcDbEntity
  8
0
100
AcDbSpline
 62
7
  6
BYLAYER
 70
0
 71
3
 72
11
 73
7
 74
0
 42
0.0000001
 43
0.0000001
 44
0.0000000001
 40
0.0
 40
0.0
 40
0.0
 40
0.0
 40
0.2372397681
 40
0.4999988395
 40
0.7627585385
 40
1.0
 40
1.0
 40
1.0
 40
1.0
 10
137.2720918233
 20
156.9566123663
 30
0.0
 10
137.5983582194
 20
156.7682466368
 30
0.0
 10
138.2157729846
 20
156.2486140726
 30
0.0
 10
138.9363799253
 20
155.2638828671
 30
0.0
 10
139.4288849528
 20
154.1474531568
 30
0.0
 10
139.5701984339
 20
153.352937602
 30
0.0
 10
139.5701984339
 20
152.9761970607
 30
0.0
  0
SPLINE
  5
316
100
AcDbEntity
  8
0
100
AcDbSpline
 62
7
  6
BYLAYER
 70
0
 71
3
 72
11
 73
7
 74
0
 42
0.0000001
 43
0.0000001
 44
0.0000000001
 40
0.0
 40
0.0
 40
0.0
 40
0.0
 40
0.2897033279
 40
0.5490895195
 40
0.7822165951
 40
1.0
 40
1.0
 40
1.0
 40
1.0
 10
139.5701984339
 20
152.9761970607
 30
0.0
 10
139.5701984339
 20
152.8115255916
 30
0.0
 10
139.5452318164
 20
152.4983553578
 30
0.0
 10
139.418401629
 20
152.0680758678
 30
0.0
 10
139.2048617152
 20
151.7189283943
 30
0.0
 10
139.0042829204
 20
151.5503020664
 30
0.0
 10
138.8970764441
 20
151.488406795
 30
0.0
  0
SPLINE
  5
317
100
AcDbEntity
  8
0
100
AcDbSpline
 62
7
  6
BYLAYER
 70
0
 71
3
 72
11
 73
7
 74
0
 42
0.0000001
 43
0.0000001
 44
0.0000000001
 40
0.0
 40
0.0
 40
0.0
 40
0.0
 40
0.2372413575
 40
0.500001023
 40
0.7627601279
 40
1.0
 40
1.0
 40
1.0
 40
1.0
 10
132.1455286361
 20
159.7121797011
 30
0.0
 10
132.1455286361
 20
159.3354393249
 30
0.0
 10
132.2868420162
 20
158.5409239877
 30
0.0
 10
132.7793468658
 20
157.424494378
 30
0.0
 10
133.4999538046
 20
156.4397629681
 30
0.0
 10
134.1173687077
 20
155.9201302076
 30
0.0
 10
134.4436352468
 20
155.7317643955
 30
0.0
  0
SPLINE
  5
318
100
AcDbEntity
  8
0
100
AcDbSpline
 62
7
  6
BYLAYER
 70
0
 71
3
 72
11
 73
7
 74
0
 42
0.0000001
 43
0.0000001
 44
0.0000000001
 40
0.0
 40
0.0
 40
0.0
 40
0.0
 40
0.2579705071
 40
0.519787334
 40
0.7712283418
 40
1.0
 40
1.0
 40
1.0
 40
1.0
 10
145.2833922998
 20
98.2097338794
 30
0.0
 10
145.489186715
 20
97.9843679378
 30
0.0
 10
145.8627923243
 20
97.491512098
 30
0.0
 10
146.2906003923
 20
96.6811916845
 30
0.0
 10
146.5674490632
 20
95.8438557793
 30
0.0
 10
146.641236794
 20
95.275101743
 30
0.0
 10
146.641236794
 20
95.0044549046
 30
0.0
  0
SPLINE
  5
319
100
AcDbEntity
  8
0
100
AcDbSpline
 62
7
  6
BYLAYER
 70
0
 71
3
 72
11
 73
7
 74
0
 42
0.0000001
 43
0.0000001
 44
0.0000000001
 40
0.0
 40
0.0
 40
0.0
 40
0.0
 40
0.2897033279
 40
0.5490895195
 40
0.7822165951
 40
1.0
 40
1.0
 40
1.0
 40
1.0
 10
146.641236794
 20
95.0044549046
 30
0.0
 10
146.641236794
 20
94.8397834355
 30
0.0
 10
146.6162701765
 20
94.5266132016
 30
0.0
 10
146.489439989
 20
94.0963337116
 30
0.0
 10
146.2759000753
 20
93.7471862382
 30
0.0
 10
146.0753212804
 20
93.5785599102
 30
0.0
 10
145.9681148041
 20
93.5166646389
 30
0.0
  0
SPLINE
  5
31A
100
AcDbEntity
  8
0
100
AcDbSpline
 62
7
  6
BYLAYER
 70
0
 71
3
 72
9
 73
5
 74
0
 42
0.0000001
 43
0.0000001
 44
0.0000000001
 40
0.0
 40
0.0
 40
0.0
 40
0.0
 40
0.5116541931
 40
1.0
 40
1.0
 40
1.0
 40
1.0
 10
52.4493359523
 20
109.0488907035
 30
0.0
 10
47.4423591433
 20
111.7519701941
 30
0.0
 10
37.8438715113
 20
117.3921617181
 30
0.0
 10
28.7309630236
 20
123.7932893291
 30
0.0
 10
24.4342665995
 20
127.1147691906
 30
0.0
  0
SPLINE
  5
31B
100
AcDbEntity
  8
0
100
AcDbSpline
 62
7
  6
BYLAYER
 70
0
 71
3
 72
9
 73
5
 74
0
 42
0.0000001
 43
0.0000001
 44
0.0000000001
 40
0.0
 40
0.0
 40
0.0
 40
0.0
 40
0.2545761952
 40
1.0
 40
1.0
 40
1.0
 40
1.0
 10
73.3915881349
 20
100.4209283607
 30
0.0
 10
71.7090902853
 20
101.1488888305
 30
0.0
 10
65.1294760036
 20
104.0756315047
 30
0.0
 10
58.6703899271
 20
107.275157548
 30
0.0
 10
53.9452846382
 20
109.8221965437
 30
0.0
  0
SPLINE
  5
31C
100
AcDbEntity
  8
0
100
AcDbSpline
 62
7
  6
BYLAYER
 70
0
 71
3
 72
11
 73
7
 74
0
 42
0.0000001
 43
0.0000001
 44
0.0000000001
 40
0.0
 40
0.0
 40
0.0
 40
0.0
 40
0.2896413962
 40
0.5491107668
 40
0.7822355977
 40
1.0
 40
1.0
 40
1.0
 40
1.0
 10
80.3147539353
 20
101.2917596646
 30
0.0
 10
80.3147539353
 20
101.1271237131
 30
0.0
 10
80.2897292098
 20
100.8139471642
 30
0.0
 10
80.1629747421
 20
100.3836526513
 30
0.0
 10
79.9494573135
 20
100.0344074626
 30
0.0
 10
79.7487829256
 20
99.8659384887
 30
0.0
 10
79.6416109013
 20
99.8040056404
 30
0.0
  0
SPLINE
  5
31D
100
AcDbEntity
  8
0
100
AcDbSpline
 62
7
  6
BYLAYER
 70
0
 71
3
 72
11
 73
7
 74
0
 42
0.0000001
 43
0.0000001
 44
0.0000000001
 40
0.0
 40
0.0
 40
0.0
 40
0.0
 40
0.2896413962
 40
0.5491107668
 40
0.7822355977
 40
1.0
 40
1.0
 40
1.0
 40
1.0
 10
87.5979841168
 20
97.0868799002
 30
0.0
 10
87.5979841168
 20
96.9222439487
 30
0.0
 10
87.5729593912
 20
96.6090673998
 30
0.0
 10
87.4462049236
 20
96.178772887
 30
0.0
 10
87.2326874949
 20
95.8295276982
 30
0.0
 10
87.0320131071
 20
95.6610587243
 30
0.0
 10
86.9248410827
 20
95.5991258761
 30
0.0
  0
SPLINE
  5
31E
100
AcDbEntity
  8
0
100
AcDbSpline
 62
7
  6
BYLAYER
 70
0
 71
3
 72
11
 73
7
 74
0
 42
0.0000001
 43
0.0000001
 44
0.0000000001
 40
0.0
 40
0.0
 40
0.0
 40
0.0
 40
0.2896413962
 40
0.5491107668
 40
0.7822355977
 40
1.0
 40
1.0
 40
1.0
 40
1.0
 10
95.5176130519
 20
92.5145834574
 30
0.0
 10
95.5176130519
 20
92.3499475059
 30
0.0
 10
95.4925883264
 20
92.036770957
 30
0.0
 10
95.3658338588
 20
91.6064764442
 30
0.0
 10
95.1523164301
 20
91.2572312554
 30
0.0
 10
94.9516420423
 20
91.0887622815
 30
0.0
 10
94.8444700179
 20
91.0268294333
 30
0.0
  0
SPLINE
  5
31F
100
AcDbEntity
  8
0
100
AcDbSpline
 62
7
  6
BYLAYER
 70
0
 71
3
 72
11
 73
7
 74
0
 42
0.0000001
 43
0.0000001
 44
0.0000000001
 40
0.0
 40
0.0
 40
0.0
 40
0.0
 40
0.2896413962
 40
0.5491107668
 40
0.7822355977
 40
1.0
 40
1.0
 40
1.0
 40
1.0
 10
102.8008432334
 20
88.309703693
 30
0.0
 10
102.8008432334
 20
88.1450677415
 30
0.0
 10
102.7758185079
 20
87.8318911926
 30
0.0
 10
102.6490640402
 20
87.4015966798
 30
0.0
 10
102.4355466116
 20
87.052351491
 30
0.0
 10
102.2348722237
 20
86.8838825172
 30
0.0
 10
102.1277001994
 20
86.8219496689
 30
0.0
  0
SPLINE
  5
320
100
AcDbEntity
  8
0
100
AcDbSpline
 62
7
  6
BYLAYER
 70
0
 71
3
 72
11
 73
7
 74
0
 42
0.0000001
 43
0.0000001
 44
0.0000000001
 40
0.0
 40
0.0
 40
0.0
 40
0.0
 40
0.2177843138
 40
0.4509117638
 40
0.7102976702
 40
1.0
 40
1.0
 40
1.0
 40
1.0
 10
110.6126873898
 20
167.818036948
 30
0.0
 10
110.5054833319
 20
167.7561430729
 30
0.0
 10
110.2591653421
 20
167.6667522566
 30
0.0
 10
109.8500353584
 20
167.6563931636
 30
0.0
 10
109.4139986796
 20
167.7616882474
 30
0.0
 10
109.1303089477
 20
167.8966449552
 30
0.0
 10
108.9877027691
 20
167.9789768079
 30
0.0
  0
SPLINE
  5
321
100
AcDbEntity
  8
0
100
AcDbSpline
 62
7
  6
BYLAYER
 70
0
 71
3
 72
11
 73
7
 74
0
 42
0.0000001
 43
0.0000001
 44
0.0000000001
 40
0.0
 40
0.0
 40
0.0
 40
0.0
 40
0.2897033279
 40
0.5490895195
 40
0.7822165951
 40
1.0
 40
1.0
 40
1.0
 40
1.0
 10
73.4554390197
 20
191.1467075432
 30
0.0
 10
73.4554390197
 20
191.3113790123
 30
0.0
 10
73.4804056372
 20
191.6245492461
 30
0.0
 10
73.6072358247
 20
192.0548287362
 30
0.0
 10
73.8207757384
 20
192.4039762096
 30
0.0
 10
74.0213545333
 20
192.5726025375
 30
0.0
 10
74.1285610096
 20
192.6344978089
 30
0.0
  0
SPLINE
  5
322
100
AcDbEntity
  8
0
100
AcDbSpline
 62
7
  6
BYLAYER
 70
0
 71
3
 72
11
 73
7
 74
0
 42
0.0000001
 43
0.0000001
 44
0.0000000001
 40
0.0
 40
0.0
 40
0.0
 40
0.0
 40
0.2372397681
 40
0.4999988395
 40
0.7627585385
 40
1.0
 40
1.0
 40
1.0
 40
1.0
 10
75.7535456304
 20
187.1662922376
 30
0.0
 10
75.4272792343
 20
187.3546579671
 30
0.0
 10
74.8098644691
 20
187.8742905313
 30
0.0
 10
74.0892575284
 20
188.8590217369
 30
0.0
 10
73.5967525008
 20
189.9754514471
 30
0.0
 10
73.4554390197
 20
190.7699670019
 30
0.0
 10
73.4554390197
 20
191.1467075432
 30
0.0
  0
SPLINE
  5
323
100
AcDbEntity
  8
0
100
AcDbSpline
 62
7
  6
BYLAYER
 70
0
 71
3
 72
11
 73
7
 74
0
 42
0.0000001
 43
0.0000001
 44
0.0000000001
 40
0.0
 40
0.0
 40
0.0
 40
0.0
 40
0.2177843138
 40
0.4509117638
 40
0.7102976702
 40
1.0
 40
1.0
 40
1.0
 40
1.0
 10
145.9681148041
 20
93.5166646389
 30
0.0
 10
145.8609107462
 20
93.4547707638
 30
0.0
 10
145.6145927564
 20
93.3653799475
 30
0.0
 10
145.2054627726
 20
93.3550208545
 30
0.0
 10
144.7694260939
 20
93.4603159383
 30
0.0
 10
144.4857363619
 20
93.5952726461
 30
0.0
 10
144.3431301833
 20
93.6776044988
 30
0.0
  0
SPLINE
  5
324
100
AcDbEntity
  8
0
100
AcDbSpline
 62
7
  6
BYLAYER
 70
0
 71
3
 72
11
 73
7
 74
0
 42
0.0000001
 43
0.0000001
 44
0.0000000001
 40
0.0
 40
0.0
 40
0.0
 40
0.0
 40
0.2177843138
 40
0.4509117638
 40
0.7102976702
 40
1.0
 40
1.0
 40
1.0
 40
1.0
 10
82.3282983356
 20
184.1476671009
 30
0.0
 10
82.2210942777
 20
184.0857732258
 30
0.0
 10
81.9747762879
 20
183.9963824095
 30
0.0
 10
81.5656463042
 20
183.9860233165
 30
0.0
 10
81.1296096254
 20
184.0913184003
 30
0.0
 10
80.8459198935
 20
184.2262751081
 30
0.0
 10
80.7033137148
 20
184.3086069608
 30
0.0
  0
SPLINE
  5
325
100
AcDbEntity
  8
0
100
AcDbSpline
 62
7
  6
BYLAYER
 70
0
 71
3
 72
11
 73
7
 74
0
 42
0.0000001
 43
0.0000001
 44
0.0000000001
 40
0.0
 40
0.0
 40
0.0
 40
0.0
 40
0.2896413962
 40
0.5491107668
 40
0.7822355977
 40
1.0
 40
1.0
 40
1.0
 40
1.0
 10
178.6699847768
 20
168.6136029378
 30
0.0
 10
178.6699847768
 20
168.7531294085
 30
0.0
 10
178.6911928519
 20
169.0185417815
 30
0.0
 10
178.7986153399
 20
169.3832098518
 30
0.0
 10
178.9795681207
 20
169.6791898498
 30
0.0
 10
179.1496366194
 20
169.8219647488
 30
0.0
 10
179.2404632838
 20
169.874451898
 30
0.0
  0
SPLINE
  5
326
100
AcDbEntity
  8
0
100
AcDbSpline
 62
7
  6
BYLAYER
 70
0
 71
3
 72
17
 73
13
 74
0
 42
0.0000001
 43
0.0000001
 44
0.0000000001
 40
0.0
 40
0.0
 40
0.0
 40
0.0
 40
0.0428592927
 40
0.0874854741
 40
0.1353198782
 40
0.1872819046
 40
0.3045421967
 40
0.4382074307
 40
0.5825489112
 40
0.7297129634
 40
0.8713059682
 40
1.0
 40
1.0
 40
1.0
 40
1.0
 10
89.749096728
 20
175.1363161243
 30
0.0
 10
89.8750380573
 20
175.2090406401
 30
0.0
 10
90.1526982454
 20
175.3243349639
 30
0.0
 10
90.6109517274
 20
175.3915976745
 30
0.0
 10
91.1031018144
 20
175.3553372435
 30
0.0
 10
91.8181843302
 20
175.1651488478
 30
0.0
 10
92.7323063873
 20
174.665301354
 30
0.0
 10
93.7422660125
 20
173.7708775021
 30
0.0
 10
94.6350674594
 20
172.6281757967
 30
0.0
 10
95.3376912011
 20
171.3294822502
 30
0.0
 10
95.7937152077
 20
169.981323955
 30
0.0
 10
95.9158704754
 20
169.0631329255
 30
0.0
 10
95.9158704754
 20
168.626446845
 30
0.0
  0
SPLINE
  5
327
100
AcDbEntity
  8
0
100
AcDbSpline
 62
7
  6
BYLAYER
 70
0
 71
3
 72
11
 73
7
 74
0
 42
0.0000001
 43
0.0000001
 44
0.0000000001
 40
0.0
 40
0.0
 40
0.0
 40
0.0
 40
0.2897033279
 40
0.5490895195
 40
0.7822165951
 40
1.0
 40
1.0
 40
1.0
 40
1.0
 10
101.7398280739
 20
174.8170773903
 30
0.0
 10
101.7398280739
 20
174.9817488594
 30
0.0
 10
101.7647946914
 20
175.2949190932
 30
0.0
 10
101.8916248789
 20
175.7251985833
 30
0.0
 10
102.1051647926
 20
176.0743460567
 30
0.0
 10
102.3057435875
 20
176.2429723846
 30
0.0
 10
102.4129500638
 20
176.304867656
 30
0.0
  0
SPLINE
  5
328
100
AcDbEntity
  8
0
100
AcDbSpline
 62
7
  6
BYLAYER
 70
0
 71
3
 72
11
 73
7
 74
0
 42
0.0000001
 43
0.0000001
 44
0.0000000001
 40
0.0
 40
0.0
 40
0.0
 40
0.0
 40
0.2372397681
 40
0.4999988395
 40
0.7627585385
 40
1.0
 40
1.0
 40
1.0
 40
1.0
 10
104.0379346846
 20
170.8366620847
 30
0.0
 10
103.7116682885
 20
171.0250278142
 30
0.0
 10
103.0942535233
 20
171.5446603784
 30
0.0
 10
102.3736465826
 20
172.529391584
 30
0.0
 10
101.8811415551
 20
173.6458212942
 30
0.0
 10
101.7398280739
 20
174.440336849
 30
0.0
 10
101.7398280739
 20
174.8170773903
 30
0.0
  0
SPLINE
  5
329
100
AcDbEntity
  8
0
100
AcDbSpline
 62
7
  6
BYLAYER
 70
0
 71
3
 72
16
 73
12
 74
0
 42
0.0000001
 43
0.0000001
 44
0.0000000001
 40
0.0
 40
0.0
 40
0.0
 40
0.0
 40
0.0428765743
 40
0.0875234668
 40
0.1869286092
 40
0.3042403425
 40
0.4379658106
 40
0.5823707712
 40
0.7295934221
 40
0.8712541043
 40
1.0
 40
1.0
 40
1.0
 40
1.0
 10
94.8444700179
 20
91.0268294333
 30
0.0
 10
94.7643680155
 20
90.9805398797
 30
0.0
 10
94.5877352487
 20
90.9071639667
 30
0.0
 10
94.1851933547
 20
90.8481265439
 30
0.0
 10
93.6168851549
 20
90.959098825
 30
0.0
 10
92.9474233082
 20
91.3262947326
 30
0.0
 10
92.3039106328
 20
91.8954786615
 30
0.0
 10
91.7362594779
 20
92.6223777061
 30
0.0
 10
91.289172755
 20
93.4485732558
 30
0.0
 10
90.9991267455
 20
94.3062281054
 30
0.0
 10
90.9213998306
 20
94.8903522312
 30
0.0
 10
90.9213998306
 20
95.1681483573
 30
0.0
  0
SPLINE
  5
32A
100
AcDbEntity
  8
0
100
AcDbSpline
 62
7
  6
BYLAYER
 70
0
 71
3
 72
11
 73
7
 74
0
 42
0.0000001
 43
0.0000001
 44
0.0000000001
 40
0.0
 40
0.0
 40
0.0
 40
0.0
 40
0.2897033279
 40
0.5490895195
 40
0.7822165951
 40
1.0
 40
1.0
 40
1.0
 40
1.0
 10
130.0242171281
 20
158.4874472374
 30
0.0
 10
130.0242171281
 20
158.6521187065
 30
0.0
 10
130.0491837456
 20
158.9652889403
 30
0.0
 10
130.1760139331
 20
159.3955684304
 30
0.0
 10
130.3895538468
 20
159.7447159038
 30
0.0
 10
130.5901326417
 20
159.9133422317
 30
0.0
 10
130.697339118
 20
159.9752375031
 30
0.0
  0
SPLINE
  5
32B
100
AcDbEntity
  8
0
100
AcDbSpline
 62
7
  6
BYLAYER
 70
0
 71
3
 72
11
 73
7
 74
0
 42
0.0000001
 43
0.0000001
 44
0.0000000001
 40
0.0
 40
0.0
 40
0.0
 40
0.0
 40
0.2372397681
 40
0.4999988395
 40
0.7627585385
 40
1.0
 40
1.0
 40
1.0
 40
1.0
 10
132.3223237388
 20
154.5070319318
 30
0.0
 10
131.9960573427
 20
154.6953976613
 30
0.0
 10
131.3786425775
 20
155.2150302255
 30
0.0
 10
130.6580356368
 20
156.199761431
 30
0.0
 10
130.1655306093
 20
157.3161911413
 30
0.0
 10
130.0242171281
 20
158.1107066961
 30
0.0
 10
130.0242171281
 20
158.4874472374
 30
0.0
  0
SPLINE
  5
32C
100
AcDbEntity
  8
0
100
AcDbSpline
 62
7
  6
BYLAYER
 70
0
 71
3
 72
17
 73
13
 74
0
 42
0.0000001
 43
0.0000001
 44
0.0000000001
 40
0.0
 40
0.0
 40
0.0
 40
0.0
 40
0.1286930371
 40
0.2702795961
 40
0.4174375933
 40
0.5617786793
 40
0.695447824
 40
0.8127111198
 40
0.8646738574
 40
0.9125098522
 40
0.9571380033
 40
1.0
 40
1.0
 40
1.0
 40
1.0
 10
122.8390939627
 20
151.5150237228
 30
0.0
 10
122.8390939627
 20
151.9517063814
 30
0.0
 10
122.716944345
 20
152.86987229
 30
0.0
 10
122.2609416469
 20
154.2179884819
 30
0.0
 10
121.5583568142
 20
155.5166518364
 30
0.0
 10
120.6655789628
 20
156.6593620799
 30
0.0
 10
119.6556193801
 20
157.5538143604
 30
0.0
 10
118.7414875127
 20
158.0537089004
 30
0.0
 10
118.0263870465
 20
158.2438899198
 30
0.0
 10
117.5342235331
 20
158.2801871558
 30
0.0
 10
117.075952263
 20
158.2129055597
 30
0.0
 10
116.7982681209
 20
158.0976245416
 30
0.0
 10
116.6723232927
 20
158.0248877688
 30
0.0
  0
SPLINE
  5
32D
100
AcDbEntity
  8
0
100
AcDbSpline
 62
7
  6
BYLAYER
 70
0
 71
3
 72
11
 73
7
 74
0
 42
0.0000001
 43
0.0000001
 44
0.0000000001
 40
0.0
 40
0.0
 40
0.0
 40
0.0
 40
0.2177249976
 40
0.4508779058
 40
0.7104763368
 40
1.0
 40
1.0
 40
1.0
 40
1.0
 10
99.5027743517
 20
101.1664558557
 30
0.0
 10
99.5687242796
 20
101.2045380252
 30
0.0
 10
99.7202380306
 20
101.2596738878
 30
0.0
 10
99.9721005559
 20
101.266027223
 30
0.0
 10
100.2403981565
 20
101.2010759843
 30
0.0
 10
100.4150227371
 20
101.1181186535
 30
0.0
 10
100.5027247479
 20
101.0674850197
 30
0.0
  0
SPLINE
  5
32E
100
AcDbEntity
  8
0
100
AcDbSpline
 62
7
  6
BYLAYER
 70
0
 71
3
 72
11
 73
7
 74
0
 42
0.0000001
 43
0.0000001
 44
0.0000000001
 40
0.0
 40
0.0
 40
0.0
 40
0.0
 40
0.2358556152
 40
0.4813433943
 40
0.7362025784
 40
1.0
 40
1.0
 40
1.0
 40
1.0
 10
25.1955379106
 20
159.3238184858
 30
0.0
 10
28.7533693293
 20
156.5387736634
 30
0.0
 10
36.2372445706
 20
151.1351157632
 30
0.0
 10
48.2295758722
 20
143.6939042077
 30
0.0
 10
61.1497960454
 20
136.7924688373
 30
0.0
 10
70.1857331527
 20
132.6448044085
 30
0.0
 10
74.8352880664
 20
130.6649449512
 30
0.0
  0
SPLINE
  5
32F
100
AcDbEntity
  8
0
100
AcDbSpline
 62
7
  6
BYLAYER
 70
0
 71
3
 72
15
 73
11
 74
0
 42
0.0000001
 43
0.0000001
 44
0.0000000001
 40
0.0
 40
0.0
 40
0.0
 40
0.0
 40
0.1267910754
 40
0.2661086212
 40
0.4112765186
 40
0.554745981
 40
0.6891878225
 40
0.8089228004
 40
0.9115192948
 40
1.0
 40
1.0
 40
1.0
 40
1.0
 10
100.5027247479
 20
101.0674850197
 30
0.0
 10
100.6444712207
 20
100.9856495071
 30
0.0
 10
100.9203376035
 20
100.775656017
 30
0.0
 10
101.276976017
 20
100.3791808331
 30
0.0
 10
101.5754290082
 20
99.9113634011
 30
0.0
 10
101.7930618418
 20
99.4078042752
 30
0.0
 10
101.9137112495
 20
98.9058174962
 30
0.0
 10
101.9275962926
 20
98.4413536031
 30
0.0
 10
101.8316915736
 20
98.0451803291
 30
0.0
 10
101.6814768002
 20
97.8375732209
 30
0.0
 10
101.5931564249
 20
97.7651471629
 30
0.0
  0
SPLINE
  5
330
100
AcDbEntity
  8
0
100
AcDbSpline
 62
7
  6
BYLAYER
 70
0
 71
3
 72
9
 73
5
 74
0
 42
0.0000001
 43
0.0000001
 44
0.0000000001
 40
0.0
 40
0.0
 40
0.0
 40
0.0
 40
0.4883458069
 40
1.0
 40
1.0
 40
1.0
 40
1.0
 10
24.4342665995
 20
144.5062706754
 30
0.0
 10
28.7309630236
 20
141.184790814
 30
0.0
 10
37.8438715113
 20
134.7836632029
 30
0.0
 10
47.4423591433
 20
129.1434716789
 30
0.0
 10
52.4493359523
 20
126.4403921884
 30
0.0
  0
SPLINE
  5
331
100
AcDbEntity
  8
0
100
AcDbSpline
 62
7
  6
BYLAYER
 70
0
 71
3
 72
9
 73
5
 74
0
 42
0.0000001
 43
0.0000001
 44
0.0000000001
 40
0.0
 40
0.0
 40
0.0
 40
0.0
 40
0.5117534418
 40
1.0
 40
1.0
 40
1.0
 40
1.0
 10
53.9452846382
 20
127.2136980285
 30
0.0
 10
48.9355519099
 20
129.9141636979
 30
0.0
 10
39.3347297351
 20
135.5510738537
 30
0.0
 10
30.223559561
 20
141.9554415146
 30
0.0
 10
25.9302152854
 20
145.2795765156
 30
0.0
  0
SPLINE
  5
332
100
AcDbEntity
  8
0
100
AcDbSpline
 62
7
  6
BYLAYER
 70
0
 71
3
 72
11
 73
7
 74
0
 42
0.0000001
 43
0.0000001
 44
0.0000000001
 40
0.0
 40
0.0
 40
0.0
 40
0.0
 40
0.2896413962
 40
0.5491107668
 40
0.7822355977
 40
1.0
 40
1.0
 40
1.0
 40
1.0
 10
75.718540714
 20
103.9453245645
 30
0.0
 10
75.718540714
 20
104.109960516
 30
0.0
 10
75.7435654395
 20
104.4231370649
 30
0.0
 10
75.8703199072
 20
104.8534315777
 30
0.0
 10
76.0838373358
 20
105.2026767665
 30
0.0
 10
76.2845117237
 20
105.3711457404
 30
0.0
 10
76.391683748
 20
105.4330785886
 30
0.0
  0
SPLINE
  5
333
100
AcDbEntity
  8
0
100
AcDbSpline
 62
7
  6
BYLAYER
 70
0
 71
3
 72
11
 73
7
 74
0
 42
0.0000001
 43
0.0000001
 44
0.0000000001
 40
0.0
 40
0.0
 40
0.0
 40
0.0
 40
0.2896413962
 40
0.5491107668
 40
0.7822355977
 40
1.0
 40
1.0
 40
1.0
 40
1.0
 10
83.0017708954
 20
99.7404448001
 30
0.0
 10
83.0017708954
 20
99.9050807516
 30
0.0
 10
83.026795621
 20
100.2182573005
 30
0.0
 10
83.1535500886
 20
100.6485518134
 30
0.0
 10
83.3670675173
 20
100.9977970021
 30
0.0
 10
83.5677419051
 20
101.166265976
 30
0.0
 10
83.6749139295
 20
101.2281988243
 30
0.0
  0
SPLINE
  5
334
100
AcDbEntity
  8
0
100
AcDbSpline
 62
7
  6
BYLAYER
 70
0
 71
3
 72
11
 73
7
 74
0
 42
0.0000001
 43
0.0000001
 44
0.0000000001
 40
0.0
 40
0.0
 40
0.0
 40
0.0
 40
0.2896413962
 40
0.5491107668
 40
0.7822355977
 40
1.0
 40
1.0
 40
1.0
 40
1.0
 10
90.9213998306
 20
95.1681483573
 30
0.0
 10
90.9213998306
 20
95.3327843088
 30
0.0
 10
90.9464245562
 20
95.6459608577
 30
0.0
 10
91.0731790238
 20
96.0762553705
 30
0.0
 10
91.2866964525
 20
96.4255005593
 30
0.0
 10
91.4873708403
 20
96.5939695332
 30
0.0
 10
91.5945428647
 20
96.6559023814
 30
0.0
  0
SPLINE
  5
335
100
AcDbEntity
  8
0
100
AcDbSpline
 62
7
  6
BYLAYER
 70
0
 71
3
 72
11
 73
7
 74
0
 42
0.0000001
 43
0.0000001
 44
0.0000000001
 40
0.0
 40
0.0
 40
0.0
 40
0.0
 40
0.2896413962
 40
0.5491107668
 40
0.7822355977
 40
1.0
 40
1.0
 40
1.0
 40
1.0
 10
98.2046300121
 20
90.9632685929
 30
0.0
 10
98.2046300121
 20
91.1279045444
 30
0.0
 10
98.2296547376
 20
91.4410810933
 30
0.0
 10
98.3564092053
 20
91.8713756062
 30
0.0
 10
98.5699266339
 20
92.2206207949
 30
0.0
 10
98.7706010218
 20
92.3890897688
 30
0.0
 10
98.8777730461
 20
92.4510226171
 30
0.0
  0
SPLINE
  5
336
100
AcDbEntity
  8
0
100
AcDbSpline
 62
7
  6
BYLAYER
 70
0
 71
3
 72
16
 73
12
 74
0
 42
0.0000001
 43
0.0000001
 44
0.0000000001
 40
0.0
 40
0.0
 40
0.0
 40
0.0
 40
0.0428765743
 40
0.0875234668
 40
0.1869286092
 40
0.3042403425
 40
0.4379658106
 40
0.5823707712
 40
0.7295934221
 40
0.8712541043
 40
1.0
 40
1.0
 40
1.0
 40
1.0
 10
86.9248410827
 20
95.5991258761
 30
0.0
 10
86.8447390803
 20
95.5528363225
 30
0.0
 10
86.6681063135
 20
95.4794604095
 30
0.0
 10
86.2655644195
 20
95.4204229867
 30
0.0
 10
85.6972562197
 20
95.5313952678
 30
0.0
 10
85.027794373
 20
95.8985911754
 30
0.0
 10
84.3842816976
 20
96.4677751043
 30
0.0
 10
83.8166305427
 20
97.1946741489
 30
0.0
 10
83.3695438198
 20
98.0208696986
 30
0.0
 10
83.0794978103
 20
98.8785245482
 30
0.0
 10
83.0017708954
 20
99.462648674
 30
0.0
 10
83.0017708954
 20
99.7404448001
 30
0.0
  0
SPLINE
  5
337
100
AcDbEntity
  8
0
100
AcDbSpline
 62
7
  6
BYLAYER
 70
0
 71
3
 72
11
 73
7
 74
0
 42
0.0000001
 43
0.0000001
 44
0.0000000001
 40
0.0
 40
0.0
 40
0.0
 40
0.0
 40
0.2896413962
 40
0.5491107668
 40
0.7822355977
 40
1.0
 40
1.0
 40
1.0
 40
1.0
 10
107.9312166092
 20
209.4537257149
 30
0.0
 10
107.9312166092
 20
209.5952434526
 30
0.0
 10
107.9527273577
 20
209.8644436868
 30
0.0
 10
108.0616829372
 20
210.2343161567
 30
0.0
 10
108.2452182051
 20
210.534520265
 30
0.0
 10
108.4177138546
 20
210.6793327913
 30
0.0
 10
108.5098367615
 20
210.7325690164
 30
0.0
  0
SPLINE
  5
338
100
AcDbEntity
  8
0
100
AcDbSpline
 62
7
  6
BYLAYER
 70
0
 71
3
 72
17
 73
13
 74
0
 42
0.0000001
 43
0.0000001
 44
0.0000000001
 40
0.0
 40
0.0
 40
0.0
 40
0.0
 40
0.1284419955
 40
0.2697240865
 40
0.4166229517
 40
0.560851494
 40
0.6946243454
 40
0.8122040853
 40
0.8643644231
 40
0.9123825038
 40
0.9571308426
 40
1.0
 40
1.0
 40
1.0
 40
1.0
 10
124.3139795366
 20
152.2310997668
 30
0.0
 10
124.3139795366
 20
152.6795175305
 30
0.0
 10
124.1892134818
 20
153.6222597842
 30
0.0
 10
123.7229612293
 20
155.00722639
 30
0.0
 10
123.0040849406
 20
156.3427844686
 30
0.0
 10
122.0897466763
 20
157.5204597518
 30
0.0
 10
121.0540215973
 20
158.4460003494
 30
0.0
 10
120.1155585052
 20
158.9677646898
 30
0.0
 10
119.3797240745
 20
159.1720118074
 30
0.0
 10
118.8722751684
 20
159.2164821821
 30
0.0
 10
118.3986751381
 20
159.1553515421
 30
0.0
 10
118.1102686308
 20
159.0424271701
 30
0.0
 10
117.9791180859
 20
158.9703217305
 30
0.0
  0
SPLINE
  5
339
100
AcDbEntity
  8
0
100
AcDbSpline
 62
7
  6
BYLAYER
 70
0
 71
3
 72
17
 73
13
 74
0
 42
0.0000001
 43
0.0000001
 44
0.0000000001
 40
0.0
 40
0.0
 40
0.0
 40
0.0
 40
0.0428592927
 40
0.0874854741
 40
0.1353198782
 40
0.1872819046
 40
0.3045421967
 40
0.4382074307
 40
0.5825489112
 40
0.7297129634
 40
0.8713059682
 40
1.0
 40
1.0
 40
1.0
 40
1.0
 10
118.0299595804
 20
158.8087217789
 30
0.0
 10
118.1559009097
 20
158.8814462947
 30
0.0
 10
118.4335610978
 20
158.9967406185
 30
0.0
 10
118.8918145799
 20
159.0640033291
 30
0.0
 10
119.3839646668
 20
159.0277428981
 30
0.0
 10
120.0990471827
 20
158.8375545023
 30
0.0
 10
121.0131692397
 20
158.3377070086
 30
0.0
 10
122.023128865
 20
157.4432831566
 30
0.0
 10
122.9159303118
 20
156.3005814513
 30
0.0
 10
123.6185540535
 20
155.0018879048
 30
0.0
 10
124.0745780601
 20
153.6537296095
 30
0.0
 10
124.1967333278
 20
152.7355385801
 30
0.0
 10
124.1967333278
 20
152.2988524996
 30
0.0
  0
SPLINE
  5
33A
100
AcDbEntity
  8
0
100
AcDbSpline
 62
7
  6
BYLAYER
 70
0
 71
3
 72
17
 73
13
 74
0
 42
0.0000001
 43
0.0000001
 44
0.0000000001
 40
0.0
 40
0.0
 40
0.0
 40
0.0
 40
0.1286930371
 40
0.2702795961
 40
0.4174375933
 40
0.5617786793
 40
0.695447824
 40
0.8127111198
 40
0.8646738574
 40
0.9125098522
 40
0.9571380033
 40
1.0
 40
1.0
 40
1.0
 40
1.0
 10
94.5582311103
 20
167.8426180682
 30
0.0
 10
94.5582311103
 20
168.2793007268
 30
0.0
 10
94.4360814926
 20
169.1974666355
 30
0.0
 10
93.9800787945
 20
170.5455828274
 30
0.0
 10
93.2774939617
 20
171.8442461818
 30
0.0
 10
92.3847161104
 20
172.9869564253
 30
0.0
 10
91.3747565277
 20
173.8814087058
 30
0.0
 10
90.4606246602
 20
174.3813032458
 30
0.0
 10
89.7455241941
 20
174.5714842653
 30
0.0
 10
89.2533606807
 20
174.6077815013
 30
0.0
 10
88.7950894105
 20
174.5404999051
 30
0.0
 10
88.5174052684
 20
174.425218887
 30
0.0
 10
88.3914604402
 20
174.3524821142
 30
0.0
  0
SPLINE
  5
33B
100
AcDbEntity
  8
0
100
AcDbSpline
 62
7
  6
BYLAYER
 70
0
 71
3
 72
16
 73
12
 74
0
 42
0.0000001
 43
0.0000001
 44
0.0000000001
 40
0.0
 40
0.0
 40
0.0
 40
0.0
 40
0.0428765743
 40
0.0875234668
 40
0.1869286092
 40
0.3042403425
 40
0.4379658106
 40
0.5823707712
 40
0.7295934221
 40
0.8712541043
 40
1.0
 40
1.0
 40
1.0
 40
1.0
 10
79.6416109013
 20
99.8040056404
 30
0.0
 10
79.5615088989
 20
99.7577160869
 30
0.0
 10
79.3848761321
 20
99.6843401739
 30
0.0
 10
78.982334238
 20
99.6253027511
 30
0.0
 10
78.4140260382
 20
99.7362750322
 30
0.0
 10
77.7445641915
 20
100.1034709398
 30
0.0
 10
77.1010515162
 20
100.6726548686
 30
0.0
 10
76.5334003613
 20
101.3995539132
 30
0.0
 10
76.0863136383
 20
102.225749463
 30
0.0
 10
75.7962676289
 20
103.0834043126
 30
0.0
 10
75.718540714
 20
103.6675284384
 30
0.0
 10
75.718540714
 20
103.9453245645
 30
0.0
  0
SPLINE
  5
33C
100
AcDbEntity
  8
0
100
AcDbSpline
 62
7
  6
BYLAYER
 70
0
 71
3
 72
16
 73
12
 74
0
 42
0.0000001
 43
0.0000001
 44
0.0000000001
 40
0.0
 40
0.0
 40
0.0
 40
0.0
 40
0.0428765743
 40
0.0875234668
 40
0.1869286092
 40
0.3042403425
 40
0.4379658106
 40
0.5823707712
 40
0.7295934221
 40
0.8712541043
 40
1.0
 40
1.0
 40
1.0
 40
1.0
 10
102.1277001994
 20
86.8219496689
 30
0.0
 10
102.047598197
 20
86.7756601153
 30
0.0
 10
101.8709654302
 20
86.7022842023
 30
0.0
 10
101.4684235361
 20
86.6432467795
 30
0.0
 10
100.9001153363
 20
86.7542190606
 30
0.0
 10
100.2306534896
 20
87.1214149682
 30
0.0
 10
99.5871408143
 20
87.6905988971
 30
0.0
 10
99.0194896594
 20
88.4174979417
 30
0.0
 10
98.5724029364
 20
89.2436934914
 30
0.0
 10
98.282356927
 20
90.101348341
 30
0.0
 10
98.2046300121
 20
90.6854724668
 30
0.0
 10
98.2046300121
 20
90.9632685929
 30
0.0
  0
SPLINE
  5
33D
100
AcDbEntity
  8
0
100
AcDbSpline
 62
7
  6
BYLAYER
 70
0
 71
3
 72
15
 73
11
 74
0
 42
0.0000001
 43
0.0000001
 44
0.0000000001
 40
0.0
 40
0.0
 40
0.0
 40
0.0
 40
0.0890004226
 40
0.1923791436
 40
0.3126555088
 40
0.4472215172
 40
0.5904042283
 40
0.7350315365
 40
0.8737092317
 40
1.0
 40
1.0
 40
1.0
 40
1.0
 10
181.8222498072
 20
165.026598444
 30
0.0
 10
181.6730972816
 20
164.9771797877
 30
0.0
 10
181.3218742183
 20
164.9529429489
 30
0.0
 10
180.7878306467
 20
165.1219793242
 30
0.0
 10
180.2495439098
 20
165.4641235787
 30
0.0
 10
179.74123484
 20
165.9549506888
 30
0.0
 10
179.2979178024
 20
166.5585677246
 30
0.0
 10
178.9520343939
 20
167.2310777723
 30
0.0
 10
178.7291294721
 20
167.9223177969
 30
0.0
 10
178.6699847768
 20
168.3906421618
 30
0.0
 10
178.6699847768
 20
168.6136029378
 30
0.0
  0
SPLINE
  5
33E
100
AcDbEntity
  8
0
100
AcDbSpline
 62
7
  6
BYLAYER
 70
0
 71
3
 72
15
 73
11
 74
0
 42
0.0000001
 43
0.0000001
 44
0.0000000001
 40
0.0
 40
0.0
 40
0.0
 40
0.0
 40
0.0894874974
 40
0.1935326984
 40
0.3142517284
 40
0.4488971168
 40
0.5918255387
 40
0.7359836586
 40
0.8741389467
 40
1.0
 40
1.0
 40
1.0
 40
1.0
 10
111.0973890668
 20
205.8058043204
 30
0.0
 10
110.9446021872
 20
205.7607735472
 30
0.0
 10
110.5884340898
 20
205.7463795203
 30
0.0
 10
110.0507379335
 20
205.9266682103
 30
0.0
 10
109.5101218099
 20
206.2784638744
 30
0.0
 10
109.0008984311
 20
206.777189227
 30
0.0
 10
108.5576772859
 20
207.3869914623
 30
0.0
 10
108.2123791134
 20
208.0642220581
 30
0.0
 10
107.9900992471
 20
208.7592215162
 30
0.0
 10
107.9312166092
 20
209.2296973875
 30
0.0
 10
107.9312166092
 20
209.4537257149
 30
0.0
  0
SPLINE
  5
33F
100
AcDbEntity
  8
0
100
AcDbSpline
 62
7
  6
BYLAYER
 70
0
 71
3
 72
17
 73
13
 74
0
 42
0.0000001
 43
0.0000001
 44
0.0000000001
 40
0.0
 40
0.0
 40
0.0
 40
0.0
 40
0.128423387
 40
0.2696829034
 40
0.4165624962
 40
0.5607825388
 40
0.6945628326
 40
0.8121657921
 40
0.8643407443
 40
0.9123723982
 40
0.9571298953
 40
1.0
 40
1.0
 40
1.0
 40
1.0
 10
96.0295904824
 20
168.5607299197
 30
0.0
 10
96.0295904824
 20
169.0089674779
 30
0.0
 10
95.9049237611
 20
169.9513235811
 30
0.0
 10
95.4390072104
 20
171.3357792571
 30
0.0
 10
94.7206117143
 20
172.6709474068
 30
0.0
 10
93.8068216546
 20
173.8484629828
 30
0.0
 10
92.7716161664
 20
174.7741517729
 30
0.0
 10
91.8335491862
 20
175.2963285562
 30
0.0
 10
91.0979009134
 20
175.5011544415
 30
0.0
 10
90.5905054829
 20
175.5461381594
 30
0.0
 10
90.1168754797
 20
175.4856202858
 30
0.0
 10
89.8283461682
 20
175.3731454315
 30
0.0
 10
89.6971144686
 20
175.3012609612
 30
0.0
  0
SPLINE
  5
340
100
AcDbEntity
  8
0
100
AcDbSpline
 62
7
  6
BYLAYER
 70
0
 71
3
 72
11
 73
7
 74
0
 42
0.0000001
 43
0.0000001
 44
0.0000000001
 40
0.0
 40
0.0
 40
0.0
 40
0.0
 40
0.2177843138
 40
0.4509117638
 40
0.7102976702
 40
1.0
 40
1.0
 40
1.0
 40
1.0
 10
138.8970764441
 20
151.488406795
 30
0.0
 10
138.7898723861
 20
151.42651292
 30
0.0
 10
138.5435543963
 20
151.3371221037
 30
0.0
 10
138.1344244126
 20
151.3267630106
 30
0.0
 10
137.6983877339
 20
151.4320580945
 30
0.0
 10
137.4146980019
 20
151.5670148023
 30
0.0
 10
137.2720918233
 20
151.649346655
 30
0.0
  0
ENDSEC
  0
SECTION
  2
OBJECTS
  0
DICTIONARY
  5
C
100
AcDbDictionary
280
0
281
1
  3
ACAD_GROUP
350
D
  3
ACAD_MLINESTYLE
350
17
  3
ACAD_LAYOUT
350
1A
  3
ACAD_PLOTSETTINGS
350
19
  3
ACAD_PLOTSTYLENAME
350
E
  0
DICTIONARY
  5
D
102
{ACAD_REACTORS
330
C
102
}
100
AcDbDictionary
280
0
281
1
  0
ACDBDICTIONARYWDFLT
  5
E
102
{ACAD_REACTORS
330
C
102
}
100
AcDbDictionary
281
1
  3
Normal
350
F
100
AcDbDictionaryWithDefault
340
F
  0
DICTIONARY
  5
17
102
{ACAD_REACTORS
330
C
102
}
100
AcDbDictionary
280
0
281
1
  3
Standard
350
18
  0
DICTIONARY
  5
19
102
{ACAD_REACTORS
330
C
102
}
100
AcDbDictionary
281
1
  0
DICTIONARY
  5
1A
102
{ACAD_REACTORS
330
C
102
}
100
AcDbDictionary
281
1
  3
Model
350
341
  3
Layout1
350
342
  0
ACDBPLACEHOLDER
  5
F
102
{ACAD_REACTORS
330
E
102
}
  0
MLINESTYLE
  5
18
102
{ACAD_REACTORS
330
17
102
}
100
AcDbMlineStyle
  2
STANDARD
 70
0
  3

 62
256
 51
90.0
 52
90.0
 71
2
 49
0.5
 62
256
  6
BYLAYER
 49
-0.5
 62
256
  6
BYLAYER
  0
LAYOUT
  5
341
102
{ACAD_REACTORS
330
1A
102
}
100
AcDbPlotSettings
  1

  2
none_device
  4

  6

 40
0.0
 41
0.0
 42
0.0
 43
0.0
 44
210.0
 45
297.0
 46
0.0
 47
0.0
 48
0.0
 49
0.0
140
0.0
141
0.0
142
1.0
143
1.0
 70
1024
 72
1
 73
0
 74
0
  7

 75
0
147
1.0
148
0.0
149
0.0
100
AcDbLayout
  1
Model
 70
0
 71
0
 10
0.0
 20
0.0
 11
210.0
 21
297.0
 12
0.0
 22
0.0
 32
0.0
 14
0.0
 24
0.0
 34
0.0
 15
0.0
 25
0.0
 35
0.0
146
0.0
 13
0.0
 23
0.0
 33
0.0
 16
1.0
 26
0.0
 36
0.0
 17
0.0
 27
1.0
 37
0.0
 76
0
330
210
345
0
346
0
  0
LAYOUT
  5
342
102
{ACAD_REACTORS
330
1A
102
}
100
AcDbPlotSettings
  1

  2
none_device
  4

  6

 40
0.0
 41
0.0
 42
0.0
 43
0.0
 44
210.0
 45
297.0
 46
0.0
 47
0.0
 48
0.0
 49
0.0
140
0.0
141
0.0
142
1.0
143
1.0
 70
0
 72
1
 73
0
 74
0
  7

 75
0
147
1.0
148
0.0
149
0.0
100
AcDbLayout
  1
Layout1
 70
0
 71
1
 10
0.0
 20
0.0
 11
210.0
 21
297.0
 12
0.0
 22
0.0
 32
0.0
 14
0.0
 24
0.0
 34
0.0
 15
0.0
 25
0.0
 35
0.0
146
0.0
 13
0.0
 23
0.0
 33
0.0
 16
1.0
 26
0.0
 36
0.0
 17
0.0
 27
1.0
 37
0.0
 76
0
330
211
345
0
346
0
  0
ENDSEC
  0
EOF
