999
DXF file: C:\Users\sesa63760\Dev\_Creo\CAD\MCADID0000595_3D-CAD\drw0001_1.dxf
999
Pro/ENGINEER 2019471 by Parametric Technology Corporation
  0
SECTION
  2
HEADER
  9
$ACADVER
  1
AC1024
  9
$DWGCODEPAGE
  3
ANSI_1252
  9
$EXTMAX
 10
156.217268776
 20
220.9358515546
 30
0.0
  9
$EXTMIN
 10
0.0
 20
0.0
 30
0.0
  9
$LIMMIN
 10
0.0
 20
0.0
  9
$LIMMAX
 10
156.217268776
 20
220.9358515546
  9
$VIEWCTR
 10
78.108634388
 20
110.4679257773
  9
$VIEWSIZE
 40
220.9358515546
  9
$CLAYER
  8
0
  9
$LTSCALE
 40
14.4017443976
  9
$CELTYPE
  6
BYLAYER
  9
$DIMSCALE
 40
1.0
  9
$DIMASZ
 40
1.8597293902
  9
$DIMEXO
 40
1.0
  9
$DIMDLI
 40
9.9502961293
  9
$DIMEXE
 40
1.0
  9
$DIMCEN
 40
2.3566490832
  9
$DIMLFAC
 40
1.0
  9
$DIMBLK
  1
_FILLED
  9
$DIMALT
 70
0
  9
$DIMALTF
 40
0.0393700787
  9
$DIMTXT
 40
2.6036211463
  9
$DIMTOL
 70
1
  9
$DIMLIM
 70
0
  9
$DIMTFAC
 40
1.0
  9
$DIMTP
 40
0.01
  9
$DIMTM
 40
0.01
  9
$DIMGAP
 40
0.625
  9
$DIMDSEP
 70
46
  9
$AUNITS
 70
0
  9
$PDMODE
 70
3
  9
$PDSIZE
 40
0.3125
  9
$HANDSEED
  5
478
  9
$TILEMODE
 70
1
  9
$MEASUREMENT
 70
1
  9
$INSUNITS
 70
4
  0
ENDSEC
  0
SECTION
  2
CLASSES
  0
CLASS
  1
ACDBDICTIONARYWDFLT
  2
AcDbDictionaryWithDefault
  3
AutoCAD 2000
 90
0
 91
1
280
0
281
0
  0
CLASS
  1
ACDBPLACEHOLDER
  2
AcDbPlaceHolder
  3
AutoCAD 2000
 90
0
 91
1
280
0
281
0
  0
CLASS
  1
LAYOUT
  2
AcDbLayout
  3
AutoCAD 2000
 90
0
 91
0
280
0
281
0
  0
ENDSEC
  0
SECTION
  2
TABLES
  0
TABLE
  2
VPORT
  5
8
100
AcDbSymbolTable
 70
2
  0
VPORT
  5
1F4
100
AcDbSymbolTableRecord
100
AcDbViewportTableRecord
  2
*ACTIVE
 70
0
 10
0.0
 20
0.0
 11
1.0
 21
1.0
 12
78.108634388
 22
110.4679257773
 13
0.0
 23
0.0
 14
1.0
 24
1.0
 15
0.0
 25
0.0
 16
0.0
 26
0.0
 36
1.0
 17
0.0
 27
0.0
 37
0.0
 40
220.9358515546
 41
0.7070707071
 42
50.0
 43
0.0
 44
0.0
 50
0.0
 51
0.0
 71
0
 72
100
 73
1
 74
1
 75
0
 76
0
 77
0
 78
0
  0
ENDTAB
  0
TABLE
  2
LTYPE
  5
5
100
AcDbSymbolTable
 70
6
  0
LTYPE
  5
14
100
AcDbSymbolTableRecord
100
AcDbLinetypeTableRecord
  2
BYBLOCK
 70
0
  3

 72
65
 73
0
 40
0.0
  0
LTYPE
  5
15
100
AcDbSymbolTableRecord
100
AcDbLinetypeTableRecord
  2
BYLAYER
 70
0
  3

 72
65
 73
0
 40
0.0
  0
LTYPE
  5
16
100
AcDbSymbolTableRecord
100
AcDbLinetypeTableRecord
  2
CONTINUOUS
 70
64
  3
Solid line
 72
65
 73
0
 40
0.0
  0
LTYPE
  5
1F5
100
AcDbSymbolTableRecord
100
AcDbLinetypeTableRecord
  2
CENTER
 70
64
  3
____ _ ____ _ ____ _ ____ _ ____ _ ____ _ ____
 72
65
 73
4
 40
0.6
 49
0.375
 74
0
 49
-0.075
 74
0
 49
0.075
 74
0
 49
-0.075
 74
0
  0
LTYPE
  5
1F6
100
AcDbSymbolTableRecord
100
AcDbLinetypeTableRecord
  2
HIDDEN
 70
64
  3
- - - - - - - - - - - - - - - - - - - -
 72
65
 73
2
 40
0.2
 49
0.1
 74
0
 49
-0.1
 74
0
  0
LTYPE
  5
1F7
100
AcDbSymbolTableRecord
100
AcDbLinetypeTableRecord
  2
PHANTOM
 70
64
  3
_____ _ _ _____ _ _ _____ _ _ _____
 72
65
 73
6
 40
0.8
 49
0.45
 74
0
 49
-0.05
 74
0
 49
0.1
 74
0
 49
-0.05
 74
0
 49
0.1
 74
0
 49
-0.05
 74
0
  0
LTYPE
  5
1F8
100
AcDbSymbolTableRecord
100
AcDbLinetypeTableRecord
  2
DOT
 70
64
  3
. . . . . . . . . . . . . . . . . . . .
 72
65
 73
2
 40
0.2
 49
0.1
 74
0
 49
-0.1
 74
0
  0
LTYPE
  5
1F9
100
AcDbSymbolTableRecord
100
AcDbLinetypeTableRecord
  2
DASHED
 70
64
  3
- - - - - - - - - - - - - - - - - - - -
 72
65
 73
2
 40
0.2
 49
0.1
 74
0
 49
-0.1
 74
0
  0
ENDTAB
  0
TABLE
  2
LAYER
  5
2
100
AcDbSymbolTable
 70
36
  0
LAYER
  5
10
100
AcDbSymbolTableRecord
100
AcDbLayerTableRecord
  2
0
 70
0
 62
7
  6
CONTINUOUS
370
-3
390
F
  0
LAYER
  5
1FA
100
AcDbSymbolTableRecord
100
AcDbLayerTableRecord
  2
DEFAULT_1
 70
0
 62
7
  6
CENTER
370
-3
390
F
  0
LAYER
  5
1FB
100
AcDbSymbolTableRecord
100
AcDbLayerTableRecord
  2
DEFAULT_2
 70
0
 62
8
  6
HIDDEN
370
-3
390
F
  0
LAYER
  5
1FC
100
AcDbSymbolTableRecord
100
AcDbLayerTableRecord
  2
DEFAULT_3
 70
0
 62
7
  6
PHANTOM
370
-3
390
F
  0
LAYER
  5
1FD
100
AcDbSymbolTableRecord
100
AcDbLayerTableRecord
  2
00_COMPONENTS
 70
0
 62
7
  6
CONTINUOUS
370
-3
390
F
  0
LAYER
  5
1FE
100
AcDbSymbolTableRecord
100
AcDbLayerTableRecord
  2
01_1_DEFAULT_DATUMS
 70
0
 62
7
  6
CONTINUOUS
370
-3
390
F
  0
LAYER
  5
1FF
100
AcDbSymbolTableRecord
100
AcDbLayerTableRecord
  2
01_PLANES
 70
0
 62
7
  6
CONTINUOUS
370
-3
390
F
  0
LAYER
  5
200
100
AcDbSymbolTableRecord
100
AcDbLayerTableRecord
  2
02_COORD_SYS
 70
0
 62
7
  6
CONTINUOUS
370
-3
390
F
  0
LAYER
  5
201
100
AcDbSymbolTableRecord
100
AcDbLayerTableRecord
  2
03_AXES
 70
0
 62
7
  6
CONTINUOUS
370
-3
390
F
  0
LAYER
  5
202
100
AcDbSymbolTableRecord
100
AcDbLayerTableRecord
  2
04_POINTS
 70
0
 62
7
  6
CONTINUOUS
370
-3
390
F
  0
LAYER
  5
203
100
AcDbSymbolTableRecord
100
AcDbLayerTableRecord
  2
05_CURVES
 70
0
 62
7
  6
CONTINUOUS
370
-3
390
F
  0
LAYER
  5
204
100
AcDbSymbolTableRecord
100
AcDbLayerTableRecord
  2
06_SURFS
 70
0
 62
7
  6
CONTINUOUS
370
-3
390
F
  0
LAYER
  5
205
100
AcDbSymbolTableRecord
100
AcDbLayerTableRecord
  2
07_COSMETICS
 70
0
 62
7
  6
CONTINUOUS
370
-3
390
F
  0
LAYER
  5
206
100
AcDbSymbolTableRecord
100
AcDbLayerTableRecord
  2
10_NOTES
 70
0
 62
7
  6
CONTINUOUS
370
-3
390
F
  0
LAYER
  5
207
100
AcDbSymbolTableRecord
100
AcDbLayerTableRecord
  2
11_NOTES_PUB
 70
0
 62
7
  6
CONTINUOUS
370
-3
390
F
  0
LAYER
  5
208
100
AcDbSymbolTableRecord
100
AcDbLayerTableRecord
  2
13_REF_GTOL
 70
0
 62
7
  6
CONTINUOUS
370
-3
390
F
  0
LAYER
  5
209
100
AcDbSymbolTableRecord
100
AcDbLayerTableRecord
  2
16_MISC
 70
0
 62
7
  6
CONTINUOUS
370
-3
390
F
  0
LAYER
  5
20A
100
AcDbSymbolTableRecord
100
AcDbLayerTableRecord
  2
17_NO_PRINT
 70
0
 62
7
  6
CONTINUOUS
370
-3
390
F
  0
LAYER
  5
20B
100
AcDbSymbolTableRecord
100
AcDbLayerTableRecord
  2
18_DATUM_CAMS_JOINTS
 70
0
 62
7
  6
CONTINUOUS
370
-3
390
F
  0
LAYER
  5
20C
100
AcDbSymbolTableRecord
100
AcDbLayerTableRecord
  2
19_DATUM_FUNCTIONAL
 70
0
 62
7
  6
CONTINUOUS
370
-3
390
F
  0
LAYER
  5
20D
100
AcDbSymbolTableRecord
100
AcDbLayerTableRecord
  2
20_DATUM_KINEMATIC_SCHEME
 70
0
 62
7
  6
CONTINUOUS
370
-3
390
F
  0
ENDTAB
  0
TABLE
  2
STYLE
  5
3
100
AcDbSymbolTable
 70
1
  0
STYLE
  5
11
100
AcDbSymbolTableRecord
100
AcDbTextStyleTableRecord
  2
STANDARD
 70
0
 40
0.0
 41
0.8
 50
0.0
 71
0
 42
0.2
  3
txt
  4

  0
STYLE
  5
20E
100
AcDbSymbolTableRecord
100
AcDbTextStyleTableRecord
  2
TEXTSTYLE_1
 70
0
 40
0.0
 41
0.8
 50
0.0
 71
0
 42
0.2
  3
gdt
  4

  0
ENDTAB
  0
TABLE
  2
VIEW
  5
6
100
AcDbSymbolTable
 70
0
  0
ENDTAB
  0
TABLE
  2
UCS
  5
7
100
AcDbSymbolTable
 70
0
  0
ENDTAB
  0
TABLE
  2
APPID
  5
9
100
AcDbSymbolTable
 70
1
  0
APPID
  5
20F
100
AcDbSymbolTableRecord
100
AcDbRegAppTableRecord
  2
ACAD
 70
0
  0
ENDTAB
  0
TABLE
  2
BLOCK_RECORD
  5
1
100
AcDbSymbolTable
 70
0
  0
BLOCK_RECORD
  5
210
100
AcDbSymbolTableRecord
100
AcDbBlockTableRecord
  2
*Model_Space
  0
BLOCK_RECORD
  5
211
100
AcDbSymbolTableRecord
100
AcDbBlockTableRecord
  2
*Paper_Space
  0
BLOCK_RECORD
  5
212
100
AcDbSymbolTableRecord
100
AcDbBlockTableRecord
  2
_FILLED
  0
ENDTAB
  0
TABLE
  2
DIMSTYLE
  5
A
100
AcDbSymbolTable
 70
1
100
AcDbDimStyleTable
 71
0
  0
DIMSTYLE
105
213
100
AcDbSymbolTableRecord
100
AcDbDimStyleTableRecord
  2
STANDARD
 70
0
  3

  4

 40
1.0
 41
1.8597293902
 42
1.0
 43
0.38
 44
1.0
 45
0.0
 46
0.0
 47
0.01
 48
0.01
140
2.6036211463
141
0.09
142
0.0
143
25.4
144
1.0
145
0.0
146
1.0
147
0.625
 71
1
 72
0
 73
0
 74
0
 75
0
 76
0
 77
1
 78
8
 79
2
170
0
171
1
172
0
173
0
174
0
175
0
176
0
177
0
178
0
270
2
179
2
271
2
272
2
273
2
274
2
275
0
280
0
281
0
282
0
283
1
284
8
285
0
286
0
287
3
288
0
340
11
278
46
341
212
342
212
343
212
344
212
  0
ENDTAB
  0
ENDSEC
  0
SECTION
  2
BLOCKS
  0
BLOCK
  5
20
100
AcDbEntity
  8
0
100
AcDbBlockBegin
  2
*Model_Space
 70
0
 10
0.0
 20
0.0
 30
0.0
  3
*Model_Space
  1

  0
ENDBLK
  5
21
100
AcDbEntity
  8
0
100
AcDbBlockEnd
  0
BLOCK
  5
1C
100
AcDbEntity
  8
0
100
AcDbBlockBegin
  2
*Paper_Space
 70
0
 10
0.0
 20
0.0
 30
0.0
  3
*Paper_Space
  1

  0
ENDBLK
  5
1D
100
AcDbEntity
  8
0
100
AcDbBlockEnd
  0
BLOCK
  5
214
100
AcDbEntity
  8
0
100
AcDbBlockBegin
  2
_FILLED
 70
64
 10
0.0
 20
0.0
  3
_FILLED
  1

  0
SOLID
  5
215
100
AcDbEntity
  8
0
  6
BYBLOCK
 62
0
100
AcDbTrace
 10
0.0
 20
0.0
 11
-1.0
 21
0.25
 12
-1.0
 22
-0.25
 13
-1.0
 23
-0.25
  0
ENDBLK
  5
216
100
AcDbEntity
  8
0
  6
BYBLOCK
 62
0
100
AcDbBlockEnd
  0
ENDSEC
  0
SECTION
  2
ENTITIES
  0
LINE
  5
217
100
AcDbEntity
  8
0
100
AcDbLine
 62
7
  6
CONTINUOUS
 10
21.4792848573
 20
158.6050668242
 11
40.1217442095
 21
169.3682315021
  0
LINE
  5
218
100
AcDbEntity
  8
0
100
AcDbLine
 62
7
  6
CONTINUOUS
 10
48.7691339906
 20
174.3607745185
 11
57.111199862
 21
179.1770397457
  0
LINE
  5
219
100
AcDbEntity
  8
0
100
AcDbLine
 62
7
  6
CONTINUOUS
 10
60.4461487024
 20
181.1024618633
 11
61.925624346
 21
181.9566324256
  0
LINE
  5
21A
100
AcDbEntity
  8
0
100
AcDbLine
 62
7
  6
CONTINUOUS
 10
23.423619772
 20
157.482529933
 11
25.8984832022
 21
158.9113844715
  0
LINE
  5
21B
100
AcDbEntity
  8
0
100
AcDbLine
 62
7
  6
CONTINUOUS
 10
21.4792848573
 20
158.6050668241
 11
20.8073137889
 21
154.0940062219
  0
LINE
  5
21C
100
AcDbEntity
  8
0
100
AcDbLine
 62
7
  6
CONTINUOUS
 10
20.3209348876
 20
154.3748108589
 11
20.8988440221
 21
154.7084648615
  0
LINE
  5
21D
100
AcDbEntity
  8
0
100
AcDbLine
 62
7
  6
CONTINUOUS
 10
23.423619772
 20
155.0330226816
 11
25.0198123777
 21
155.9545794112
  0
LINE
  5
21E
100
AcDbEntity
  8
0
100
AcDbLine
 62
7
  6
CONTINUOUS
 10
30.1411415531
 20
156.4619399444
 11
27.6662781229
 21
155.0330854058
  0
LINE
  5
21F
100
AcDbEntity
  8
0
100
AcDbLine
 62
7
  6
CONTINUOUS
 10
23.423619772
 20
157.482529933
 11
23.423619772
 21
155.0330226816
  0
LINE
  5
220
100
AcDbEntity
  8
0
100
AcDbLine
 62
7
  6
CONTINUOUS
 10
23.423619772
 20
152.5835154302
 11
23.423619772
 21
84.650514325
  0
LINE
  5
221
100
AcDbEntity
  8
0
100
AcDbLine
 62
7
  6
CONTINUOUS
 10
38.5565506077
 20
164.1568095118
 11
36.3002535421
 21
159.2951535474
  0
LINE
  5
222
100
AcDbEntity
  8
0
100
AcDbLine
 62
7
  6
CONTINUOUS
 10
28.3380441376
 20
150.1545284123
 11
29.752251812
 21
150.97101672
  0
LINE
  5
223
100
AcDbEntity
  8
0
100
AcDbLine
 62
7
  6
CONTINUOUS
 10
25.0198123777
 20
156.543558824
 11
25.0198123777
 21
155.2371549566
  0
LINE
  5
224
100
AcDbEntity
  8
0
100
AcDbLine
 62
7
  6
CONTINUOUS
 10
25.8984832022
 20
158.9113844715
 11
25.8984832022
 21
157.7682810875
  0
LINE
  5
225
100
AcDbEntity
  8
0
100
AcDbLine
 62
7
  6
CONTINUOUS
 10
27.6662781229
 20
155.0330854058
 11
27.6662781229
 21
152.5835781544
  0
LINE
  5
226
100
AcDbEntity
  8
0
100
AcDbLine
 62
7
  6
CONTINUOUS
 10
28.3380441376
 20
150.1545284123
 11
28.3380441376
 21
129.4970172589
  0
LINE
  5
227
100
AcDbEntity
  8
0
100
AcDbLine
 62
7
  6
CONTINUOUS
 10
67.2642608129
 20
164.8312183476
 11
58.0719109291
 21
159.5240443473
  0
LINE
  5
228
100
AcDbEntity
  8
0
100
AcDbLine
 62
7
  6
CONTINUOUS
 10
20.8530138931
 20
85.1199832497
 11
56.9255589535
 21
64.2939607964
  0
LINE
  5
229
100
AcDbEntity
  8
0
100
AcDbLine
 62
7
  6
CONTINUOUS
 10
101.1098755815
 20
39.7412906302
 11
97.5743269558
 21
41.7824944028
  0
LINE
  5
22A
100
AcDbEntity
  8
0
100
AcDbLine
 62
7
  6
CONTINUOUS
 10
20.0239038354
 20
86.6132968321
 11
62.6681918538
 21
61.9930999229
  0
LINE
  5
22B
100
AcDbEntity
  8
0
100
AcDbLine
 62
7
  6
CONTINUOUS
 10
34.2070371925
 20
137.0961511315
 11
34.2070371925
 21
138.9168368611
  0
LINE
  5
22C
100
AcDbEntity
  8
0
100
AcDbLine
 62
7
  6
CONTINUOUS
 10
36.3002535421
 20
159.2951535474
 11
36.3002535421
 21
156.845646296
  0
LINE
  5
22D
100
AcDbEntity
  8
0
100
AcDbLine
 62
7
  6
CONTINUOUS
 10
55.5270427008
 20
173.9546692048
 11
53.2707456352
 21
169.0930132403
  0
LINE
  5
22E
100
AcDbEntity
  8
0
100
AcDbLine
 62
7
  6
CONTINUOUS
 10
58.071919761
 20
153.4002460445
 11
55.2434808605
 21
151.7672558315
  0
LINE
  5
22F
100
AcDbEntity
  8
0
100
AcDbLine
 62
7
  6
CONTINUOUS
 10
34.859308826
 20
139.2934238163
 11
34.2070371925
 21
138.9168368611
  0
LINE
  5
230
100
AcDbEntity
  8
0
100
AcDbLine
 62
7
  6
CONTINUOUS
 10
32.5606275046
 20
136.145601729
 11
35.742594772
 21
137.9827004214
  0
LINE
  5
231
100
AcDbEntity
  8
0
100
AcDbLine
 62
7
  6
CONTINUOUS
 10
31.3964187109
 20
134.8961000732
 11
32.8106263853
 21
135.7125883809
  0
LINE
  5
232
100
AcDbEntity
  8
0
100
AcDbLine
 62
7
  6
CONTINUOUS
 10
100.0743139779
 20
42.0302213693
 11
96.5387653522
 21
44.0714251419
  0
LINE
  5
233
100
AcDbEntity
  8
0
100
AcDbLine
 62
7
  6
CONTINUOUS
 10
61.3753296251
 20
70.041655743
 11
96.5387653522
 21
49.7404959339
  0
LINE
  5
234
100
AcDbEntity
  8
0
100
AcDbLine
 62
7
  6
CONTINUOUS
 10
96.5387653522
 20
51.0933459292
 11
60.5468803422
 21
71.8728003343
  0
LINE
  5
235
100
AcDbEntity
  8
0
100
AcDbLine
 62
7
  6
CONTINUOUS
 10
36.6755898407
 20
156.0369340009
 11
36.6755898407
 21
158.4864412523
  0
LINE
  5
236
100
AcDbEntity
  8
0
100
AcDbLine
 62
7
  6
CONTINUOUS
 10
38.6217442095
 20
160.3811584435
 11
38.6217442095
 21
162.8306656949
  0
LINE
  5
237
100
AcDbEntity
  8
0
100
AcDbLine
 62
7
  6
CONTINUOUS
 10
40.1217442095
 20
162.8306656949
 11
40.1217442095
 21
170.9956898662
  0
LINE
  5
238
100
AcDbEntity
  8
0
100
AcDbLine
 62
7
  6
CONTINUOUS
 10
40.8717442095
 20
170.9956898662
 11
40.8717442095
 21
171.8121922834
  0
LINE
  5
239
100
AcDbEntity
  8
0
100
AcDbLine
 62
7
  6
CONTINUOUS
 10
41.278134444
 20
134.8344293159
 11
41.278134444
 21
131.3902776872
  0
LINE
  5
23A
100
AcDbEntity
  8
0
100
AcDbLine
 62
7
  6
CONTINUOUS
 10
53.6869378113
 20
156.6055073753
 11
55.9432348769
 21
161.4671633397
  0
LINE
  5
23B
100
AcDbEntity
  8
0
100
AcDbLine
 62
7
  6
CONTINUOUS
 10
55.9432348769
 20
159.0176560884
 11
53.6869378113
 21
154.1560001239
  0
LINE
  5
23C
100
AcDbEntity
  8
0
100
AcDbLine
 62
7
  6
CONTINUOUS
 10
40.0398074823
 20
130.2643136286
 11
42.2795194996
 21
132.3007993961
  0
LINE
  5
23D
100
AcDbEntity
  8
0
100
AcDbLine
 62
7
  6
CONTINUOUS
 10
70.0927762566
 20
152.5839515204
 11
79.2851261404
 21
157.8911255207
  0
LINE
  5
23E
100
AcDbEntity
  8
0
100
AcDbLine
 62
7
  6
CONTINUOUS
 10
42.0653913183
 20
135.2889495711
 11
41.278134444
 21
134.8344293159
  0
LINE
  5
23F
100
AcDbEntity
  8
0
100
AcDbLine
 62
7
  6
CONTINUOUS
 10
34.8964030418
 20
128.8339132002
 11
36.3106107163
 21
129.6504015079
  0
LINE
  5
240
100
AcDbEntity
  8
0
100
AcDbLine
 62
7
  6
CONTINUOUS
 10
44.5402753564
 20
133.8601069303
 11
43.2612788224
 21
133.1216823449
  0
LINE
  5
241
100
AcDbEntity
  8
0
100
AcDbLine
 62
7
  6
CONTINUOUS
 10
36.560609597
 20
129.2173881599
 11
39.7425768645
 21
131.0544868523
  0
LINE
  5
242
100
AcDbEntity
  8
0
100
AcDbLine
 62
7
  6
CONTINUOUS
 10
42.6923421184
 20
132.6593245685
 11
42.6923421184
 21
134.9269875466
  0
LINE
  5
243
100
AcDbEntity
  8
0
100
AcDbLine
 62
7
  6
CONTINUOUS
 10
42.8400295085
 20
154.9274808651
 11
42.8400295085
 21
152.4779736137
  0
LINE
  5
244
100
AcDbEntity
  8
0
100
AcDbLine
 62
7
  6
CONTINUOUS
 10
44.2407834425
 20
152.2612829326
 11
44.2407834425
 21
154.710790184
  0
LINE
  5
245
100
AcDbEntity
  8
0
100
AcDbLine
 62
7
  6
CONTINUOUS
 10
70.6574299045
 20
166.4033670682
 11
72.9137269701
 21
171.2650230327
  0
LINE
  5
246
100
AcDbEntity
  8
0
100
AcDbLine
 62
7
  6
CONTINUOUS
 10
35.6212743066
 20
127.5783442553
 11
39.1567934927
 21
129.6195650247
  0
LINE
  5
247
100
AcDbEntity
  8
0
100
AcDbLine
 62
7
  6
CONTINUOUS
 10
41.5459507998
 20
129.155958616
 11
42.0190153426
 21
129.4290809269
  0
LINE
  5
248
100
AcDbEntity
  8
0
100
AcDbLine
 62
7
  6
CONTINUOUS
 10
70.0927762566
 20
144.4189273491
 11
79.2851261404
 21
149.7261013495
  0
LINE
  5
249
100
AcDbEntity
  8
0
100
AcDbLine
 62
7
  6
CONTINUOUS
 10
70.7998948137
 20
142.785959232
 11
82.1135562091
 21
149.317865694
  0
LINE
  5
24A
100
AcDbEntity
  8
0
100
AcDbLine
 62
7
  6
CONTINUOUS
 10
110.7726453332
 20
56.4775839671
 11
111.9040208934
 21
55.8243987599
  0
LINE
  5
24B
100
AcDbEntity
  8
0
100
AcDbLine
 62
7
  6
CONTINUOUS
 10
51.3717442095
 20
170.9956898662
 11
51.3717442095
 21
171.8121922834
  0
LINE
  5
24C
100
AcDbEntity
  8
0
100
AcDbLine
 62
7
  6
CONTINUOUS
 10
52.1217442095
 20
162.8306656949
 11
52.1217442095
 21
170.9956898662
  0
LINE
  5
24D
100
AcDbEntity
  8
0
100
AcDbLine
 62
7
  6
CONTINUOUS
 10
52.2383234079
 20
127.1480758287
 11
52.2383234079
 21
129.4157373605
  0
LINE
  5
24E
100
AcDbEntity
  8
0
100
AcDbLine
 62
7
  6
CONTINUOUS
 10
52.6615201759
 20
156.0134857613
 11
52.6615201759
 21
153.5639785099
  0
LINE
  5
24F
100
AcDbEntity
  8
0
100
AcDbLine
 62
7
  6
CONTINUOUS
 10
53.2707456352
 20
169.0930132403
 11
53.2707456352
 21
166.6435059889
  0
LINE
  5
250
100
AcDbEntity
  8
0
100
AcDbLine
 62
7
  6
CONTINUOUS
 10
53.6217442095
 20
160.3811584435
 11
53.6217442095
 21
162.8306656949
  0
LINE
  5
251
100
AcDbEntity
  8
0
100
AcDbLine
 62
7
  6
CONTINUOUS
 10
53.6460819338
 20
165.8347936938
 11
53.6460819338
 21
168.2843009452
  0
LINE
  5
252
100
AcDbEntity
  8
0
100
AcDbLine
 62
7
  6
CONTINUOUS
 10
53.6869378113
 20
154.1560001239
 11
53.6869378113
 21
156.6055073753
  0
LINE
  5
253
100
AcDbEntity
  8
0
100
AcDbLine
 62
7
  6
CONTINUOUS
 10
72.9137269701
 20
168.8155157813
 11
70.7098002492
 21
164.0667024928
  0
LINE
  5
254
100
AcDbEntity
  8
0
100
AcDbLine
 62
7
  6
CONTINUOUS
 10
49.5857887718
 20
124.7530634426
 11
51.8255007891
 21
126.78954921
  0
LINE
  5
255
100
AcDbEntity
  8
0
100
AcDbLine
 62
7
  6
CONTINUOUS
 10
51.6113726078
 20
129.7776993851
 11
50.3323760739
 21
129.0392747997
  0
LINE
  5
256
100
AcDbEntity
  8
0
100
AcDbLine
 62
7
  6
CONTINUOUS
 10
70.7998948137
 20
140.7447031892
 11
82.1135562091
 21
147.2766096511
  0
LINE
  5
257
100
AcDbEntity
  8
0
100
AcDbLine
 62
7
  6
CONTINUOUS
 10
44.5459373691
 20
123.9597984392
 11
45.0612802691
 21
124.2573300252
  0
LINE
  5
258
100
AcDbEntity
  8
0
100
AcDbLine
 62
7
  6
CONTINUOUS
 10
54.0862566458
 20
128.3488567442
 11
52.8072601119
 21
127.6104321589
  0
LINE
  5
259
100
AcDbEntity
  8
0
100
AcDbLine
 62
7
  6
CONTINUOUS
 10
65.1430935556
 20
133.3963254163
 11
67.6179569859
 21
134.8251799548
  0
LINE
  5
25A
100
AcDbEntity
  8
0
100
AcDbLine
 62
7
  6
CONTINUOUS
 10
103.114569614
 20
155.3190364792
 11
105.5894330443
 21
156.7478910177
  0
LINE
  5
25B
100
AcDbEntity
  8
0
100
AcDbLine
 62
7
  6
CONTINUOUS
 10
61.9964670546
 20
130.7222684971
 11
63.410674729
 21
131.5387568049
  0
LINE
  5
25C
100
AcDbEntity
  8
0
100
AcDbLine
 62
7
  6
CONTINUOUS
 10
51.0919320893
 20
123.64470843
 11
51.5649966321
 21
123.9178307408
  0
LINE
  5
25D
100
AcDbEntity
  8
0
100
AcDbLine
 62
7
  6
CONTINUOUS
 10
65.1430935556
 20
130.9468181649
 11
66.7392861613
 21
131.8683748945
  0
LINE
  5
25E
100
AcDbEntity
  8
0
100
AcDbLine
 62
7
  6
CONTINUOUS
 10
55.2434808605
 20
151.7672558315
 11
55.2434808605
 21
149.7259997886
  0
LINE
  5
25F
100
AcDbEntity
  8
0
100
AcDbLine
 62
7
  6
CONTINUOUS
 10
55.5922363026
 20
170.1790181365
 11
55.5922363026
 21
172.2202741793
  0
LINE
  5
260
100
AcDbEntity
  8
0
100
AcDbLine
 62
7
  6
CONTINUOUS
 10
55.9432348769
 20
161.4671633397
 11
55.9432348769
 21
159.0176560884
  0
LINE
  5
261
100
AcDbEntity
  8
0
100
AcDbLine
 62
7
  6
CONTINUOUS
 10
56.2087014307
 20
145.4409900474
 11
56.2087014307
 21
143.3997340046
  0
LINE
  5
262
100
AcDbEntity
  8
0
100
AcDbLine
 62
7
  6
CONTINUOUS
 10
56.3042219913
 20
109.4318906141
 11
56.3042219913
 21
65.6673192398
  0
LINE
  5
263
100
AcDbEntity
  8
0
100
AcDbLine
 62
7
  6
CONTINUOUS
 10
56.3422363026
 20
172.2202741793
 11
56.3422363026
 21
177.5275398906
  0
LINE
  5
264
100
AcDbEntity
  8
0
100
AcDbLine
 62
7
  6
CONTINUOUS
 10
57.1932724882
 20
146.9500347837
 11
57.1932724882
 21
145.6436309163
  0
LINE
  5
265
100
AcDbEntity
  8
0
100
AcDbLine
 62
7
  6
CONTINUOUS
 10
58.0719109291
 20
159.5240443473
 11
58.071919761
 21
150.1342928134
  0
LINE
  5
266
100
AcDbEntity
  8
0
100
AcDbLine
 62
7
  6
CONTINUOUS
 10
59.0922363026
 20
177.5275398906
 11
59.0922363026
 21
179.1605447249
  0
LINE
  5
267
100
AcDbEntity
  8
0
100
AcDbLine
 62
7
  6
CONTINUOUS
 10
59.6241953625
 20
166.3396853974
 11
59.6241953625
 21
168.3809414403
  0
LINE
  5
268
100
AcDbEntity
  8
0
100
AcDbLine
 62
7
  6
CONTINUOUS
 10
59.8105216016
 20
164.725340558
 11
59.8105216016
 21
162.2758333066
  0
LINE
  5
269
100
AcDbEntity
  8
0
100
AcDbLine
 62
7
  6
CONTINUOUS
 10
59.8423163687
 20
141.301912901
 11
59.8423163687
 21
143.3431689439
  0
LINE
  5
26A
100
AcDbEntity
  8
0
100
AcDbLine
 62
7
  6
CONTINUOUS
 10
60.5468803422
 20
105.0227984697
 11
60.5468803422
 21
63.2178747127
  0
LINE
  5
26B
100
AcDbEntity
  8
0
100
AcDbLine
 62
7
  6
CONTINUOUS
 10
61.2112755356
 20
162.0591426255
 11
61.2112755356
 21
164.5086498769
  0
LINE
  5
26C
100
AcDbEntity
  8
0
100
AcDbLine
 62
7
  6
CONTINUOUS
 10
56.3042219913
 20
107.4722429968
 11
57.1527755671
 21
108.9419890617
  0
LINE
  5
26D
100
AcDbEntity
  8
0
100
AcDbLine
 62
7
  6
CONTINUOUS
 10
74.335481711
 20
133.396347512
 11
105.5894713158
 21
151.4407391132
  0
LINE
  5
26E
100
AcDbEntity
  8
0
100
AcDbLine
 62
7
  6
CONTINUOUS
 10
71.8606182807
 20
129.5179857221
 11
74.335481711
 21
130.9468402607
  0
LINE
  5
26F
100
AcDbEntity
  8
0
100
AcDbLine
 62
7
  6
CONTINUOUS
 10
105.5894713158
 20
148.9912318618
 11
108.0643347461
 21
150.4200864003
  0
LINE
  5
270
100
AcDbEntity
  8
0
100
AcDbLine
 62
7
  6
CONTINUOUS
 10
73.1334051877
 20
129.8445739905
 11
106.7915478391
 21
149.2769957148
  0
LINE
  5
271
100
AcDbEntity
  8
0
100
AcDbLine
 62
7
  6
CONTINUOUS
 10
54.0919186586
 20
118.4485482531
 11
54.6072615586
 21
118.7460798391
  0
LINE
  5
272
100
AcDbEntity
  8
0
100
AcDbLine
 62
7
  6
CONTINUOUS
 10
108.2057672894
 20
148.4605142058
 11
74.547624638
 21
129.0280924815
  0
LINE
  5
273
100
AcDbEntity
  8
0
100
AcDbLine
 62
7
  6
CONTINUOUS
 10
44.7527197001
 20
122.1012614892
 11
46.0731924735
 21
122.5232022409
  0
LINE
  5
274
100
AcDbEntity
  8
0
100
AcDbLine
 62
7
  6
CONTINUOUS
 10
60.5468803422
 20
96.3678728481
 11
96.5387653522
 21
75.5884184431
  0
LINE
  5
275
100
AcDbEntity
  8
0
100
AcDbLine
 62
7
  6
CONTINUOUS
 10
37.6902710508
 20
129.8695946111
 11
37.7425858183
 21
129.8045147336
  0
LINE
  5
276
100
AcDbEntity
  8
0
100
AcDbLine
 62
7
  6
CONTINUOUS
 10
61.934680299
 20
168.380946994
 11
61.934680299
 21
173.6882127053
  0
LINE
  5
277
100
AcDbEntity
  8
0
100
AcDbLine
 62
7
  6
CONTINUOUS
 10
61.9964670546
 20
110.0647573438
 11
61.9964670546
 21
130.7222684971
  0
LINE
  5
278
100
AcDbEntity
  8
0
100
AcDbLine
 62
7
  6
CONTINUOUS
 10
63.1932724882
 20
146.9500347837
 11
63.1932724882
 21
145.6436309163
  0
LINE
  5
279
100
AcDbEntity
  8
0
100
AcDbLine
 62
7
  6
CONTINUOUS
 10
63.410674729
 20
131.5387568049
 11
63.410674729
 21
110.8812456515
  0
LINE
  5
27A
100
AcDbEntity
  8
0
100
AcDbLine
 62
7
  6
CONTINUOUS
 10
64.2498476795
 20
173.6882182703
 11
64.2498476795
 21
168.380952559
  0
LINE
  5
27B
100
AcDbEntity
  8
0
100
AcDbLine
 62
7
  6
CONTINUOUS
 10
65.1430935556
 20
133.3963254163
 11
65.1430935556
 21
130.9468181649
  0
LINE
  5
27C
100
AcDbEntity
  8
0
100
AcDbLine
 62
7
  6
CONTINUOUS
 10
66.560332616
 20
168.3809581127
 11
66.560332616
 21
166.3397020699
  0
LINE
  5
27D
100
AcDbEntity
  8
0
100
AcDbLine
 62
7
  6
CONTINUOUS
 10
66.7392861613
 20
132.4573543073
 11
66.7392861613
 21
131.1509504399
  0
LINE
  5
27E
100
AcDbEntity
  8
0
100
AcDbLine
 62
7
  6
CONTINUOUS
 10
67.0922363026
 20
177.5275398906
 11
67.0922363026
 21
179.1605447249
  0
LINE
  5
27F
100
AcDbEntity
  8
0
100
AcDbLine
 62
7
  6
CONTINUOUS
 10
67.6179569859
 20
134.8251799548
 11
67.6179569859
 21
133.6820765708
  0
LINE
  5
280
100
AcDbEntity
  8
0
100
AcDbLine
 62
7
  6
CONTINUOUS
 10
67.6179775937
 20
129.5179755241
 11
67.6179775937
 21
103.9614498679
  0
LINE
  5
281
100
AcDbEntity
  8
0
100
AcDbLine
 62
7
  6
CONTINUOUS
 10
61.85503919
 20
107.2886086362
 11
60.5468803422
 21
105.0227984697
  0
LINE
  5
282
100
AcDbEntity
  8
0
100
AcDbLine
 62
7
  6
CONTINUOUS
 10
73.1334051877
 20
127.8033179477
 11
71.8606182807
 21
127.0684784707
  0
LINE
  5
283
100
AcDbEntity
  8
0
100
AcDbLine
 62
7
  6
CONTINUOUS
 10
55.359556921
 20
116.9289947023
 11
54.7132368856
 21
116.5558438833
  0
LINE
  5
284
100
AcDbEntity
  8
0
100
AcDbLine
 62
7
  6
CONTINUOUS
 10
100.9225977661
 20
137.3153288753
 11
81.8307941613
 21
126.2927367207
  0
LINE
  5
285
100
AcDbEntity
  8
0
100
AcDbLine
 62
7
  6
CONTINUOUS
 10
54.2987009896
 20
116.5900113032
 11
55.619173763
 21
117.0119520549
  0
LINE
  5
286
100
AcDbEntity
  8
0
100
AcDbLine
 62
7
  6
CONTINUOUS
 10
96.5387653522
 20
82.1203541479
 11
63.375295691
 21
101.2668591321
  0
LINE
  5
287
100
AcDbEntity
  8
0
100
AcDbLine
 62
7
  6
CONTINUOUS
 10
96.5387653522
 20
82.6103392304
 11
100.0743139779
 21
80.5691354578
  0
LINE
  5
288
100
AcDbEntity
  8
0
100
AcDbLine
 62
7
  6
CONTINUOUS
 10
64.0823995283
 20
101.675103286
 11
96.5857216835
 21
82.9097260197
  0
LINE
  5
289
100
AcDbEntity
  8
0
100
AcDbLine
 62
7
  6
CONTINUOUS
 10
133.5593148855
 20
61.6527591615
 11
119.8413862176
 21
69.5726297991
  0
LINE
  5
28A
100
AcDbEntity
  8
0
100
AcDbLine
 62
7
  6
CONTINUOUS
 10
60.5468803422
 20
105.0227984697
 11
56.3042219913
 21
107.4722429968
  0
LINE
  5
28B
100
AcDbEntity
  8
0
100
AcDbLine
 62
7
  6
CONTINUOUS
 10
31.7321708183
 20
123.618250035
 11
58.6023403739
 21
108.1051013632
  0
LINE
  5
28C
100
AcDbEntity
  8
0
100
AcDbLine
 62
7
  6
CONTINUOUS
 10
67.6179775937
 20
103.9614498679
 11
60.9648790337
 21
107.8025312156
  0
LINE
  5
28D
100
AcDbEntity
  8
0
100
AcDbLine
 62
7
  6
CONTINUOUS
 10
41.278134444
 20
134.8344293159
 11
39.9145891018
 21
136.5306877179
  0
LINE
  5
28E
100
AcDbEntity
  8
0
100
AcDbLine
 62
7
  6
CONTINUOUS
 10
56.2087014307
 20
143.3997340046
 11
55.2434808605
 21
149.7259997886
  0
LINE
  5
28F
100
AcDbEntity
  8
0
100
AcDbLine
 62
7
  6
CONTINUOUS
 10
55.2434808605
 20
151.7672558315
 11
56.2087014307
 21
145.4409900474
  0
LINE
  5
290
100
AcDbEntity
  8
0
100
AcDbLine
 62
7
  6
CONTINUOUS
 10
67.9714559131
 20
152.5839464214
 11
67.9714559131
 21
144.4189222501
  0
LINE
  5
291
100
AcDbEntity
  8
0
100
AcDbLine
 62
7
  6
CONTINUOUS
 10
69.632012269
 20
165.8113454542
 11
69.632012269
 21
164.6889495961
  0
LINE
  5
292
100
AcDbEntity
  8
0
100
AcDbLine
 62
7
  6
CONTINUOUS
 10
69.8422363026
 20
172.2202741793
 11
69.8422363026
 21
177.5275398906
  0
LINE
  5
293
100
AcDbEntity
  8
0
100
AcDbLine
 62
7
  6
CONTINUOUS
 10
69.8807287141
 20
90.9790948885
 11
69.8807287141
 21
66.4840223746
  0
LINE
  5
294
100
AcDbEntity
  8
0
100
AcDbLine
 62
7
  6
CONTINUOUS
 10
70.0927762566
 20
152.5839515204
 11
70.0927762566
 21
144.4189273491
  0
LINE
  5
295
100
AcDbEntity
  8
0
100
AcDbLine
 62
7
  6
CONTINUOUS
 10
70.5922363026
 20
170.1790181365
 11
70.5922363026
 21
172.2202741793
  0
LINE
  5
296
100
AcDbEntity
  8
0
100
AcDbLine
 62
7
  6
CONTINUOUS
 10
70.6574299045
 20
164.0969378414
 11
70.6574299045
 21
166.4033670682
  0
LINE
  5
297
100
AcDbEntity
  8
0
100
AcDbLine
 62
7
  6
CONTINUOUS
 10
70.7998948137
 20
142.785959232
 11
70.7998948137
 21
140.7447031892
  0
LINE
  5
298
100
AcDbEntity
  8
0
100
AcDbLine
 62
7
  6
CONTINUOUS
 10
71.860597673
 20
133.6820867689
 11
71.860597673
 21
134.8251901529
  0
LINE
  5
299
100
AcDbEntity
  8
0
100
AcDbLine
 62
7
  6
CONTINUOUS
 10
71.8606182807
 20
103.9614600659
 11
71.8606182807
 21
129.5179857221
  0
LINE
  5
29A
100
AcDbEntity
  8
0
100
AcDbLine
 62
7
  6
CONTINUOUS
 10
72.7392861613
 20
132.4573543073
 11
72.7392861613
 21
131.1509504399
  0
LINE
  5
29B
100
AcDbEntity
  8
0
100
AcDbLine
 62
7
  6
CONTINUOUS
 10
72.9000503232
 20
110.5220151015
 11
72.9000503232
 21
127.668591258
  0
LINE
  5
29C
100
AcDbEntity
  8
0
100
AcDbLine
 62
7
  6
CONTINUOUS
 10
72.9137269701
 20
171.2650230327
 11
72.9137269701
 21
168.8155157813
  0
LINE
  5
29D
100
AcDbEntity
  8
0
100
AcDbLine
 62
7
  6
CONTINUOUS
 10
73.1334051877
 20
109.1870628371
 11
73.1334051877
 21
129.8445739905
  0
LINE
  5
29E
100
AcDbEntity
  8
0
100
AcDbLine
 62
7
  6
CONTINUOUS
 10
63.410674729
 20
110.8812456515
 11
61.9964670546
 21
110.0647573438
  0
LINE
  5
29F
100
AcDbEntity
  8
0
100
AcDbLine
 62
7
  6
CONTINUOUS
 10
62.4165373038
 20
108.6838731317
 11
61.0023296294
 21
107.867384824
  0
LINE
  5
2A0
100
AcDbEntity
  8
0
100
AcDbLine
 62
7
  6
CONTINUOUS
 10
87.3302941799
 20
122.119263283
 11
86.4832659038
 21
121.6302341989
  0
LINE
  5
2A1
100
AcDbEntity
  8
0
100
AcDbLine
 62
7
  6
CONTINUOUS
 10
78.7621678027
 20
117.172482741
 11
78.2952455356
 21
116.9029066535
  0
LINE
  5
2A2
100
AcDbEntity
  8
0
100
AcDbLine
 62
7
  6
CONTINUOUS
 10
136.7342610152
 20
67.1520515772
 11
123.0163323473
 21
75.0719222149
  0
LINE
  5
2A3
100
AcDbEntity
  8
0
100
AcDbLine
 62
7
  6
CONTINUOUS
 10
99.8383384231
 20
88.5435954128
 11
72.4969085234
 21
104.328820216
  0
LINE
  5
2A4
100
AcDbEntity
  8
0
100
AcDbLine
 62
7
  6
CONTINUOUS
 10
103.609833164
 20
86.6928683128
 11
100.0742845382
 21
88.7340720854
  0
LINE
  5
2A5
100
AcDbEntity
  8
0
100
AcDbLine
 62
7
  6
CONTINUOUS
 10
73.2040304677
 20
104.737074824
 11
100.4984744119
 21
88.9789767612
  0
LINE
  5
2A6
100
AcDbEntity
  8
0
100
AcDbLine
 62
7
  6
CONTINUOUS
 10
35.6212743066
 20
127.5783442553
 11
40.4677248623
 21
124.7803080224
  0
LINE
  5
2A7
100
AcDbEntity
  8
0
100
AcDbLine
 62
7
  6
CONTINUOUS
 10
44.9814690933
 20
122.1743555301
 11
50.0137061518
 21
119.2690578364
  0
LINE
  5
2A8
100
AcDbEntity
  8
0
100
AcDbLine
 62
7
  6
CONTINUOUS
 10
54.5274503828
 20
116.6631053441
 11
54.7132368856
 21
116.5558438833
  0
LINE
  5
2A9
100
AcDbEntity
  8
0
100
AcDbLine
 62
7
  6
CONTINUOUS
 10
74.1275443272
 20
106.9896893276
 11
75.5417637775
 21
106.1732078186
  0
LINE
  5
2AA
100
AcDbEntity
  8
0
100
AcDbLine
 62
7
  6
CONTINUOUS
 10
74.335481711
 20
133.396347512
 11
74.335481711
 21
130.9468402607
  0
LINE
  5
2AB
100
AcDbEntity
  8
0
100
AcDbLine
 62
7
  6
CONTINUOUS
 10
74.547624638
 20
129.0280924815
 11
74.547624638
 21
108.3705813281
  0
LINE
  5
2AC
100
AcDbEntity
  8
0
100
AcDbLine
 62
7
  6
CONTINUOUS
 10
76.6689255514
 20
102.7366619701
 11
76.6689255514
 21
101.920159553
  0
LINE
  5
2AD
100
AcDbEntity
  8
0
100
AcDbLine
 62
7
  6
CONTINUOUS
 10
79.2851261404
 20
149.7261013495
 11
79.2851173085
 21
159.1158528833
  0
LINE
  5
2AE
100
AcDbEntity
  8
0
100
AcDbLine
 62
7
  6
CONTINUOUS
 10
79.7094649859
 20
117.0878631612
 11
79.7617901516
 21
117.1529567678
  0
LINE
  5
2AF
100
AcDbEntity
  8
0
100
AcDbLine
 62
7
  6
CONTINUOUS
 10
81.8307941613
 20
114.8617028809
 11
91.5624943786
 21
120.4802690827
  0
LINE
  5
2B0
100
AcDbEntity
  8
0
100
AcDbLine
 62
7
  6
CONTINUOUS
 10
96.0786594499
 20
123.0876626383
 11
100.9225977661
 21
125.8842950355
  0
LINE
  5
2B1
100
AcDbEntity
  8
0
100
AcDbLine
 62
7
  6
CONTINUOUS
 10
63.375295691
 20
101.2668591321
 11
64.0823995283
 21
101.675103286
  0
LINE
  5
2B2
100
AcDbEntity
  8
0
100
AcDbLine
 62
7
  6
CONTINUOUS
 10
74.547624638
 20
108.3705813281
 11
73.1334051877
 21
109.1870628371
  0
LINE
  5
2B3
100
AcDbEntity
  8
0
100
AcDbLine
 62
7
  6
CONTINUOUS
 10
39.5457579906
 20
129.3950013474
 11
39.1567934927
 21
129.6195650247
  0
LINE
  5
2B4
100
AcDbEntity
  8
0
100
AcDbLine
 62
7
  6
CONTINUOUS
 10
106.1553775383
 20
92.2449718087
 11
79.7801676834
 21
107.4723618288
  0
LINE
  5
2B5
100
AcDbEntity
  8
0
100
AcDbLine
 62
7
  6
CONTINUOUS
 10
80.1637645814
 20
156.7478944766
 11
80.1637645814
 21
155.4414906092
  0
LINE
  5
2B6
100
AcDbEntity
  8
0
100
AcDbLine
 62
7
  6
CONTINUOUS
 10
82.1135562091
 20
149.317865694
 11
82.1135562091
 21
147.2766096511
  0
LINE
  5
2B7
100
AcDbEntity
  8
0
100
AcDbLine
 62
7
  6
CONTINUOUS
 10
83.244984172
 20
126.2002022854
 11
83.244984172
 21
124.3795313199
  0
LINE
  5
2B8
100
AcDbEntity
  8
0
100
AcDbLine
 62
7
  6
CONTINUOUS
 10
84.3056281519
 20
127.7215742624
 11
84.3056281519
 21
123.7671820858
  0
LINE
  5
2B9
100
AcDbEntity
  8
0
100
AcDbLine
 62
7
  6
CONTINUOUS
 10
108.0643347461
 20
124.8635607442
 11
107.0996002738
 21
124.3065743616
  0
LINE
  5
2BA
100
AcDbEntity
  8
0
100
AcDbLine
 62
7
  6
CONTINUOUS
 10
75.6537707407
 20
106.1514245874
 11
71.8606182807
 21
103.9614600659
  0
LINE
  5
2BB
100
AcDbEntity
  8
0
100
AcDbLine
 62
7
  6
CONTINUOUS
 10
77.9417230566
 20
106.4109416645
 11
104.8116688708
 21
121.9242195116
  0
LINE
  5
2BC
100
AcDbEntity
  8
0
100
AcDbLine
 62
7
  6
CONTINUOUS
 10
76.9555286566
 20
117.3338650909
 11
79.7094649859
 21
117.0878631612
  0
LINE
  5
2BD
100
AcDbEntity
  8
0
100
AcDbLine
 62
7
  6
CONTINUOUS
 10
54.7132368856
 20
127.9868777231
 11
35.6212743066
 21
139.0093780951
  0
LINE
  5
2BE
100
AcDbEntity
  8
0
100
AcDbLine
 62
7
  6
CONTINUOUS
 10
81.8307941613
 20
114.8617028809
 11
78.2952455356
 21
116.9029066535
  0
LINE
  5
2BF
100
AcDbEntity
  8
0
100
AcDbLine
 62
7
  6
CONTINUOUS
 10
80.8914926831
 20
116.5007374623
 11
77.7094989199
 21
118.3378208576
  0
LINE
  5
2C0
100
AcDbEntity
  8
0
100
AcDbLine
 62
7
  6
CONTINUOUS
 10
82.5557078916
 20
116.1172711041
 11
81.1414884413
 21
116.9337526131
  0
LINE
  5
2C1
100
AcDbEntity
  8
0
100
AcDbLine
 62
7
  6
CONTINUOUS
 10
129.8223221113
 20
89.4733384614
 11
130.9536976715
 21
88.8201532542
  0
LINE
  5
2C2
100
AcDbEntity
  8
0
100
AcDbLine
 62
7
  6
CONTINUOUS
 10
73.4162479002
 20
96.2863253264
 11
72.709144063
 21
95.8780811725
  0
LINE
  5
2C3
100
AcDbEntity
  8
0
100
AcDbLine
 62
7
  6
CONTINUOUS
 10
91.7912765037
 20
120.4071661725
 11
90.4708033193
 21
120.82909788
  0
LINE
  5
2C4
100
AcDbEntity
  8
0
100
AcDbLine
 62
7
  6
CONTINUOUS
 10
67.6179775937
 20
127.0684682727
 11
63.410674729
 21
129.4975007621
  0
LINE
  5
2C5
100
AcDbEntity
  8
0
100
AcDbLine
 62
7
  6
CONTINUOUS
 10
28.3380441376
 20
149.7462353876
 11
20.3209348876
 21
154.3748108589
  0
LINE
  5
2C6
100
AcDbEntity
  8
0
100
AcDbLine
 62
7
  6
CONTINUOUS
 10
61.9964670546
 20
130.7222684971
 11
28.3380441376
 21
150.1545284123
  0
LINE
  5
2C7
100
AcDbEntity
  8
0
100
AcDbLine
 62
7
  6
CONTINUOUS
 10
29.752251812
 20
150.97101672
 11
63.410674729
 21
131.5387568049
  0
LINE
  5
2C8
100
AcDbEntity
  8
0
100
AcDbLine
 62
7
  6
CONTINUOUS
 10
23.423619772
 20
155.0330226816
 11
27.6662781229
 21
152.5835781544
  0
LINE
  5
2C9
100
AcDbEntity
  8
0
100
AcDbLine
 62
7
  6
CONTINUOUS
 10
65.1430935556
 20
130.9468181649
 11
67.6179775937
 21
129.5179755241
  0
LINE
  5
2CA
100
AcDbEntity
  8
0
100
AcDbLine
 62
7
  6
CONTINUOUS
 10
21.4792848573
 20
158.6050668242
 11
23.423619772
 21
157.482529933
  0
LINE
  5
2CB
100
AcDbEntity
  8
0
100
AcDbLine
 62
7
  6
CONTINUOUS
 10
27.6662781229
 20
155.0330854058
 11
65.1430935556
 21
133.3963254163
  0
LINE
  5
2CC
100
AcDbEntity
  8
0
100
AcDbLine
 62
7
  6
CONTINUOUS
 10
86.055648507
 20
122.1794832159
 11
84.6414290567
 21
122.995964725
  0
LINE
  5
2CD
100
AcDbEntity
  8
0
100
AcDbLine
 62
7
  6
CONTINUOUS
 10
82.1135562091
 20
149.317865694
 11
81.1483356389
 21
155.644131478
  0
LINE
  5
2CE
100
AcDbEntity
  8
0
100
AcDbLine
 62
7
  6
CONTINUOUS
 10
93.3162916532
 20
158.5033749651
 11
93.3162916532
 21
155.6456165052
  0
LINE
  5
2CF
100
AcDbEntity
  8
0
100
AcDbLine
 62
7
  6
CONTINUOUS
 10
93.5689045066
 20
77.303029612
 11
93.5689045066
 21
52.8079570982
  0
LINE
  5
2D0
100
AcDbEntity
  8
0
100
AcDbLine
 62
7
  6
CONTINUOUS
 10
93.8515299543
 20
133.2328703397
 11
93.8515299543
 21
130.9651880345
  0
LINE
  5
2D1
100
AcDbEntity
  8
0
100
AcDbLine
 62
7
  6
CONTINUOUS
 10
96.5387653522
 20
44.0714251419
 11
96.5387653522
 21
51.0933459292
  0
LINE
  5
2D2
100
AcDbEntity
  8
0
100
AcDbLine
 62
7
  6
CONTINUOUS
 10
96.5387653522
 20
75.5884184431
 11
96.5387653522
 21
82.6103392304
  0
LINE
  5
2D3
100
AcDbEntity
  8
0
100
AcDbLine
 62
7
  6
CONTINUOUS
 10
83.244984172
 20
126.2002022854
 11
81.8814807775
 21
126.3220004776
  0
LINE
  5
2D4
100
AcDbEntity
  8
0
100
AcDbLine
 62
7
  6
CONTINUOUS
 10
74.547624638
 20
129.0280924815
 11
73.1334051877
 21
129.8445739905
  0
LINE
  5
2D5
100
AcDbEntity
  8
0
100
AcDbLine
 62
7
  6
CONTINUOUS
 10
84.9538022167
 20
123.3572444248
 11
86.2115913564
 21
122.6310759545
  0
LINE
  5
2D6
100
AcDbEntity
  8
0
100
AcDbLine
 62
7
  6
CONTINUOUS
 10
84.891424815
 20
123.4289798758
 11
81.7094310518
 21
125.2660632711
  0
LINE
  5
2D7
100
AcDbEntity
  8
0
100
AcDbLine
 62
7
  6
CONTINUOUS
 10
72.7392861613
 20
131.8683833428
 11
74.335481711
 21
130.9468402607
  0
LINE
  5
2D8
100
AcDbEntity
  8
0
100
AcDbLine
 62
7
  6
CONTINUOUS
 10
82.4577449614
 20
126.6547047733
 11
83.244984172
 21
126.2002022854
  0
LINE
  5
2D9
100
AcDbEntity
  8
0
100
AcDbLine
 62
7
  6
CONTINUOUS
 10
91.9980505897
 20
122.2657027095
 11
91.4822068815
 21
122.5635184757
  0
LINE
  5
2DA
100
AcDbEntity
  8
0
100
AcDbLine
 62
7
  6
CONTINUOUS
 10
71.860597673
 20
134.8251901529
 11
74.335481711
 21
133.396347512
  0
LINE
  5
2DB
100
AcDbEntity
  8
0
100
AcDbLine
 62
7
  6
CONTINUOUS
 10
84.9326083917
 20
128.0835593118
 11
86.2115913564
 21
127.3451548578
  0
LINE
  5
2DC
100
AcDbEntity
  8
0
100
AcDbLine
 62
7
  6
CONTINUOUS
 10
36.6755898407
 20
156.0369340009
 11
42.8400295085
 21
152.4779736137
  0
LINE
  5
2DD
100
AcDbEntity
  8
0
100
AcDbLine
 62
7
  6
CONTINUOUS
 10
100.9932827998
 20
119.7196864449
 11
127.3684926547
 21
104.4922964248
  0
LINE
  5
2DE
100
AcDbEntity
  8
0
100
AcDbLine
 62
7
  6
CONTINUOUS
 10
100.0743139779
 20
42.0302213693
 11
100.0743139779
 21
80.5691354578
  0
LINE
  5
2DF
100
AcDbEntity
  8
0
100
AcDbLine
 62
7
  6
CONTINUOUS
 10
100.3571013438
 20
89.0605966937
 11
100.3571013438
 21
88.8973554695
  0
LINE
  5
2E0
100
AcDbEntity
  8
0
100
AcDbLine
 62
7
  6
CONTINUOUS
 10
101.3162916532
 20
158.5033749651
 11
101.3162916532
 21
155.6456165052
  0
LINE
  5
2E1
100
AcDbEntity
  8
0
100
AcDbLine
 62
7
  6
CONTINUOUS
 10
103.114569614
 20
154.1759330952
 11
103.114569614
 21
155.3190364792
  0
LINE
  5
2E2
100
AcDbEntity
  8
0
100
AcDbLine
 62
7
  6
CONTINUOUS
 10
37.7425858183
 20
129.8045147336
 11
39.8461484464
 21
129.9924290296
  0
LINE
  5
2E3
100
AcDbEntity
  8
0
100
AcDbLine
 62
7
  6
CONTINUOUS
 10
101.3371783061
 20
125.9184622498
 11
100.0167051216
 21
126.3403939573
  0
LINE
  5
2E4
100
AcDbEntity
  8
0
100
AcDbLine
 62
7
  6
CONTINUOUS
 10
102.1648295838
 20
120.3960752585
 11
128.5400394387
 21
105.1686852384
  0
LINE
  5
2E5
100
AcDbEntity
  8
0
100
AcDbLine
 62
7
  6
CONTINUOUS
 10
42.8400295085
 20
154.9274808651
 11
36.6755898407
 21
158.4864412523
  0
LINE
  5
2E6
100
AcDbEntity
  8
0
100
AcDbLine
 62
7
  6
CONTINUOUS
 10
94.9979996886
 20
127.4618845196
 11
94.5247675433
 21
127.7350990451
  0
LINE
  5
2E7
100
AcDbEntity
  8
0
100
AcDbLine
 62
7
  6
CONTINUOUS
 10
58.071919761
 20
150.1342928134
 11
60.6998059734
 21
148.6171163244
  0
LINE
  5
2E8
100
AcDbEntity
  8
0
100
AcDbLine
 62
7
  6
CONTINUOUS
 10
63.1225289591
 20
147.2183881999
 11
67.9714559131
 21
144.4189222501
  0
LINE
  5
2E9
100
AcDbEntity
  8
0
100
AcDbLine
 62
7
  6
CONTINUOUS
 10
100.2762276845
 20
126.2574685337
 11
100.9225977661
 21
125.8842950355
  0
LINE
  5
2EA
100
AcDbEntity
  8
0
100
AcDbLine
 62
7
  6
CONTINUOUS
 10
133.4495856547
 20
108.0031961481
 11
136.9851342805
 21
105.9619923755
  0
LINE
  5
2EB
100
AcDbEntity
  8
0
100
AcDbLine
 62
7
  6
CONTINUOUS
 10
92.0036467638
 20
132.1660008505
 11
93.2826297286
 21
131.4275963965
  0
LINE
  5
2EC
100
AcDbEntity
  8
0
100
AcDbLine
 62
7
  6
CONTINUOUS
 10
101.5439523921
 20
127.7769987867
 11
101.0281086839
 21
128.074814553
  0
LINE
  5
2ED
100
AcDbEntity
  8
0
100
AcDbLine
 62
7
  6
CONTINUOUS
 10
96.5041307859
 20
128.5702539074
 11
94.2644359877
 21
130.6066908071
  0
LINE
  5
2EE
100
AcDbEntity
  8
0
100
AcDbLine
 62
7
  6
CONTINUOUS
 10
105.5894330443
 20
156.7478910177
 11
105.5894330443
 21
154.6687807971
  0
LINE
  5
2EF
100
AcDbEntity
  8
0
100
AcDbLine
 62
7
  6
CONTINUOUS
 10
105.5894713158
 20
151.4407391132
 11
105.5894713158
 21
148.9912318618
  0
LINE
  5
2F0
100
AcDbEntity
  8
0
100
AcDbLine
 62
7
  6
CONTINUOUS
 10
108.0643347461
 20
150.4200864003
 11
108.0643347461
 21
148.5421684754
  0
LINE
  5
2F1
100
AcDbEntity
  8
0
100
AcDbLine
 62
7
  6
CONTINUOUS
 10
108.0643347461
 20
126.9012234258
 11
108.0643347461
 21
124.8635607442
  0
LINE
  5
2F2
100
AcDbEntity
  8
0
100
AcDbLine
 62
7
  6
CONTINUOUS
 10
108.2057672894
 20
127.8030030524
 11
108.2057672894
 21
148.4605142058
  0
LINE
  5
2F3
100
AcDbEntity
  8
0
100
AcDbLine
 62
7
  6
CONTINUOUS
 10
108.2358987895
 20
152.9512108316
 11
108.2358987895
 21
151.6448069642
  0
LINE
  5
2F4
100
AcDbEntity
  8
0
100
AcDbLine
 62
7
  6
CONTINUOUS
 10
108.9430055707
 20
126.0882830077
 11
108.9430055707
 21
151.6448086639
  0
LINE
  5
2F5
100
AcDbEntity
  8
0
100
AcDbLine
 62
7
  6
CONTINUOUS
 10
124.3986318091
 20
106.2069075938
 11
103.1855166927
 21
93.9595829777
  0
LINE
  5
2F6
100
AcDbEntity
  8
0
100
AcDbLine
 62
7
  6
CONTINUOUS
 10
100.0742845382
 20
88.7340720854
 11
106.1553775383
 21
92.2449718087
  0
LINE
  5
2F7
100
AcDbEntity
  8
0
100
AcDbLine
 62
7
  6
CONTINUOUS
 10
127.3684926547
 20
104.4922964248
 11
133.4495856547
 21
108.0031961481
  0
LINE
  5
2F8
100
AcDbEntity
  8
0
100
AcDbLine
 62
7
  6
CONTINUOUS
 10
35.5481434773
 20
139.0366398277
 11
34.2070371925
 21
138.9168368611
  0
LINE
  5
2F9
100
AcDbEntity
  8
0
100
AcDbLine
 62
7
  6
CONTINUOUS
 10
70.7998948137
 20
140.7447031892
 11
59.8423163687
 21
141.301912901
  0
LINE
  5
2FA
100
AcDbEntity
  8
0
100
AcDbLine
 62
7
  6
CONTINUOUS
 10
59.8423163687
 20
143.3431689439
 11
70.7998948137
 21
142.785959232
  0
LINE
  5
2FB
100
AcDbEntity
  8
0
100
AcDbLine
 62
7
  6
CONTINUOUS
 10
139.4850918629
 20
106.2096317983
 11
135.9495432372
 21
108.2508355709
  0
LINE
  5
2FC
100
AcDbEntity
  8
0
100
AcDbLine
 62
7
  6
CONTINUOUS
 10
94.478510194
 20
133.5948553891
 11
95.7574931588
 21
132.856450935
  0
LINE
  5
2FD
100
AcDbEntity
  8
0
100
AcDbLine
 62
7
  6
CONTINUOUS
 10
58.071919761
 20
158.2993169847
 11
67.9714559131
 21
152.5839464214
  0
LINE
  5
2FE
100
AcDbEntity
  8
0
100
AcDbLine
 62
7
  6
CONTINUOUS
 10
75.1031876159
 20
148.6064843225
 11
75.4567424784
 21
148.4023639453
  0
LINE
  5
2FF
100
AcDbEntity
  8
0
100
AcDbLine
 62
7
  6
CONTINUOUS
 10
73.9389639238
 20
149.8559809824
 11
74.7187928253
 21
149.4057567416
  0
LINE
  5
300
100
AcDbEntity
  8
0
100
AcDbLine
 62
7
  6
CONTINUOUS
 10
104.543901491
 20
132.9731805969
 11
104.0706693457
 21
133.2463951224
  0
LINE
  5
301
100
AcDbEntity
  8
0
100
AcDbLine
 62
7
  6
CONTINUOUS
 10
103.609833164
 20
86.6928683128
 11
136.9851342805
 21
105.9619923755
  0
LINE
  5
302
100
AcDbEntity
  8
0
100
AcDbLine
 62
7
  6
CONTINUOUS
 10
96.5387653522
 20
82.2836790042
 11
96.3973198554
 21
82.2020158961
  0
LINE
  5
303
100
AcDbEntity
  8
0
100
AcDbLine
 62
7
  6
CONTINUOUS
 10
62.6681918538
 20
61.9930999229
 11
68.9919457443
 21
65.6440991403
  0
LINE
  5
304
100
AcDbEntity
  8
0
100
AcDbLine
 62
7
  6
CONTINUOUS
 10
70.0927762566
 20
144.4189273491
 11
67.9714559131
 21
144.4189222501
  0
LINE
  5
305
100
AcDbEntity
  8
0
100
AcDbLine
 62
7
  6
CONTINUOUS
 10
53.3768628179
 20
163.5408421035
 11
55.5678985783
 21
162.2758756348
  0
LINE
  5
306
100
AcDbEntity
  8
0
100
AcDbLine
 62
7
  6
CONTINUOUS
 10
75.4389384733
 20
152.4540718875
 11
76.2204346648
 21
152.0028850581
  0
LINE
  5
307
100
AcDbEntity
  8
0
100
AcDbLine
 62
7
  6
CONTINUOUS
 10
101.6837575125
 20
137.5998131094
 11
102.828531531
 21
136.9388924737
  0
LINE
  5
308
100
AcDbEntity
  8
0
100
AcDbLine
 62
7
  6
CONTINUOUS
 10
77.1031536818
 20
152.0706055293
 11
77.4567085444
 21
151.866485152
  0
LINE
  5
309
100
AcDbEntity
  8
0
100
AcDbLine
 62
7
  6
CONTINUOUS
 10
53.6460819338
 20
165.8347936938
 11
59.8105216016
 21
162.2758333066
  0
LINE
  5
30A
100
AcDbEntity
  8
0
100
AcDbLine
 62
7
  6
CONTINUOUS
 10
59.8105216016
 20
164.725340558
 11
53.6460819338
 21
168.2843009452
  0
LINE
  5
30B
100
AcDbEntity
  8
0
100
AcDbLine
 62
7
  6
CONTINUOUS
 10
106.0500325883
 20
134.0815499847
 11
103.8103377901
 21
136.1179868844
  0
LINE
  5
30C
100
AcDbEntity
  8
0
100
AcDbLine
 62
7
  6
CONTINUOUS
 10
67.9714559131
 20
152.5839464214
 11
70.0927762566
 21
152.5839515204
  0
LINE
  5
30D
100
AcDbEntity
  8
0
100
AcDbLine
 62
7
  6
CONTINUOUS
 10
79.2851173085
 20
159.1158528833
 11
69.3855811565
 21
164.8312234466
  0
LINE
  5
30E
100
AcDbEntity
  8
0
100
AcDbLine
 62
7
  6
CONTINUOUS
 10
52.6615201759
 20
153.5639785099
 11
44.2407834425
 21
152.2612829326
  0
LINE
  5
30F
100
AcDbEntity
  8
0
100
AcDbLine
 62
7
  6
CONTINUOUS
 10
44.2407834425
 20
154.710790184
 11
52.6615201759
 21
156.0134857613
  0
LINE
  5
310
100
AcDbEntity
  8
0
100
AcDbLine
 62
7
  6
CONTINUOUS
 10
108.2057672894
 20
148.4605142058
 11
106.7915478391
 21
149.2769957148
  0
LINE
  5
311
100
AcDbEntity
  8
0
100
AcDbLine
 62
7
  6
CONTINUOUS
 10
105.5894713158
 20
151.4407391132
 11
103.1145872778
 21
152.869581754
  0
LINE
  5
312
100
AcDbEntity
  8
0
100
AcDbLine
 62
7
  6
CONTINUOUS
 10
70.2423155162
 20
173.3993449474
 11
72.5383906715
 21
172.0737353277
  0
LINE
  5
313
100
AcDbEntity
  8
0
100
AcDbLine
 62
7
  6
CONTINUOUS
 10
62.9209716736
 20
162.3236341621
 11
61.2112755356
 21
162.0591426255
  0
LINE
  5
314
100
AcDbEntity
  8
0
100
AcDbLine
 62
7
  6
CONTINUOUS
 10
61.2112755356
 20
164.5086498769
 11
69.632012269
 21
165.8113454542
  0
LINE
  5
315
100
AcDbEntity
  8
0
100
AcDbLine
 62
7
  6
CONTINUOUS
 10
69.3855811565
 20
164.8312234466
 11
67.2642608129
 21
164.8312183476
  0
LINE
  5
316
100
AcDbEntity
  8
0
100
AcDbLine
 62
7
  6
CONTINUOUS
 10
66.560332616
 20
166.3397020699
 11
59.6241953625
 21
166.3396853974
  0
LINE
  5
317
100
AcDbEntity
  8
0
100
AcDbLine
 62
7
  6
CONTINUOUS
 10
105.5894330443
 20
156.7478910177
 11
100.8552732428
 21
159.4810976201
  0
LINE
  5
318
100
AcDbEntity
  8
0
100
AcDbLine
 62
7
  6
CONTINUOUS
 10
99.0097517087
 20
160.54658587
 11
69.8422363026
 21
177.3860777811
  0
LINE
  5
319
100
AcDbEntity
  8
0
100
AcDbLine
 62
7
  6
CONTINUOUS
 10
62.8700842514
 20
181.4113605807
 11
61.925624346
 21
181.9566324256
  0
LINE
  5
31A
100
AcDbEntity
  8
0
100
AcDbLine
 62
7
  6
CONTINUOUS
 10
140.5206534665
 20
103.9207010592
 11
140.5206534665
 21
65.3817869707
  0
LINE
  5
31B
100
AcDbEntity
  8
0
100
AcDbLine
 62
7
  6
CONTINUOUS
 10
59.6241953625
 20
168.3809414403
 11
61.934680299
 21
168.380946994
  0
LINE
  5
31C
100
AcDbEntity
  8
0
100
AcDbLine
 62
7
  6
CONTINUOUS
 10
64.2498476795
 20
168.380952559
 11
66.560332616
 21
168.3809581127
  0
LINE
  5
31D
100
AcDbEntity
  8
0
100
AcDbLine
 62
7
  6
CONTINUOUS
 10
61.934680299
 20
173.6882127053
 11
64.2498476795
 21
173.6882182703
  0
LINE
  5
31E
100
AcDbEntity
  8
0
100
AcDbLine
 62
7
  6
CONTINUOUS
 10
136.9851342805
 20
59.2580541157
 11
103.609833164
 21
39.988930053
  0
ARC
  5
31F
100
AcDbEntity
  8
0
100
AcDbCircle
 62
7
  6
CONTINUOUS
 10
46.0236291907
 20
168.4219290433
 40
16.2586906508
100
AcDbArc
 50
258.708006814
 51
263.704575237
  0
ARC
  5
320
100
AcDbEntity
  8
0
100
AcDbCircle
 62
7
  6
CONTINUOUS
 10
62.9941212839
 20
178.2197887363
 40
16.2586906508
100
AcDbArc
 50
258.708006814
 51
263.704575237
  0
ARC
  5
321
100
AcDbEntity
  8
0
100
AcDbCircle
 62
7
  6
CONTINUOUS
 10
45.9923312357
 20
170.6691168717
 40
16.0541617764
100
AcDbArc
 50
258.6761582775
 51
263.7364237736
  0
ARC
  5
322
100
AcDbEntity
  8
0
100
AcDbCircle
 62
7
  6
CONTINUOUS
 10
62.9628233289
 20
180.4669765646
 40
16.0541617764
100
AcDbArc
 50
258.6761582775
 51
263.7364237736
  0
ARC
  5
323
100
AcDbEntity
  8
0
100
AcDbCircle
 62
7
  6
CONTINUOUS
 10
48.1846154123
 20
164.9893952322
 40
10.03043504
100
AcDbArc
 50
296.5085953077
 51
299.9538958529
  0
ARC
  5
324
100
AcDbEntity
  8
0
100
AcDbCircle
 62
7
  6
CONTINUOUS
 10
65.1551075055
 20
174.787254925
 40
10.0304350399
100
AcDbArc
 50
296.5085953077
 51
299.9538958529
  0
ARC
  5
325
100
AcDbEntity
  8
0
100
AcDbCircle
 62
7
  6
CONTINUOUS
 10
48.2667637243
 20
162.3868824397
 40
9.856851324
100
AcDbArc
 50
296.4782492513
 51
299.9842419093
  0
ARC
  5
326
100
AcDbEntity
  8
0
100
AcDbCircle
 62
7
  6
CONTINUOUS
 10
60.9164323881
 20
165.7764479968
 40
9.795853366
100
AcDbArc
 50
117.8384397392
 51
119.9822164381
  0
ARC
  5
327
100
AcDbEntity
  8
0
100
AcDbCircle
 62
7
  6
CONTINUOUS
 10
43.9432992593
 20
155.9833389045
 40
9.7904186806
100
AcDbArc
 50
117.8696895449
 51
119.982722126
  0
ARC
  5
328
100
AcDbEntity
  8
0
100
AcDbCircle
 62
7
  6
CONTINUOUS
 10
43.5495282141
 20
156.6658620799
 40
9.0024507111
100
AcDbArc
 50
119.9827745882
 51
123.6848389693
  0
ARC
  5
329
100
AcDbEntity
  8
0
100
AcDbCircle
 62
7
  6
CONTINUOUS
 10
60.5200203072
 20
166.4637217728
 40
9.0024507112
100
AcDbArc
 50
119.9827745882
 51
123.6848389693
  0
ARC
  5
32A
100
AcDbEntity
  8
0
100
AcDbCircle
 62
7
  6
CONTINUOUS
 10
48.6939602049
 20
164.0964548073
 40
9.0024507112
100
AcDbArc
 50
299.9827745882
 51
303.6848389692
  0
ARC
  5
32B
100
AcDbEntity
  8
0
100
AcDbCircle
 62
7
  6
CONTINUOUS
 10
65.6644522981
 20
173.8943145002
 40
9.0024507112
100
AcDbArc
 50
299.9827745882
 51
303.6848389693
  0
ARC
  5
32C
100
AcDbEntity
  8
0
100
AcDbCircle
 62
7
  6
CONTINUOUS
 10
48.7822973094
 20
161.5046619182
 40
8.8350624571
100
AcDbArc
 50
299.9476925529
 51
303.7199210046
  0
ARC
  5
32D
100
AcDbEntity
  8
0
100
AcDbCircle
 62
7
  6
CONTINUOUS
 10
68.8884685147
 20
102.6550198062
 40
7.8833783612
100
AcDbArc
 50
322.5413270679
 51
330.0081404155
  0
ARC
  5
32E
100
AcDbEntity
  8
0
100
AcDbCircle
 62
7
  6
CONTINUOUS
 10
68.9526152682
 20
102.6258049638
 40
7.8132201871
100
AcDbArc
 50
329.9585489262
 51
337.492520733
  0
ARC
  5
32F
100
AcDbEntity
  8
0
100
AcDbCircle
 62
7
  6
CONTINUOUS
 10
69.5403660972
 20
102.3889839732
 40
7.1795852484
100
AcDbArc
 50
337.4429534055
 51
343.4019975051
  0
ARC
  5
330
100
AcDbEntity
  8
0
100
AcDbCircle
 62
7
  6
CONTINUOUS
 10
42.6743934874
 20
135.7000965358
 40
7.0246973729
100
AcDbArc
 50
236.4866183773
 51
239.9505301938
  0
ARC
  5
331
100
AcDbEntity
  8
0
100
AcDbCircle
 62
7
  6
CONTINUOUS
 10
97.5411225987
 20
131.7389950756
 40
6.7610566384
100
AcDbArc
 50
300.0092656966
 51
301.508732225
  0
ARC
  5
332
100
AcDbEntity
  8
0
100
AcDbCircle
 62
7
  6
CONTINUOUS
 10
82.9974570085
 20
102.431817086
 40
6.3048518263
100
AcDbArc
 50
136.8024066627
 51
141.7622835845
  0
ARC
  5
333
100
AcDbEntity
  8
0
100
AcDbCircle
 62
7
  6
CONTINUOUS
 10
82.9217808945
 20
102.4969493939
 40
6.205101503
100
AcDbArc
 50
136.7625148074
 51
141.8021754397
  0
ARC
  5
334
100
AcDbEntity
  8
0
100
AcDbCircle
 62
7
  6
CONTINUOUS
 10
69.7392891681
 20
131.7173798571
 40
5.1562245781
100
AcDbArc
 50
263.5258730156
 51
276.4737961813
  0
ARC
  5
335
100
AcDbEntity
  8
0
100
AcDbCircle
 62
7
  6
CONTINUOUS
 10
28.0155178899
 20
159.9184465818
 40
5.1068003865
100
AcDbArc
 50
266.0731906645
 51
266.2771437936
  0
ARC
  5
336
100
AcDbEntity
  8
0
100
AcDbCircle
 62
7
  6
CONTINUOUS
 10
105.2401941235
 20
156.3260874346
 40
5.1067892007
100
AcDbArc
 50
273.7231339532
 51
273.9272435419
  0
ARC
  5
337
100
AcDbEntity
  8
0
100
AcDbCircle
 62
7
  6
CONTINUOUS
 10
28.015057127
 20
159.9118184647
 40
5.1001562759
100
AcDbArc
 50
265.6065755673
 51
266.0732555269
  0
ARC
  5
338
100
AcDbEntity
  8
0
100
AcDbCircle
 62
7
  6
CONTINUOUS
 10
105.2406551388
 20
156.3194563736
 40
5.1001421358
100
AcDbArc
 50
273.9271786807
 51
274.3938670823
  0
ARC
  5
339
100
AcDbEntity
  8
0
100
AcDbCircle
 62
7
  6
CONTINUOUS
 10
44.1116148209
 20
170.7700667129
 40
3.6024865403
100
AcDbArc
 50
129.8108218451
 51
131.628549866
  0
ARC
  5
33A
100
AcDbEntity
  8
0
100
AcDbCircle
 62
7
  6
CONTINUOUS
 10
78.3747856002
 20
154.2334393045
 40
3.2685552597
100
AcDbArc
 50
54.148188492
 51
56.1930200839
  0
ARC
  5
33B
100
AcDbEntity
  8
0
100
AcDbCircle
 62
7
  6
CONTINUOUS
 10
77.9080950236
 20
155.5872200654
 40
2.7543134924
100
AcDbArc
 50
58.7062448428
 51
60.0042197213
  0
ARC
  5
33C
100
AcDbEntity
  8
0
100
AcDbCircle
 62
7
  6
CONTINUOUS
 10
102.9926512863
 20
129.0840346735
 40
2.0660341191
100
AcDbArc
 50
189.5582097365
 51
191.6454332383
  0
ARC
  5
33D
100
AcDbEntity
  8
0
100
AcDbCircle
 62
7
  6
CONTINUOUS
 10
93.446749484
 20
123.5727385963
 40
2.0660341192
100
AcDbArc
 50
189.5582097366
 51
191.6454332383
  0
ARC
  5
33E
100
AcDbEntity
  8
0
100
AcDbCircle
 62
7
  6
CONTINUOUS
 10
43.0989448868
 20
125.2665210401
 40
2.0642975998
100
AcDbArc
 50
348.2951726533
 51
350.4397728068
  0
ARC
  5
33F
100
AcDbEntity
  8
0
100
AcDbCircle
 62
7
  6
CONTINUOUS
 10
52.6449261764
 20
119.7552708541
 40
2.0642975998
100
AcDbArc
 50
348.2951726533
 51
350.4397728069
  0
ARC
  5
340
100
AcDbEntity
  8
0
100
AcDbCircle
 62
7
  6
CONTINUOUS
 10
32.180729836
 20
133.5376107999
 40
0.9686216445
100
AcDbArc
 50
119.9994246274
 51
121.1501284933
  0
ARC
  5
341
100
AcDbEntity
  8
0
100
AcDbCircle
 62
7
  6
CONTINUOUS
 10
85.2713765781
 20
120.8210110365
 40
0.9685859774
100
AcDbArc
 50
58.8593659045
 51
60.0018216584
  0
ARC
  5
342
100
AcDbEntity
  8
0
100
AcDbCircle
 62
7
  6
CONTINUOUS
 10
75.8998438395
 20
149.0801044842
 40
0.8162385302
100
AcDbArc
 50
213.2929199834
 51
214.5333680428
  0
SPLINE
  5
343
100
AcDbEntity
  8
0
100
AcDbSpline
 62
7
  6
CONTINUOUS
 70
0
 71
3
 72
23
 73
19
 74
0
 42
0.0000001
 43
0.0000001
 44
0.0000000001
 40
0.0
 40
0.0
 40
0.0
 40
0.0
 40
0.0623904743
 40
0.1287434938
 40
0.198345361
 40
0.2703334815
 40
0.3437220542
 40
0.4174666441
 40
0.4905036501
 40
0.5618024107
 40
0.6304111633
 40
0.6955093269
 40
0.7564665963
 40
0.8129127681
 40
0.8648215166
 40
0.9126039828
 40
0.9571856623
 40
1.0
 40
1.0
 40
1.0
 40
1.0
 10
135.1467879503
 20
61.8100101949
 30
0.0
 10
135.2608554103
 20
61.8758666806
 30
0.0
 10
135.4874670329
 20
62.0273108662
 30
0.0
 10
135.808383271
 20
62.2973719304
 30
0.0
 10
136.115140237
 20
62.6123423168
 30
0.0
 10
136.4011917239
 20
62.9654514045
 30
0.0
 10
136.6604724922
 20
63.3492295342
 30
0.0
 10
136.8874583528
 20
63.7554764564
 30
0.0
 10
137.0773017392
 20
64.1755325814
 30
0.0
 10
137.2259563142
 20
64.6004427337
 30
0.0
 10
137.3302542118
 20
65.0211849339
 30
0.0
 10
137.3879606593
 20
65.4288810236
 30
0.0
 10
137.3977850055
 20
65.8150114556
 30
0.0
 10
137.3593148376
 20
66.1716103218
 30
0.0
 10
137.2729154708
 20
66.491348343
 30
0.0
 10
137.1394832663
 20
66.7674869237
 30
0.0
 10
136.9609162144
 20
66.9932796311
 30
0.0
 10
136.8125381544
 20
67.1068594042
 30
0.0
 10
136.734258194
 20
67.1520466466
 30
0.0
  0
SPLINE
  5
344
100
AcDbEntity
  8
0
100
AcDbSpline
 62
7
  6
CONTINUOUS
 70
0
 71
3
 72
14
 73
10
 74
0
 42
0.0000001
 43
0.0000001
 44
0.0000000001
 40
0.0
 40
0.0
 40
0.0
 40
0.0
 40
0.2892794213
 40
0.4225409682
 40
0.5484923433
 40
0.6678931697
 40
0.7818666649
 40
0.8919505388
 40
1.0
 40
1.0
 40
1.0
 40
1.0
 10
121.4288592825
 20
74.9146711814
 30
0.0
 10
121.5682251679
 20
74.9951336326
 30
0.0
 10
121.7821866623
 20
75.0969689284
 30
0.0
 10
122.0756139099
 20
75.1825300137
 30
0.0
 10
122.283888252
 20
75.2174537144
 30
0.0
 10
122.4842910705
 20
75.2244434829
 30
0.0
 10
122.674925859
 20
75.2031687908
 30
0.0
 10
122.853755796
 20
75.1537303365
 30
0.0
 10
122.9642724649
 20
75.1019672482
 30
0.0
 10
123.0163295256
 20
75.0719172801
 30
0.0
  0
SPLINE
  5
345
100
AcDbEntity
  8
0
100
AcDbSpline
 62
7
  6
CONTINUOUS
 70
0
 71
3
 72
14
 73
10
 74
0
 42
0.0000001
 43
0.0000001
 44
0.0000000001
 40
0.0
 40
0.0
 40
0.0
 40
0.0
 40
0.1080480374
 40
0.2181307879
 40
0.3321035214
 40
0.4515038271
 40
0.5774548693
 40
0.7107172473
 40
1.0
 40
1.0
 40
1.0
 40
1.0
 10
133.5593177066
 20
61.6527640921
 30
0.0
 10
133.6113740529
 20
61.6227144762
 30
0.0
 10
133.7218893467
 20
61.5709518503
 30
0.0
 10
133.9007173894
 20
61.5215135013
 30
0.0
 10
134.0913507543
 20
61.50023852
 30
0.0
 10
134.2917527065
 20
61.5072269654
 30
0.0
 10
134.5000271362
 20
61.5421501025
 30
0.0
 10
134.7934567769
 20
61.6277105405
 30
0.0
 10
135.0074204664
 20
61.7295468209
 30
0.0
 10
135.1467879503
 20
61.8100101949
 30
0.0
  0
SPLINE
  5
346
100
AcDbEntity
  8
0
100
AcDbSpline
 62
7
  6
CONTINUOUS
 70
0
 71
3
 72
23
 73
19
 74
0
 42
0.0000001
 43
0.0000001
 44
0.0000000001
 40
0.0
 40
0.0
 40
0.0
 40
0.0
 40
0.0428149607
 40
0.0873973733
 40
0.1351806026
 40
0.1870900256
 40
0.243536669
 40
0.3044941228
 40
0.3695920899
 40
0.4382001902
 40
0.5094979452
 40
0.5825338083
 40
0.6562773649
 40
0.729665207
 40
0.8016530562
 40
0.8712549432
 40
0.9376088033
 40
1.0
 40
1.0
 40
1.0
 40
1.0
 10
119.8413890393
 20
69.5726347339
 30
0.0
 10
119.7631079028
 20
69.6178225648
 30
0.0
 10
119.6147279692
 20
69.7314048039
 30
0.0
 10
119.4361593115
 20
69.9572019873
 30
0.0
 10
119.3027270217
 20
70.2333456827
 30
0.0
 10
119.2163289549
 20
70.5530882392
 30
0.0
 10
119.1778611363
 20
70.9096901817
 30
0.0
 10
119.1876881651
 20
71.2958214981
 30
0.0
 10
119.2453969214
 20
71.7035158121
 30
0.0
 10
119.3496956766
 20
72.1242537177
 30
0.0
 10
119.4983493229
 20
72.5491578853
 30
0.0
 10
119.6881903607
 20
72.9692076614
 30
0.0
 10
119.9151732281
 20
73.3754491853
 30
0.0
 10
120.1744512138
 20
73.759223988
 30
0.0
 10
120.4605010103
 20
74.1123317264
 30
0.0
 10
120.7672578531
 20
74.4273039695
 30
0.0
 10
121.0881765053
 20
74.6973673513
 30
0.0
 10
121.3147905047
 20
74.8488139349
 30
0.0
 10
121.4288592825
 20
74.9146711814
 30
0.0
  0
SPLINE
  5
347
100
AcDbEntity
  8
0
100
AcDbSpline
 62
7
  6
CONTINUOUS
 70
0
 71
3
 72
23
 73
19
 74
0
 42
0.0000001
 43
0.0000001
 44
0.0000000001
 40
0.0
 40
0.0
 40
0.0
 40
0.0
 40
0.0623904743
 40
0.1287434938
 40
0.198345361
 40
0.2703334815
 40
0.3437220542
 40
0.4174666441
 40
0.4905036501
 40
0.5618024107
 40
0.6304111633
 40
0.6955093269
 40
0.7564665963
 40
0.8129127681
 40
0.8648215166
 40
0.9126039828
 40
0.9571856623
 40
1.0
 40
1.0
 40
1.0
 40
1.0
 10
135.1467879503
 20
66.9948005437
 30
0.0
 10
135.0327204903
 20
66.9289440581
 30
0.0
 10
134.8061088677
 20
66.7774998724
 30
0.0
 10
134.4851926297
 20
66.5074388082
 30
0.0
 10
134.1784356636
 20
66.1924684218
 30
0.0
 10
133.8923841767
 20
65.8393593341
 30
0.0
 10
133.6331034085
 20
65.4555812044
 30
0.0
 10
133.4061175478
 20
65.0493342822
 30
0.0
 10
133.2162741615
 20
64.6292781573
 30
0.0
 10
133.0676195864
 20
64.2043680049
 30
0.0
 10
132.9633216888
 20
63.7836258047
 30
0.0
 10
132.9056152413
 20
63.375929715
 30
0.0
 10
132.8957908952
 20
62.989799283
 30
0.0
 10
132.934261063
 20
62.6332004168
 30
0.0
 10
133.0206604298
 20
62.3134623957
 30
0.0
 10
133.1540926343
 20
62.0373238149
 30
0.0
 10
133.3326596863
 20
61.8115311076
 30
0.0
 10
133.4810377463
 20
61.6979513345
 30
0.0
 10
133.5593177066
 20
61.6527640921
 30
0.0
  0
SPLINE
  5
348
100
AcDbEntity
  8
0
100
AcDbSpline
 62
7
  6
CONTINUOUS
 70
0
 71
3
 72
14
 73
10
 74
0
 42
0.0000001
 43
0.0000001
 44
0.0000000001
 40
0.0
 40
0.0
 40
0.0
 40
0.0
 40
0.1080480374
 40
0.2181307879
 40
0.3321035214
 40
0.4515038271
 40
0.5774548693
 40
0.7107172473
 40
1.0
 40
1.0
 40
1.0
 40
1.0
 10
136.734258194
 20
67.1520466466
 30
0.0
 10
136.6822018477
 20
67.1820962624
 30
0.0
 10
136.5716865539
 20
67.2338588884
 30
0.0
 10
136.3928585112
 20
67.2832972373
 30
0.0
 10
136.2022251464
 20
67.3045722187
 30
0.0
 10
136.0018231941
 20
67.2975837733
 30
0.0
 10
135.7935487644
 20
67.2626606362
 30
0.0
 10
135.5001191237
 20
67.1771001982
 30
0.0
 10
135.2861554342
 20
67.0752639177
 30
0.0
 10
135.1467879503
 20
66.9948005437
 30
0.0
  0
SPLINE
  5
349
100
AcDbEntity
  8
0
100
AcDbSpline
 62
7
  6
CONTINUOUS
 70
0
 71
3
 72
20
 73
16
 74
0
 42
0.0000001
 43
0.0000001
 44
0.0000000001
 40
0.0
 40
0.0
 40
0.0
 40
0.0
 40
0.0612087565
 40
0.1261610212
 40
0.2644599673
 40
0.4087376424
 40
0.5516489394
 40
0.6203905653
 40
0.6862109268
 40
0.7484610507
 40
0.8066779304
 40
0.8606448529
 40
0.9104578973
 40
0.9566011284
 40
1.0
 40
1.0
 40
1.0
 40
1.0
 10
48.8796022609
 20
122.7816498486
 30
0.0
 10
48.8796022609
 20
122.59540155
 30
0.0
 10
48.9034650725
 20
122.2112579087
 30
0.0
 10
49.0377194907
 20
121.4167092372
 30
0.0
 10
49.3634027162
 20
120.404153818
 30
0.0
 10
49.9565014503
 20
119.2477768626
 30
0.0
 10
50.5992458454
 20
118.3693161403
 30
0.0
 10
51.1823355157
 20
117.7573640023
 30
0.0
 10
51.6345261498
 20
117.3632507792
 30
0.0
 10
52.0985167282
 20
117.0357291358
 30
0.0
 10
52.5657358441
 20
116.7810337922
 30
0.0
 10
53.0276344741
 20
116.6041262804
 30
0.0
 10
53.4760561227
 20
116.5088913766
 30
0.0
 10
53.9025799363
 20
116.4981500403
 30
0.0
 10
54.1729031872
 20
116.5498299634
 30
0.0
 10
54.2986904505
 20
116.5900328965
 30
0.0
  0
SPLINE
  5
34A
100
AcDbEntity
  8
0
100
AcDbSpline
 62
7
  6
CONTINUOUS
 70
0
 71
3
 72
12
 73
8
 74
0
 42
0.0000001
 43
0.0000001
 44
0.0000000001
 40
0.0
 40
0.0
 40
0.0
 40
0.0
 40
0.2895700176
 40
0.5486410293
 40
0.7816368525
 40
0.8918393703
 40
1.0
 40
1.0
 40
1.0
 40
1.0
 10
54.7132574934
 20
119.4136636238
 30
0.0
 10
54.7132574934
 20
119.2362698566
 30
0.0
 10
54.6863684763
 20
118.89896553
 30
0.0
 10
54.550005186
 20
118.4357871383
 30
0.0
 10
54.3539878905
 20
118.1162273101
 30
0.0
 10
54.1560728958
 20
117.92155432
 30
0.0
 10
54.0457394349
 20
117.8445592405
 30
0.0
 10
53.9883595334
 20
117.811423371
 30
0.0
  0
SPLINE
  5
34B
100
AcDbEntity
  8
0
100
AcDbSpline
 62
7
  6
CONTINUOUS
 70
0
 71
3
 72
12
 73
8
 74
0
 42
0.0000001
 43
0.0000001
 44
0.0000000001
 40
0.0
 40
0.0
 40
0.0
 40
0.0
 40
0.1081591195
 40
0.218361299
 40
0.4513561916
 40
0.7104295629
 40
1.0
 40
1.0
 40
1.0
 40
1.0
 10
51.0919380283
 20
123.6446981444
 30
0.0
 10
51.0427558972
 20
123.6162965039
 30
0.0
 10
50.9481836521
 20
123.5503033377
 30
0.0
 10
50.7785464404
 20
123.3834386556
 30
0.0
 10
50.6105266948
 20
123.1095335496
 30
0.0
 10
50.4936454886
 20
122.7125214215
 30
0.0
 10
50.4705961985
 20
122.4234025471
 30
0.0
 10
50.4705961985
 20
122.2713506051
 30
0.0
  0
SPLINE
  5
34C
100
AcDbEntity
  8
0
100
AcDbSpline
 62
7
  6
CONTINUOUS
 70
0
 71
3
 72
12
 73
8
 74
0
 42
0.0000001
 43
0.0000001
 44
0.0000000001
 40
0.0
 40
0.0
 40
0.0
 40
0.0
 40
0.24598788
 40
0.4949046066
 40
0.7473667995
 40
0.8745375055
 40
1.0
 40
1.0
 40
1.0
 40
1.0
 10
59.5892241321
 20
118.6804013618
 30
0.0
 10
59.2683550677
 20
118.5326291942
 30
0.0
 10
58.6216853951
 20
118.2377127701
 30
0.0
 10
57.6402848013
 20
117.8031807584
 30
0.0
 10
56.8085564909
 20
117.4520850265
 30
0.0
 10
56.1327959822
 20
117.1883909006
 30
0.0
 10
55.7907991678
 20
117.0667947889
 30
0.0
 10
55.6191731957
 20
117.0119511674
 30
0.0
  0
SPLINE
  5
34D
100
AcDbEntity
  8
0
100
AcDbSpline
 62
7
  6
CONTINUOUS
 70
0
 71
3
 72
9
 73
5
 74
0
 42
0.0000001
 43
0.0000001
 44
0.0000000001
 40
0.0
 40
0.0
 40
0.0
 40
0.0
 40
0.5164118446
 40
1.0
 40
1.0
 40
1.0
 40
1.0
 10
52.8072601119
 20
127.6104321589
 30
0.0
 10
52.6345429454
 20
127.4736529174
 30
0.0
 10
52.3024710299
 20
127.2057844021
 30
0.0
 10
51.9781454165
 20
126.9283472228
 30
0.0
 10
51.8255004442
 20
126.7895491198
 30
0.0
  0
SPLINE
  5
34E
100
AcDbEntity
  8
0
100
AcDbSpline
 62
7
  6
CONTINUOUS
 70
0
 71
3
 72
18
 73
14
 74
0
 42
0.0000001
 43
0.0000001
 44
0.0000000001
 40
0.0
 40
0.0
 40
0.0
 40
0.0
 40
0.0428472479
 40
0.0874654641
 40
0.1352875187
 40
0.1872373105
 40
0.2437297169
 40
0.3047360136
 40
0.438368952
 40
0.5826752274
 40
0.7297918525
 40
0.871341624
 40
1.0
 40
1.0
 40
1.0
 40
1.0
 10
31.6964274376
 20
134.3764666142
 30
0.0
 10
31.7679213811
 20
134.4177426286
 30
0.0
 10
31.9255154826
 20
134.4832570847
 30
0.0
 10
32.1856736379
 20
134.5213853408
 30
0.0
 10
32.4650379791
 20
134.5008009206
 30
0.0
 10
32.7574139845
 20
134.4231448451
 30
0.0
 10
33.0570727823
 20
134.2907154657
 30
0.0
 10
33.4707276528
 20
134.0375146211
 30
0.0
 10
33.9635185247
 20
133.6010905323
 30
0.0
 10
34.4699406379
 20
132.9527429285
 30
0.0
 10
34.8688644135
 20
132.2154474529
 30
0.0
 10
35.1276766166
 20
131.4502021217
 30
0.0
 10
35.1970290793
 20
130.928993899
 30
0.0
 10
35.1970290793
 20
130.6811084486
 30
0.0
  0
SPLINE
  5
34F
100
AcDbEntity
  8
0
100
AcDbSpline
 62
7
  6
CONTINUOUS
 70
0
 71
3
 72
12
 73
8
 74
0
 42
0.0000001
 43
0.0000001
 44
0.0000000001
 40
0.0
 40
0.0
 40
0.0
 40
0.0
 40
0.1081597158
 40
0.2183621399
 40
0.4513573357
 40
0.7104307796
 40
1.0
 40
1.0
 40
1.0
 40
1.0
 10
31.3964256812
 20
134.8960880011
 30
0.0
 10
31.3390462337
 20
134.8629525289
 30
0.0
 10
31.2287116304
 20
134.7859600777
 30
0.0
 10
31.0308007041
 20
134.5912844231
 30
0.0
 10
30.8347785745
 20
134.2717273693
 30
0.0
 10
30.6984170424
 20
133.8085472213
 30
0.0
 10
30.6715268384
 20
133.4712424708
 30
0.0
 10
30.6715268384
 20
133.2938492775
 30
0.0
  0
SPLINE
  5
350
100
AcDbEntity
  8
0
100
AcDbSpline
 62
7
  6
CONTINUOUS
 70
0
 71
3
 72
12
 73
8
 74
0
 42
0.0000001
 43
0.0000001
 44
0.0000000001
 40
0.0
 40
0.0
 40
0.0
 40
0.0
 40
0.2895802184
 40
0.5486333627
 40
0.7816359182
 40
0.8918377609
 40
1.0
 40
1.0
 40
1.0
 40
1.0
 10
58.6023403739
 20
108.1051013632
 30
0.0
 10
58.8130326643
 20
107.9834608645
 30
0.0
 10
59.2320676207
 20
107.7840991552
 30
0.0
 10
59.8756710936
 20
107.6285005932
 30
0.0
 10
60.3896087153
 20
107.6421230072
 30
0.0
 10
60.7565103654
 20
107.7437539638
 30
0.0
 10
60.9236293548
 20
107.8219569423
 30
0.0
 10
61.0023255321
 20
107.8673919207
 30
0.0
  0
SPLINE
  5
351
100
AcDbEntity
  8
0
100
AcDbSpline
 62
7
  6
CONTINUOUS
 70
0
 71
3
 72
15
 73
11
 74
0
 42
0.0000001
 43
0.0000001
 44
0.0000000001
 40
0.0
 40
0.0
 40
0.0
 40
0.0
 40
0.1141555516
 40
0.2373276756
 40
0.3669773296
 40
0.5000011
 40
0.6330247168
 40
0.7626739247
 40
0.885845342
 40
1.0
 40
1.0
 40
1.0
 40
1.0
 10
28.3380441376
 20
129.4970172589
 30
0.0
 10
28.3380441376
 20
129.2287160993
 30
0.0
 10
28.3871873122
 20
128.6704010235
 30
0.0
 10
28.583095591
 20
127.8281221072
 30
0.0
 10
28.8969293509
 20
126.9749611129
 30
0.0
 10
29.3169599986
 20
126.1429996255
 30
0.0
 10
29.8274476045
 20
125.3632649767
 30
0.0
 10
30.4093915601
 20
124.6649018888
 30
0.0
 10
31.0408726288
 20
124.0741081638
 30
0.0
 10
31.4998157031
 20
123.7523972885
 30
0.0
 10
31.7321708183
 20
123.618250035
 30
0.0
  0
SPLINE
  5
352
100
AcDbEntity
  8
0
100
AcDbSpline
 62
7
  6
CONTINUOUS
 70
0
 71
3
 72
23
 73
19
 74
0
 42
0.0000001
 43
0.0000001
 44
0.0000000001
 40
0.0
 40
0.0
 40
0.0
 40
0.0
 40
0.0623887508
 40
0.1287448192
 40
0.1983452307
 40
0.2703336926
 40
0.3437214983
 40
0.417465931
 40
0.4905029719
 40
0.5618014601
 40
0.6304098088
 40
0.6955077439
 40
0.7564651473
 40
0.8129117479
 40
0.8648209192
 40
0.9126035888
 40
0.9571854212
 40
1.0
 40
1.0
 40
1.0
 40
1.0
 10
54.7132368856
 20
127.9868777231
 30
0.0
 10
54.9647182876
 20
127.8416881526
 30
0.0
 10
55.4643370382
 20
127.5077889017
 30
0.0
 10
56.1718816474
 20
126.9123946352
 30
0.0
 10
56.8481973073
 20
126.2179599933
 30
0.0
 10
57.4788692496
 20
125.4394695782
 30
0.0
 10
58.0505172371
 20
124.5933511981
 30
0.0
 10
58.5509655119
 20
123.6976974247
 30
0.0
 10
58.9695192018
 20
122.7715917605
 30
0.0
 10
59.2972563584
 20
121.8347833118
 30
0.0
 10
59.5272016535
 20
120.907166571
 30
0.0
 10
59.6544322188
 20
120.0083122264
 30
0.0
 10
59.6761018728
 20
119.1569999014
 30
0.0
 10
59.5912973459
 20
118.3707921295
 30
0.0
 10
59.4008176181
 20
117.6658497329
 30
0.0
 10
59.1066298428
 20
117.0570405062
 30
0.0
 10
58.7129362783
 20
116.5592236335
 30
0.0
 10
58.3857888661
 20
116.3088329396
 30
0.0
 10
58.2132094607
 20
116.2091943253
 30
0.0
  0
SPLINE
  5
353
100
AcDbEntity
  8
0
100
AcDbSpline
 62
7
  6
CONTINUOUS
 70
0
 71
3
 72
10
 73
6
 74
0
 42
0.0000001
 43
0.0000001
 44
0.0000000001
 40
0.0
 40
0.0
 40
0.0
 40
0.0
 40
0.2352955031
 40
0.4771460935
 40
1.0
 40
1.0
 40
1.0
 40
1.0
 10
32.560629943
 20
136.1455975048
 30
0.0
 10
32.4804465219
 20
136.0993042854
 30
0.0
 10
32.3272816714
 20
135.98790028
 30
0.0
 10
32.061025064
 20
135.6953538048
 30
0.0
 10
31.926871695
 20
135.4174921563
 30
0.0
 10
31.8633541807
 20
135.2218022694
 30
0.0
  0
SPLINE
  5
354
100
AcDbEntity
  8
0
100
AcDbSpline
 62
7
  6
CONTINUOUS
 70
0
 71
3
 72
12
 73
8
 74
0
 42
0.0000001
 43
0.0000001
 44
0.0000000001
 40
0.0
 40
0.0
 40
0.0
 40
0.0
 40
0.289581202
 40
0.5486347013
 40
0.7816368512
 40
0.8918382666
 40
1.0
 40
1.0
 40
1.0
 40
1.0
 10
63.410674729
 20
110.8812456515
 30
0.0
 10
63.410674729
 20
110.6379531892
 30
0.0
 10
63.3738128722
 20
110.1753635272
 30
0.0
 10
63.1867634257
 20
109.5401679119
 30
0.0
 10
62.91799239
 20
109.1018830975
 30
0.0
 10
62.6465201557
 20
108.8349459381
 30
0.0
 10
62.4952311178
 20
108.7293162175
 30
0.0
 10
62.4165332065
 20
108.6838802284
 30
0.0
  0
SPLINE
  5
355
100
AcDbEntity
  8
0
100
AcDbSpline
 62
7
  6
CONTINUOUS
 70
0
 71
3
 72
12
 73
8
 74
0
 42
0.0000001
 43
0.0000001
 44
0.0000000001
 40
0.0
 40
0.0
 40
0.0
 40
0.0
 40
0.1081591195
 40
0.218361299
 40
0.4513561916
 40
0.7104295629
 40
1.0
 40
1.0
 40
1.0
 40
1.0
 10
41.5459567388
 20
129.1559483304
 30
0.0
 10
41.4967746078
 20
129.1275466899
 30
0.0
 10
41.4022023626
 20
129.0615535237
 30
0.0
 10
41.2325651509
 20
128.8946888416
 30
0.0
 10
41.0645454053
 20
128.6207837356
 30
0.0
 10
40.9476641992
 20
128.2237716075
 30
0.0
 10
40.924614909
 20
127.9346527331
 30
0.0
 10
40.924614909
 20
127.7826007912
 30
0.0
  0
SPLINE
  5
356
100
AcDbEntity
  8
0
100
AcDbSpline
 62
7
  6
CONTINUOUS
 70
0
 71
3
 72
20
 73
16
 74
0
 42
0.0000001
 43
0.0000001
 44
0.0000000001
 40
0.0
 40
0.0
 40
0.0
 40
0.0
 40
0.0428321632
 40
0.0874330162
 40
0.1352367563
 40
0.1871687871
 40
0.2436383455
 40
0.3046205569
 40
0.3697461276
 40
0.4383822924
 40
0.5826349282
 40
0.7296945445
 40
0.8711921478
 40
0.9375940035
 40
1.0
 40
1.0
 40
1.0
 40
1.0
 10
40.9424060878
 20
129.3848393443
 30
0.0
 10
41.0286887618
 20
129.4346660492
 30
0.0
 10
41.2189115474
 20
129.5136890786
 30
0.0
 10
41.5328839027
 20
129.5597396675
 30
0.0
 10
41.8700572698
 20
129.5349148955
 30
0.0
 10
42.2229177434
 20
129.4411447368
 30
0.0
 10
42.5845560299
 20
129.2813282258
 30
0.0
 10
42.9477617835
 20
129.0591345203
 30
0.0
 10
43.3051764214
 20
128.7793144945
 30
0.0
 10
43.7715969552
 20
128.3300255425
 30
0.0
 10
44.2899147596
 20
127.6662328448
 30
0.0
 10
44.7710890538
 20
126.777089041
 30
0.0
 10
45.0373163546
 20
125.9899280651
 30
0.0
 10
45.1475779309
 20
125.3699312128
 30
0.0
 10
45.1672762039
 20
125.0700828756
 30
0.0
 10
45.1672762039
 20
124.9249138098
 30
0.0
  0
SPLINE
  5
357
100
AcDbEntity
  8
0
100
AcDbSpline
 62
7
  6
CONTINUOUS
 70
0
 71
3
 72
11
 73
7
 74
0
 42
0.0000001
 43
0.0000001
 44
0.0000000001
 40
0.0
 40
0.0
 40
0.0
 40
0.0
 40
0.2190098651
 40
0.4554836677
 40
0.7151567722
 40
1.0
 40
1.0
 40
1.0
 40
1.0
 10
40.039816462
 20
130.2643003931
 30
0.0
 10
39.9236288553
 20
130.158670019
 30
0.0
 10
39.713030182
 20
129.9031482925
 30
0.0
 10
39.4921592945
 20
129.4358724407
 30
0.0
 10
39.36014179
 20
128.8884182071
 30
0.0
 10
39.3336209714
 20
128.4971280404
 30
0.0
 10
39.3336209714
 20
128.2929000346
 30
0.0
  0
SPLINE
  5
358
100
AcDbEntity
  8
0
100
AcDbSpline
 62
7
  6
CONTINUOUS
 70
0
 71
3
 72
14
 73
10
 74
0
 42
0.0000001
 43
0.0000001
 44
0.0000000001
 40
0.0
 40
0.0
 40
0.0
 40
0.0
 40
0.1080468545
 40
0.2181297577
 40
0.332104429
 40
0.4515035364
 40
0.57745166
 40
0.7107185255
 40
1.0
 40
1.0
 40
1.0
 40
1.0
 10
32.1213017315
 20
139.3560276531
 30
0.0
 10
32.2360668032
 20
139.4222871972
 30
0.0
 10
32.4797204012
 20
139.5364204218
 30
0.0
 10
32.8739940419
 20
139.6454182699
 30
0.0
 10
33.2942940998
 20
139.6923113215
 30
0.0
 10
33.7361281575
 20
139.6769318668
 30
0.0
 10
34.1953211755
 20
139.5999279635
 30
0.0
 10
34.8422632964
 20
139.4113016679
 30
0.0
 10
35.3140040541
 20
139.1867766448
 30
0.0
 10
35.6212743066
 20
139.0093780951
 30
0.0
  0
SPLINE
  5
359
100
AcDbEntity
  8
0
100
AcDbSpline
 62
7
  6
CONTINUOUS
 70
0
 71
3
 72
11
 73
7
 74
0
 42
0.0000001
 43
0.0000001
 44
0.0000000001
 40
0.0
 40
0.0
 40
0.0
 40
0.0
 40
0.2190098651
 40
0.4554836677
 40
0.7151567722
 40
1.0
 40
1.0
 40
1.0
 40
1.0
 10
49.5857977515
 20
124.7530502071
 30
0.0
 10
49.4696101448
 20
124.6474198329
 30
0.0
 10
49.2590114715
 20
124.3918981065
 30
0.0
 10
49.038140584
 20
123.9246222547
 30
0.0
 10
48.9061230795
 20
123.377168021
 30
0.0
 10
48.8796022609
 20
122.9858778543
 30
0.0
 10
48.8796022609
 20
122.7816498486
 30
0.0
  0
SPLINE
  5
35A
100
AcDbEntity
  8
0
100
AcDbSpline
 62
7
  6
CONTINUOUS
 70
0
 71
3
 72
20
 73
16
 74
0
 42
0.0000001
 43
0.0000001
 44
0.0000000001
 40
0.0
 40
0.0
 40
0.0
 40
0.0
 40
0.0428321632
 40
0.0874330162
 40
0.1352367563
 40
0.1871687871
 40
0.2436383455
 40
0.3046205569
 40
0.3697461276
 40
0.4383822924
 40
0.5826349282
 40
0.7296945445
 40
0.8711921478
 40
0.9375940035
 40
1.0
 40
1.0
 40
1.0
 40
1.0
 10
50.4883873773
 20
123.8735891582
 30
0.0
 10
50.5746700513
 20
123.9234158632
 30
0.0
 10
50.7648928369
 20
124.0024388925
 30
0.0
 10
51.0788651922
 20
124.0484894815
 30
0.0
 10
51.4160385593
 20
124.0236647095
 30
0.0
 10
51.7688990329
 20
123.9298945507
 30
0.0
 10
52.1305373193
 20
123.7700780398
 30
0.0
 10
52.493743073
 20
123.5478843343
 30
0.0
 10
52.8511577109
 20
123.2680643084
 30
0.0
 10
53.3175782447
 20
122.8187753564
 30
0.0
 10
53.8358960491
 20
122.1549826587
 30
0.0
 10
54.3170703432
 20
121.265838855
 30
0.0
 10
54.5832976441
 20
120.4786778791
 30
0.0
 10
54.6935592204
 20
119.8586810268
 30
0.0
 10
54.7132574934
 20
119.5588326896
 30
0.0
 10
54.7132574934
 20
119.4136636238
 30
0.0
  0
SPLINE
  5
35B
100
AcDbEntity
  8
0
100
AcDbSpline
 62
7
  6
CONTINUOUS
 70
0
 71
3
 72
18
 73
14
 74
0
 42
0.0000001
 43
0.0000001
 44
0.0000000001
 40
0.0
 40
0.0
 40
0.0
 40
0.0
 40
0.1286553692
 40
0.2702039128
 40
0.4173172991
 40
0.5616261289
 40
0.6952631328
 40
0.7562695859
 40
0.8127610362
 40
0.8647127357
 40
0.9125343589
 40
0.9571517573
 40
1.0
 40
1.0
 40
1.0
 40
1.0
 10
50.4705961985
 20
122.2713506051
 30
0.0
 10
50.4705961985
 20
122.0149231194
 30
0.0
 10
50.5423441903
 20
121.4757521794
 30
0.0
 10
50.8100467763
 20
120.6841219188
 30
0.0
 10
51.2227462633
 20
119.9214143336
 30
0.0
 10
51.7466277408
 20
119.2507025858
 30
0.0
 10
52.2564014986
 20
118.7991935054
 30
0.0
 10
52.6843384898
 20
118.537273649
 30
0.0
 10
52.994338513
 20
118.4002964027
 30
0.0
 10
53.2967863671
 20
118.3199210663
 30
0.0
 10
53.5857920885
 20
118.2986426573
 30
0.0
 10
53.8549098712
 20
118.3381146412
 30
0.0
 10
54.0179562582
 20
118.4058502463
 30
0.0
 10
54.0919127197
 20
118.4485585388
 30
0.0
  0
SPLINE
  5
35C
100
AcDbEntity
  8
0
100
AcDbSpline
 62
7
  6
CONTINUOUS
 70
0
 71
3
 72
12
 73
8
 74
0
 42
0.0000001
 43
0.0000001
 44
0.0000000001
 40
0.0
 40
0.0
 40
0.0
 40
0.0
 40
0.2895533927
 40
0.5486500607
 40
0.7816322278
 40
0.8918394749
 40
1.0
 40
1.0
 40
1.0
 40
1.0
 10
35.1970290793
 20
130.6811084486
 30
0.0
 10
35.1970290793
 20
130.5341340007
 30
0.0
 10
35.1747336376
 20
130.2546549611
 30
0.0
 10
35.0617795391
 20
129.8708644356
 30
0.0
 10
34.8993179732
 20
129.6061150988
 30
0.0
 10
34.7353756042
 20
129.4447769918
 30
0.0
 10
34.6439404607
 20
129.3809967521
 30
0.0
 10
34.5963943151
 20
129.3535466592
 30
0.0
  0
SPLINE
  5
35D
100
AcDbEntity
  8
0
100
AcDbSpline
 62
7
  6
CONTINUOUS
 70
0
 71
3
 72
19
 73
15
 74
0
 42
0.0000001
 43
0.0000001
 44
0.0000000001
 40
0.0
 40
0.0
 40
0.0
 40
0.0
 40
0.1286318569
 40
0.2701557821
 40
0.4172444299
 40
0.5615282561
 40
0.6301793701
 40
0.6953188225
 40
0.7563136478
 40
0.8127944348
 40
0.8647364871
 40
0.9125494784
 40
0.9571591054
 40
1.0
 40
1.0
 40
1.0
 40
1.0
 10
30.6715268384
 20
133.2938492775
 30
0.0
 10
30.6715268384
 20
132.9946851597
 30
0.0
 10
30.7552240796
 20
132.3656662409
 30
0.0
 10
31.0675876874
 20
131.4420245888
 30
0.0
 10
31.5489075734
 20
130.5524602841
 30
0.0
 10
32.0671907892
 20
129.8887588595
 30
0.0
 10
32.5336233381
 20
129.439450531
 30
0.0
 10
32.8910414143
 20
129.159628683
 30
0.0
 10
33.254249711
 20
128.9374327136
 30
0.0
 10
33.6158884925
 20
128.7776172251
 30
0.0
 10
33.9687476956
 20
128.6838493484
 30
0.0
 10
34.3059189479
 20
128.6590228344
 30
0.0
 10
34.619890926
 20
128.7050738207
 30
0.0
 10
34.8101129667
 20
128.7840985217
 30
0.0
 10
34.8963960715
 20
128.8339252723
 30
0.0
  0
SPLINE
  5
35E
100
AcDbEntity
  8
0
100
AcDbSpline
 62
7
  6
CONTINUOUS
 70
0
 71
3
 72
10
 73
6
 74
0
 42
0.0000001
 43
0.0000001
 44
0.0000000001
 40
0.0
 40
0.0
 40
0.0
 40
0.0
 40
0.5229464116
 40
0.7647587228
 40
1.0
 40
1.0
 40
1.0
 40
1.0
 10
35.4091634569
 20
129.0760476988
 30
0.0
 10
35.6108552937
 20
129.0328421468
 30
0.0
 10
35.9193213212
 20
129.0096479903
 30
0.0
 10
36.3067820028
 20
129.0939375998
 30
0.0
 10
36.4802509198
 20
129.1709993899
 30
0.0
 10
36.5606071586
 20
129.2173923841
 30
0.0
  0
SPLINE
  5
35F
100
AcDbEntity
  8
0
100
AcDbSpline
 62
7
  6
CONTINUOUS
 70
0
 71
3
 72
18
 73
14
 74
0
 42
0.0000001
 43
0.0000001
 44
0.0000000001
 40
0.0
 40
0.0
 40
0.0
 40
0.0
 40
0.1286553692
 40
0.2702039128
 40
0.4173172991
 40
0.5616261289
 40
0.6952631328
 40
0.7562695859
 40
0.8127610362
 40
0.8647127357
 40
0.9125343589
 40
0.9571517573
 40
1.0
 40
1.0
 40
1.0
 40
1.0
 10
40.924614909
 20
127.7826007912
 30
0.0
 10
40.924614909
 20
127.5261733054
 30
0.0
 10
40.9963629008
 20
126.9870023654
 30
0.0
 10
41.2640654868
 20
126.1953721048
 30
0.0
 10
41.6767649738
 20
125.4326645196
 30
0.0
 10
42.2006464514
 20
124.7619527718
 30
0.0
 10
42.7104202091
 20
124.3104436914
 30
0.0
 10
43.1383572004
 20
124.048523835
 30
0.0
 10
43.4483572235
 20
123.9115465887
 30
0.0
 10
43.7508050776
 20
123.8311712523
 30
0.0
 10
44.0398107991
 20
123.8098928433
 30
0.0
 10
44.3089285817
 20
123.8493648273
 30
0.0
 10
44.4719749687
 20
123.9171004323
 30
0.0
 10
44.5459314302
 20
123.9598087248
 30
0.0
  0
SPLINE
  5
360
100
AcDbEntity
  8
0
100
AcDbSpline
 62
7
  6
CONTINUOUS
 70
0
 71
3
 72
12
 73
8
 74
0
 42
0.0000001
 43
0.0000001
 44
0.0000000001
 40
0.0
 40
0.0
 40
0.0
 40
0.0
 40
0.2895700176
 40
0.5486410293
 40
0.7816368525
 40
0.8918393703
 40
1.0
 40
1.0
 40
1.0
 40
1.0
 10
45.1672762039
 20
124.9249138098
 30
0.0
 10
45.1672762039
 20
124.7475200426
 30
0.0
 10
45.1403871868
 20
124.4102157161
 30
0.0
 10
45.0040238965
 20
123.9470373243
 30
0.0
 10
44.808006601
 20
123.6274774961
 30
0.0
 10
44.6100916064
 20
123.432804506
 30
0.0
 10
44.4997581454
 20
123.3558094265
 30
0.0
 10
44.4423782439
 20
123.3226735571
 30
0.0
  0
SPLINE
  5
361
100
AcDbEntity
  8
0
100
AcDbSpline
 62
7
  6
CONTINUOUS
 70
0
 71
3
 72
20
 73
16
 74
0
 42
0.0000001
 43
0.0000001
 44
0.0000000001
 40
0.0
 40
0.0
 40
0.0
 40
0.0
 40
0.0612087565
 40
0.1261610212
 40
0.2644599673
 40
0.4087376424
 40
0.5516489394
 40
0.6203905653
 40
0.6862109268
 40
0.7484610507
 40
0.8066779304
 40
0.8606448529
 40
0.9104578973
 40
0.9566011284
 40
1.0
 40
1.0
 40
1.0
 40
1.0
 10
39.3336209714
 20
128.2929000346
 30
0.0
 10
39.3336209714
 20
128.106651736
 30
0.0
 10
39.357483783
 20
127.7225080947
 30
0.0
 10
39.4917382012
 20
126.9279594232
 30
0.0
 10
39.8174214267
 20
125.915404004
 30
0.0
 10
40.4105201608
 20
124.7590270486
 30
0.0
 10
41.0532645559
 20
123.8805663264
 30
0.0
 10
41.6363542262
 20
123.2686141883
 30
0.0
 10
42.0885448603
 20
122.8745009653
 30
0.0
 10
42.5525354387
 20
122.5469793218
 30
0.0
 10
43.0197545546
 20
122.2922839782
 30
0.0
 10
43.4816531846
 20
122.1153764664
 30
0.0
 10
43.9300748333
 20
122.0201415626
 30
0.0
 10
44.3565986468
 20
122.0094002263
 30
0.0
 10
44.6269218977
 20
122.0610801494
 30
0.0
 10
44.752709161
 20
122.1012830826
 30
0.0
  0
SPLINE
  5
362
100
AcDbEntity
  8
0
100
AcDbSpline
 62
7
  6
CONTINUOUS
 70
0
 71
3
 72
9
 73
5
 74
0
 42
0.0000001
 43
0.0000001
 44
0.0000000001
 40
0.0
 40
0.0
 40
0.0
 40
0.0
 40
0.5164118437
 40
1.0
 40
1.0
 40
1.0
 40
1.0
 10
43.2612788224
 20
133.1216823449
 30
0.0
 10
43.0885616557
 20
132.9849031033
 30
0.0
 10
42.7564897428
 20
132.7170345837
 30
0.0
 10
42.4321641165
 20
132.4395974168
 30
0.0
 10
42.2795191511
 20
132.3007993049
 30
0.0
  0
SPLINE
  5
363
100
AcDbEntity
  8
0
100
AcDbSpline
 62
7
  6
CONTINUOUS
 70
0
 71
3
 72
12
 73
8
 74
0
 42
0.0000001
 43
0.0000001
 44
0.0000000001
 40
0.0
 40
0.0
 40
0.0
 40
0.0
 40
0.2471893105
 40
0.4969673726
 40
0.7493019648
 40
0.875661122
 40
1.0
 40
1.0
 40
1.0
 40
1.0
 10
49.0665421852
 20
123.7469993851
 30
0.0
 10
48.8233904726
 20
123.637754472
 30
0.0
 10
48.3336239476
 20
123.4201414975
 30
0.0
 10
47.5913183094
 20
123.1008791374
 30
0.0
 10
46.9638345994
 20
122.8445159258
 30
0.0
 10
46.4563991898
 20
122.6526716722
 30
0.0
 10
46.2009145853
 20
122.5640155389
 30
0.0
 10
46.0731919062
 20
122.5232013535
 30
0.0
  0
SPLINE
  5
364
100
AcDbEntity
  8
0
100
AcDbSpline
 62
7
  6
CONTINUOUS
 70
0
 71
3
 72
27
 73
23
 74
0
 42
0.0000001
 43
0.0000001
 44
0.0000000001
 40
0.0
 40
0.0
 40
0.0
 40
0.0
 40
0.0562936243
 40
0.1126372675
 40
0.1690819598
 40
0.2257262083
 40
0.2827745349
 40
0.3406985563
 40
0.3703577429
 40
0.4008249716
 40
0.4325335493
 40
0.4658957001
 40
0.5008016191
 40
0.5363957127
 40
0.5718322032
 40
0.6067623299
 40
0.675016342
 40
0.741689936
 40
0.8072617081
 40
0.8720473339
 40
0.936248705
 40
1.0
 40
1.0
 40
1.0
 40
1.0
 10
55.7995201299
 20
127.1384099704
 30
0.0
 10
55.7251714381
 20
127.0239257695
 30
0.0
 10
55.5795157492
 20
126.7928111527
 30
0.0
 10
55.3727819756
 20
126.4386208365
 30
0.0
 10
55.1812477044
 20
126.0749564451
 30
0.0
 10
55.0103178397
 20
125.6990860206
 30
0.0
 10
54.8691299291
 20
125.3070683148
 30
0.0
 10
54.7906085946
 20
124.9635388798
 30
0.0
 10
54.7687372859
 20
124.6775074072
 30
0.0
 10
54.781432831
 20
124.4543164402
 30
0.0
 10
54.8353221008
 20
124.2274004368
 30
0.0
 10
54.9436028071
 20
124.0077904304
 30
0.0
 10
55.1090030078
 20
123.8144996491
 30
0.0
 10
55.3166867294
 20
123.6604225441
 30
0.0
 10
55.5470533087
 20
123.5445614899
 30
0.0
 10
55.8645399957
 20
123.4322718257
 30
0.0
 10
56.2694439423
 20
123.3484651179
 30
0.0
 10
56.7537450313
 20
123.300964972
 30
0.0
 10
57.2316473197
 20
123.2877934395
 30
0.0
 10
57.703452919
 20
123.2982652921
 30
0.0
 10
58.1700854874
 20
123.3260265143
 30
0.0
 10
58.4791878673
 20
123.3534278874
 30
0.0
 10
58.6330055431
 20
123.368881439
 30
0.0
  0
SPLINE
  5
365
100
AcDbEntity
  8
0
100
AcDbSpline
 62
7
  6
CONTINUOUS
 70
0
 71
3
 72
12
 73
8
 74
0
 42
0.0000001
 43
0.0000001
 44
0.0000000001
 40
0.0
 40
0.0
 40
0.0
 40
0.0
 40
0.1081617394
 40
0.2183631591
 40
0.4513653165
 40
0.7104188067
 40
1.0
 40
1.0
 40
1.0
 40
1.0
 10
61.0023255321
 20
107.8673919207
 30
0.0
 10
61.0810234519
 20
107.9128279051
 30
0.0
 10
61.2323124908
 20
108.0184576415
 30
0.0
 10
61.5037847397
 20
108.2853948063
 30
0.0
 10
61.7725557603
 20
108.7236796355
 30
0.0
 10
61.959605207
 20
109.3588752398
 30
0.0
 10
61.9964670546
 20
109.8214648886
 30
0.0
 10
61.9964670546
 20
110.0647573438
 30
0.0
  0
SPLINE
  5
366
100
AcDbEntity
  8
0
100
AcDbSpline
 62
7
  6
CONTINUOUS
 70
0
 71
3
 72
12
 73
8
 74
0
 42
0.0000001
 43
0.0000001
 44
0.0000000001
 40
0.0
 40
0.0
 40
0.0
 40
0.0
 40
0.1081593386
 40
0.2183587446
 40
0.4513618558
 40
0.7104187393
 40
1.0
 40
1.0
 40
1.0
 40
1.0
 10
36.5606071586
 20
129.2173923841
 30
0.0
 10
36.6261875064
 20
129.2552546427
 30
0.0
 10
36.7522614226
 20
129.3432748373
 30
0.0
 10
36.9784839559
 20
129.5657240001
 30
0.0
 10
37.2024655549
 20
129.9309595148
 30
0.0
 10
37.3583386799
 20
130.4602942478
 30
0.0
 10
37.3890574514
 20
130.8457879906
 30
0.0
 10
37.3890574514
 20
131.0485319263
 30
0.0
  0
SPLINE
  5
367
100
AcDbEntity
  8
0
100
AcDbSpline
 62
7
  6
CONTINUOUS
 70
0
 71
3
 72
35
 73
31
 74
0
 42
0.0000001
 43
0.0000001
 44
0.0000000001
 40
0.0
 40
0.0
 40
0.0
 40
0.0
 40
0.0436706298
 40
0.084427229
 40
0.1033967756
 40
0.1211881026
 40
0.1375613675
 40
0.1522241738
 40
0.164859244
 40
0.1703664347
 40
0.1753686514
 40
0.1800269749
 40
0.1846864858
 40
0.1961283219
 40
0.2041592825
 40
0.2142275066
 40
0.2264950652
 40
0.2409065661
 40
0.2750851953
 40
0.3140931765
 40
0.3556537062
 40
0.3984350737
 40
0.4417531931
 40
0.485265231
 40
0.5722664367
 40
0.6588545853
 40
0.7449023026
 40
0.8304134713
 40
0.9154296614
 40
1.0
 40
1.0
 40
1.0
 40
1.0
 10
51.8255004442
 20
126.7895491198
 30
0.0
 10
51.7672804057
 20
126.7366103903
 30
0.0
 10
51.6559719626
 20
126.632882988
 30
0.0
 10
51.5242705835
 20
126.5009915629
 30
0.0
 10
51.4300919032
 20
126.3978011076
 30
0.0
 10
51.3684026342
 20
126.3245457673
 30
0.0
 10
51.3154915336
 20
126.2541496135
 30
0.0
 10
51.273514951
 20
126.18750451
 30
0.0
 10
51.2486206252
 20
126.1334325144
 30
0.0
 10
51.2387093778
 20
126.0927654092
 30
0.0
 10
51.2371143045
 20
126.06527696
 30
0.0
 10
51.24217737
 20
126.039598873
 30
0.0
 10
51.2615900242
 20
126.0066297026
 30
0.0
 10
51.3029872852
 20
125.985593817
 30
0.0
 10
51.3550914295
 20
125.9758270757
 30
0.0
 10
51.4100090734
 20
125.9732236662
 30
0.0
 10
51.4761567381
 20
125.976883194
 30
0.0
 10
51.5850097451
 20
125.990857166
 30
0.0
 10
51.7395927066
 20
126.023743172
 30
0.0
 10
51.9390571272
 20
126.0783646761
 30
0.0
 10
52.1510958634
 20
126.1451409546
 30
0.0
 10
52.3686838959
 20
126.2198133289
 30
0.0
 10
52.588155943
 20
126.2996923271
 30
0.0
 10
52.8809752058
 20
126.4109197833
 30
0.0
 10
53.2443951397
 20
126.555753664
 30
0.0
 10
53.6764755546
 20
126.7351633163
 30
0.0
 10
54.1041908262
 20
126.9180112239
 30
0.0
 10
54.5278459901
 20
127.1031060614
 30
0.0
 10
54.9478991107
 20
127.2897705286
 30
0.0
 10
55.22650942
 20
127.4152861873
 30
0.0
 10
55.3653149799
 20
127.4781726882
 30
0.0
  0
SPLINE
  5
368
100
AcDbEntity
  8
0
100
AcDbSpline
 62
7
  6
CONTINUOUS
 70
0
 71
3
 72
19
 73
15
 74
0
 42
0.0000001
 43
0.0000001
 44
0.0000000001
 40
0.0
 40
0.0
 40
0.0
 40
0.0
 40
0.1314963855
 40
0.2611822886
 40
0.3886019298
 40
0.513125141
 40
0.6339043283
 40
0.6926670345
 40
0.7503086601
 40
0.8071952426
 40
0.8647242301
 40
0.8949086692
 40
0.9269983115
 40
1.0
 40
1.0
 40
1.0
 40
1.0
 10
59.5860512479
 20
118.7665883319
 30
0.0
 10
59.4477968829
 20
118.7453763844
 30
0.0
 10
59.1726475291
 20
118.7066446981
 30
0.0
 10
58.7616050996
 20
118.6622152382
 30
0.0
 10
58.3563258338
 20
118.6359400221
 30
0.0
 10
57.9596169541
 20
118.634264832
 30
0.0
 10
57.6364654297
 20
118.6622584347
 30
0.0
 10
57.3890777915
 20
118.7134470596
 30
0.0
 10
57.2132344981
 20
118.7704189872
 30
0.0
 10
57.0490432878
 20
118.8534500793
 30
0.0
 10
56.9298217866
 20
118.9541581627
 30
0.0
 10
56.854864799
 20
119.0580026859
 30
0.0
 10
56.7928625563
 20
119.188680335
 30
0.0
 10
56.7764683652
 20
119.3024678205
 30
0.0
 10
56.7764683652
 20
119.380119404
 30
0.0
  0
SPLINE
  5
369
100
AcDbEntity
  8
0
100
AcDbSpline
 62
7
  6
CONTINUOUS
 70
0
 71
3
 72
14
 73
10
 74
0
 42
0.0000001
 43
0.0000001
 44
0.0000000001
 40
0.0
 40
0.0
 40
0.0
 40
0.0
 40
0.1103473166
 40
0.2204132181
 40
0.3329880888
 40
0.4505624516
 40
0.5750610322
 40
0.7078342453
 40
1.0
 40
1.0
 40
1.0
 40
1.0
 10
54.2986904505
 20
116.5900328965
 30
0.0
 10
54.3981878591
 20
116.6218333155
 30
0.0
 10
54.5914725893
 20
116.7045101246
 30
0.0
 10
54.852566101
 20
116.8846234384
 30
0.0
 10
55.0786523635
 20
117.1166948486
 30
0.0
 10
55.2665046508
 20
117.3969194134
 30
0.0
 10
55.4142799953
 20
117.721083416
 30
0.0
 10
55.5603084311
 20
118.221659072
 30
0.0
 10
55.5971446498
 20
118.6267960171
 30
0.0
 10
55.5971446498
 20
118.9033626807
 30
0.0
  0
SPLINE
  5
36A
100
AcDbEntity
  8
0
100
AcDbSpline
 62
7
  6
CONTINUOUS
 70
0
 71
3
 72
20
 73
16
 74
0
 42
0.0000001
 43
0.0000001
 44
0.0000000001
 40
0.0
 40
0.0
 40
0.0
 40
0.0
 40
0.0428321632
 40
0.0874330162
 40
0.1352367563
 40
0.1871687871
 40
0.2436383455
 40
0.3046205569
 40
0.3697461276
 40
0.4383822924
 40
0.5826349282
 40
0.7296945445
 40
0.8711921478
 40
0.9375940035
 40
1.0
 40
1.0
 40
1.0
 40
1.0
 10
53.9883595334
 20
117.811423371
 30
0.0
 10
53.9020768594
 20
117.7615966661
 30
0.0
 10
53.7118540738
 20
117.6825736367
 30
0.0
 10
53.3978817185
 20
117.6365230478
 30
0.0
 10
53.0607083514
 20
117.6613478198
 30
0.0
 10
52.7078478778
 20
117.7551179786
 30
0.0
 10
52.3462095914
 20
117.9149344895
 30
0.0
 10
51.9830038377
 20
118.137128195
 30
0.0
 10
51.6255891998
 20
118.4169482208
 30
0.0
 10
51.159168666
 20
118.8662371729
 30
0.0
 10
50.6408508616
 20
119.5300298705
 30
0.0
 10
50.1596765674
 20
120.4191736743
 30
0.0
 10
49.8934492666
 20
121.2063346502
 30
0.0
 10
49.7831876903
 20
121.8263315025
 30
0.0
 10
49.7634894173
 20
122.1261798397
 30
0.0
 10
49.7634894173
 20
122.2713489055
 30
0.0
  0
SPLINE
  5
36B
100
AcDbEntity
  8
0
100
AcDbSpline
 62
7
  6
CONTINUOUS
 70
0
 71
3
 72
9
 73
5
 74
0
 42
0.0000001
 43
0.0000001
 44
0.0000000001
 40
0.0
 40
0.0
 40
0.0
 40
0.0
 40
0.2565793853
 40
1.0
 40
1.0
 40
1.0
 40
1.0
 10
58.8939933768
 20
118.2733369661
 30
0.0
 10
58.942893461
 20
118.2525244035
 30
0.0
 10
59.1346624465
 20
118.1742419796
 30
0.0
 10
59.3312724369
 20
118.1076469797
 30
0.0
 10
59.4795186387
 20
118.0660054873
 30
0.0
  0
SPLINE
  5
36C
100
AcDbEntity
  8
0
100
AcDbSpline
 62
7
  6
CONTINUOUS
 70
0
 71
3
 72
11
 73
7
 74
0
 42
0.0000001
 43
0.0000001
 44
0.0000000001
 40
0.0
 40
0.0
 40
0.0
 40
0.0
 40
0.2833571739
 40
0.540436489
 40
0.7762631212
 40
1.0
 40
1.0
 40
1.0
 40
1.0
 10
52.3670378337
 20
123.6121619397
 30
0.0
 10
52.2533259183
 20
123.6638118637
 30
0.0
 10
52.0281136723
 20
123.7457867356
 30
0.0
 10
51.6872113002
 20
123.7976876285
 30
0.0
 10
51.3691445733
 20
123.7690920305
 30
0.0
 10
51.177335667
 20
123.6940134747
 30
0.0
 10
51.0919380283
 20
123.6446981444
 30
0.0
  0
SPLINE
  5
36D
100
AcDbEntity
  8
0
100
AcDbSpline
 62
7
  6
CONTINUOUS
 70
0
 71
3
 72
11
 73
7
 74
0
 42
0.0000001
 43
0.0000001
 44
0.0000000001
 40
0.0
 40
0.0
 40
0.0
 40
0.0
 40
0.2296517625
 40
0.4683644036
 40
0.7234838883
 40
1.0
 40
1.0
 40
1.0
 40
1.0
 10
44.5459314302
 20
123.9598087248
 30
0.0
 10
44.6180593436
 20
124.0014610694
 30
0.0
 10
44.7549513985
 20
124.1054829305
 30
0.0
 10
44.9209122795
 20
124.3115778335
 30
0.0
 10
45.0465609284
 20
124.5631559399
 30
0.0
 10
45.0999515386
 20
124.7495392879
 30
0.0
 10
45.1203169079
 20
124.8477374047
 30
0.0
  0
SPLINE
  5
36E
100
AcDbEntity
  8
0
100
AcDbSpline
 62
7
  6
CONTINUOUS
 70
0
 71
3
 72
9
 73
5
 74
0
 42
0.0000001
 43
0.0000001
 44
0.0000000001
 40
0.0
 40
0.0
 40
0.0
 40
0.0
 40
0.2453100136
 40
1.0
 40
1.0
 40
1.0
 40
1.0
 10
45.1345726231
 20
124.9236736983
 30
0.0
 10
45.137432232
 20
124.9406316102
 30
0.0
 10
45.1482524821
 20
125.009899664
 30
0.0
 10
45.1557951239
 20
125.0796712242
 30
0.0
 10
45.1598062514
 20
125.1324260987
 30
0.0
  0
SPLINE
  5
36F
100
AcDbEntity
  8
0
100
AcDbSpline
 62
7
  6
CONTINUOUS
 70
0
 71
3
 72
14
 73
10
 74
0
 42
0.0000001
 43
0.0000001
 44
0.0000000001
 40
0.0
 40
0.0
 40
0.0
 40
0.0
 40
0.0946116218
 40
0.1941452176
 40
0.3023707623
 40
0.4214080764
 40
0.5518281297
 40
0.692970665
 40
1.0
 40
1.0
 40
1.0
 40
1.0
 10
34.5963943151
 20
129.3535466592
 30
0.0
 10
34.5155343396
 20
129.3068632989
 30
0.0
 10
34.3344626256
 20
129.2352948251
 30
0.0
 10
34.0343419008
 20
129.2057255091
 30
0.0
 10
33.7124517995
 20
129.2509730851
 30
0.0
 10
33.3774745472
 20
129.3679223783
 30
0.0
 10
33.03745339
 20
129.552557895
 30
0.0
 10
32.5763445912
 20
129.8914071892
 30
0.0
 10
32.2693614967
 20
130.2162159157
 30
0.0
 10
32.0826472059
 20
130.4548449573
 30
0.0
  0
SPLINE
  5
370
100
AcDbEntity
  8
0
100
AcDbSpline
 62
7
  6
CONTINUOUS
 70
0
 71
3
 72
11
 73
7
 74
0
 42
0.0000001
 43
0.0000001
 44
0.0000000001
 40
0.0
 40
0.0
 40
0.0
 40
0.0
 40
0.2618132365
 40
0.5229084363
 40
0.7721130537
 40
1.0
 40
1.0
 40
1.0
 40
1.0
 10
32.0826472059
 20
130.4548449573
 30
0.0
 10
31.9309995241
 20
130.6486573366
 30
0.0
 10
31.6575796081
 20
131.0596488026
 30
0.0
 10
31.3463860895
 20
131.7181408645
 30
0.0
 10
31.1476520675
 20
132.385763177
 30
0.0
 10
31.0957926735
 20
132.8347037198
 30
0.0
 10
31.0957926735
 20
133.0489048248
 30
0.0
  0
SPLINE
  5
371
100
AcDbEntity
  8
0
100
AcDbSpline
 62
7
  6
CONTINUOUS
 70
0
 71
3
 72
20
 73
16
 74
0
 42
0.0000001
 43
0.0000001
 44
0.0000000001
 40
0.0
 40
0.0
 40
0.0
 40
0.0
 40
0.0428321632
 40
0.0874330162
 40
0.1352367563
 40
0.1871687871
 40
0.2436383455
 40
0.3046205569
 40
0.3697461276
 40
0.4383822924
 40
0.5826349282
 40
0.7296945445
 40
0.8711921478
 40
0.9375940035
 40
1.0
 40
1.0
 40
1.0
 40
1.0
 10
32.8106324728
 20
135.712577838
 30
0.0
 10
32.8969151468
 20
135.762404543
 30
0.0
 10
33.0871379324
 20
135.8414275723
 30
0.0
 10
33.4011102877
 20
135.8874781613
 30
0.0
 10
33.7382836548
 20
135.8626533893
 30
0.0
 10
34.0911441283
 20
135.7688832305
 30
0.0
 10
34.4527824148
 20
135.6090667196
 30
0.0
 10
34.8159881685
 20
135.3868730141
 30
0.0
 10
35.1734028063
 20
135.1070529882
 30
0.0
 10
35.6398233402
 20
134.6577640362
 30
0.0
 10
36.1581411445
 20
133.9939713385
 30
0.0
 10
36.6393154387
 20
133.1048275348
 30
0.0
 10
36.9055427395
 20
132.3176665589
 30
0.0
 10
37.0158043158
 20
131.6976697066
 30
0.0
 10
37.0355025888
 20
131.3978213694
 30
0.0
 10
37.0355025888
 20
131.2526523036
 30
0.0
  0
SPLINE
  5
372
100
AcDbEntity
  8
0
100
AcDbSpline
 62
7
  6
CONTINUOUS
 70
0
 71
3
 72
12
 73
8
 74
0
 42
0.0000001
 43
0.0000001
 44
0.0000000001
 40
0.0
 40
0.0
 40
0.0
 40
0.0
 40
0.2891681651
 40
0.5483743399
 40
0.7816736613
 40
0.8919435443
 40
1.0
 40
1.0
 40
1.0
 40
1.0
 10
31.0957926735
 20
133.0489048248
 30
0.0
 10
31.0957926735
 20
133.1938242244
 30
0.0
 10
31.1174953908
 20
133.469590436
 30
0.0
 10
31.2271955687
 20
133.8489352605
 30
0.0
 10
31.3848857632
 20
134.1120250223
 30
0.0
 10
31.5442976043
 20
134.2739152061
 30
0.0
 10
31.6333336162
 20
134.3385589279
 30
0.0
 10
31.6796790181
 20
134.3665715759
 30
0.0
  0
SPLINE
  5
373
100
AcDbEntity
  8
0
100
AcDbSpline
 62
7
  6
CONTINUOUS
 70
0
 71
3
 72
19
 73
15
 74
0
 42
0.0000001
 43
0.0000001
 44
0.0000000001
 40
0.0
 40
0.0
 40
0.0
 40
0.0
 40
0.1286318569
 40
0.2701557821
 40
0.4172444299
 40
0.5615282561
 40
0.6301793701
 40
0.6953188225
 40
0.7563136478
 40
0.8127944348
 40
0.8647364871
 40
0.9125494784
 40
0.9571591054
 40
1.0
 40
1.0
 40
1.0
 40
1.0
 10
35.6212949144
 20
130.4361639959
 30
0.0
 10
35.6212949144
 20
130.7353281137
 30
0.0
 10
35.5375976731
 20
131.3643470325
 30
0.0
 10
35.2252340654
 20
132.2879886845
 30
0.0
 10
34.7439141794
 20
133.1775529893
 30
0.0
 10
34.2256309635
 20
133.8412544139
 30
0.0
 10
33.7591984146
 20
134.2905627424
 30
0.0
 10
33.4017803385
 20
134.5703845903
 30
0.0
 10
33.0385720418
 20
134.7925805598
 30
0.0
 10
32.6769332602
 20
134.9523960483
 30
0.0
 10
32.3240740571
 20
135.046163925
 30
0.0
 10
31.9869028048
 20
135.0709904389
 30
0.0
 10
31.6729308267
 20
135.0249394526
 30
0.0
 10
31.4827087861
 20
134.9459147517
 30
0.0
 10
31.3964256812
 20
134.8960880011
 30
0.0
  0
SPLINE
  5
374
100
AcDbEntity
  8
0
100
AcDbSpline
 62
7
  6
CONTINUOUS
 70
0
 71
3
 72
20
 73
16
 74
0
 42
0.0000001
 43
0.0000001
 44
0.0000000001
 40
0.0
 40
0.0
 40
0.0
 40
0.0
 40
0.0428321632
 40
0.0874330162
 40
0.1352367563
 40
0.1871687871
 40
0.2436383455
 40
0.3046205569
 40
0.3697461276
 40
0.4383822924
 40
0.5826349282
 40
0.7296945445
 40
0.8711921478
 40
0.9375940035
 40
1.0
 40
1.0
 40
1.0
 40
1.0
 10
44.4423782439
 20
123.3226735571
 30
0.0
 10
44.3560955699
 20
123.2728468521
 30
0.0
 10
44.1658727843
 20
123.1938238228
 30
0.0
 10
43.851900429
 20
123.1477732338
 30
0.0
 10
43.5147270619
 20
123.1725980058
 30
0.0
 10
43.1618665883
 20
123.2663681646
 30
0.0
 10
42.8002283019
 20
123.4261846755
 30
0.0
 10
42.4370225482
 20
123.648378381
 30
0.0
 10
42.0796079103
 20
123.9281984069
 30
0.0
 10
41.6131873765
 20
124.3774873589
 30
0.0
 10
41.0948695721
 20
125.0412800566
 30
0.0
 10
40.613695278
 20
125.9304238603
 30
0.0
 10
40.3474679771
 20
126.7175848362
 30
0.0
 10
40.2372064008
 20
127.3375816885
 30
0.0
 10
40.2175081278
 20
127.6374300257
 30
0.0
 10
40.2175081278
 20
127.7825990915
 30
0.0
  0
SPLINE
  5
375
100
AcDbEntity
  8
0
100
AcDbSpline
 62
7
  6
CONTINUOUS
 70
0
 71
3
 72
12
 73
8
 74
0
 42
0.0000001
 43
0.0000001
 44
0.0000000001
 40
0.0
 40
0.0
 40
0.0
 40
0.0
 40
0.2895700176
 40
0.5486410293
 40
0.7816368525
 40
0.8918393703
 40
1.0
 40
1.0
 40
1.0
 40
1.0
 10
37.0355025888
 20
131.2526523036
 30
0.0
 10
37.0355025888
 20
131.0752585364
 30
0.0
 10
37.0086135718
 20
130.7379542098
 30
0.0
 10
36.8722502815
 20
130.2747758181
 30
0.0
 10
36.676232986
 20
129.9552159899
 30
0.0
 10
36.4783179913
 20
129.7605429998
 30
0.0
 10
36.3679845304
 20
129.6835479203
 30
0.0
 10
36.3106046288
 20
129.6504120508
 30
0.0
  0
SPLINE
  5
376
100
AcDbEntity
  8
0
100
AcDbSpline
 62
7
  6
CONTINUOUS
 70
0
 71
3
 72
20
 73
16
 74
0
 42
0.0000001
 43
0.0000001
 44
0.0000000001
 40
0.0
 40
0.0
 40
0.0
 40
0.0
 40
0.0624102844
 40
0.12880444
 40
0.2703017636
 40
0.4173610325
 40
0.5616161558
 40
0.6302536445
 40
0.6953787416
 40
0.7563619164
 40
0.8128326753
 40
0.8647633786
 40
0.9125660526
 40
0.957167166
 40
1.0
 40
1.0
 40
1.0
 40
1.0
 10
37.3890574514
 20
131.0485319263
 30
0.0
 10
37.3890574514
 20
131.2144510063
 30
0.0
 10
37.3665606079
 20
131.5571276335
 30
0.0
 10
37.240519765
 20
132.2656812915
 30
0.0
 10
36.9363042074
 20
133.1652851872
 30
0.0
 10
36.3863586711
 20
134.1814404914
 30
0.0
 10
35.7940179761
 20
134.9400891496
 30
0.0
 10
35.2609529572
 20
135.4535653401
 30
0.0
 10
34.8524599148
 20
135.7733428945
 30
0.0
 10
34.4373744073
 20
136.0272959327
 30
0.0
 10
34.0240784802
 20
136.2099656811
 30
0.0
 10
33.6208016641
 20
136.3171013438
 30
0.0
 10
33.2354705714
 20
136.3454577482
 30
0.0
 10
32.8766345967
 20
136.2928729179
 30
0.0
 10
32.6592463678
 20
136.2025328627
 30
0.0
 10
32.560629943
 20
136.1455975048
 30
0.0
  0
SPLINE
  5
377
100
AcDbEntity
  8
0
100
AcDbSpline
 62
7
  6
CONTINUOUS
 70
0
 71
3
 72
14
 73
10
 74
0
 42
0.0000001
 43
0.0000001
 44
0.0000000001
 40
0.0
 40
0.0
 40
0.0
 40
0.0
 40
0.1103473166
 40
0.2204132181
 40
0.3329880888
 40
0.4505624516
 40
0.5750610322
 40
0.7078342453
 40
1.0
 40
1.0
 40
1.0
 40
1.0
 10
44.752709161
 20
122.1012830826
 30
0.0
 10
44.8522065696
 20
122.1330835015
 30
0.0
 10
45.0454912998
 20
122.2157603106
 30
0.0
 10
45.3065848115
 20
122.3958736245
 30
0.0
 10
45.532671074
 20
122.6279450347
 30
0.0
 10
45.7205233613
 20
122.9081695995
 30
0.0
 10
45.8682987058
 20
123.232333602
 30
0.0
 10
46.0143271416
 20
123.732909258
 30
0.0
 10
46.0511633603
 20
124.1380462031
 30
0.0
 10
46.0511633603
 20
124.4146128667
 30
0.0
  0
SPLINE
  5
378
100
AcDbEntity
  8
0
100
AcDbSpline
 62
7
  6
CONTINUOUS
 70
0
 71
3
 72
34
 73
30
 74
0
 42
0.0000001
 43
0.0000001
 44
0.0000000001
 40
0.0
 40
0.0
 40
0.0
 40
0.0
 40
0.0433538639
 40
0.0837388471
 40
0.1200133092
 40
0.1360801073
 40
0.1503704593
 40
0.1625632992
 40
0.1678445138
 40
0.1726569473
 40
0.1772310974
 40
0.1820115372
 40
0.1876070319
 40
0.1946221512
 40
0.2035280509
 40
0.2146029648
 40
0.2432469587
 40
0.278819849
 40
0.3185175282
 40
0.3602921408
 40
0.4030226436
 40
0.4461486477
 40
0.489393255
 40
0.5757535084
 40
0.6616482477
 40
0.746990214
 40
0.831797727
 40
0.9161174283
 40
1.0
 40
1.0
 40
1.0
 40
1.0
 10
42.2795191511
 20
132.3007993049
 30
0.0
 10
42.2202053741
 20
132.2468660472
 30
0.0
 10
42.1069004426
 20
132.1412717075
 30
0.0
 10
41.9503286276
 20
131.9839374091
 30
0.0
 10
41.8364654924
 20
131.8554265499
 30
0.0
 10
41.7631404074
 20
131.75624298
 30
0.0
 10
41.7221727695
 20
131.6889789121
 30
0.0
 10
41.6989280816
 20
131.6344593444
 30
0.0
 10
41.6914142654
 20
131.5937344968
 30
0.0
 10
41.6921590691
 20
131.5663462513
 30
0.0
 10
41.7005559405
 20
131.5410159897
 30
0.0
 10
41.7183999541
 20
131.5191138505
 30
0.0
 10
41.7463068111
 20
131.5021783957
 30
0.0
 10
41.7847008194
 20
131.4906946954
 30
0.0
 10
41.8344700306
 20
131.4849857976
 30
0.0
 10
41.9245349748
 20
131.4858289647
 30
0.0
 10
42.0627890679
 20
131.5058385018
 30
0.0
 10
42.2500165462
 20
131.5492851985
 30
0.0
 10
42.4580641909
 20
131.6092724576
 30
0.0
 10
42.6765072994
 20
131.6802665761
 30
0.0
 10
42.8992159485
 20
131.7584314173
 30
0.0
 10
43.1231081536
 20
131.8412998097
 30
0.0
 10
43.4211979414
 20
131.956048401
 30
0.0
 10
43.7908954831
 20
132.1048330216
 30
0.0
 10
44.2303446429
 20
132.2886531682
 30
0.0
 10
44.6653076703
 20
132.4756901829
 30
0.0
 10
45.0961701086
 20
132.6648493707
 30
0.0
 10
45.5234197915
 20
132.8555003256
 30
0.0
 10
45.8068312671
 20
132.9836399925
 30
0.0
 10
45.9480366851
 20
133.0478331497
 30
0.0
  0
SPLINE
  5
379
100
AcDbEntity
  8
0
100
AcDbSpline
 62
7
  6
CONTINUOUS
 70
0
 71
3
 72
22
 73
18
 74
0
 42
0.0000001
 43
0.0000001
 44
0.0000000001
 40
0.0
 40
0.0
 40
0.0
 40
0.0
 40
0.0635188232
 40
0.1312575918
 40
0.2023681757
 40
0.2758760439
 40
0.4253460586
 40
0.4990819407
 40
0.5705667319
 40
0.638780482
 40
0.7028861184
 40
0.762310664
 40
0.8168418062
 40
0.8667396053
 40
0.9128461174
 40
0.956623047
 40
1.0
 40
1.0
 40
1.0
 40
1.0
 10
55.5971446498
 20
118.9033626807
 30
0.0
 10
55.5971446498
 20
119.111204341
 30
0.0
 10
55.5673893216
 20
119.5410029736
 30
0.0
 10
55.4457191865
 20
120.1931060474
 30
0.0
 10
55.248197674
 20
120.8605773169
 30
0.0
 10
54.8883214984
 20
121.7541481925
 30
0.0
 10
54.4044648412
 20
122.6031171034
 30
0.0
 10
53.8184426103
 20
123.3701483007
 30
0.0
 10
53.3431989783
 20
123.8835021726
 30
0.0
 10
52.8417913418
 20
124.3250787588
 30
0.0
 10
52.325720575
 20
124.6845874179
 30
0.0
 10
51.8067077588
 20
124.9535423176
 30
0.0
 10
51.2961843002
 20
125.125336416
 30
0.0
 10
50.8052184193
 20
125.1949218949
 30
0.0
 10
50.3449094624
 20
125.1583203895
 30
0.0
 10
49.9282563829
 20
125.0137404633
 30
0.0
 10
49.6908186989
 20
124.8485285656
 30
0.0
 10
49.5857977515
 20
124.7530502071
 30
0.0
  0
SPLINE
  5
37A
100
AcDbEntity
  8
0
100
AcDbSpline
 62
7
  6
CONTINUOUS
 70
0
 71
3
 72
12
 73
8
 74
0
 42
0.0000001
 43
0.0000001
 44
0.0000000001
 40
0.0
 40
0.0
 40
0.0
 40
0.0
 40
0.2895810392
 40
0.5486360765
 40
0.7816397385
 40
0.8918396265
 40
1.0
 40
1.0
 40
1.0
 40
1.0
 10
40.5710247189
 20
132.8856306188
 30
0.0
 10
40.5710247189
 20
132.6828867877
 30
0.0
 10
40.5403068718
 20
132.2973941819
 30
0.0
 10
40.3844332059
 20
131.7680609707
 30
0.0
 10
40.1604543255
 20
131.4028240382
 30
0.0
 10
39.9342302394
 20
131.1803745214
 30
0.0
 10
39.8081564006
 20
131.0923520077
 30
0.0
 10
39.7425747567
 20
131.0544905071
 30
0.0
  0
SPLINE
  5
37B
100
AcDbEntity
  8
0
100
AcDbSpline
 62
7
  6
CONTINUOUS
 70
0
 71
3
 72
12
 73
8
 74
0
 42
0.0000001
 43
0.0000001
 44
0.0000000001
 40
0.0
 40
0.0
 40
0.0
 40
0.0
 40
0.1081597158
 40
0.2183621399
 40
0.4513573357
 40
0.7104307796
 40
1.0
 40
1.0
 40
1.0
 40
1.0
 10
34.8963960715
 20
128.8339252723
 30
0.0
 10
34.9537755191
 20
128.8670607444
 30
0.0
 10
35.0641101224
 20
128.9440531957
 30
0.0
 10
35.2620210487
 20
129.1387288503
 30
0.0
 10
35.4580431783
 20
129.4582859041
 30
0.0
 10
35.5944047103
 20
129.9214660521
 30
0.0
 10
35.6212949144
 20
130.2587708026
 30
0.0
 10
35.6212949144
 20
130.4361639959
 30
0.0
  0
SPLINE
  5
37C
100
AcDbEntity
  8
0
100
AcDbSpline
 62
7
  6
CONTINUOUS
 70
0
 71
3
 72
9
 73
5
 74
0
 42
0.0000001
 43
0.0000001
 44
0.0000000001
 40
0.0
 40
0.0
 40
0.0
 40
0.0
 40
0.2444735579
 40
1.0
 40
1.0
 40
1.0
 40
1.0
 10
34.3576074373
 20
139.5048084503
 30
0.0
 10
34.3469821178
 20
139.4623456705
 30
0.0
 10
34.3061115914
 20
139.288012142
 30
0.0
 10
34.2754270241
 20
139.1113284971
 30
0.0
 10
34.2574408852
 20
138.9772557102
 30
0.0
  0
SPLINE
  5
37D
100
AcDbEntity
  8
0
100
AcDbSpline
 62
7
  6
CONTINUOUS
 70
0
 71
3
 72
11
 73
7
 74
0
 42
0.0000001
 43
0.0000001
 44
0.0000000001
 40
0.0
 40
0.0
 40
0.0
 40
0.0
 40
0.2296517625
 40
0.4683644036
 40
0.7234838883
 40
1.0
 40
1.0
 40
1.0
 40
1.0
 10
54.0919127197
 20
118.4485585388
 30
0.0
 10
54.164040633
 20
118.4902108834
 30
0.0
 10
54.300932688
 20
118.5942327445
 30
0.0
 10
54.466893569
 20
118.8003276475
 30
0.0
 10
54.5925422179
 20
119.0519057539
 30
0.0
 10
54.6459328281
 20
119.2382891019
 30
0.0
 10
54.6662981973
 20
119.3364872187
 30
0.0
  0
SPLINE
  5
37E
100
AcDbEntity
  8
0
100
AcDbSpline
 62
7
  6
CONTINUOUS
 70
0
 71
3
 72
9
 73
5
 74
0
 42
0.0000001
 43
0.0000001
 44
0.0000000001
 40
0.0
 40
0.0
 40
0.0
 40
0.0
 40
0.2453100136
 40
1.0
 40
1.0
 40
1.0
 40
1.0
 10
54.6805539126
 20
119.4124235122
 30
0.0
 10
54.6834135215
 20
119.4293814242
 30
0.0
 10
54.6942337716
 20
119.498649478
 30
0.0
 10
54.7017764134
 20
119.5684210382
 30
0.0
 10
54.7057875409
 20
119.6211759126
 30
0.0
  0
SPLINE
  5
37F
100
AcDbEntity
  8
0
100
AcDbSpline
 62
7
  6
CONTINUOUS
 70
0
 71
3
 72
14
 73
10
 74
0
 42
0.0000001
 43
0.0000001
 44
0.0000000001
 40
0.0
 40
0.0
 40
0.0
 40
0.0
 40
0.1080468545
 40
0.2181297577
 40
0.332104429
 40
0.4515035364
 40
0.57745166
 40
0.7107185255
 40
1.0
 40
1.0
 40
1.0
 40
1.0
 10
58.2132094607
 20
116.2091943253
 30
0.0
 10
58.0984443891
 20
116.1429347813
 30
0.0
 10
57.854790791
 20
116.0288015567
 30
0.0
 10
57.4605171504
 20
115.9198037085
 30
0.0
 10
57.0402170924
 20
115.872910657
 30
0.0
 10
56.5983830347
 20
115.8882901116
 30
0.0
 10
56.1391900167
 20
115.9652940149
 30
0.0
 10
55.4922478958
 20
116.1539203105
 30
0.0
 10
55.0205071381
 20
116.3784453336
 30
0.0
 10
54.7132368856
 20
116.5558438833
 30
0.0
  0
SPLINE
  5
380
100
AcDbEntity
  8
0
100
AcDbSpline
 62
7
  6
CONTINUOUS
 70
0
 71
3
 72
11
 73
7
 74
0
 42
0.0000001
 43
0.0000001
 44
0.0000000001
 40
0.0
 40
0.0
 40
0.0
 40
0.0
 40
0.2833571739
 40
0.540436489
 40
0.7762631212
 40
1.0
 40
1.0
 40
1.0
 40
1.0
 10
42.8210565442
 20
129.1234121257
 30
0.0
 10
42.7073446288
 20
129.1750620497
 30
0.0
 10
42.4821323828
 20
129.2570369217
 30
0.0
 10
42.1412300107
 20
129.3089378145
 30
0.0
 10
41.8231632838
 20
129.2803422165
 30
0.0
 10
41.6313543775
 20
129.2052636608
 30
0.0
 10
41.5459567388
 20
129.1559483304
 30
0.0
  0
SPLINE
  5
381
100
AcDbEntity
  8
0
100
AcDbSpline
 62
7
  6
CONTINUOUS
 70
0
 71
3
 72
12
 73
8
 74
0
 42
0.0000001
 43
0.0000001
 44
0.0000000001
 40
0.0
 40
0.0
 40
0.0
 40
0.0
 40
0.2895700176
 40
0.5486410293
 40
0.7816368525
 40
0.8918393703
 40
1.0
 40
1.0
 40
1.0
 40
1.0
 10
40.2175081278
 20
127.7825990915
 30
0.0
 10
40.2175081278
 20
127.9599928587
 30
0.0
 10
40.2443971449
 20
128.2972971853
 30
0.0
 10
40.3807604352
 20
128.760475577
 30
0.0
 10
40.5767777307
 20
129.0800354052
 30
0.0
 10
40.7746927254
 20
129.2747083953
 30
0.0
 10
40.8850261863
 20
129.3517034748
 30
0.0
 10
40.9424060878
 20
129.3848393443
 30
0.0
  0
SPLINE
  5
382
100
AcDbEntity
  8
0
100
AcDbSpline
 62
7
  6
CONTINUOUS
 70
0
 71
3
 72
22
 73
18
 74
0
 42
0.0000001
 43
0.0000001
 44
0.0000000001
 40
0.0
 40
0.0
 40
0.0
 40
0.0
 40
0.0635188232
 40
0.1312575918
 40
0.2023681757
 40
0.2758760439
 40
0.4253460586
 40
0.4990819407
 40
0.5705667319
 40
0.638780482
 40
0.7028861184
 40
0.762310664
 40
0.8168418062
 40
0.8667396053
 40
0.9128461174
 40
0.956623047
 40
1.0
 40
1.0
 40
1.0
 40
1.0
 10
46.0511633603
 20
124.4146128667
 30
0.0
 10
46.0511633603
 20
124.622454527
 30
0.0
 10
46.0214080322
 20
125.0522531596
 30
0.0
 10
45.899737897
 20
125.7043562334
 30
0.0
 10
45.7022163845
 20
126.3718275029
 30
0.0
 10
45.3423402089
 20
127.2653983785
 30
0.0
 10
44.8584835517
 20
128.1143672895
 30
0.0
 10
44.2724613208
 20
128.8813984867
 30
0.0
 10
43.7972176888
 20
129.3947523586
 30
0.0
 10
43.2958100523
 20
129.8363289448
 30
0.0
 10
42.7797392855
 20
130.1958376039
 30
0.0
 10
42.2607264693
 20
130.4647925037
 30
0.0
 10
41.7502030107
 20
130.6365866021
 30
0.0
 10
41.2592371298
 20
130.7061720809
 30
0.0
 10
40.798928173
 20
130.6695705755
 30
0.0
 10
40.3822750934
 20
130.5249906494
 30
0.0
 10
40.1448374094
 20
130.3597787517
 30
0.0
 10
40.039816462
 20
130.2643003931
 30
0.0
  0
SPLINE
  5
383
100
AcDbEntity
  8
0
100
AcDbSpline
 62
7
  6
CONTINUOUS
 70
0
 71
3
 72
12
 73
8
 74
0
 42
0.0000001
 43
0.0000001
 44
0.0000000001
 40
0.0
 40
0.0
 40
0.0
 40
0.0
 40
0.2895700176
 40
0.5486410293
 40
0.7816368525
 40
0.8918393703
 40
1.0
 40
1.0
 40
1.0
 40
1.0
 10
49.7634894173
 20
122.2713489055
 30
0.0
 10
49.7634894173
 20
122.4487426727
 30
0.0
 10
49.7903784344
 20
122.7860469992
 30
0.0
 10
49.9267417247
 20
123.249225391
 30
0.0
 10
50.1227590202
 20
123.5687852192
 30
0.0
 10
50.3206740149
 20
123.7634582093
 30
0.0
 10
50.4310074758
 20
123.8404532888
 30
0.0
 10
50.4883873773
 20
123.8735891582
 30
0.0
  0
SPLINE
  5
384
100
AcDbEntity
  8
0
100
AcDbSpline
 62
7
  6
CONTINUOUS
 70
0
 71
3
 72
26
 73
22
 74
0
 42
0.0000001
 43
0.0000001
 44
0.0000000001
 40
0.0
 40
0.0
 40
0.0
 40
0.0
 40
0.0563453109
 40
0.1127398704
 40
0.1692508492
 40
0.2260257515
 40
0.2834276545
 40
0.3126751094
 40
0.3426163687
 40
0.3737469931
 40
0.4067034704
 40
0.4415486378
 40
0.4771632449
 40
0.5124590783
 40
0.547112273
 40
0.6146848683
 40
0.6806922757
 40
0.7456671119
 40
0.809924787
 40
0.8736576537
 40
1.0
 40
1.0
 40
1.0
 40
1.0
 10
46.3593364158
 20
132.8103617667
 30
0.0
 10
46.2684360286
 20
132.6740963524
 30
0.0
 10
46.090589625
 20
132.3987121686
 30
0.0
 10
45.8395938356
 20
131.9753518009
 30
0.0
 10
45.6098963402
 20
131.5384448897
 30
0.0
 10
45.4110736687
 20
131.0833063369
 30
0.0
 10
45.2862046519
 20
130.6837216865
 30
0.0
 10
45.2308851352
 20
130.3486659094
 30
0.0
 10
45.2219409553
 20
130.0852547857
 30
0.0
 10
45.2625045102
 20
129.8128220647
 30
0.0
 10
45.3760830799
 20
129.5443111927
 30
0.0
 10
45.5728604062
 20
129.3111418221
 30
0.0
 10
45.8282515299
 20
129.1351944811
 30
0.0
 10
46.1103816437
 20
129.011403144
 30
0.0
 10
46.4949588017
 20
128.899474494
 30
0.0
 10
46.9803490636
 20
128.8265183586
 30
0.0
 10
47.5572798527
 20
128.7980562444
 30
0.0
 10
48.1251008371
 20
128.8068902016
 30
0.0
 10
48.6851621124
 20
128.8410235314
 30
0.0
 10
49.421326459
 20
128.910874781
 30
0.0
 10
49.9692139772
 20
128.9843543323
 30
0.0
 10
50.3323760739
 20
129.0392747997
 30
0.0
  0
SPLINE
  5
385
100
AcDbEntity
  8
0
100
AcDbSpline
 62
7
  6
CONTINUOUS
 70
0
 71
3
 72
18
 73
14
 74
0
 42
0.0000001
 43
0.0000001
 44
0.0000000001
 40
0.0
 40
0.0
 40
0.0
 40
0.0
 40
0.1295176707
 40
0.2569642371
 40
0.3819103821
 40
0.5038527579
 40
0.622371763
 40
0.680503277
 40
0.7382528051
 40
0.7965300197
 40
0.8572842788
 40
0.9238776936
 40
1.0
 40
1.0
 40
1.0
 40
1.0
 10
49.1754648398
 20
124.1730274502
 30
0.0
 10
49.07561035
 20
124.1648307526
 30
0.0
 10
48.8772064057
 20
124.151789585
 30
0.0
 10
48.5817501335
 20
124.1449081205
 30
0.0
 10
48.2921050253
 20
124.1545302202
 30
0.0
 10
48.0109034636
 20
124.1862897123
 30
0.0
 10
47.7849902537
 20
124.2392920777
 30
0.0
 10
47.6160852917
 20
124.3062504308
 30
0.0
 10
47.4979356314
 20
124.3720221987
 30
0.0
 10
47.3910538781
 20
124.4587570348
 30
0.0
 10
47.3020179027
 20
124.5734170278
 30
0.0
 10
47.2423058536
 20
124.7212773614
 30
0.0
 10
47.2304870757
 20
124.8324840341
 30
0.0
 10
47.2304870757
 20
124.89136959
 30
0.0
  0
SPLINE
  5
386
100
AcDbEntity
  8
0
100
AcDbSpline
 62
7
  6
CONTINUOUS
 70
0
 71
3
 72
16
 73
12
 74
0
 42
0.0000001
 43
0.0000001
 44
0.0000000001
 40
0.0
 40
0.0
 40
0.0
 40
0.0
 40
0.2450111448
 40
0.3689264915
 40
0.4940953359
 40
0.6208473344
 40
0.7494895757
 40
0.814455243
 40
0.8793300264
 40
0.9425037136
 40
1.0
 40
1.0
 40
1.0
 40
1.0
 10
50.3323760739
 20
129.0392747997
 30
0.0
 10
50.0266218329
 20
128.7382410531
 30
0.0
 10
49.5715427024
 20
128.2794276402
 30
0.0
 10
48.9799928537
 20
127.6478530548
 30
0.0
 10
48.5425318265
 20
127.1559284158
 30
0.0
 10
48.1180394057
 20
126.6419571549
 30
0.0
 10
47.7848792432
 20
126.1897562255
 30
0.0
 10
47.5442491745
 20
125.8060696944
 30
0.0
 10
47.3862126179
 20
125.5066488237
 30
0.0
 10
47.2681121203
 20
125.2031533995
 30
0.0
 10
47.2304870757
 20
124.9920602237
 30
0.0
 10
47.2304870757
 20
124.89136959
 30
0.0
  0
SPLINE
  5
387
100
AcDbEntity
  8
0
100
AcDbSpline
 62
7
  6
CONTINUOUS
 70
0
 71
3
 72
16
 73
12
 74
0
 42
0.0000001
 43
0.0000001
 44
0.0000000001
 40
0.0
 40
0.0
 40
0.0
 40
0.0
 40
0.2466666411
 40
0.3714925721
 40
0.4975699977
 40
0.6250870752
 40
0.7539421404
 40
0.8184977996
 40
0.8823135958
 40
0.9437485422
 40
1.0
 40
1.0
 40
1.0
 40
1.0
 10
59.0035164796
 20
122.642760649
 30
0.0
 10
58.7755201021
 20
122.4046150631
 30
0.0
 10
58.4371550621
 20
122.0410196301
 30
0.0
 10
58.0007326698
 20
121.5391251698
 30
0.0
 10
57.6804542899
 20
121.1475047913
 30
0.0
 10
57.373793062
 20
120.7383383499
 30
0.0
 10
57.1384113846
 20
120.3790158013
 30
0.0
 10
56.9742209637
 20
120.0766993792
 30
0.0
 10
56.8708129207
 20
119.8446023348
 30
0.0
 10
56.7976173284
 20
119.6126687392
 30
0.0
 10
56.7764683652
 20
119.4553041056
 30
0.0
 10
56.7764683652
 20
119.380119404
 30
0.0
  0
SPLINE
  5
388
100
AcDbEntity
  8
0
100
AcDbSpline
 62
7
  6
CONTINUOUS
 70
0
 71
3
 72
9
 73
5
 74
0
 42
0.0000001
 43
0.0000001
 44
0.0000000001
 40
0.0
 40
0.0
 40
0.0
 40
0.0
 40
0.4842934529
 40
1.0
 40
1.0
 40
1.0
 40
1.0
 10
35.6212743066
 20
127.5783442553
 30
0.0
 10
35.3631472555
 20
127.7273706064
 30
0.0
 10
34.8505627032
 20
128.0711807907
 30
0.0
 10
34.3803614117
 20
128.4702147145
 30
0.0
 10
34.148770002
 20
128.6872456022
 30
0.0
  0
SPLINE
  5
389
100
AcDbEntity
  8
0
100
AcDbSpline
 62
7
  6
CONTINUOUS
 70
0
 71
3
 72
15
 73
11
 74
0
 42
0.0000001
 43
0.0000001
 44
0.0000000001
 40
0.0
 40
0.0
 40
0.0
 40
0.0
 40
0.1555254231
 40
0.3026892344
 40
0.4404877815
 40
0.5684616131
 40
0.6868437043
 40
0.7967158842
 40
0.9001187084
 40
1.0
 40
1.0
 40
1.0
 40
1.0
 10
30.8917352782
 20
134.3385591674
 30
0.0
 10
30.8273207778
 20
134.616732803
 30
0.0
 10
30.7259400345
 20
135.1641289409
 30
0.0
 10
30.6590774249
 20
135.9715399466
 30
0.0
 10
30.6824023748
 20
136.7311705422
 30
0.0
 10
30.7959517714
 20
137.4296029873
 30
0.0
 10
30.9985213105
 20
138.0545422048
 30
0.0
 10
31.2880208037
 20
138.5945507384
 30
0.0
 10
31.6605002452
 20
139.0382315193
 30
0.0
 10
31.9624939634
 20
139.2643400852
 30
0.0
 10
32.1213017315
 20
139.3560276531
 30
0.0
  0
SPLINE
  5
38A
100
AcDbEntity
  8
0
100
AcDbSpline
 62
7
  6
CONTINUOUS
 70
0
 71
3
 72
11
 73
7
 74
0
 42
0.0000001
 43
0.0000001
 44
0.0000000001
 40
0.0
 40
0.0
 40
0.0
 40
0.0
 40
0.2848443418
 40
0.5445152259
 40
0.7809897299
 40
1.0
 40
1.0
 40
1.0
 40
1.0
 10
106.7562250309
 20
132.1101290454
 30
0.0
 10
106.7562250309
 20
132.3143588687
 30
0.0
 10
106.7297055866
 20
132.7056504271
 30
0.0
 10
106.597685943
 20
133.2531065204
 30
0.0
 10
106.3768159264
 20
133.7203851326
 30
0.0
 10
106.1662125443
 20
133.9759062925
 30
0.0
 10
106.0500237647
 20
134.0815369725
 30
0.0
  0
SPLINE
  5
38B
100
AcDbEntity
  8
0
100
AcDbSpline
 62
7
  6
CONTINUOUS
 70
0
 71
3
 72
19
 73
15
 74
0
 42
0.0000001
 43
0.0000001
 44
0.0000000001
 40
0.0
 40
0.0
 40
0.0
 40
0.0
 40
0.1286321268
 40
0.270156362
 40
0.4172452811
 40
0.561529281
 40
0.6301804291
 40
0.695319874
 40
0.7563146454
 40
0.8127953283
 40
0.8647372238
 40
0.9125500068
 40
0.9571593823
 40
1.0
 40
1.0
 40
1.0
 40
1.0
 10
100.9226183739
 20
128.742114776
 30
0.0
 10
100.9226183739
 20
129.041278471
 30
0.0
 10
101.0063146406
 20
129.6702965101
 30
0.0
 10
101.3186744827
 20
130.5939378091
 30
0.0
 10
101.7999886984
 20
131.4835030388
 30
0.0
 10
102.3182660749
 20
132.1472065854
 30
0.0
 10
102.7846936489
 20
132.5965174532
 30
0.0
 10
103.1421079262
 20
132.8763414451
 30
0.0
 10
103.5053124883
 20
133.0985398939
 30
0.0
 10
103.8669477059
 20
133.2583581728
 30
0.0
 10
104.2198036297
 20
133.3521291147
 30
0.0
 10
104.5569720105
 20
133.376958913
 30
0.0
 10
104.8709416424
 20
133.3309113447
 30
0.0
 10
105.0611625387
 20
133.2518889308
 30
0.0
 10
105.147445142
 20
133.2020632991
 30
0.0
  0
SPLINE
  5
38C
100
AcDbEntity
  8
0
100
AcDbSpline
 62
7
  6
CONTINUOUS
 70
0
 71
3
 72
18
 73
14
 74
0
 42
0.0000001
 43
0.0000001
 44
0.0000000001
 40
0.0
 40
0.0
 40
0.0
 40
0.0
 40
0.0428475388
 40
0.0874645981
 40
0.1352861052
 40
0.1872378663
 40
0.243729151
 40
0.3047349736
 40
0.4383698049
 40
0.5826767595
 40
0.7297914406
 40
0.8713426305
 40
1.0
 40
1.0
 40
1.0
 40
1.0
 10
101.5439574427
 20
127.7770075299
 30
0.0
 10
101.6179126687
 20
127.7343004984
 30
0.0
 10
101.780957733
 20
127.6665684447
 30
0.0
 10
102.0500724076
 20
127.6270999688
 30
0.0
 10
102.3390763956
 20
127.64837812
 30
0.0
 10
102.641521835
 20
127.7287573904
 30
0.0
 10
102.9515176775
 20
127.8657371402
 30
0.0
 10
103.3794467243
 20
128.1276552919
 30
0.0
 10
103.8892078682
 20
128.5791606022
 30
0.0
 10
104.4130844204
 20
129.2498652199
 30
0.0
 10
104.8257817356
 20
130.0125752635
 30
0.0
 10
105.0934894517
 20
130.8042131207
 30
0.0
 10
105.1652384532
 20
131.3433915742
 30
0.0
 10
105.1652384532
 20
131.5998221534
 30
0.0
  0
SPLINE
  5
38D
100
AcDbEntity
  8
0
100
AcDbSpline
 62
7
  6
CONTINUOUS
 70
0
 71
3
 72
12
 73
8
 74
0
 42
0.0000001
 43
0.0000001
 44
0.0000000001
 40
0.0
 40
0.0
 40
0.0
 40
0.0
 40
0.1081595286
 40
0.2183667051
 40
0.4513482999
 40
0.7104482268
 40
1.0
 40
1.0
 40
1.0
 40
1.0
 10
82.8557135015
 20
116.6369078242
 30
0.0
 10
82.8081671742
 20
116.6643566496
 30
0.0
 10
82.7167318317
 20
116.7281361032
 30
0.0
 10
82.5527913372
 20
116.8894749435
 30
0.0
 10
82.3903257403
 20
117.1542233438
 30
0.0
 10
82.2773734737
 20
117.5380157129
 30
0.0
 10
82.2550770714
 20
117.8174954091
 30
0.0
 10
82.2550770714
 20
117.9644691138
 30
0.0
  0
SPLINE
  5
38E
100
AcDbEntity
  8
0
100
AcDbSpline
 62
7
  6
CONTINUOUS
 70
0
 71
3
 72
20
 73
16
 74
0
 42
0.0000001
 43
0.0000001
 44
0.0000000001
 40
0.0
 40
0.0
 40
0.0
 40
0.0
 40
0.0428318866
 40
0.0874324883
 40
0.1352360203
 40
0.1871678945
 40
0.243637349
 40
0.3046195068
 40
0.3697450703
 40
0.4383812694
 40
0.5826340794
 40
0.7296939675
 40
0.8711918814
 40
0.9375938816
 40
1.0
 40
1.0
 40
1.0
 40
1.0
 10
82.5557139785
 20
116.1172816463
 30
0.0
 10
82.6419961511
 20
116.0674560603
 30
0.0
 10
82.8322177923
 20
115.9884353177
 30
0.0
 10
83.1461878015
 20
115.9423881471
 30
0.0
 10
83.4833582971
 20
115.9672162034
 30
0.0
 10
83.8362154914
 20
116.0609894273
 30
0.0
 10
84.1978502137
 20
116.2208087287
 30
0.0
 10
84.5610522328
 20
116.4430049135
 30
0.0
 10
84.9184630718
 20
116.7228270831
 30
0.0
 10
85.3848786308
 20
117.1721185747
 30
0.0
 10
85.9031905957
 20
117.8359133921
 30
0.0
 10
86.3843592203
 20
118.7250581304
 30
0.0
 10
86.6505833158
 20
119.5122187812
 30
0.0
 10
86.7608435832
 20
120.1322149612
 30
0.0
 10
86.7805416296
 20
120.4320628595
 30
0.0
 10
86.7805416296
 20
120.5772316986
 30
0.0
  0
SPLINE
  5
38F
100
AcDbEntity
  8
0
100
AcDbSpline
 62
7
  6
CONTINUOUS
 70
0
 71
3
 72
15
 73
11
 74
0
 42
0.0000001
 43
0.0000001
 44
0.0000000001
 40
0.0
 40
0.0
 40
0.0
 40
0.0
 40
0.1141543519
 40
0.237325601
 40
0.366974755
 40
0.4999984147
 40
0.6330222943
 40
0.7626720931
 40
0.8858443543
 40
1.0
 40
1.0
 40
1.0
 40
1.0
 10
104.8116688708
 20
121.9242195116
 30
0.0
 10
105.0440222567
 20
122.0583680007
 30
0.0
 10
105.5029617948
 20
122.3800813722
 30
0.0
 10
106.13443754
 20
122.970878175
 30
0.0
 10
106.7163765647
 20
123.6692440793
 30
0.0
 10
107.226859826
 20
124.4489811446
 30
0.0
 10
107.6468868802
 20
125.2809445658
 30
0.0
 10
107.9607179267
 20
126.1341069162
 30
0.0
 10
108.1566245152
 20
126.9763865578
 30
0.0
 10
108.2057672894
 20
127.5347018322
 30
0.0
 10
108.2057672894
 20
127.8030030524
 30
0.0
  0
SPLINE
  5
390
100
AcDbEntity
  8
0
100
AcDbSpline
 62
7
  6
CONTINUOUS
 70
0
 71
3
 72
14
 73
10
 74
0
 42
0.0000001
 43
0.0000001
 44
0.0000000001
 40
0.0
 40
0.0
 40
0.0
 40
0.0
 40
0.2892791457
 40
0.4225450404
 40
0.5484933843
 40
0.6678929979
 40
0.7818680973
 40
0.8919518968
 40
1.0
 40
1.0
 40
1.0
 40
1.0
 10
100.9225977661
 20
137.3153288753
 30
0.0
 10
101.2298607067
 20
137.4927261578
 30
0.0
 10
101.7015903233
 20
137.7172504644
 30
0.0
 10
102.3485190844
 20
137.9058814868
 30
0.0
 10
102.8077056598
 20
137.9828884649
 30
0.0
 10
103.2495358354
 20
137.9982762794
 30
0.0
 10
103.6698335067
 20
137.9513856831
 30
0.0
 10
104.0641074013
 20
137.8423945664
 30
0.0
 10
104.3077609484
 20
137.7282621186
 30
0.0
 10
104.4225266421
 20
137.6620036587
 30
0.0
  0
SPLINE
  5
391
100
AcDbEntity
  8
0
100
AcDbSpline
 62
7
  6
CONTINUOUS
 70
0
 71
3
 72
10
 73
6
 74
0
 42
0.0000001
 43
0.0000001
 44
0.0000000001
 40
0.0
 40
0.0
 40
0.0
 40
0.0
 40
0.235261379
 40
0.4770848103
 40
1.0
 40
1.0
 40
1.0
 40
1.0
 10
80.891494791
 20
116.5007411174
 30
0.0
 10
80.9717809859
 20
116.4543911808
 30
0.0
 10
81.1450822316
 20
116.3773826923
 30
0.0
 10
81.532142842
 20
116.2930803824
 30
0.0
 10
81.8403025603
 20
116.316108308
 30
0.0
 10
82.0418078834
 20
116.3591693581
 30
0.0
  0
SPLINE
  5
392
100
AcDbEntity
  8
0
100
AcDbSpline
 62
7
  6
CONTINUOUS
 70
0
 71
3
 72
18
 73
14
 74
0
 42
0.0000001
 43
0.0000001
 44
0.0000000001
 40
0.0
 40
0.0
 40
0.0
 40
0.0
 40
0.0428475388
 40
0.0874645981
 40
0.1352861052
 40
0.1872378663
 40
0.243729151
 40
0.3047349736
 40
0.4383698049
 40
0.5826767595
 40
0.7297914406
 40
0.8713426305
 40
1.0
 40
1.0
 40
1.0
 40
1.0
 10
91.9980556404
 20
122.2657114526
 30
0.0
 10
92.0720108663
 20
122.2230044211
 30
0.0
 10
92.2350559306
 20
122.1552723674
 30
0.0
 10
92.5041706053
 20
122.1158038915
 30
0.0
 10
92.7931745933
 20
122.1370820427
 30
0.0
 10
93.0956200326
 20
122.2174613131
 30
0.0
 10
93.4056158751
 20
122.354441063
 30
0.0
 10
93.8335449219
 20
122.6163592146
 30
0.0
 10
94.3433060659
 20
123.0678645249
 30
0.0
 10
94.867182618
 20
123.7385691427
 30
0.0
 10
95.2798799332
 20
124.5012791862
 30
0.0
 10
95.5475876493
 20
125.2929170434
 30
0.0
 10
95.6193366508
 20
125.832095497
 30
0.0
 10
95.6193366508
 20
126.0885260762
 30
0.0
  0
SPLINE
  5
393
100
AcDbEntity
  8
0
100
AcDbSpline
 62
7
  6
CONTINUOUS
 70
0
 71
3
 72
12
 73
8
 74
0
 42
0.0000001
 43
0.0000001
 44
0.0000000001
 40
0.0
 40
0.0
 40
0.0
 40
0.0
 40
0.1081592661
 40
0.2183613031
 40
0.4513561008
 40
0.7104298246
 40
1.0
 40
1.0
 40
1.0
 40
1.0
 10
92.1016166638
 20
121.6285792528
 30
0.0
 10
92.0442371465
 20
121.6617142139
 30
0.0
 10
91.9339023535
 20
121.7387058128
 30
0.0
 10
91.7359909634
 20
121.9333804366
 30
0.0
 10
91.5399684043
 20
122.2529375142
 30
0.0
 10
91.4036067518
 20
122.7161187864
 30
0.0
 10
91.3767165715
 20
123.0534247053
 30
0.0
 10
91.3767165715
 20
123.2308186987
 30
0.0
  0
SPLINE
  5
394
100
AcDbEntity
  8
0
100
AcDbSpline
 62
7
  6
CONTINUOUS
 70
0
 71
3
 72
13
 73
9
 74
0
 42
0.0000001
 43
0.0000001
 44
0.0000000001
 40
0.0
 40
0.0
 40
0.0
 40
0.0
 40
0.1257671237
 40
0.2531249191
 40
0.3798466067
 40
0.5055811106
 40
0.7542803536
 40
1.0
 40
1.0
 40
1.0
 40
1.0
 10
90.4708037442
 20
120.8290972334
 30
0.0
 10
90.2860414004
 20
120.888137422
 30
0.0
 10
89.9183164647
 20
121.0197942618
 30
0.0
 10
89.373120727
 20
121.2341898014
 30
0.0
 10
88.83211614
 20
121.4588734153
 30
0.0
 10
88.1220801294
 20
121.7642592638
 30
0.0
 10
87.2485451273
 20
122.1538572783
 30
0.0
 10
86.5554626999
 20
122.4718066715
 30
0.0
 10
86.2115913564
 20
122.6310759545
 30
0.0
  0
SPLINE
  5
395
100
AcDbEntity
  8
0
100
AcDbSpline
 62
7
  6
CONTINUOUS
 70
0
 71
3
 72
20
 73
16
 74
0
 42
0.0000001
 43
0.0000001
 44
0.0000000001
 40
0.0
 40
0.0
 40
0.0
 40
0.0
 40
0.0433990618
 40
0.0895426293
 40
0.1393560545
 40
0.1933231922
 40
0.2515400029
 40
0.3137897061
 40
0.3796092146
 40
0.4483496932
 40
0.5912588438
 40
0.735536404
 40
0.8738368429
 40
0.9387906177
 40
1.0
 40
1.0
 40
1.0
 40
1.0
 10
91.7912867304
 20
120.4071870655
 30
0.0
 10
91.9170742279
 20
120.3669842133
 30
0.0
 10
92.1873994316
 20
120.315309054
 30
0.0
 10
92.6139244854
 20
120.3260538017
 30
0.0
 10
93.0623464368
 20
120.4212956846
 30
0.0
 10
93.524242687
 20
120.5982096695
 30
0.0
 10
93.9914564424
 20
120.8529099066
 30
0.0
 10
94.4554383838
 20
121.180433757
 30
0.0
 10
94.9076186034
 20
121.5745450357
 30
0.0
 10
95.4906925113
 20
122.1864912843
 30
0.0
 10
96.1334260028
 20
123.0649429798
 30
0.0
 10
96.7265170649
 20
124.2213167192
 30
0.0
 10
97.052204885
 20
125.233876753
 30
0.0
 10
97.186458743
 20
126.0284343807
 30
0.0
 10
97.2103232285
 20
126.4125833013
 30
0.0
 10
97.2103232285
 20
126.5988329682
 30
0.0
  0
SPLINE
  5
396
100
AcDbEntity
  8
0
100
AcDbSpline
 62
7
  6
CONTINUOUS
 70
0
 71
3
 72
9
 73
5
 74
0
 42
0.0000001
 43
0.0000001
 44
0.0000000001
 40
0.0
 40
0.0
 40
0.0
 40
0.0
 40
0.4835873787
 40
1.0
 40
1.0
 40
1.0
 40
1.0
 10
94.2644365471
 20
130.6066906611
 30
0.0
 10
94.1117850058
 20
130.7454932068
 30
0.0
 10
93.7874431901
 20
131.0229375442
 30
0.0
 10
93.4553554491
 20
131.2908133518
 30
0.0
 10
93.2826297286
 20
131.4275963965
 30
0.0
  0
SPLINE
  5
397
100
AcDbEntity
  8
0
100
AcDbSpline
 62
7
  6
CONTINUOUS
 70
0
 71
3
 72
23
 73
19
 74
0
 42
0.0000001
 43
0.0000001
 44
0.0000000001
 40
0.0
 40
0.0
 40
0.0
 40
0.0
 40
0.0428148306
 40
0.087397106
 40
0.1351803507
 40
0.1870900944
 40
0.2435370823
 40
0.3044945921
 40
0.3695922806
 40
0.4381999985
 40
0.5094975488
 40
0.5825335641
 40
0.6562771683
 40
0.7296645327
 40
0.8016530058
 40
0.871253617
 40
0.9376106706
 40
1.0
 40
1.0
 40
1.0
 40
1.0
 10
78.3308652853
 20
114.5150280975
 30
0.0
 10
78.158283952
 20
114.6146656546
 30
0.0
 10
77.8311334429
 20
114.8650580757
 30
0.0
 10
77.437436145
 20
115.3628795269
 30
0.0
 10
77.1432478994
 20
115.971696958
 30
0.0
 10
76.9527711501
 20
116.6766474539
 30
0.0
 10
76.867970033
 20
117.4628603927
 30
0.0
 10
76.8896423332
 20
118.3141736089
 30
0.0
 10
77.0168734412
 20
119.2130240449
 30
0.0
 10
77.2468163263
 20
120.1406324663
 30
0.0
 10
77.5745475674
 20
121.0774299446
 30
0.0
 10
77.9930916778
 20
122.0035254043
 30
0.0
 10
78.4935286627
 20
122.8991729885
 30
0.0
 10
79.0651667298
 20
123.7452908045
 30
0.0
 10
79.6958316575
 20
124.5237852339
 30
0.0
 10
80.3721438773
 20
125.2182308383
 30
0.0
 10
81.0796901962
 20
125.8136356134
 30
0.0
 10
81.5793115128
 20
126.1475440126
 30
0.0
 10
81.8307941613
 20
126.2927367207
 30
0.0
  0
SPLINE
  5
398
100
AcDbEntity
  8
0
100
AcDbSpline
 62
7
  6
CONTINUOUS
 70
0
 71
3
 72
12
 73
8
 74
0
 42
0.0000001
 43
0.0000001
 44
0.0000000001
 40
0.0
 40
0.0
 40
0.0
 40
0.0
 40
0.1081620389
 40
0.2183637051
 40
0.4513660653
 40
0.7104193096
 40
1.0
 40
1.0
 40
1.0
 40
1.0
 10
75.5417678747
 20
106.1732149153
 30
0.0
 10
75.6204633116
 20
106.1277811138
 30
0.0
 10
75.7875806555
 20
106.0495804396
 30
0.0
 10
76.1544783707
 20
105.9479537132
 30
0.0
 10
76.6684098912
 20
105.9343358574
 30
0.0
 10
77.3120048254
 20
106.0899380607
 30
0.0
 10
77.7310337613
 20
106.2893008692
 30
0.0
 10
77.9417230566
 20
106.4109416645
 30
0.0
  0
SPLINE
  5
399
100
AcDbEntity
  8
0
100
AcDbSpline
 62
7
  6
CONTINUOUS
 70
0
 71
3
 72
12
 73
8
 74
0
 42
0.0000001
 43
0.0000001
 44
0.0000000001
 40
0.0
 40
0.0
 40
0.0
 40
0.0
 40
0.1081612896
 40
0.2183623225
 40
0.4513640816
 40
0.710417852
 40
1.0
 40
1.0
 40
1.0
 40
1.0
 10
74.1275484244
 20
106.9896964244
 30
0.0
 10
74.0488504078
 20
107.0351317058
 30
0.0
 10
73.8975611079
 20
107.1407602733
 30
0.0
 10
73.6260882268
 20
107.4076960276
 30
0.0
 10
73.3573166141
 20
107.8459808874
 30
0.0
 10
73.1702670034
 20
108.4811780339
 30
0.0
 10
73.1334051877
 20
108.9437692849
 30
0.0
 10
73.1334051877
 20
109.1870628371
 30
0.0
  0
SPLINE
  5
39A
100
AcDbEntity
  8
0
100
AcDbSpline
 62
7
  6
CONTINUOUS
 70
0
 71
3
 72
9
 73
5
 74
0
 42
0.0000001
 43
0.0000001
 44
0.0000000001
 40
0.0
 40
0.0
 40
0.0
 40
0.0
 40
0.4835873787
 40
1.0
 40
1.0
 40
1.0
 40
1.0
 10
103.8103383495
 20
136.1179867383
 30
0.0
 10
103.6576868082
 20
136.256789284
 30
0.0
 10
103.3333449925
 20
136.5342336215
 30
0.0
 10
103.0012572515
 20
136.802109429
 30
0.0
 10
102.828531531
 20
136.9388924737
 30
0.0
  0
SPLINE
  5
39B
100
AcDbEntity
  8
0
100
AcDbSpline
 62
7
  6
CONTINUOUS
 70
0
 71
3
 72
12
 73
8
 74
0
 42
0.0000001
 43
0.0000001
 44
0.0000000001
 40
0.0
 40
0.0
 40
0.0
 40
0.0
 40
0.1243363509
 40
0.2506944663
 40
0.5030288567
 40
0.7528084882
 40
1.0
 40
1.0
 40
1.0
 40
1.0
 10
100.0167055466
 20
126.3403933106
 30
0.0
 10
99.8890374944
 20
126.3811892095
 30
0.0
 10
99.6336596168
 20
126.4698034055
 30
0.0
 10
99.1264319692
 20
126.6615579035
 30
0.0
 10
98.4991989013
 20
126.9178019714
 30
0.0
 10
97.757186849
 20
127.2369196892
 30
0.0
 10
97.2676126593
 20
127.4544353561
 30
0.0
 10
97.0245561759
 20
127.5636318111
 30
0.0
  0
SPLINE
  5
39C
100
AcDbEntity
  8
0
100
AcDbSpline
 62
7
  6
CONTINUOUS
 70
0
 71
3
 72
20
 73
16
 74
0
 42
0.0000001
 43
0.0000001
 44
0.0000000001
 40
0.0
 40
0.0
 40
0.0
 40
0.0
 40
0.0433990618
 40
0.0895426293
 40
0.1393560545
 40
0.1933231922
 40
0.2515400029
 40
0.3137897061
 40
0.3796092146
 40
0.4483496932
 40
0.5912588438
 40
0.735536404
 40
0.8738368429
 40
0.9387906177
 40
1.0
 40
1.0
 40
1.0
 40
1.0
 10
101.3371885327
 20
125.9184831428
 30
0.0
 10
101.4629760303
 20
125.8782802906
 30
0.0
 10
101.733301234
 20
125.8266051313
 30
0.0
 10
102.1598262878
 20
125.837349879
 30
0.0
 10
102.6082482392
 20
125.9325917619
 30
0.0
 10
103.0701444893
 20
126.1095057468
 30
0.0
 10
103.5373582448
 20
126.3642059839
 30
0.0
 10
104.0013401862
 20
126.6917298342
 30
0.0
 10
104.4535204058
 20
127.0858411129
 30
0.0
 10
105.0365943137
 20
127.6977873616
 30
0.0
 10
105.6793278051
 20
128.576239057
 30
0.0
 10
106.2724188672
 20
129.7326127964
 30
0.0
 10
106.5981066874
 20
130.7451728303
 30
0.0
 10
106.7323605454
 20
131.539730458
 30
0.0
 10
106.7562250309
 20
131.9238793786
 30
0.0
 10
106.7562250309
 20
132.1101290454
 30
0.0
  0
SPLINE
  5
39D
100
AcDbEntity
  8
0
100
AcDbSpline
 62
7
  6
CONTINUOUS
 70
0
 71
3
 72
12
 73
8
 74
0
 42
0.0000001
 43
0.0000001
 44
0.0000000001
 40
0.0
 40
0.0
 40
0.0
 40
0.0
 40
0.1081592661
 40
0.2183613031
 40
0.4513561008
 40
0.7104298246
 40
1.0
 40
1.0
 40
1.0
 40
1.0
 10
101.6475184662
 20
127.13987533
 30
0.0
 10
101.5901389489
 20
127.1730102911
 30
0.0
 10
101.4798041559
 20
127.25000189
 30
0.0
 10
101.2818927658
 20
127.4446765139
 30
0.0
 10
101.0858702067
 20
127.7642335915
 30
0.0
 10
100.9495085542
 20
128.2274148636
 30
0.0
 10
100.9226183739
 20
128.5647207826
 30
0.0
 10
100.9226183739
 20
128.742114776
 30
0.0
  0
SPLINE
  5
39E
100
AcDbEntity
  8
0
100
AcDbSpline
 62
7
  6
CONTINUOUS
 70
0
 71
3
 72
12
 73
8
 74
0
 42
0.0000001
 43
0.0000001
 44
0.0000000001
 40
0.0
 40
0.0
 40
0.0
 40
0.0
 40
0.289573112
 40
0.548644401
 40
0.7816391749
 40
0.8918407396
 40
1.0
 40
1.0
 40
1.0
 40
1.0
 10
105.1652384532
 20
131.5998221534
 30
0.0
 10
105.1652384532
 20
131.7518757646
 30
0.0
 10
105.1421900691
 20
132.0409958417
 30
0.0
 10
105.025306753
 20
132.4380076047
 30
0.0
 10
104.8572909595
 20
132.7119149281
 30
0.0
 10
104.6876498616
 20
132.8787756758
 30
0.0
 10
104.5930788787
 20
132.9447703998
 30
0.0
 10
104.5438964403
 20
132.9731718537
 30
0.0
  0
SPLINE
  5
39F
100
AcDbEntity
  8
0
100
AcDbSpline
 62
7
  6
CONTINUOUS
 70
0
 71
3
 72
18
 73
14
 74
0
 42
0.0000001
 43
0.0000001
 44
0.0000000001
 40
0.0
 40
0.0
 40
0.0
 40
0.0
 40
0.1286568221
 40
0.2702040422
 40
0.4173194932
 40
0.5616281068
 40
0.6952637526
 40
0.7562705005
 40
0.8127630805
 40
0.8647125873
 40
0.9125341774
 40
0.9571523806
 40
1.0
 40
1.0
 40
1.0
 40
1.0
 10
82.2550770714
 20
117.9644691138
 30
0.0
 10
82.2550770714
 20
118.2123506955
 30
0.0
 10
82.3244266618
 20
118.7335490776
 30
0.0
 10
82.5832269816
 20
119.4987843515
 30
0.0
 10
82.9821398361
 20
120.2360794667
 30
0.0
 10
83.488558143
 20
120.8844354543
 30
0.0
 10
83.9813480294
 20
121.3208737
 30
0.0
 10
84.3950053394
 20
121.5740795907
 30
0.0
 10
84.6946611016
 20
121.7065141255
 30
0.0
 10
84.9870344649
 20
121.7841735172
 30
0.0
 10
85.2663957513
 20
121.8047572386
 30
0.0
 10
85.5265546255
 20
121.7666386557
 30
0.0
 10
85.6841476925
 20
121.7011211747
 30
0.0
 10
85.7556428972
 20
121.6598464959
 30
0.0
  0
SPLINE
  5
3A0
100
AcDbEntity
  8
0
100
AcDbSpline
 62
7
  6
CONTINUOUS
 70
0
 71
3
 72
12
 73
8
 74
0
 42
0.0000001
 43
0.0000001
 44
0.0000000001
 40
0.0
 40
0.0
 40
0.0
 40
0.0
 40
0.2895709725
 40
0.5486422641
 40
0.7816376893
 40
0.89183982
 40
1.0
 40
1.0
 40
1.0
 40
1.0
 10
86.7805416296
 20
120.5772316986
 30
0.0
 10
86.7805416296
 20
120.7546262659
 30
0.0
 10
86.7536526362
 20
121.0919317609
 30
0.0
 10
86.6172892255
 20
121.5551112768
 30
0.0
 10
86.4212715005
 20
121.8746711288
 30
0.0
 10
86.223356042
 20
122.0693430882
 30
0.0
 10
86.1130223915
 20
122.1463373154
 30
0.0
 10
86.0556424201
 20
122.1794726737
 30
0.0
  0
SPLINE
  5
3A1
100
AcDbEntity
  8
0
100
AcDbSpline
 62
7
  6
CONTINUOUS
 70
0
 71
3
 72
10
 73
6
 74
0
 42
0.0000001
 43
0.0000001
 44
0.0000000001
 40
0.0
 40
0.0
 40
0.0
 40
0.0
 40
0.5228926002
 40
0.7647292793
 40
1.0
 40
1.0
 40
1.0
 40
1.0
 10
85.5891188594
 20
122.5038901911
 30
0.0
 10
85.525641625
 20
122.6998563157
 30
0.0
 10
85.3914827018
 20
122.978130244
 30
0.0
 10
85.1250071475
 20
123.2710939958
 30
0.0
 10
84.9716904335
 20
123.3826369462
 30
0.0
 10
84.8914227071
 20
123.4289762207
 30
0.0
  0
SPLINE
  5
3A2
100
AcDbEntity
  8
0
100
AcDbSpline
 62
7
  6
CONTINUOUS
 70
0
 71
3
 72
12
 73
8
 74
0
 42
0.0000001
 43
0.0000001
 44
0.0000000001
 40
0.0
 40
0.0
 40
0.0
 40
0.0
 40
0.289573112
 40
0.548644401
 40
0.7816391749
 40
0.8918407396
 40
1.0
 40
1.0
 40
1.0
 40
1.0
 10
95.6193366508
 20
126.0885260762
 30
0.0
 10
95.6193366508
 20
126.2405796874
 30
0.0
 10
95.5962882667
 20
126.5296997644
 30
0.0
 10
95.4794049506
 20
126.9267115274
 30
0.0
 10
95.3113891571
 20
127.2006188508
 30
0.0
 10
95.1417480592
 20
127.3674795986
 30
0.0
 10
95.0471770763
 20
127.4334743225
 30
0.0
 10
94.997994638
 20
127.4618757764
 30
0.0
  0
SPLINE
  5
3A3
100
AcDbEntity
  8
0
100
AcDbSpline
 62
7
  6
CONTINUOUS
 70
0
 71
3
 72
19
 73
15
 74
0
 42
0.0000001
 43
0.0000001
 44
0.0000000001
 40
0.0
 40
0.0
 40
0.0
 40
0.0
 40
0.1286321268
 40
0.270156362
 40
0.4172452811
 40
0.561529281
 40
0.6301804291
 40
0.695319874
 40
0.7563146454
 40
0.8127953283
 40
0.8647372238
 40
0.9125500068
 40
0.9571593823
 40
1.0
 40
1.0
 40
1.0
 40
1.0
 10
91.3767165715
 20
123.2308186987
 30
0.0
 10
91.3767165715
 20
123.5299823937
 30
0.0
 10
91.4604128382
 20
124.1590004328
 30
0.0
 10
91.7727726803
 20
125.0826417318
 30
0.0
 10
92.2540868961
 20
125.9722069616
 30
0.0
 10
92.7723642726
 20
126.6359105081
 30
0.0
 10
93.2387918465
 20
127.085221376
 30
0.0
 10
93.5962061238
 20
127.3650453678
 30
0.0
 10
93.959410686
 20
127.5872438166
 30
0.0
 10
94.3210459035
 20
127.7470620955
 30
0.0
 10
94.6739018273
 20
127.8408330375
 30
0.0
 10
95.0110702081
 20
127.8656628357
 30
0.0
 10
95.32503984
 20
127.8196152674
 30
0.0
 10
95.5152607363
 20
127.7405928536
 30
0.0
 10
95.6015433396
 20
127.6907672218
 30
0.0
  0
SPLINE
  5
3A4
100
AcDbEntity
  8
0
100
AcDbSpline
 62
7
  6
CONTINUOUS
 70
0
 71
3
 72
11
 73
7
 74
0
 42
0.0000001
 43
0.0000001
 44
0.0000000001
 40
0.0
 40
0.0
 40
0.0
 40
0.0
 40
0.2848443418
 40
0.5445152259
 40
0.7809897299
 40
1.0
 40
1.0
 40
1.0
 40
1.0
 10
97.2103232285
 20
126.5988329682
 30
0.0
 10
97.2103232285
 20
126.8030627914
 30
0.0
 10
97.1838037842
 20
127.1943543499
 30
0.0
 10
97.0517841406
 20
127.7418104431
 30
0.0
 10
96.830914124
 20
128.2090890554
 30
0.0
 10
96.6203107419
 20
128.4646102152
 30
0.0
 10
96.5041219623
 20
128.5702408952
 30
0.0
  0
SPLINE
  5
3A5
100
AcDbEntity
  8
0
100
AcDbSpline
 62
7
  6
CONTINUOUS
 70
0
 71
3
 72
14
 73
10
 74
0
 42
0.0000001
 43
0.0000001
 44
0.0000000001
 40
0.0
 40
0.0
 40
0.0
 40
0.0
 40
0.2892791457
 40
0.4225450404
 40
0.5484933843
 40
0.6678929979
 40
0.7818680973
 40
0.8919518968
 40
1.0
 40
1.0
 40
1.0
 40
1.0
 10
81.8307941613
 20
114.8617028809
 30
0.0
 10
81.5235312208
 20
114.6843055984
 30
0.0
 10
81.0518016041
 20
114.4597812918
 30
0.0
 10
80.404872843
 20
114.2711502695
 30
0.0
 10
79.9456862676
 20
114.1941432913
 30
0.0
 10
79.503856092
 20
114.1787554768
 30
0.0
 10
79.0835584207
 20
114.2256460731
 30
0.0
 10
78.6892845261
 20
114.3346371898
 30
0.0
 10
78.445630979
 20
114.4487696376
 30
0.0
 10
78.3308652853
 20
114.5150280975
 30
0.0
  0
SPLINE
  5
3A6
100
AcDbEntity
  8
0
100
AcDbSpline
 62
7
  6
CONTINUOUS
 70
0
 71
3
 72
19
 73
15
 74
0
 42
0.0000001
 43
0.0000001
 44
0.0000000001
 40
0.0
 40
0.0
 40
0.0
 40
0.0
 40
0.1286321268
 40
0.270156362
 40
0.4172452811
 40
0.561529281
 40
0.6301804291
 40
0.695319874
 40
0.7563146454
 40
0.8127953283
 40
0.8647372238
 40
0.9125500068
 40
0.9571593823
 40
1.0
 40
1.0
 40
1.0
 40
1.0
 10
105.8723452344
 20
131.5998238531
 30
0.0
 10
105.8723452344
 20
131.3006601581
 30
0.0
 10
105.7886489676
 20
130.671642119
 30
0.0
 10
105.4762891255
 20
129.74800082
 30
0.0
 10
104.9949749098
 20
128.8584355903
 30
0.0
 10
104.4766975333
 20
128.1947320437
 30
0.0
 10
104.0102699593
 20
127.7454211758
 30
0.0
 10
103.652855682
 20
127.465597184
 30
0.0
 10
103.2896511199
 20
127.2433987352
 30
0.0
 10
102.9280159023
 20
127.0835804563
 30
0.0
 10
102.5751599785
 20
126.9898095144
 30
0.0
 10
102.2379915977
 20
126.9649797161
 30
0.0
 10
101.9240219659
 20
127.0110272844
 30
0.0
 10
101.7338010695
 20
127.0900496983
 30
0.0
 10
101.6475184662
 20
127.13987533
 30
0.0
  0
SPLINE
  5
3A7
100
AcDbEntity
  8
0
100
AcDbSpline
 62
7
  6
CONTINUOUS
 70
0
 71
3
 72
10
 73
6
 74
0
 42
0.0000001
 43
0.0000001
 44
0.0000000001
 40
0.0
 40
0.0
 40
0.0
 40
0.0
 40
0.2372719105
 40
0.4801594835
 40
1.0
 40
1.0
 40
1.0
 40
1.0
 10
77.7095013584
 20
118.3378250819
 30
0.0
 10
77.6358053354
 20
118.3803721463
 30
0.0
 10
77.494635224
 20
118.4812076118
 30
0.0
 10
77.2456839562
 20
118.7415828313
 30
0.0
 10
77.1130771652
 20
118.987908163
 30
0.0
 10
77.0470906488
 20
119.1622778844
 30
0.0
  0
SPLINE
  5
3A8
100
AcDbEntity
  8
0
100
AcDbSpline
 62
7
  6
CONTINUOUS
 70
0
 71
3
 72
12
 73
8
 74
0
 42
0.0000001
 43
0.0000001
 44
0.0000000001
 40
0.0
 40
0.0
 40
0.0
 40
0.0
 40
0.1080562379
 40
0.2183255197
 40
0.4516220416
 40
0.7108307443
 40
1.0
 40
1.0
 40
1.0
 40
1.0
 10
85.7722715784
 20
121.650024302
 30
0.0
 10
85.8186258361
 20
121.622016782
 30
0.0
 10
85.9076785786
 20
121.5573788657
 30
0.0
 10
86.0671221804
 20
121.3954927319
 30
0.0
 10
86.2248495943
 20
121.1323907588
 30
0.0
 10
86.3345714654
 20
120.753012298
 30
0.0
 10
86.3562793273
 20
120.4772186295
 30
0.0
 10
86.3562793273
 20
120.3322852062
 30
0.0
  0
SPLINE
  5
3A9
100
AcDbEntity
  8
0
100
AcDbSpline
 62
7
  6
CONTINUOUS
 70
0
 71
3
 72
22
 73
18
 74
0
 42
0.0000001
 43
0.0000001
 44
0.0000000001
 40
0.0
 40
0.0
 40
0.0
 40
0.0
 40
0.0433766023
 40
0.0871535619
 40
0.1332604337
 40
0.1831587189
 40
0.237690208
 40
0.2971148031
 40
0.3612200816
 40
0.4294329699
 40
0.5009165647
 40
0.5746512647
 40
0.7241204444
 40
0.7976288545
 40
0.868740173
 40
0.9364804617
 40
1.0
 40
1.0
 40
1.0
 40
1.0
 10
106.0500237647
 20
134.0815369725
 30
0.0
 10
105.9450037581
 20
134.1770137883
 30
0.0
 10
105.7075653427
 20
134.3422207596
 30
0.0
 10
105.2909131077
 20
134.4867977214
 30
0.0
 10
104.8306021564
 20
134.5233914695
 30
0.0
 10
104.339635743
 20
134.453797233
 30
0.0
 10
103.8291143873
 20
134.2819947826
 30
0.0
 10
103.3101077296
 20
134.0130330508
 30
0.0
 10
102.7940470912
 20
133.6535212311
 30
0.0
 10
102.2926520891
 20
133.2119465674
 30
0.0
 10
101.8174218921
 20
132.6985987035
 30
0.0
 10
101.2314139524
 20
131.9315749678
 30
0.0
 10
100.7475632525
 20
131.0826131966
 30
0.0
 10
100.3876893749
 20
130.1890441413
 30
0.0
 10
100.190165666
 20
129.5215669431
 30
0.0
 10
100.0684955305
 20
128.8694567879
 30
0.0
 10
100.0387385773
 20
128.4396527249
 30
0.0
 10
100.0387385773
 20
128.2318095837
 30
0.0
  0
SPLINE
  5
3AA
100
AcDbEntity
  8
0
100
AcDbSpline
 62
7
  6
CONTINUOUS
 70
0
 71
3
 72
11
 73
7
 74
0
 42
0.0000001
 43
0.0000001
 44
0.0000000001
 40
0.0
 40
0.0
 40
0.0
 40
0.0
 40
0.2238748563
 40
0.4597670349
 40
0.7167994583
 40
1.0
 40
1.0
 40
1.0
 40
1.0
 10
94.997994638
 20
127.4618757764
 30
0.0
 10
94.9129129953
 20
127.5110079959
 30
0.0
 10
94.7219121806
 20
127.5858938356
 30
0.0
 10
94.4052124614
 20
127.6148487291
 30
0.0
 10
94.0657459749
 20
127.5638820704
 30
0.0
 10
93.8414033906
 20
127.4828166631
 30
0.0
 10
93.7281226905
 20
127.4316883273
 30
0.0
  0
SPLINE
  5
3AB
100
AcDbEntity
  8
0
100
AcDbSpline
 62
7
  6
CONTINUOUS
 70
0
 71
3
 72
34
 73
30
 74
0
 42
0.0000001
 43
0.0000001
 44
0.0000000001
 40
0.0
 40
0.0
 40
0.0
 40
0.0
 40
0.0838824782
 40
0.1682020643
 40
0.2530094346
 40
0.33835122
 40
0.4242456913
 40
0.5106056123
 40
0.553849979
 40
0.5969758444
 40
0.6397062255
 40
0.681481139
 40
0.7211794829
 40
0.7567530764
 40
0.7853979969
 40
0.7964731862
 40
0.8053795232
 40
0.8123950797
 40
0.8179907248
 40
0.8227711915
 40
0.8273452842
 40
0.8321573997
 40
0.8374385411
 40
0.8496310013
 40
0.863920989
 40
0.8799873654
 40
0.9162616047
 40
0.9566462613
 40
1.0
 40
1.0
 40
1.0
 40
1.0
 10
100.1418285284
 20
136.8650204825
 30
0.0
 10
100.2830326229
 20
136.800828943
 30
0.0
 10
100.5664413318
 20
136.6726923761
 30
0.0
 10
100.9936868018
 20
136.4820461693
 30
0.0
 10
101.4245448003
 20
136.2928917296
 30
0.0
 10
101.8595030125
 20
136.1058594336
 30
0.0
 10
102.2989469908
 20
135.9220441851
 30
0.0
 10
102.6686397487
 20
135.773263555
 30
0.0
 10
102.9667255353
 20
135.6585179916
 30
0.0
 10
103.1906146329
 20
135.5756514201
 30
0.0
 10
103.4133210921
 20
135.4974879384
 30
0.0
 10
103.6317633551
 20
135.4264943177
 30
0.0
 10
103.8398116399
 20
135.3665067768
 30
0.0
 10
104.02704095
 20
135.3230585127
 30
0.0
 10
104.1652967179
 20
135.3030471997
 30
0.0
 10
104.2553637308
 20
135.3022022765
 30
0.0
 10
104.3051345294
 20
135.3079095175
 30
0.0
 10
104.3435310497
 20
135.3193906155
 30
0.0
 10
104.3714389296
 20
135.33632522
 30
0.0
 10
104.389286695
 20
135.3582244136
 30
0.0
 10
104.3976833672
 20
135.3835538171
 30
0.0
 10
104.3984324218
 20
135.4109406903
 30
0.0
 10
104.3909179777
 20
135.4516638619
 30
0.0
 10
104.3676762806
 20
135.5061819174
 30
0.0
 10
104.3267100053
 20
135.5734435579
 30
0.0
 10
104.2533879239
 20
135.6726252235
 30
0.0
 10
104.1395253288
 20
135.8011318456
 30
0.0
 10
103.9829559005
 20
135.9584632115
 30
0.0
 10
103.8696516035
 20
136.0640545567
 30
0.0
 10
103.8103383495
 20
136.1179867383
 30
0.0
  0
SPLINE
  5
3AC
100
AcDbEntity
  8
0
100
AcDbSpline
 62
7
  6
CONTINUOUS
 70
0
 71
3
 72
27
 73
23
 74
0
 42
0.0000001
 43
0.0000001
 44
0.0000000001
 40
0.0
 40
0.0
 40
0.0
 40
0.0
 40
0.1263374804
 40
0.1900678779
 40
0.2543230446
 40
0.3192953108
 40
0.385300058
 40
0.4188590666
 40
0.4529094987
 40
0.4875614863
 40
0.5228560829
 40
0.5584695343
 40
0.5933132483
 40
0.6262680448
 40
0.6573971792
 40
0.687337015
 40
0.7165832948
 40
0.773982977
 40
0.8307557021
 40
0.8872644761
 40
0.9436568615
 40
1.0
 40
1.0
 40
1.0
 40
1.0
 10
95.7574931588
 20
132.856450935
 30
0.0
 10
96.1206568368
 20
132.8015322177
 30
0.0
 10
96.6685494823
 20
132.7280540868
 30
0.0
 10
97.4047090474
 20
132.6582098638
 30
0.0
 10
97.9647952189
 20
132.624067481
 30
0.0
 10
98.5325295313
 20
132.6152808352
 30
0.0
 10
99.0109131419
 20
132.6387319193
 30
0.0
 10
99.3965488889
 20
132.6870872759
 30
0.0
 10
99.688670214
 20
132.7438882001
 30
0.0
 10
99.9794983931
 20
132.8286164541
 30
0.0
 10
100.261632656
 20
132.9523883364
 30
0.0
 10
100.5170238953
 20
133.1283438661
 30
0.0
 10
100.7137984466
 20
133.3615143837
 30
0.0
 10
100.8273744799
 20
133.6300253393
 30
0.0
 10
100.8679325528
 20
133.9024567902
 30
0.0
 10
100.858989129
 20
134.1658670018
 30
0.0
 10
100.8036653292
 20
134.5009224702
 30
0.0
 10
100.6787927784
 20
134.9005073456
 30
0.0
 10
100.4799628407
 20
135.3556445907
 30
0.0
 10
100.2502620184
 20
135.7925516004
 30
0.0
 10
99.999260546
 20
136.2159105577
 30
0.0
 10
99.8214112398
 20
136.4912942201
 30
0.0
 10
99.7305091043
 20
136.627559158
 30
0.0
  0
SPLINE
  5
3AD
100
AcDbEntity
  8
0
100
AcDbSpline
 62
7
  6
CONTINUOUS
 70
0
 71
3
 72
12
 73
8
 74
0
 42
0.0000001
 43
0.0000001
 44
0.0000000001
 40
0.0
 40
0.0
 40
0.0
 40
0.0
 40
0.1081592661
 40
0.2183613031
 40
0.4513561008
 40
0.7104298246
 40
1.0
 40
1.0
 40
1.0
 40
1.0
 10
95.6015433396
 20
127.6907672218
 30
0.0
 10
95.658922857
 20
127.6576322607
 30
0.0
 10
95.7692576499
 20
127.5806406618
 30
0.0
 10
95.96716904
 20
127.3859660379
 30
0.0
 10
96.1631915991
 20
127.0664089603
 30
0.0
 10
96.2995532516
 20
126.6032276882
 30
0.0
 10
96.326443432
 20
126.2659217692
 30
0.0
 10
96.326443432
 20
126.0885277758
 30
0.0
  0
SPLINE
  5
3AE
100
AcDbEntity
  8
0
100
AcDbSpline
 62
7
  6
CONTINUOUS
 70
0
 71
3
 72
12
 73
8
 74
0
 42
0.0000001
 43
0.0000001
 44
0.0000000001
 40
0.0
 40
0.0
 40
0.0
 40
0.0
 40
0.1081592661
 40
0.2183613031
 40
0.4513561008
 40
0.7104298246
 40
1.0
 40
1.0
 40
1.0
 40
1.0
 10
105.147445142
 20
133.2020632991
 30
0.0
 10
105.2048246594
 20
133.168928338
 30
0.0
 10
105.3151594523
 20
133.091936739
 30
0.0
 10
105.5130708424
 20
132.8972621152
 30
0.0
 10
105.7090934015
 20
132.5777050376
 30
0.0
 10
105.845455054
 20
132.1145237655
 30
0.0
 10
105.8723452344
 20
131.7772178465
 30
0.0
 10
105.8723452344
 20
131.5998238531
 30
0.0
  0
SPLINE
  5
3AF
100
AcDbEntity
  8
0
100
AcDbSpline
 62
7
  6
CONTINUOUS
 70
0
 71
3
 72
11
 73
7
 74
0
 42
0.0000001
 43
0.0000001
 44
0.0000000001
 40
0.0
 40
0.0
 40
0.0
 40
0.0
 40
0.2238748563
 40
0.4597670349
 40
0.7167994583
 40
1.0
 40
1.0
 40
1.0
 40
1.0
 10
104.5438964403
 20
132.9731718537
 30
0.0
 10
104.4588147977
 20
133.0223040732
 30
0.0
 10
104.267813983
 20
133.0971899129
 30
0.0
 10
103.9511142637
 20
133.1261448064
 30
0.0
 10
103.6116477772
 20
133.0751781476
 30
0.0
 10
103.387305193
 20
132.9941127403
 30
0.0
 10
103.2740244929
 20
132.9429844046
 30
0.0
  0
SPLINE
  5
3B0
100
AcDbEntity
  8
0
100
AcDbSpline
 62
7
  6
CONTINUOUS
 70
0
 71
3
 72
9
 73
5
 74
0
 42
0.0000001
 43
0.0000001
 44
0.0000000001
 40
0.0
 40
0.0
 40
0.0
 40
0.0
 40
0.2547243066
 40
1.0
 40
1.0
 40
1.0
 40
1.0
 10
100.9300820861
 20
128.9496269789
 30
0.0
 10
100.9314352434
 20
128.9318293978
 30
0.0
 10
100.9374988694
 20
128.8620196833
 30
0.0
 10
100.9466177193
 20
128.7924667073
 30
0.0
 10
100.9552990673
 20
128.7409706607
 30
0.0
  0
SPLINE
  5
3B1
100
AcDbEntity
  8
0
100
AcDbSpline
 62
7
  6
CONTINUOUS
 70
0
 71
3
 72
11
 73
7
 74
0
 42
0.0000001
 43
0.0000001
 44
0.0000000001
 40
0.0
 40
0.0
 40
0.0
 40
0.0
 40
0.2765802428
 40
0.5317166743
 40
0.7704016399
 40
1.0
 40
1.0
 40
1.0
 40
1.0
 10
100.9691454569
 20
128.6669961385
 30
0.0
 10
100.9894516921
 20
128.5685648023
 30
0.0
 10
101.0427637793
 20
128.3817385323
 30
0.0
 10
101.1684471659
 20
128.1295465153
 30
0.0
 10
101.3345930228
 20
127.9229688023
 30
0.0
 10
101.4717072209
 20
127.8187299702
 30
0.0
 10
101.5439574427
 20
127.7770075299
 30
0.0
  0
SPLINE
  5
3B2
100
AcDbEntity
  8
0
100
AcDbSpline
 62
7
  6
CONTINUOUS
 70
0
 71
3
 72
9
 73
5
 74
0
 42
0.0000001
 43
0.0000001
 44
0.0000000001
 40
0.0
 40
0.0
 40
0.0
 40
0.0
 40
0.2556422403
 40
1.0
 40
1.0
 40
1.0
 40
1.0
 10
102.2861294342
 20
137.284934034
 30
0.0
 10
102.2800425379
 20
137.330194151
 30
0.0
 10
102.2539259166
 20
137.506916407
 30
0.0
 10
102.2183626799
 20
137.6822790534
 30
0.0
 10
102.1860696669
 20
137.8112692362
 30
0.0
  0
SPLINE
  5
3B3
100
AcDbEntity
  8
0
100
AcDbSpline
 62
7
  6
CONTINUOUS
 70
0
 71
3
 72
18
 73
14
 74
0
 42
0.0000001
 43
0.0000001
 44
0.0000000001
 40
0.0
 40
0.0
 40
0.0
 40
0.0
 40
0.1286568221
 40
0.2702040422
 40
0.4173194932
 40
0.5616281068
 40
0.6952637526
 40
0.7562705005
 40
0.8127630805
 40
0.8647125873
 40
0.9125341774
 40
0.9571523806
 40
1.0
 40
1.0
 40
1.0
 40
1.0
 10
86.3562793273
 20
120.3322852062
 30
0.0
 10
86.3562793273
 20
120.0844036245
 30
0.0
 10
86.2869297369
 20
119.5632052424
 30
0.0
 10
86.028129417
 20
118.7979699685
 30
0.0
 10
85.6292165625
 20
118.0606748533
 30
0.0
 10
85.1227982557
 20
117.4123188657
 30
0.0
 10
84.6300083693
 20
116.97588062
 30
0.0
 10
84.2163510593
 20
116.7226747294
 30
0.0
 10
83.9166952971
 20
116.5902401945
 30
0.0
 10
83.6243219338
 20
116.5125808028
 30
0.0
 10
83.3449606473
 20
116.4919970814
 30
0.0
 10
83.0848017732
 20
116.5301156643
 30
0.0
 10
82.9272087062
 20
116.5956331453
 30
0.0
 10
82.8557135015
 20
116.6369078242
 30
0.0
  0
SPLINE
  5
3B4
100
AcDbEntity
  8
0
100
AcDbSpline
 62
7
  6
CONTINUOUS
 70
0
 71
3
 72
20
 73
16
 74
0
 42
0.0000001
 43
0.0000001
 44
0.0000000001
 40
0.0
 40
0.0
 40
0.0
 40
0.0
 40
0.0428318866
 40
0.0874324883
 40
0.1352360203
 40
0.1871678945
 40
0.243637349
 40
0.3046195068
 40
0.3697450703
 40
0.4383812694
 40
0.5826340794
 40
0.7296939675
 40
0.8711918814
 40
0.9375938816
 40
1.0
 40
1.0
 40
1.0
 40
1.0
 10
86.0556424201
 20
122.1794726737
 30
0.0
 10
85.9693602476
 20
122.2292982598
 30
0.0
 10
85.7791386064
 20
122.3083190023
 30
0.0
 10
85.4651685971
 20
122.3543661729
 30
0.0
 10
85.1279981016
 20
122.3295381166
 30
0.0
 10
84.7751409073
 20
122.2357648927
 30
0.0
 10
84.413506185
 20
122.0759455914
 30
0.0
 10
84.0503041659
 20
121.8537494065
 30
0.0
 10
83.6928933268
 20
121.5739272369
 30
0.0
 10
83.2264777678
 20
121.1246357453
 30
0.0
 10
82.708165803
 20
120.4608409279
 30
0.0
 10
82.2269971783
 20
119.5716961896
 30
0.0
 10
81.9607730828
 20
118.7845355389
 30
0.0
 10
81.8505128155
 20
118.1645393589
 30
0.0
 10
81.8308147691
 20
117.8646914606
 30
0.0
 10
81.8308147691
 20
117.7195226215
 30
0.0
  0
SPLINE
  5
3B5
100
AcDbEntity
  8
0
100
AcDbSpline
 62
7
  6
CONTINUOUS
 70
0
 71
3
 72
12
 73
8
 74
0
 42
0.0000001
 43
0.0000001
 44
0.0000000001
 40
0.0
 40
0.0
 40
0.0
 40
0.0
 40
0.2895709725
 40
0.5486422641
 40
0.7816376893
 40
0.89183982
 40
1.0
 40
1.0
 40
1.0
 40
1.0
 10
81.8308147691
 20
117.7195226215
 30
0.0
 10
81.8308147691
 20
117.5421280541
 30
0.0
 10
81.8577037624
 20
117.2048225591
 30
0.0
 10
81.9940671732
 20
116.7416430432
 30
0.0
 10
82.1900848982
 20
116.4220831912
 30
0.0
 10
82.3880003566
 20
116.2274112319
 30
0.0
 10
82.4983340071
 20
116.1504170046
 30
0.0
 10
82.5557139785
 20
116.1172816463
 30
0.0
  0
SPLINE
  5
3B6
100
AcDbEntity
  8
0
100
AcDbSpline
 62
7
  6
CONTINUOUS
 70
0
 71
3
 72
19
 73
15
 74
0
 42
0.0000001
 43
0.0000001
 44
0.0000000001
 40
0.0
 40
0.0
 40
0.0
 40
0.0
 40
0.1286321268
 40
0.270156362
 40
0.4172452811
 40
0.561529281
 40
0.6301804291
 40
0.695319874
 40
0.7563146454
 40
0.8127953283
 40
0.8647372238
 40
0.9125500068
 40
0.9571593823
 40
1.0
 40
1.0
 40
1.0
 40
1.0
 10
80.4165953188
 20
118.5360041305
 30
0.0
 10
80.4165953188
 20
118.8351678255
 30
0.0
 10
80.5002915855
 20
119.4641858646
 30
0.0
 10
80.8126514276
 20
120.3878271636
 30
0.0
 10
81.2939656434
 20
121.2773923933
 30
0.0
 10
81.8122430199
 20
121.9410959399
 30
0.0
 10
82.2786705939
 20
122.3904068078
 30
0.0
 10
82.6360848712
 20
122.6702307996
 30
0.0
 10
82.9992894333
 20
122.8924292484
 30
0.0
 10
83.3609246508
 20
123.0522475273
 30
0.0
 10
83.7137805746
 20
123.1460184692
 30
0.0
 10
84.0509489554
 20
123.1708482675
 30
0.0
 10
84.3649185873
 20
123.1248006992
 30
0.0
 10
84.5551394836
 20
123.0457782853
 30
0.0
 10
84.6414220869
 20
122.9959526536
 30
0.0
  0
SPLINE
  5
3B7
100
AcDbEntity
  8
0
100
AcDbSpline
 62
7
  6
CONTINUOUS
 70
0
 71
3
 72
22
 73
18
 74
0
 42
0.0000001
 43
0.0000001
 44
0.0000000001
 40
0.0
 40
0.0
 40
0.0
 40
0.0
 40
0.0433766023
 40
0.0871535619
 40
0.1332604337
 40
0.1831587189
 40
0.237690208
 40
0.2971148031
 40
0.3612200816
 40
0.4294329699
 40
0.5009165647
 40
0.5746512647
 40
0.7241204444
 40
0.7976288545
 40
0.868740173
 40
0.9364804617
 40
1.0
 40
1.0
 40
1.0
 40
1.0
 10
96.5041219623
 20
128.5702408952
 30
0.0
 10
96.3991019557
 20
128.665717711
 30
0.0
 10
96.1616635403
 20
128.8309246824
 30
0.0
 10
95.7450113053
 20
128.9755016441
 30
0.0
 10
95.2847003541
 20
129.0120953922
 30
0.0
 10
94.7937339406
 20
128.9425011557
 30
0.0
 10
94.2832125849
 20
128.7706987053
 30
0.0
 10
93.7642059272
 20
128.5017369735
 30
0.0
 10
93.2481452888
 20
128.1422251538
 30
0.0
 10
92.7467502867
 20
127.7006504901
 30
0.0
 10
92.2715200897
 20
127.1873026262
 30
0.0
 10
91.6855121501
 20
126.4202788905
 30
0.0
 10
91.2016614501
 20
125.5713171193
 30
0.0
 10
90.8417875725
 20
124.6777480641
 30
0.0
 10
90.6442638636
 20
124.0102708659
 30
0.0
 10
90.5225937281
 20
123.3581607106
 30
0.0
 10
90.492836775
 20
122.9283566476
 30
0.0
 10
90.492836775
 20
122.7205135064
 30
0.0
  0
SPLINE
  5
3B8
100
AcDbEntity
  8
0
100
AcDbSpline
 62
7
  6
CONTINUOUS
 70
0
 71
3
 72
12
 73
8
 74
0
 42
0.0000001
 43
0.0000001
 44
0.0000000001
 40
0.0
 40
0.0
 40
0.0
 40
0.0
 40
0.2895819939
 40
0.5486373114
 40
0.7816405751
 40
0.8918400761
 40
1.0
 40
1.0
 40
1.0
 40
1.0
 10
80.0630434002
 20
118.3318820536
 30
0.0
 10
80.0630434002
 20
118.1291373083
 30
0.0
 10
80.0937612206
 20
117.7436433673
 30
0.0
 10
80.2496350233
 20
117.214308871
 30
0.0
 10
80.4736143968
 20
116.8490719129
 30
0.0
 10
80.6998390099
 20
116.6266235716
 30
0.0
 10
80.8259130664
 20
116.538602032
 30
0.0
 10
80.891494791
 20
116.5007411174
 30
0.0
  0
SPLINE
  5
3B9
100
AcDbEntity
  8
0
100
AcDbSpline
 62
7
  6
CONTINUOUS
 70
0
 71
3
 72
9
 73
5
 74
0
 42
0.0000001
 43
0.0000001
 44
0.0000000001
 40
0.0
 40
0.0
 40
0.0
 40
0.0
 40
0.2372766727
 40
1.0
 40
1.0
 40
1.0
 40
1.0
 10
77.0653741691
 20
116.372089147
 30
0.0
 10
77.1675202659
 20
116.4008050853
 30
0.0
 10
77.5935770545
 20
116.5375248609
 30
0.0
 10
77.9998647879
 20
116.7323695173
 30
0.0
 10
78.2952455356
 20
116.9029066535
 30
0.0
  0
SPLINE
  5
3BA
100
AcDbEntity
  8
0
100
AcDbSpline
 62
7
  6
CONTINUOUS
 70
0
 71
3
 72
12
 73
8
 74
0
 42
0.0000001
 43
0.0000001
 44
0.0000000001
 40
0.0
 40
0.0
 40
0.0
 40
0.0
 40
0.1081592661
 40
0.2183613031
 40
0.4513561008
 40
0.7104298246
 40
1.0
 40
1.0
 40
1.0
 40
1.0
 10
81.1414954112
 20
116.9337646845
 30
0.0
 10
81.0841158938
 20
116.9668996456
 30
0.0
 10
80.9737811009
 20
117.0438912446
 30
0.0
 10
80.7758697107
 20
117.2385658684
 30
0.0
 10
80.5798471517
 20
117.558122946
 30
0.0
 10
80.4434854991
 20
118.0213042181
 30
0.0
 10
80.4165953188
 20
118.3586101371
 30
0.0
 10
80.4165953188
 20
118.5360041305
 30
0.0
  0
SPLINE
  5
3BB
100
AcDbEntity
  8
0
100
AcDbSpline
 62
7
  6
CONTINUOUS
 70
0
 71
3
 72
10
 73
6
 74
0
 42
0.0000001
 43
0.0000001
 44
0.0000000001
 40
0.0
 40
0.0
 40
0.0
 40
0.0
 40
0.5183517103
 40
0.7617532443
 40
1.0
 40
1.0
 40
1.0
 40
1.0
 10
80.7161743803
 20
125.4352842183
 30
0.0
 10
80.8914079316
 20
125.4594006406
 30
0.0
 10
81.1568785543
 20
125.4612723208
 30
0.0
 10
81.4886908157
 20
125.3758731295
 30
0.0
 10
81.6390196062
 20
125.3067084121
 30
0.0
 10
81.7094286134
 20
125.2660590469
 30
0.0
  0
SPLINE
  5
3BC
100
AcDbEntity
  8
0
100
AcDbSpline
 62
7
  6
CONTINUOUS
 70
0
 71
3
 72
14
 73
10
 74
0
 42
0.0000001
 43
0.0000001
 44
0.0000000001
 40
0.0
 40
0.0
 40
0.0
 40
0.0
 40
0.1075120476
 40
0.2171452506
 40
0.3308173445
 40
0.4501043346
 40
0.5761604565
 40
0.7097137379
 40
1.0
 40
1.0
 40
1.0
 40
1.0
 10
104.4225266421
 20
137.6620036587
 30
0.0
 10
104.5399815402
 20
137.5941926221
 30
0.0
 10
104.7656612375
 20
137.4360732107
 30
0.0
 10
105.0626712664
 20
137.1402782183
 30
0.0
 10
105.3168081787
 20
136.7885449719
 30
0.0
 10
105.525574059
 20
136.3849776694
 30
0.0
 10
105.6873156279
 20
135.9338237451
 30
0.0
 10
105.842798463
 20
135.2565540637
 30
0.0
 10
105.8772483156
 20
134.7186093476
 30
0.0
 10
105.8714885494
 20
134.3524639392
 30
0.0
  0
SPLINE
  5
3BD
100
AcDbEntity
  8
0
100
AcDbSpline
 62
7
  6
CONTINUOUS
 70
0
 71
3
 72
16
 73
12
 74
0
 42
0.0000001
 43
0.0000001
 44
0.0000000001
 40
0.0
 40
0.0
 40
0.0
 40
0.0
 40
0.2450113438
 40
0.3689267636
 40
0.4940956562
 40
0.6208476679
 40
0.7494898734
 40
0.8144554983
 40
0.8793302285
 40
0.9425038301
 40
1.0
 40
1.0
 40
1.0
 40
1.0
 10
95.7574931588
 20
132.856450935
 30
0.0
 10
96.0632499101
 20
132.5554186935
 30
0.0
 10
96.5183327914
 20
132.0966075123
 30
0.0
 10
97.1098875976
 20
131.4650357391
 30
0.0
 10
97.5473522519
 20
130.9731132194
 30
0.0
 10
97.9718481891
 20
130.4591440287
 30
0.0
 10
98.3050111627
 20
130.0069446747
 30
0.0
 10
98.5456432812
 20
129.6232592179
 30
0.0
 10
98.7036811871
 20
129.3238390652
 30
0.0
 10
98.8217826519
 20
129.020344166
 30
0.0
 10
98.8594079859
 20
128.8092511574
 30
0.0
 10
98.8594079859
 20
128.7085606375
 30
0.0
  0
SPLINE
  5
3BE
100
AcDbEntity
  8
0
100
AcDbSpline
 62
7
  6
CONTINUOUS
 70
0
 71
3
 72
18
 73
14
 74
0
 42
0.0000001
 43
0.0000001
 44
0.0000000001
 40
0.0
 40
0.0
 40
0.0
 40
0.0
 40
0.1295224177
 40
0.2569741219
 40
0.3819256571
 40
0.5038732451
 40
0.6223962036
 40
0.680528313
 40
0.7382767078
 40
0.7965501743
 40
0.8572976469
 40
0.9238829062
 40
1.0
 40
1.0
 40
1.0
 40
1.0
 10
96.9131185079
 20
127.9903155756
 30
0.0
 10
97.0130321108
 20
127.9821002734
 30
0.0
 10
97.2115541521
 20
127.9690224111
 30
0.0
 10
97.5071883871
 20
127.9620877821
 30
0.0
 10
97.7970114386
 20
127.9716595722
 30
0.0
 10
98.0783904826
 20
128.0033734565
 30
0.0
 10
98.3044534241
 20
128.0563427745
 30
0.0
 10
98.4734787906
 20
128.1232832929
 30
0.0
 10
98.5917164997
 20
128.1890471405
 30
0.0
 10
98.6986850464
 20
128.2757843199
 30
0.0
 10
98.7878031993
 20
128.3904673003
 30
0.0
 10
98.8475774434
 20
128.5383853576
 30
0.0
 10
98.8594079859
 20
128.649645754
 30
0.0
 10
98.8594079859
 20
128.7085606375
 30
0.0
  0
SPLINE
  5
3BF
100
AcDbEntity
  8
0
100
AcDbSpline
 62
7
  6
CONTINUOUS
 70
0
 71
3
 72
20
 73
16
 74
0
 42
0.0000001
 43
0.0000001
 44
0.0000000001
 40
0.0
 40
0.0
 40
0.0
 40
0.0
 40
0.042832575
 40
0.0874337806
 40
0.13523672
 40
0.187167644
 40
0.2436384295
 40
0.3046213257
 40
0.3697457341
 40
0.4383821172
 40
0.5826351257
 40
0.7296944442
 40
0.8711934986
 40
0.9375891613
 40
1.0
 40
1.0
 40
1.0
 40
1.0
 10
84.8914227071
 20
123.4289762207
 30
0.0
 10
84.7928058315
 20
123.4859086228
 30
0.0
 10
84.575419887
 20
123.5762501781
 30
0.0
 10
84.2165831883
 20
123.6288278633
 30
0.0
 10
83.8312526097
 20
123.6004667518
 30
0.0
 10
83.4279770925
 20
123.4933260699
 30
0.0
 10
83.0146851295
 20
123.3106515493
 30
0.0
 10
82.5996063433
 20
123.0566956298
 30
0.0
 10
82.1911225233
 20
122.7369182797
 30
0.0
 10
81.65807083
 20
122.2234470865
 30
0.0
 10
81.0657411375
 20
121.4648050989
 30
0.0
 10
80.5158006524
 20
120.4486529719
 30
0.0
 10
80.211582215
 20
119.5490442003
 30
0.0
 10
80.0855414827
 20
118.8404828497
 30
0.0
 10
80.0630434002
 20
118.4978020259
 30
0.0
 10
80.0630434002
 20
118.3318820536
 30
0.0
  0
SPLINE
  5
3C0
100
AcDbEntity
  8
0
100
AcDbSpline
 62
7
  6
CONTINUOUS
 70
0
 71
3
 72
9
 73
5
 74
0
 42
0.0000001
 43
0.0000001
 44
0.0000000001
 40
0.0
 40
0.0
 40
0.0
 40
0.0
 40
0.2547243066
 40
1.0
 40
1.0
 40
1.0
 40
1.0
 10
91.3841802837
 20
123.4383309016
 30
0.0
 10
91.385533441
 20
123.4205333206
 30
0.0
 10
91.3915970671
 20
123.350723606
 30
0.0
 10
91.4007159169
 20
123.28117063
 30
0.0
 10
91.4093972649
 20
123.2296745834
 30
0.0
  0
SPLINE
  5
3C1
100
AcDbEntity
  8
0
100
AcDbSpline
 62
7
  6
CONTINUOUS
 70
0
 71
3
 72
11
 73
7
 74
0
 42
0.0000001
 43
0.0000001
 44
0.0000000001
 40
0.0
 40
0.0
 40
0.0
 40
0.0
 40
0.2765802428
 40
0.5317166743
 40
0.7704016399
 40
1.0
 40
1.0
 40
1.0
 40
1.0
 10
91.4232436545
 20
123.1557000612
 30
0.0
 10
91.4435498897
 20
123.057268725
 30
0.0
 10
91.4968619769
 20
122.870442455
 30
0.0
 10
91.6225453635
 20
122.618250438
 30
0.0
 10
91.7886912205
 20
122.411672725
 30
0.0
 10
91.9258054185
 20
122.307433893
 30
0.0
 10
91.9980556404
 20
122.2657114526
 30
0.0
  0
SPLINE
  5
3C2
100
AcDbEntity
  8
0
100
AcDbSpline
 62
7
  6
CONTINUOUS
 70
0
 71
3
 72
14
 73
10
 74
0
 42
0.0000001
 43
0.0000001
 44
0.0000000001
 40
0.0
 40
0.0
 40
0.0
 40
0.0
 40
0.2921644645
 40
0.4249366609
 40
0.5494353046
 40
0.6670097899
 40
0.7795847644
 40
0.8896513228
 40
1.0
 40
1.0
 40
1.0
 40
1.0
 10
100.0387385773
 20
128.2318095837
 30
0.0
 10
100.0387385773
 20
127.9552444887
 30
0.0
 10
100.0755743747
 20
127.5501104999
 30
0.0
 10
100.2215989197
 20
127.0495365198
 30
0.0
 10
100.3693732332
 20
126.7253735603
 30
0.0
 10
100.5572216389
 20
126.4451465062
 30
0.0
 10
100.7833087523
 20
126.2130750751
 30
0.0
 10
101.0444034143
 20
126.0329606276
 30
0.0
 10
101.2376899865
 20
125.950283802
 30
0.0
 10
101.3371885327
 20
125.9184831428
 30
0.0
  0
SPLINE
  5
3C3
100
AcDbEntity
  8
0
100
AcDbSpline
 62
7
  6
CONTINUOUS
 70
0
 71
3
 72
19
 73
15
 74
0
 42
0.0000001
 43
0.0000001
 44
0.0000000001
 40
0.0
 40
0.0
 40
0.0
 40
0.0
 40
0.1286321268
 40
0.270156362
 40
0.4172452811
 40
0.561529281
 40
0.6301804291
 40
0.695319874
 40
0.7563146454
 40
0.8127953283
 40
0.8647372238
 40
0.9125500068
 40
0.9571593823
 40
1.0
 40
1.0
 40
1.0
 40
1.0
 10
96.326443432
 20
126.0885277758
 30
0.0
 10
96.326443432
 20
125.7893640809
 30
0.0
 10
96.2427471653
 20
125.1603460417
 30
0.0
 10
95.9303873231
 20
124.2367047427
 30
0.0
 10
95.4490731074
 20
123.347139513
 30
0.0
 10
94.9307957309
 20
122.6834359664
 30
0.0
 10
94.4643681569
 20
122.2341250986
 30
0.0
 10
94.1069538796
 20
121.9543011067
 30
0.0
 10
93.7437493175
 20
121.7321026579
 30
0.0
 10
93.3821141
 20
121.572284379
 30
0.0
 10
93.0292581761
 20
121.4785134371
 30
0.0
 10
92.6920897953
 20
121.4536836388
 30
0.0
 10
92.3781201635
 20
121.4997312071
 30
0.0
 10
92.1878992671
 20
121.578753621
 30
0.0
 10
92.1016166638
 20
121.6285792528
 30
0.0
  0
SPLINE
  5
3C4
100
AcDbEntity
  8
0
100
AcDbSpline
 62
7
  6
CONTINUOUS
 70
0
 71
3
 72
12
 73
8
 74
0
 42
0.0000001
 43
0.0000001
 44
0.0000000001
 40
0.0
 40
0.0
 40
0.0
 40
0.0
 40
0.2895821567
 40
0.5486359363
 40
0.7816376878
 40
0.8918387163
 40
1.0
 40
1.0
 40
1.0
 40
1.0
 10
74.547624638
 20
108.3705813281
 30
0.0
 10
74.547624638
 20
108.1272877687
 30
0.0
 10
74.5844864629
 20
107.6646965045
 30
0.0
 10
74.7715360734
 20
107.029499347
 30
0.0
 10
75.0403077012
 20
106.591214502
 30
0.0
 10
75.3117805677
 20
106.3242787531
 30
0.0
 10
75.4630698666
 20
106.2186502013
 30
0.0
 10
75.5417678747
 20
106.1732149153
 30
0.0
  0
SPLINE
  5
3C5
100
AcDbEntity
  8
0
100
AcDbSpline
 62
7
  6
CONTINUOUS
 70
0
 71
3
 72
14
 73
10
 74
0
 42
0.0000001
 43
0.0000001
 44
0.0000000001
 40
0.0
 40
0.0
 40
0.0
 40
0.0
 40
0.2921644645
 40
0.4249366609
 40
0.5494353046
 40
0.6670097899
 40
0.7795847644
 40
0.8896513228
 40
1.0
 40
1.0
 40
1.0
 40
1.0
 10
90.492836775
 20
122.7205135064
 30
0.0
 10
90.492836775
 20
122.4439484115
 30
0.0
 10
90.5296725723
 20
122.0388144227
 30
0.0
 10
90.6756971173
 20
121.5382404425
 30
0.0
 10
90.8234714308
 20
121.214077483
 30
0.0
 10
91.0113198365
 20
120.9338504289
 30
0.0
 10
91.2374069499
 20
120.7017789978
 30
0.0
 10
91.4985016119
 20
120.5216645504
 30
0.0
 10
91.6917881841
 20
120.4389877247
 30
0.0
 10
91.7912867304
 20
120.4071870655
 30
0.0
  0
SPLINE
  5
3C6
100
AcDbEntity
  8
0
100
AcDbSpline
 62
7
  6
CONTINUOUS
 70
0
 71
3
 72
34
 73
30
 74
0
 42
0.0000001
 43
0.0000001
 44
0.0000000001
 40
0.0
 40
0.0
 40
0.0
 40
0.0
 40
0.0838824782
 40
0.1682020643
 40
0.2530094346
 40
0.33835122
 40
0.4242456913
 40
0.5106056123
 40
0.553849979
 40
0.5969758444
 40
0.6397062255
 40
0.681481139
 40
0.7211794829
 40
0.7567530764
 40
0.7853979969
 40
0.7964731862
 40
0.8053795232
 40
0.8123950797
 40
0.8179907248
 40
0.8227711915
 40
0.8273452842
 40
0.8321573997
 40
0.8374385411
 40
0.8496310013
 40
0.863920989
 40
0.8799873654
 40
0.9162616047
 40
0.9566462613
 40
1.0
 40
1.0
 40
1.0
 40
1.0
 10
90.595926726
 20
131.3537244053
 30
0.0
 10
90.7371308205
 20
131.2895328658
 30
0.0
 10
91.0205395294
 20
131.1613962988
 30
0.0
 10
91.4477849994
 20
130.970750092
 30
0.0
 10
91.878642998
 20
130.7815956523
 30
0.0
 10
92.3136012101
 20
130.5945633564
 30
0.0
 10
92.7530451884
 20
130.4107481078
 30
0.0
 10
93.1227379463
 20
130.2619674778
 30
0.0
 10
93.4208237329
 20
130.1472219143
 30
0.0
 10
93.6447128306
 20
130.0643553428
 30
0.0
 10
93.8674192897
 20
129.9861918611
 30
0.0
 10
94.0858615527
 20
129.9151982404
 30
0.0
 10
94.2939098375
 20
129.8552106995
 30
0.0
 10
94.4811391476
 20
129.8117624354
 30
0.0
 10
94.6193949155
 20
129.7917511224
 30
0.0
 10
94.7094619285
 20
129.7909061992
 30
0.0
 10
94.759232727
 20
129.7966134402
 30
0.0
 10
94.7976292473
 20
129.8080945383
 30
0.0
 10
94.8255371272
 20
129.8250291427
 30
0.0
 10
94.8433848926
 20
129.8469283363
 30
0.0
 10
94.8517815648
 20
129.8722577399
 30
0.0
 10
94.8525306194
 20
129.899644613
 30
0.0
 10
94.8450161753
 20
129.9403677846
 30
0.0
 10
94.8217744782
 20
129.9948858402
 30
0.0
 10
94.7808082029
 20
130.0621474806
 30
0.0
 10
94.7074861215
 20
130.1613291462
 30
0.0
 10
94.5936235264
 20
130.2898357683
 30
0.0
 10
94.4370540981
 20
130.4471671342
 30
0.0
 10
94.3237498011
 20
130.5527584794
 30
0.0
 10
94.2644365471
 20
130.6066906611
 30
0.0
  0
SPLINE
  5
3C7
100
AcDbEntity
  8
0
100
AcDbSpline
 62
7
  6
CONTINUOUS
 70
0
 71
3
 72
16
 73
12
 74
0
 42
0.0000001
 43
0.0000001
 44
0.0000000001
 40
0.0
 40
0.0
 40
0.0
 40
0.0
 40
0.2450113438
 40
0.3689267636
 40
0.4940956562
 40
0.6208476679
 40
0.7494898734
 40
0.8144554983
 40
0.8793302285
 40
0.9425038301
 40
1.0
 40
1.0
 40
1.0
 40
1.0
 10
86.2115913564
 20
127.3451548578
 30
0.0
 10
86.5173481077
 20
127.0441226163
 30
0.0
 10
86.972430989
 20
126.585311435
 30
0.0
 10
87.5639857952
 20
125.9537396618
 30
0.0
 10
88.0014504495
 20
125.4618171421
 30
0.0
 10
88.4259463868
 20
124.9478479515
 30
0.0
 10
88.7591093603
 20
124.4956485974
 30
0.0
 10
88.9997414788
 20
124.1119631406
 30
0.0
 10
89.1577793847
 20
123.8125429879
 30
0.0
 10
89.2758808495
 20
123.5090480888
 30
0.0
 10
89.3135061835
 20
123.2979550801
 30
0.0
 10
89.3135061835
 20
123.1972645602
 30
0.0
  0
SPLINE
  5
3C8
100
AcDbEntity
  8
0
100
AcDbSpline
 62
7
  6
CONTINUOUS
 70
0
 71
3
 72
27
 73
23
 74
0
 42
0.0000001
 43
0.0000001
 44
0.0000000001
 40
0.0
 40
0.0
 40
0.0
 40
0.0
 40
0.1263374804
 40
0.1900678779
 40
0.2543230446
 40
0.3192953108
 40
0.385300058
 40
0.4188590666
 40
0.4529094987
 40
0.4875614863
 40
0.5228560829
 40
0.5584695343
 40
0.5933132483
 40
0.6262680448
 40
0.6573971792
 40
0.687337015
 40
0.7165832948
 40
0.773982977
 40
0.8307557021
 40
0.8872644761
 40
0.9436568615
 40
1.0
 40
1.0
 40
1.0
 40
1.0
 10
86.2115913564
 20
127.3451548578
 30
0.0
 10
86.5747550345
 20
127.2902361405
 30
0.0
 10
87.1226476799
 20
127.2167580095
 30
0.0
 10
87.858807245
 20
127.1469137866
 30
0.0
 10
88.4188934165
 20
127.1127714038
 30
0.0
 10
88.9866277289
 20
127.1039847579
 30
0.0
 10
89.4650113395
 20
127.127435842
 30
0.0
 10
89.8506470865
 20
127.1757911986
 30
0.0
 10
90.1427684116
 20
127.2325921228
 30
0.0
 10
90.4335965907
 20
127.3173203769
 30
0.0
 10
90.7157308536
 20
127.4410922592
 30
0.0
 10
90.9711220929
 20
127.6170477889
 30
0.0
 10
91.1678966442
 20
127.8502183064
 30
0.0
 10
91.2814726775
 20
128.1187292621
 30
0.0
 10
91.3220307504
 20
128.3911607129
 30
0.0
 10
91.3130873266
 20
128.6545709245
 30
0.0
 10
91.2577635269
 20
128.989626393
 30
0.0
 10
91.132890976
 20
129.3892112684
 30
0.0
 10
90.9340610384
 20
129.8443485134
 30
0.0
 10
90.704360216
 20
130.2812555232
 30
0.0
 10
90.4533587436
 20
130.7046144804
 30
0.0
 10
90.2755094374
 20
130.9799981429
 30
0.0
 10
90.184607302
 20
131.1162630807
 30
0.0
  0
SPLINE
  5
3C9
100
AcDbEntity
  8
0
100
AcDbSpline
 62
7
  6
CONTINUOUS
 70
0
 71
3
 72
20
 73
16
 74
0
 42
0.0000001
 43
0.0000001
 44
0.0000000001
 40
0.0
 40
0.0
 40
0.0
 40
0.0
 40
0.1318057002
 40
0.2618854671
 40
0.3897893696
 40
0.5148784268
 40
0.6362544912
 40
0.695259852
 40
0.7530211606
 40
0.8097562527
 40
0.8666271491
 40
0.8962458259
 40
0.9276765157
 40
0.9619786746
 40
1.0
 40
1.0
 40
1.0
 40
1.0
 10
86.2115913564
 20
122.6310759545
 30
0.0
 10
86.3626650912
 20
122.605374343
 30
0.0
 10
86.6634431123
 20
122.5577609896
 30
0.0
 10
87.1130497413
 20
122.5002712956
 30
0.0
 10
87.5569128186
 20
122.4613722817
 30
0.0
 10
87.9921945066
 20
122.4477709459
 30
0.0
 10
88.3477410157
 20
122.4665327058
 30
0.0
 10
88.6212888687
 20
122.5113699195
 30
0.0
 10
88.8164514636
 20
122.5643721816
 30
0.0
 10
88.9998393084
 20
122.6446373635
 30
0.0
 10
89.1353501895
 20
122.7456391438
 30
0.0
 10
89.2218389848
 20
122.8529678629
 30
0.0
 10
89.2736994567
 20
122.9518313794
 30
0.0
 10
89.306780352
 20
123.0686880043
 30
0.0
 10
89.3135061835
 20
123.1530589211
 30
0.0
 10
89.3135061835
 20
123.1972645602
 30
0.0
  0
SPLINE
  5
3CA
100
AcDbEntity
  8
0
100
AcDbSpline
 62
7
  6
CONTINUOUS
 70
0
 71
3
 72
11
 73
7
 74
0
 42
0.0000001
 43
0.0000001
 44
0.0000000001
 40
0.0
 40
0.0
 40
0.0
 40
0.0
 40
0.2277669833
 40
0.4751686819
 40
0.7353531753
 40
1.0
 40
1.0
 40
1.0
 40
1.0
 10
64.0823995283
 20
101.675103286
 30
0.0
 10
64.3375613315
 20
101.8224201424
 30
0.0
 10
64.839496996
 20
102.1836559499
 30
0.0
 10
65.5176844634
 20
102.8550212281
 30
0.0
 10
66.1267126746
 20
103.6504271216
 30
0.0
 10
66.4680058426
 20
104.2398519845
 30
0.0
 10
66.6200469288
 20
104.5465792515
 30
0.0
  0
SPLINE
  5
3CB
100
AcDbEntity
  8
0
100
AcDbSpline
 62
7
  6
CONTINUOUS
 70
0
 71
3
 72
15
 73
11
 74
0
 42
0.0000001
 43
0.0000001
 44
0.0000000001
 40
0.0
 40
0.0
 40
0.0
 40
0.0
 40
0.1141475829
 40
0.2373370756
 40
0.3669780685
 40
0.5000016033
 40
0.6330249151
 40
0.7626652568
 40
0.8858537231
 40
1.0
 40
1.0
 40
1.0
 40
1.0
 10
60.5468803422
 20
96.3678728481
 30
0.0
 10
60.5468803422
 20
96.591440992
 30
0.0
 10
60.5878591892
 20
97.0567171104
 30
0.0
 10
60.7510733698
 20
97.7586267624
 30
0.0
 10
61.0126568239
 20
98.4695897901
 30
0.0
 10
61.3626372798
 20
99.1628908058
 30
0.0
 10
61.7880594628
 20
99.8126343042
 30
0.0
 10
62.2729750003
 20
100.3946529075
 30
0.0
 10
62.7992340197
 20
100.8869527254
 30
0.0
 10
63.1816819252
 20
101.1550768396
 30
0.0
 10
63.375295691
 20
101.2668591321
 30
0.0
  0
SPLINE
  5
3CC
100
AcDbEntity
  8
0
100
AcDbSpline
 62
7
  6
CONTINUOUS
 70
0
 71
3
 72
12
 73
8
 74
0
 42
0.0000001
 43
0.0000001
 44
0.0000000001
 40
0.0
 40
0.0
 40
0.0
 40
0.0
 40
0.1081605139
 40
0.2183669701
 40
0.4513454431
 40
0.7104428158
 40
1.0
 40
1.0
 40
1.0
 40
1.0
 10
61.3753443264
 20
70.041681207
 30
0.0
 10
61.3097635156
 20
70.0795434527
 30
0.0
 10
61.1836477249
 20
70.1675175423
 30
0.0
 10
60.9575231774
 20
70.3900505705
 30
0.0
 10
60.7334350204
 20
70.7552166033
 30
0.0
 10
60.5776362931
 20
71.284583474
 30
0.0
 10
60.5468803422
 20
71.6700744016
 30
0.0
 10
60.5468803422
 20
71.8728003343
 30
0.0
  0
SPLINE
  5
3CD
100
AcDbEntity
  8
0
100
AcDbSpline
 62
7
  6
CONTINUOUS
 70
0
 71
3
 72
9
 73
5
 74
0
 42
0.0000001
 43
0.0000001
 44
0.0000000001
 40
0.0
 40
0.0
 40
0.0
 40
0.0
 40
0.4809901163
 40
1.0
 40
1.0
 40
1.0
 40
1.0
 10
76.6689255514
 20
101.920159553
 30
0.0
 10
76.6689255514
 20
101.6627476778
 30
0.0
 10
76.6217481537
 20
101.127149092
 30
0.0
 10
76.49999881
 20
100.604327168
 30
0.0
 10
76.4207962203
 20
100.3380998564
 30
0.0
  0
SPLINE
  5
3CE
100
AcDbEntity
  8
0
100
AcDbSpline
 62
7
  6
CONTINUOUS
 70
0
 71
3
 72
9
 73
5
 74
0
 42
0.0000001
 43
0.0000001
 44
0.0000000001
 40
0.0
 40
0.0
 40
0.0
 40
0.0
 40
0.253139686
 40
1.0
 40
1.0
 40
1.0
 40
1.0
 10
75.1462329999
 20
97.8604355662
 30
0.0
 10
75.1078704498
 20
97.8104695729
 30
0.0
 10
74.9538659469
 20
97.6149880401
 30
0.0
 10
74.790049879
 20
97.4272007083
 30
0.0
 10
74.6622737687
 20
97.2922327155
 30
0.0
  0
SPLINE
  5
3CF
100
AcDbEntity
  8
0
100
AcDbSpline
 62
7
  6
CONTINUOUS
 70
0
 71
3
 72
9
 73
5
 74
0
 42
0.0000001
 43
0.0000001
 44
0.0000000001
 40
0.0
 40
0.0
 40
0.0
 40
0.0
 40
0.5190106608
 40
1.0
 40
1.0
 40
1.0
 40
1.0
 10
74.6622737687
 20
97.2922327155
 30
0.0
 10
74.47131769
 20
97.0905286676
 30
0.0
 10
74.079420036
 20
96.72368226
 30
0.0
 10
73.6391709059
 20
96.4150292154
 30
0.0
 10
73.4162479002
 20
96.2863253264
 30
0.0
  0
SPLINE
  5
3D0
100
AcDbEntity
  8
0
100
AcDbSpline
 62
7
  6
CONTINUOUS
 70
0
 71
3
 72
15
 73
11
 74
0
 42
0.0000001
 43
0.0000001
 44
0.0000000001
 40
0.0
 40
0.0
 40
0.0
 40
0.0
 40
0.1141543519
 40
0.237325601
 40
0.366974755
 40
0.4999984147
 40
0.6330222943
 40
0.7626720931
 40
0.8858443543
 40
1.0
 40
1.0
 40
1.0
 40
1.0
 10
136.9851342805
 20
59.2580541157
 30
0.0
 10
137.2271690574
 20
59.3977921252
 30
0.0
 10
137.7052310763
 20
59.7329102206
 30
0.0
 10
138.3630183109
 20
60.3483235568
 30
0.0
 10
138.969204795
 20
61.0757880405
 30
0.0
 10
139.5009581922
 20
61.8880141501
 30
0.0
 10
139.9384863736
 20
62.7546427139
 30
0.0
 10
140.2653937138
 20
63.6433534955
 30
0.0
 10
140.4694630767
 20
64.5207281222
 30
0.0
 10
140.5206534665
 20
65.102306533
 30
0.0
 10
140.5206534665
 20
65.3817869707
 30
0.0
  0
SPLINE
  5
3D1
100
AcDbEntity
  8
0
100
AcDbSpline
 62
7
  6
CONTINUOUS
 70
0
 71
3
 72
12
 73
8
 74
0
 42
0.0000001
 43
0.0000001
 44
0.0000000001
 40
0.0
 40
0.0
 40
0.0
 40
0.0
 40
0.2895821567
 40
0.5486359363
 40
0.7816376878
 40
0.8918387163
 40
1.0
 40
1.0
 40
1.0
 40
1.0
 10
140.5206534665
 20
103.9207010592
 30
0.0
 10
140.5206534665
 20
104.1741318502
 30
0.0
 10
140.4822557323
 20
104.6559977505
 30
0.0
 10
140.287412388
 20
105.3176614561
 30
0.0
 10
140.0074419424
 20
105.7742081697
 30
0.0
 10
139.7246577065
 20
106.0522662415
 30
0.0
 10
139.5670646867
 20
106.1622959829
 30
0.0
 10
139.485087595
 20
106.2096244058
 30
0.0
  0
SPLINE
  5
3D2
100
AcDbEntity
  8
0
100
AcDbSpline
 62
7
  6
CONTINUOUS
 70
0
 71
3
 72
18
 73
14
 74
0
 42
0.0000001
 43
0.0000001
 44
0.0000000001
 40
0.0
 40
0.0
 40
0.0
 40
0.0
 40
0.0463967175
 40
0.093493524
 40
0.1419392002
 40
0.1922924591
 40
0.2449946425
 40
0.3003663067
 40
0.4196809952
 40
0.550751567
 40
0.6925823996
 40
0.8432086107
 40
1.0
 40
1.0
 40
1.0
 40
1.0
 10
111.9040312623
 20
55.8244167701
 30
0.0
 10
112.1827352753
 20
55.6635277899
 30
0.0
 10
112.7700635845
 20
55.3817614534
 30
0.0
 10
113.7147830569
 20
55.0929171558
 30
0.0
 10
114.7181459617
 20
54.9380068892
 30
0.0
 10
115.7716436997
 20
54.9179884064
 30
0.0
 10
116.8671230613
 20
55.032071061
 30
0.0
 10
118.4105486253
 20
55.3697082193
 30
0.0
 10
120.4006361778
 20
56.140202738
 30
0.0
 10
122.7516062962
 20
57.5275882297
 30
0.0
 10
125.0596782378
 20
59.3580623478
 30
0.0
 10
127.2568359543
 20
61.5765251251
 30
0.0
 10
128.5873682588
 20
63.2486476734
 30
0.0
 10
129.2206271376
 20
64.1327643743
 30
0.0
  0
SPLINE
  5
3D3
100
AcDbEntity
  8
0
100
AcDbSpline
 62
7
  6
CONTINUOUS
 70
0
 71
3
 72
11
 73
7
 74
0
 42
0.0000001
 43
0.0000001
 44
0.0000000001
 40
0.0
 40
0.0
 40
0.0
 40
0.0
 40
0.266436049
 40
0.5241942164
 40
0.7696786018
 40
1.0
 40
1.0
 40
1.0
 40
1.0
 10
132.4115178131
 20
69.6569983825
 30
0.0
 10
132.8082437908
 20
70.5310883535
 30
0.0
 10
133.5123046322
 20
72.2868764343
 30
0.0
 10
134.2972513595
 20
74.9510243779
 30
0.0
 10
134.7810895861
 20
77.5541018443
 30
0.0
 10
134.8991873814
 20
79.2695313102
 30
0.0
 10
134.8991873814
 20
80.0993271383
 30
0.0
  0
SPLINE
  5
3D4
100
AcDbEntity
  8
0
100
AcDbSpline
 62
7
  6
CONTINUOUS
 70
0
 71
3
 72
17
 73
13
 74
0
 42
0.0000001
 43
0.0000001
 44
0.0000000001
 40
0.0
 40
0.0
 40
0.0
 40
0.0
 40
0.128693511
 40
0.2702782554
 40
0.4174344677
 40
0.5617788339
 40
0.695449251
 40
0.8127115323
 40
0.8646775507
 40
0.9125100046
 40
0.9571398669
 40
1.0
 40
1.0
 40
1.0
 40
1.0
 10
101.7925763023
 20
81.5366736792
 30
0.0
 10
101.7925763023
 20
81.7589166463
 30
0.0
 10
101.8547430672
 20
82.2261990928
 30
0.0
 10
102.0868141404
 20
82.9122944305
 30
0.0
 10
102.4443721069
 20
83.5732323808
 30
0.0
 10
102.8987189065
 20
84.1548090944
 30
0.0
 10
103.4127206489
 20
84.6100552516
 30
0.0
 10
103.8779738977
 20
84.8644014406
 30
0.0
 10
104.2418963318
 20
84.9612825711
 30
0.0
 10
104.4923765479
 20
84.9796505678
 30
0.0
 10
104.725622368
 20
84.9455250851
 30
0.0
 10
104.8669099707
 20
84.8867698833
 30
0.0
 10
104.9310164845
 20
84.8497738695
 30
0.0
  0
SPLINE
  5
3D5
100
AcDbEntity
  8
0
100
AcDbSpline
 62
7
  6
CONTINUOUS
 70
0
 71
3
 72
17
 73
13
 74
0
 42
0.0000001
 43
0.0000001
 44
0.0000000001
 40
0.0
 40
0.0
 40
0.0
 40
0.0
 40
0.128693511
 40
0.2702782554
 40
0.4174344677
 40
0.5617788339
 40
0.695449251
 40
0.8127115323
 40
0.8646775507
 40
0.9125100046
 40
0.9571398669
 40
1.0
 40
1.0
 40
1.0
 40
1.0
 10
101.7925763023
 20
43.0467497357
 30
0.0
 10
101.7925763023
 20
43.2689927029
 30
0.0
 10
101.8547430672
 20
43.7362751493
 30
0.0
 10
102.0868141404
 20
44.422370487
 30
0.0
 10
102.4443721069
 20
45.0833084373
 30
0.0
 10
102.8987189065
 20
45.664885151
 30
0.0
 10
103.4127206489
 20
46.1201313081
 30
0.0
 10
103.8779738977
 20
46.3744774971
 30
0.0
 10
104.2418963318
 20
46.4713586276
 30
0.0
 10
104.4923765479
 20
46.4897266243
 30
0.0
 10
104.725622368
 20
46.4556011416
 30
0.0
 10
104.8669099707
 20
46.3968459398
 30
0.0
 10
104.9310164845
 20
46.359849926
 30
0.0
  0
SPLINE
  5
3D6
100
AcDbEntity
  8
0
100
AcDbSpline
 62
7
  6
CONTINUOUS
 70
0
 71
3
 72
17
 73
13
 74
0
 42
0.0000001
 43
0.0000001
 44
0.0000000001
 40
0.0
 40
0.0
 40
0.0
 40
0.0
 40
0.128693511
 40
0.2702782554
 40
0.4174344677
 40
0.5617788339
 40
0.695449251
 40
0.8127115323
 40
0.8646775507
 40
0.9125100046
 40
0.9571398669
 40
1.0
 40
1.0
 40
1.0
 40
1.0
 10
135.1254511886
 20
100.7813030927
 30
0.0
 10
135.1254511886
 20
101.0035460598
 30
0.0
 10
135.1876179534
 20
101.4708285063
 30
0.0
 10
135.4196890267
 20
102.156923844
 30
0.0
 10
135.7772469931
 20
102.8178617943
 30
0.0
 10
136.2315937927
 20
103.3994385079
 30
0.0
 10
136.7455955351
 20
103.8546846651
 30
0.0
 10
137.210848784
 20
104.1090308541
 30
0.0
 10
137.574771218
 20
104.2059119846
 30
0.0
 10
137.8252514341
 20
104.2242799813
 30
0.0
 10
138.0584972542
 20
104.1901544986
 30
0.0
 10
138.199784857
 20
104.1313992968
 30
0.0
 10
138.2638913708
 20
104.094403283
 30
0.0
  0
SPLINE
  5
3D7
100
AcDbEntity
  8
0
100
AcDbSpline
 62
7
  6
CONTINUOUS
 70
0
 71
3
 72
11
 73
7
 74
0
 42
0.0000001
 43
0.0000001
 44
0.0000000001
 40
0.0
 40
0.0
 40
0.0
 40
0.0
 40
0.2748088239
 40
0.529526074
 40
0.7689386747
 40
1.0
 40
1.0
 40
1.0
 40
1.0
 10
137.3936233489
 20
65.6649789042
 30
0.0
 10
137.4722356459
 20
65.688544037
 30
0.0
 10
137.6274482646
 20
65.7229375114
 30
0.0
 10
137.8583355678
 20
65.7316384848
 30
0.0
 10
138.0734481003
 20
65.694691388
 30
0.0
 10
138.2041260324
 20
65.6389700512
 30
0.0
 10
138.2638913708
 20
65.6044793395
 30
0.0
  0
SPLINE
  5
3D8
100
AcDbEntity
  8
0
100
AcDbSpline
 62
7
  6
CONTINUOUS
 70
0
 71
3
 72
10
 73
6
 74
0
 42
0.0000001
 43
0.0000001
 44
0.0000000001
 40
0.0
 40
0.0
 40
0.0
 40
0.0
 40
0.2327176687
 40
0.4732338726
 40
1.0
 40
1.0
 40
1.0
 40
1.0
 10
135.6639509599
 20
61.101148559
 30
0.0
 10
135.6065079223
 20
61.1342990656
 30
0.0
 10
135.4971922971
 20
61.2156931889
 30
0.0
 10
135.3107245827
 20
61.433605359
 30
0.0
 10
135.2239608067
 20
61.6411622261
 30
0.0
 10
135.185897693
 20
61.7863801922
 30
0.0
  0
SPLINE
  5
3D9
100
AcDbEntity
  8
0
100
AcDbSpline
 62
7
  6
CONTINUOUS
 70
0
 71
3
 72
11
 73
7
 74
0
 42
0.0000001
 43
0.0000001
 44
0.0000000001
 40
0.0
 40
0.0
 40
0.0
 40
0.0
 40
0.2177799532
 40
0.4509242243
 40
0.7102598273
 40
1.0
 40
1.0
 40
1.0
 40
1.0
 10
135.6639509599
 20
99.5910725025
 30
0.0
 10
135.5781776836
 20
99.6405724538
 30
0.0
 10
135.4177201861
 20
99.7754990673
 30
0.0
 10
135.2468925207
 20
100.054793499
 30
0.0
 10
135.145394834
 20
100.3990137832
 30
0.0
 10
135.1254511886
 20
100.6495485653
 30
0.0
 10
135.1254511886
 20
100.7813030927
 30
0.0
  0
SPLINE
  5
3DA
100
AcDbEntity
  8
0
100
AcDbSpline
 62
7
  6
CONTINUOUS
 70
0
 71
3
 72
11
 73
7
 74
0
 42
0.0000001
 43
0.0000001
 44
0.0000000001
 40
0.0
 40
0.0
 40
0.0
 40
0.0
 40
0.2177799532
 40
0.4509242243
 40
0.7102598273
 40
1.0
 40
1.0
 40
1.0
 40
1.0
 10
102.3310760737
 20
41.8565191455
 30
0.0
 10
102.2453027973
 20
41.9060190968
 30
0.0
 10
102.0848452998
 20
42.0409457103
 30
0.0
 10
101.9140176344
 20
42.320240142
 30
0.0
 10
101.8125199477
 20
42.6644604262
 30
0.0
 10
101.7925763023
 20
42.9149952083
 30
0.0
 10
101.7925763023
 20
43.0467497357
 30
0.0
  0
SPLINE
  5
3DB
100
AcDbEntity
  8
0
100
AcDbSpline
 62
7
  6
CONTINUOUS
 70
0
 71
3
 72
12
 73
8
 74
0
 42
0.0000001
 43
0.0000001
 44
0.0000000001
 40
0.0
 40
0.0
 40
0.0
 40
0.0
 40
0.1081612896
 40
0.2183623225
 40
0.4513640816
 40
0.710417852
 40
1.0
 40
1.0
 40
1.0
 40
1.0
 10
97.5743312238
 20
41.7825017952
 30
0.0
 10
97.4923541231
 20
41.8298302133
 30
0.0
 10
97.3347611023
 20
41.9398599712
 30
0.0
 10
97.0519768512
 20
42.2179180486
 30
0.0
 10
96.7720064213
 20
42.6744647776
 30
0.0
 10
96.5771630768
 20
43.3361284718
 30
0.0
 10
96.5387653522
 20
43.8179943583
 30
0.0
 10
96.5387653522
 20
44.0714251419
 30
0.0
  0
SPLINE
  5
3DC
100
AcDbEntity
  8
0
100
AcDbSpline
 62
7
  6
CONTINUOUS
 70
0
 71
3
 72
12
 73
8
 74
0
 42
0.0000001
 43
0.0000001
 44
0.0000000001
 40
0.0
 40
0.0
 40
0.0
 40
0.0
 40
0.1081620389
 40
0.2183637051
 40
0.4513660653
 40
0.7104193096
 40
1.0
 40
1.0
 40
1.0
 40
1.0
 10
101.1098798495
 20
39.7412980226
 30
0.0
 10
101.1918542628
 20
39.6939711461
 30
0.0
 10
101.3659348295
 20
39.6125121104
 30
0.0
 10
101.7481199495
 20
39.5066509371
 30
0.0
 10
102.2834652833
 20
39.4924656706
 30
0.0
 10
102.9538766731
 20
39.654551299
 30
0.0
 10
103.390365148
 20
39.8622208912
 30
0.0
 10
103.609833164
 20
39.988930053
 30
0.0
  0
SPLINE
  5
3DD
100
AcDbEntity
  8
0
100
AcDbSpline
 62
7
  6
CONTINUOUS
 70
0
 71
3
 72
11
 73
7
 74
0
 42
0.0000001
 43
0.0000001
 44
0.0000000001
 40
0.0
 40
0.0
 40
0.0
 40
0.0
 40
0.2177799532
 40
0.4509242243
 40
0.7102598273
 40
1.0
 40
1.0
 40
1.0
 40
1.0
 10
102.3310760737
 20
80.346443089
 30
0.0
 10
102.2453027973
 20
80.3959430403
 30
0.0
 10
102.0848452998
 20
80.5308696538
 30
0.0
 10
101.9140176344
 20
80.8101640855
 30
0.0
 10
101.8125199477
 20
81.1543843697
 30
0.0
 10
101.7925763023
 20
81.4049191518
 30
0.0
 10
101.7925763023
 20
81.5366736792
 30
0.0
  0
SPLINE
  5
3DE
100
AcDbEntity
  8
0
100
AcDbSpline
 62
7
  6
CONTINUOUS
 70
0
 71
3
 72
15
 73
11
 74
0
 42
0.0000001
 43
0.0000001
 44
0.0000000001
 40
0.0
 40
0.0
 40
0.0
 40
0.0
 40
0.1485798816
 40
0.2895092282
 40
0.4227246451
 40
0.5486416498
 40
0.6680018262
 40
0.781938931
 40
0.8919872477
 40
1.0
 40
1.0
 40
1.0
 40
1.0
 10
134.8991873814
 20
80.0993271383
 30
0.0
 10
134.8991873814
 20
80.5954346505
 30
0.0
 10
134.8591647995
 20
81.5627696539
 30
0.0
 10
134.6687864122
 20
82.9635885237
 30
0.0
 10
134.350695972
 20
84.2638044623
 30
0.0
 10
133.9074125721
 20
85.4507625069
 30
0.0
 10
133.3424133361
 20
86.5130933844
 30
0.0
 10
132.6600149971
 20
87.439921006
 30
0.0
 10
131.866515587
 20
88.2207613055
 30
0.0
 10
131.2660330032
 20
88.6398257438
 30
0.0
 10
130.9536873026
 20
88.8201352439
 30
0.0
  0
SPLINE
  5
3DF
100
AcDbEntity
  8
0
100
AcDbSpline
 62
7
  6
CONTINUOUS
 70
0
 71
3
 72
12
 73
8
 74
0
 42
0.0000001
 43
0.0000001
 44
0.0000000001
 40
0.0
 40
0.0
 40
0.0
 40
0.0
 40
0.2895806991
 40
0.5486339526
 40
0.7816363052
 40
0.891837967
 40
1.0
 40
1.0
 40
1.0
 40
1.0
 10
133.4495856547
 20
108.0031961481
 30
0.0
 10
133.6690536771
 20
108.1299053136
 30
0.0
 10
134.1055421687
 20
108.3375749044
 30
0.0
 10
134.7759535684
 20
108.4996605386
 30
0.0
 10
135.3112988967
 20
108.4854752508
 30
0.0
 10
135.6934840042
 20
108.3796140879
 30
0.0
 10
135.8675645561
 20
108.2981550449
 30
0.0
 10
135.9495389692
 20
108.2508281784
 30
0.0
  0
SPLINE
  5
3E0
100
AcDbEntity
  8
0
100
AcDbSpline
 62
7
  6
CONTINUOUS
 70
0
 71
3
 72
15
 73
11
 74
0
 42
0.0000001
 43
0.0000001
 44
0.0000000001
 40
0.0
 40
0.0
 40
0.0
 40
0.0
 40
0.114155658
 40
0.2373279333
 40
0.3669777387
 40
0.5000016213
 40
0.633025278
 40
0.7626744253
 40
0.8858456604
 40
1.0
 40
1.0
 40
1.0
 40
1.0
 10
96.5387653522
 20
82.6103392304
 30
0.0
 10
96.5387653522
 20
82.8898196982
 30
0.0
 10
96.5899557588
 20
83.471398173
 30
0.0
 10
96.7940251514
 20
84.3487728762
 30
0.0
 10
97.1209325414
 20
85.2374837019
 30
0.0
 10
97.5584607522
 20
86.1041122686
 30
0.0
 10
98.0902141615
 20
86.9163383514
 30
0.0
 10
98.6964006322
 20
87.6438027698
 30
0.0
 10
99.3541878155
 20
88.2592160421
 30
0.0
 10
99.8322497874
 20
88.5943340909
 30
0.0
 10
100.0742845382
 20
88.7340720854
 30
0.0
  0
SPLINE
  5
3E1
100
AcDbEntity
  8
0
100
AcDbSpline
 62
7
  6
CONTINUOUS
 70
0
 71
3
 72
17
 73
13
 74
0
 42
0.0000001
 43
0.0000001
 44
0.0000000001
 40
0.0
 40
0.0
 40
0.0
 40
0.0
 40
0.128693511
 40
0.2702782554
 40
0.4174344677
 40
0.5617788339
 40
0.695449251
 40
0.8127115323
 40
0.8646775507
 40
0.9125100046
 40
0.9571398669
 40
1.0
 40
1.0
 40
1.0
 40
1.0
 10
138.8023911421
 20
102.9041726928
 30
0.0
 10
138.8023911421
 20
102.6819297256
 30
0.0
 10
138.7402243773
 20
102.2146472792
 30
0.0
 10
138.508153304
 20
101.5285519415
 30
0.0
 10
138.1505953376
 20
100.8676139912
 30
0.0
 10
137.696248538
 20
100.2860372775
 30
0.0
 10
137.1822467956
 20
99.8307911204
 30
0.0
 10
136.7169935467
 20
99.5764449314
 30
0.0
 10
136.3530711127
 20
99.4795638009
 30
0.0
 10
136.1025908966
 20
99.4611958041
 30
0.0
 10
135.8693450765
 20
99.4953212869
 30
0.0
 10
135.7280574737
 20
99.5540764887
 30
0.0
 10
135.6639509599
 20
99.5910725025
 30
0.0
  0
SPLINE
  5
3E2
100
AcDbEntity
  8
0
100
AcDbSpline
 62
7
  6
CONTINUOUS
 70
0
 71
3
 72
11
 73
7
 74
0
 42
0.0000001
 43
0.0000001
 44
0.0000000001
 40
0.0
 40
0.0
 40
0.0
 40
0.0
 40
0.2177799532
 40
0.4509242243
 40
0.7102598273
 40
1.0
 40
1.0
 40
1.0
 40
1.0
 10
104.9310164845
 20
84.8497738695
 30
0.0
 10
105.0167897608
 20
84.8002739181
 30
0.0
 10
105.1772472584
 20
84.6653473046
 30
0.0
 10
105.3480749237
 20
84.386052873
 30
0.0
 10
105.4495726104
 20
84.0418325888
 30
0.0
 10
105.4695162558
 20
83.7912978067
 30
0.0
 10
105.4695162558
 20
83.6595432793
 30
0.0
  0
SPLINE
  5
3E3
100
AcDbEntity
  8
0
100
AcDbSpline
 62
7
  6
CONTINUOUS
 70
0
 71
3
 72
11
 73
7
 74
0
 42
0.0000001
 43
0.0000001
 44
0.0000000001
 40
0.0
 40
0.0
 40
0.0
 40
0.0
 40
0.2177799532
 40
0.4509242243
 40
0.7102598273
 40
1.0
 40
1.0
 40
1.0
 40
1.0
 10
138.2638913708
 20
104.094403283
 30
0.0
 10
138.3496646471
 20
104.0449033316
 30
0.0
 10
138.5101221447
 20
103.9099767181
 30
0.0
 10
138.68094981
 20
103.6306822865
 30
0.0
 10
138.7824474967
 20
103.2864620023
 30
0.0
 10
138.8023911421
 20
103.0359272202
 30
0.0
 10
138.8023911421
 20
102.9041726928
 30
0.0
  0
SPLINE
  5
3E4
100
AcDbEntity
  8
0
100
AcDbSpline
 62
7
  6
CONTINUOUS
 70
0
 71
3
 72
17
 73
13
 74
0
 42
0.0000001
 43
0.0000001
 44
0.0000000001
 40
0.0
 40
0.0
 40
0.0
 40
0.0
 40
0.128693511
 40
0.2702782554
 40
0.4174344677
 40
0.5617788339
 40
0.695449251
 40
0.8127115323
 40
0.8646775507
 40
0.9125100046
 40
0.9571398669
 40
1.0
 40
1.0
 40
1.0
 40
1.0
 10
138.8023911421
 20
64.4142487493
 30
0.0
 10
138.8023911421
 20
64.1920057821
 30
0.0
 10
138.7402243773
 20
63.7247233357
 30
0.0
 10
138.508153304
 20
63.038627998
 30
0.0
 10
138.1505953376
 20
62.3776900477
 30
0.0
 10
137.696248538
 20
61.796113334
 30
0.0
 10
137.1822467956
 20
61.3408671769
 30
0.0
 10
136.7169935467
 20
61.0865209879
 30
0.0
 10
136.3530711127
 20
60.9896398574
 30
0.0
 10
136.1025908966
 20
60.9712718607
 30
0.0
 10
135.8693450765
 20
61.0053973434
 30
0.0
 10
135.7280574737
 20
61.0641525452
 30
0.0
 10
135.6639509599
 20
61.101148559
 30
0.0
  0
SPLINE
  5
3E5
100
AcDbEntity
  8
0
100
AcDbSpline
 62
7
  6
CONTINUOUS
 70
0
 71
3
 72
15
 73
11
 74
0
 42
0.0000001
 43
0.0000001
 44
0.0000000001
 40
0.0
 40
0.0
 40
0.0
 40
0.0
 40
0.1485798816
 40
0.2895092282
 40
0.4227246451
 40
0.5486416498
 40
0.6680018262
 40
0.781938931
 40
0.8919872477
 40
1.0
 40
1.0
 40
1.0
 40
1.0
 10
107.9585311835
 20
64.5452248758
 30
0.0
 10
107.9585311835
 20
64.0491173635
 30
0.0
 10
107.9985537654
 20
63.0817823602
 30
0.0
 10
108.1889321527
 20
61.6809634904
 30
0.0
 10
108.5070225929
 20
60.3807475518
 30
0.0
 10
108.9503059928
 20
59.1937895072
 30
0.0
 10
109.5153052288
 20
58.1314586296
 30
0.0
 10
110.1977035678
 20
57.204631008
 30
0.0
 10
110.9912029779
 20
56.4237907085
 30
0.0
 10
111.5916855617
 20
56.0047262702
 30
0.0
 10
111.9040312623
 20
55.8244167701
 30
0.0
  0
SPLINE
  5
3E6
100
AcDbEntity
  8
0
100
AcDbSpline
 62
7
  6
CONTINUOUS
 70
0
 71
3
 72
25
 73
21
 74
0
 42
0.0000001
 43
0.0000001
 44
0.0000000001
 40
0.0
 40
0.0
 40
0.0
 40
0.0
 40
0.0623836783
 40
0.128722959
 40
0.1983156561
 40
0.2702920898
 40
0.3436693787
 40
0.4174011515
 40
0.4904254529
 40
0.561711782
 40
0.6303088785
 40
0.6953964458
 40
0.7563441406
 40
0.8127816152
 40
0.8646823833
 40
0.9124574172
 40
0.9351020685
 40
0.9571074841
 40
0.9786679021
 40
1.0
 40
1.0
 40
1.0
 40
1.0
 10
106.8271556233
 20
65.198410083
 30
0.0
 10
106.8271556233
 20
65.9887247263
 30
0.0
 10
106.9342228847
 20
67.6205547169
 30
0.0
 10
107.3747934847
 20
70.0982623739
 30
0.0
 10
108.0910738638
 20
72.6371100443
 30
0.0
 10
109.0677426093
 20
75.1828045848
 30
0.0
 10
110.2840136889
 20
77.6813895756
 30
0.0
 10
111.7139431791
 20
80.0795520549
 30
0.0
 10
113.3270280938
 20
82.3261400224
 30
0.0
 10
115.0889055127
 20
84.3732743928
 30
0.0
 10
116.9621925252
 20
86.1774394517
 30
0.0
 10
118.9074865258
 20
87.700389577
 30
0.0
 10
120.8843301219
 20
88.909864923
 30
0.0
 10
122.8527888121
 20
89.7797745616
 30
0.0
 10
124.7729478536
 20
90.2901570196
 30
0.0
 10
126.3303114953
 20
90.4045011966
 30
0.0
 10
127.4983507908
 20
90.2948854619
 30
0.0
 10
128.3207261221
 20
90.1195027105
 30
0.0
 10
129.0996957674
 20
89.8502384004
 30
0.0
 10
129.5882625127
 20
89.6084314791
 30
0.0
 10
129.8223117949
 20
89.4733205654
 30
0.0
  0
SPLINE
  5
3E7
100
AcDbEntity
  8
0
100
AcDbSpline
 62
7
  6
CONTINUOUS
 70
0
 71
3
 72
15
 73
11
 74
0
 42
0.0000001
 43
0.0000001
 44
0.0000000001
 40
0.0
 40
0.0
 40
0.0
 40
0.0
 40
0.1080121852
 40
0.2180600812
 40
0.331997054
 40
0.4513573988
 40
0.5772745096
 40
0.7104903173
 40
0.8514202328
 40
1.0
 40
1.0
 40
1.0
 40
1.0
 10
110.7726556496
 20
56.4776018631
 30
0.0
 10
110.4603116115
 20
56.6579104202
 30
0.0
 10
109.8598323444
 20
57.0769737511
 30
0.0
 10
109.0663349392
 20
57.8578103329
 30
0.0
 10
108.38393458
 20
58.7846349542
 30
0.0
 10
107.8189359774
 20
59.8469666666
 30
0.0
 10
107.3756487402
 20
61.0339254879
 30
0.0
 10
107.0575572043
 20
62.3341449173
 30
0.0
 10
106.8671789081
 20
63.7349665326
 30
0.0
 10
106.8271556233
 20
64.7023029771
 30
0.0
 10
106.8271556233
 20
65.198410083
 30
0.0
  0
SPLINE
  5
3E8
100
AcDbEntity
  8
0
100
AcDbSpline
 62
7
  6
CONTINUOUS
 70
0
 71
3
 72
11
 73
7
 74
0
 42
0.0000001
 43
0.0000001
 44
0.0000000001
 40
0.0
 40
0.0
 40
0.0
 40
0.0
 40
0.2177799532
 40
0.4509242243
 40
0.7102598273
 40
1.0
 40
1.0
 40
1.0
 40
1.0
 10
104.9310164845
 20
46.359849926
 30
0.0
 10
105.0167897608
 20
46.3103499746
 30
0.0
 10
105.1772472584
 20
46.1754233612
 30
0.0
 10
105.3480749237
 20
45.8961289295
 30
0.0
 10
105.4495726104
 20
45.5519086453
 30
0.0
 10
105.4695162558
 20
45.3013738632
 30
0.0
 10
105.4695162558
 20
45.1696193358
 30
0.0
  0
SPLINE
  5
3E9
100
AcDbEntity
  8
0
100
AcDbSpline
 62
7
  6
CONTINUOUS
 70
0
 71
3
 72
17
 73
13
 74
0
 42
0.0000001
 43
0.0000001
 44
0.0000000001
 40
0.0
 40
0.0
 40
0.0
 40
0.0
 40
0.128693511
 40
0.2702782554
 40
0.4174344677
 40
0.5617788339
 40
0.695449251
 40
0.8127115323
 40
0.8646775507
 40
0.9125100046
 40
0.9571398669
 40
1.0
 40
1.0
 40
1.0
 40
1.0
 10
105.4695162558
 20
83.6595432793
 30
0.0
 10
105.4695162558
 20
83.4373003121
 30
0.0
 10
105.407349491
 20
82.9700178657
 30
0.0
 10
105.1752784178
 20
82.283922528
 30
0.0
 10
104.8177204513
 20
81.6229845777
 30
0.0
 10
104.3633736517
 20
81.041407864
 30
0.0
 10
103.8493719093
 20
80.5861617069
 30
0.0
 10
103.3841186605
 20
80.3318155179
 30
0.0
 10
103.0201962264
 20
80.2349343874
 30
0.0
 10
102.7697160103
 20
80.2165663906
 30
0.0
 10
102.5364701902
 20
80.2506918734
 30
0.0
 10
102.3951825874
 20
80.3094470752
 30
0.0
 10
102.3310760737
 20
80.346443089
 30
0.0
  0
SPLINE
  5
3EA
100
AcDbEntity
  8
0
100
AcDbSpline
 62
7
  6
CONTINUOUS
 70
0
 71
3
 72
25
 73
21
 74
0
 42
0.0000001
 43
0.0000001
 44
0.0000000001
 40
0.0
 40
0.0
 40
0.0
 40
0.0
 40
0.0213321431
 40
0.0428925962
 40
0.0648980161
 40
0.0875426593
 40
0.1353176254
 40
0.1872183269
 40
0.243655745
 40
0.3046033699
 40
0.3696908624
 40
0.4382879126
 40
0.5095741877
 40
0.582598308
 40
0.6563297912
 40
0.7297069266
 40
0.8016835162
 40
0.8712764923
 40
0.9376161566
 40
1.0
 40
1.0
 40
1.0
 40
1.0
 10
130.9536873026
 20
88.8201352439
 30
0.0
 10
130.7196375218
 20
88.9552464329
 30
0.0
 10
130.2310706079
 20
89.1970554747
 30
0.0
 10
129.4520989754
 20
89.466317361
 30
0.0
 10
128.6297237257
 20
89.6417020756
 30
0.0
 10
127.4616849658
 20
89.7513149042
 30
0.0
 10
125.904323392
 20
89.6369717718
 30
0.0
 10
123.9841666371
 20
89.1265896513
 30
0.0
 10
122.0157100434
 20
88.2566815828
 30
0.0
 10
120.0388682842
 20
87.0472081316
 30
0.0
 10
118.0935756738
 20
85.5242602213
 30
0.0
 10
116.2202895529
 20
83.7200974704
 30
0.0
 10
114.4584135953
 20
81.6729665894
 30
0.0
 10
112.8453313734
 20
79.4263849176
 30
0.0
 10
111.4154043343
 20
77.0282302657
 30
0.0
 10
110.1991320196
 20
74.5296499627
 30
0.0
 10
109.2224595405
 20
71.9839530785
 30
0.0
 10
108.5061728556
 20
69.4450963839
 30
0.0
 10
108.0655996275
 20
66.9673784921
 30
0.0
 10
107.9585311835
 20
65.3355416035
 30
0.0
 10
107.9585311835
 20
64.5452248758
 30
0.0
  0
SPLINE
  5
3EB
100
AcDbEntity
  8
0
100
AcDbSpline
 62
7
  6
CONTINUOUS
 70
0
 71
3
 72
12
 73
8
 74
0
 42
0.0000001
 43
0.0000001
 44
0.0000000001
 40
0.0
 40
0.0
 40
0.0
 40
0.0
 40
0.2895821567
 40
0.5486359363
 40
0.7816376878
 40
0.8918387163
 40
1.0
 40
1.0
 40
1.0
 40
1.0
 10
100.0743139779
 20
42.0302213693
 30
0.0
 10
100.0743139779
 20
41.7767905783
 30
0.0
 10
100.1127117121
 20
41.294924678
 30
0.0
 10
100.3075550565
 20
40.6332609723
 30
0.0
 10
100.5875255021
 20
40.1767142588
 30
0.0
 10
100.8703097379
 20
39.898656187
 30
0.0
 10
101.0279027577
 20
39.7886264456
 30
0.0
 10
101.1098798495
 20
39.7412980226
 30
0.0
  0
SPLINE
  5
3EC
100
AcDbEntity
  8
0
100
AcDbSpline
 62
7
  6
CONTINUOUS
 70
0
 71
3
 72
17
 73
13
 74
0
 42
0.0000001
 43
0.0000001
 44
0.0000000001
 40
0.0
 40
0.0
 40
0.0
 40
0.0
 40
0.128693511
 40
0.2702782554
 40
0.4174344677
 40
0.5617788339
 40
0.695449251
 40
0.8127115323
 40
0.8646775507
 40
0.9125100046
 40
0.9571398669
 40
1.0
 40
1.0
 40
1.0
 40
1.0
 10
105.4695162558
 20
45.1696193358
 30
0.0
 10
105.4695162558
 20
44.9473763686
 30
0.0
 10
105.407349491
 20
44.4800939222
 30
0.0
 10
105.1752784178
 20
43.7939985845
 30
0.0
 10
104.8177204513
 20
43.1330606342
 30
0.0
 10
104.3633736517
 20
42.5514839205
 30
0.0
 10
103.8493719093
 20
42.0962377634
 30
0.0
 10
103.3841186605
 20
41.8418915744
 30
0.0
 10
103.0201962264
 20
41.7450104439
 30
0.0
 10
102.7697160103
 20
41.7266424471
 30
0.0
 10
102.5364701902
 20
41.7607679299
 30
0.0
 10
102.3951825874
 20
41.8195231317
 30
0.0
 10
102.3310760737
 20
41.8565191455
 30
0.0
  0
SPLINE
  5
3ED
100
AcDbEntity
  8
0
100
AcDbSpline
 62
7
  6
CONTINUOUS
 70
0
 71
3
 72
15
 73
11
 74
0
 42
0.0000001
 43
0.0000001
 44
0.0000000001
 40
0.0
 40
0.0
 40
0.0
 40
0.0
 40
0.1141543519
 40
0.237325601
 40
0.366974755
 40
0.4999984147
 40
0.6330222943
 40
0.7626720931
 40
0.8858443543
 40
1.0
 40
1.0
 40
1.0
 40
1.0
 10
103.609833164
 20
86.6928683128
 30
0.0
 10
103.367798387
 20
86.5531303033
 30
0.0
 10
102.8897363681
 20
86.2180122079
 30
0.0
 10
102.2319491335
 20
85.6025988717
 30
0.0
 10
101.6257626495
 20
84.875134388
 30
0.0
 10
101.0940092523
 20
84.0629082784
 30
0.0
 10
100.6564810708
 20
83.1962797146
 30
0.0
 10
100.3295737307
 20
82.307568933
 30
0.0
 10
100.1255043677
 20
81.4301943062
 30
0.0
 10
100.0743139779
 20
80.8486158955
 30
0.0
 10
100.0743139779
 20
80.5691354578
 30
0.0
  0
SPLINE
  5
3EE
100
AcDbEntity
  8
0
100
AcDbSpline
 62
7
  6
CONTINUOUS
 70
0
 71
3
 72
12
 73
8
 74
0
 42
0.0000001
 43
0.0000001
 44
0.0000000001
 40
0.0
 40
0.0
 40
0.0
 40
0.0
 40
0.1081620389
 40
0.2183637051
 40
0.4513660653
 40
0.7104193096
 40
1.0
 40
1.0
 40
1.0
 40
1.0
 10
139.485087595
 20
106.2096244058
 30
0.0
 10
139.4031131816
 20
106.2569512824
 30
0.0
 10
139.229032615
 20
106.3384103181
 30
0.0
 10
138.846847495
 20
106.4442714914
 30
0.0
 10
138.3115021612
 20
106.4584567579
 30
0.0
 10
137.6410907713
 20
106.2963711294
 30
0.0
 10
137.2046022964
 20
106.0887015373
 30
0.0
 10
136.9851342805
 20
105.9619923755
 30
0.0
  0
SPLINE
  5
3EF
100
AcDbEntity
  8
0
100
AcDbSpline
 62
7
  6
CONTINUOUS
 70
0
 71
3
 72
11
 73
7
 74
0
 42
0.0000001
 43
0.0000001
 44
0.0000000001
 40
0.0
 40
0.0
 40
0.0
 40
0.0
 40
0.2177799532
 40
0.4509242243
 40
0.7102598273
 40
1.0
 40
1.0
 40
1.0
 40
1.0
 10
138.2638913708
 20
65.6044793395
 30
0.0
 10
138.3496646471
 20
65.5549793881
 30
0.0
 10
138.5101221447
 20
65.4200527747
 30
0.0
 10
138.68094981
 20
65.140758343
 30
0.0
 10
138.7824474967
 20
64.7965380588
 30
0.0
 10
138.8023911421
 20
64.5460032767
 30
0.0
 10
138.8023911421
 20
64.4142487493
 30
0.0
  0
SPLINE
  5
3F0
100
AcDbEntity
  8
0
100
AcDbSpline
 62
7
  6
CONTINUOUS
 70
0
 71
3
 72
11
 73
7
 74
0
 42
0.0000001
 43
0.0000001
 44
0.0000000001
 40
0.0
 40
0.0
 40
0.0
 40
0.0
 40
0.22364517
 40
0.4615142525
 40
0.719615073
 40
1.0
 40
1.0
 40
1.0
 40
1.0
 10
20.8529335157
 20
85.1198158826
 30
0.0
 10
20.738794045
 20
85.1857135399
 30
0.0
 10
20.5233854409
 20
85.359095895
 30
0.0
 10
20.2752848246
 20
85.7083153082
 30
0.0
 10
20.1019063506
 20
86.1353997862
 30
0.0
 10
20.0418776145
 20
86.4490434551
 30
0.0
 10
20.0239038354
 20
86.6132968321
 30
0.0
  0
SPLINE
  5
3F1
100
AcDbEntity
  8
0
100
AcDbSpline
 62
7
  6
CONTINUOUS
 70
0
 71
3
 72
11
 73
7
 74
0
 42
0.0000001
 43
0.0000001
 44
0.0000000001
 40
0.0
 40
0.0
 40
0.0
 40
0.0
 40
0.2368169205
 40
0.4825917025
 40
0.7371052518
 40
1.0
 40
1.0
 40
1.0
 40
1.0
 10
20.3209348876
 20
154.3748108589
 30
0.0
 10
19.6007178846
 20
149.0620100045
 30
0.0
 10
18.5196707941
 20
138.1800803951
 30
0.0
 10
17.9510489703
 20
121.4918267409
 30
0.0
 10
18.4065832229
 20
104.2102077404
 30
0.0
 10
19.3764819086
 20
92.5297620107
 30
0.0
 10
20.0239038354
 20
86.6132968321
 30
0.0
  0
SPLINE
  5
3F2
100
AcDbEntity
  8
0
100
AcDbSpline
 62
7
  6
CONTINUOUS
 70
0
 71
3
 72
9
 73
5
 74
0
 42
0.0000001
 43
0.0000001
 44
0.0000000001
 40
0.0
 40
0.0
 40
0.0
 40
0.0
 40
0.2603782916
 40
1.0
 40
1.0
 40
1.0
 40
1.0
 10
23.5960455827
 20
83.7827215346
 30
0.0
 10
23.6116789003
 20
83.7497503287
 30
0.0
 10
23.676451002
 20
83.6254779888
 30
0.0
 10
23.7616550651
 20
83.5114092315
 30
0.0
 10
23.8351110925
 20
83.4382802533
 30
0.0
  0
SPLINE
  5
3F3
100
AcDbEntity
  8
0
100
AcDbSpline
 62
7
  6
CONTINUOUS
 70
0
 71
3
 72
9
 73
5
 74
0
 42
0.0000001
 43
0.0000001
 44
0.0000000001
 40
0.0
 40
0.0
 40
0.0
 40
0.0
 40
0.2527452273
 40
1.0
 40
1.0
 40
1.0
 40
1.0
 10
23.8351110925
 20
83.4382802533
 30
0.0
 10
23.8509320748
 20
83.4225297109
 30
0.0
 10
23.915452468
 20
83.3621776289
 30
0.0
 10
23.9878066768
 20
83.3101762029
 30
0.0
 10
24.0449677602
 20
83.2771749796
 30
0.0
  0
SPLINE
  5
3F4
100
AcDbEntity
  8
0
100
AcDbSpline
 62
7
  6
CONTINUOUS
 70
0
 71
3
 72
10
 73
6
 74
0
 42
0.0000001
 43
0.0000001
 44
0.0000000001
 40
0.0
 40
0.0
 40
0.0
 40
0.0
 40
0.515806229
 40
0.7601128811
 40
1.0
 40
1.0
 40
1.0
 40
1.0
 10
101.806560375
 20
120.2605814542
 30
0.0
 10
101.9665218973
 20
120.2752886915
 30
0.0
 10
102.2075422259
 20
120.2672153906
 30
0.0
 10
102.5084394406
 20
120.1829034998
 30
0.0
 10
102.6457084855
 20
120.1184120277
 30
0.0
 10
102.7104073813
 20
120.0810589445
 30
0.0
  0
SPLINE
  5
3F5
100
AcDbEntity
  8
0
100
AcDbSpline
 62
7
  6
CONTINUOUS
 70
0
 71
3
 72
11
 73
7
 74
0
 42
0.0000001
 43
0.0000001
 44
0.0000000001
 40
0.0
 40
0.0
 40
0.0
 40
0.0
 40
0.2279157531
 40
0.4772155421
 40
0.7383467965
 40
1.0
 40
1.0
 40
1.0
 40
1.0
 10
76.6689255514
 20
102.7366619701
 30
0.0
 10
76.6689255514
 20
103.0340145896
 30
0.0
 10
76.7413760187
 20
103.6573158627
 30
0.0
 10
77.0187228504
 20
104.5837927775
 30
0.0
 10
77.4527181213
 20
105.4968179593
 30
0.0
 10
77.8339455504
 20
106.0659912269
 30
0.0
 10
78.0453134127
 20
106.3340511076
 30
0.0
  0
SPLINE
  5
3F6
100
AcDbEntity
  8
0
100
AcDbSpline
 62
7
  6
CONTINUOUS
 70
0
 71
3
 72
15
 73
11
 74
0
 42
0.0000001
 43
0.0000001
 44
0.0000000001
 40
0.0
 40
0.0
 40
0.0
 40
0.0
 40
0.1141543519
 40
0.237325601
 40
0.366974755
 40
0.4999984147
 40
0.6330222943
 40
0.7626720931
 40
0.8858443543
 40
1.0
 40
1.0
 40
1.0
 40
1.0
 10
73.4162479002
 20
96.2863253264
 30
0.0
 10
73.638919895
 20
96.4148842951
 30
0.0
 10
74.0787369524
 20
96.7231929428
 30
0.0
 10
74.6839012082
 20
97.2893732122
 30
0.0
 10
75.2415927736
 20
97.9586405371
 30
0.0
 10
75.730805899
 20
98.705888558
 30
0.0
 10
76.1333318259
 20
99.5031868367
 30
0.0
 10
76.4340865788
 20
100.3208007557
 30
0.0
 10
76.6218303928
 20
101.1279854124
 30
0.0
 10
76.6689255514
 20
101.6630375503
 30
0.0
 10
76.6689255514
 20
101.920159553
 30
0.0
  0
SPLINE
  5
3F7
100
AcDbEntity
  8
0
100
AcDbSpline
 62
7
  6
CONTINUOUS
 70
0
 71
3
 72
15
 73
11
 74
0
 42
0.0000001
 43
0.0000001
 44
0.0000000001
 40
0.0
 40
0.0
 40
0.0
 40
0.0
 40
0.1141475829
 40
0.2373370756
 40
0.3669780685
 40
0.5000016033
 40
0.6330249151
 40
0.7626652568
 40
0.8858537231
 40
1.0
 40
1.0
 40
1.0
 40
1.0
 10
69.8807287141
 20
90.9790948885
 30
0.0
 10
69.8807287141
 20
91.2026630324
 30
0.0
 10
69.9217075612
 20
91.6679391507
 30
0.0
 10
70.0849217418
 20
92.3698488028
 30
0.0
 10
70.3465051958
 20
93.0808118305
 30
0.0
 10
70.6964856518
 20
93.7741128461
 30
0.0
 10
71.1219078347
 20
94.4238563446
 30
0.0
 10
71.6068233723
 20
95.0058749479
 30
0.0
 10
72.1330823916
 20
95.4981747657
 30
0.0
 10
72.5155302972
 20
95.7662988799
 30
0.0
 10
72.709144063
 20
95.8780811725
 30
0.0
  0
SPLINE
  5
3F8
100
AcDbEntity
  8
0
100
AcDbSpline
 62
7
  6
CONTINUOUS
 70
0
 71
3
 72
12
 73
8
 74
0
 42
0.0000001
 43
0.0000001
 44
0.0000000001
 40
0.0
 40
0.0
 40
0.0
 40
0.0
 40
0.1081605139
 40
0.2183669701
 40
0.4513454431
 40
0.7104428158
 40
1.0
 40
1.0
 40
1.0
 40
1.0
 10
70.7091926984
 20
64.6529032473
 30
0.0
 10
70.6436118875
 20
64.690765493
 30
0.0
 10
70.5174960968
 20
64.7787395827
 30
0.0
 10
70.2913715493
 20
65.0012726108
 30
0.0
 10
70.0672833924
 20
65.3664386437
 30
0.0
 10
69.9114846651
 20
65.8958055144
 30
0.0
 10
69.8807287141
 20
66.281296442
 30
0.0
 10
69.8807287141
 20
66.4840223746
 30
0.0
  0
SPLINE
  5
3F9
100
AcDbEntity
  8
0
100
AcDbSpline
 62
7
  6
CONTINUOUS
 70
0
 71
3
 72
12
 73
8
 74
0
 42
0.0000001
 43
0.0000001
 44
0.0000000001
 40
0.0
 40
0.0
 40
0.0
 40
0.0
 40
0.2895571842
 40
0.5486545569
 40
0.7816330299
 40
0.8918394861
 40
1.0
 40
1.0
 40
1.0
 40
1.0
 10
93.5689045066
 20
52.8079570982
 30
0.0
 10
93.5689045066
 20
52.6052311655
 30
0.0
 10
93.5996604575
 20
52.2197402379
 30
0.0
 10
93.7554591848
 20
51.6903733672
 30
0.0
 10
93.9795473417
 20
51.3252073344
 30
0.0
 10
94.2056718892
 20
51.1026743063
 30
0.0
 10
94.3317876799
 20
51.0147002166
 30
0.0
 10
94.3973684908
 20
50.9768379709
 30
0.0
  0
SPLINE
  5
3FA
100
AcDbEntity
  8
0
100
AcDbSpline
 62
7
  6
CONTINUOUS
 70
0
 71
3
 72
15
 73
11
 74
0
 42
0.0000001
 43
0.0000001
 44
0.0000000001
 40
0.0
 40
0.0
 40
0.0
 40
0.0
 40
0.1141462769
 40
0.2373347432
 40
0.3669750849
 40
0.4999983967
 40
0.6330219315
 40
0.7626629244
 40
0.8858524171
 40
1.0
 40
1.0
 40
1.0
 40
1.0
 10
96.3973198554
 20
82.2020158961
 30
0.0
 10
96.2037060896
 20
82.0902336035
 30
0.0
 10
95.821258184
 20
81.8221094893
 30
0.0
 10
95.2949991647
 20
81.3298096714
 30
0.0
 10
94.8100836271
 20
80.7477910682
 30
0.0
 10
94.3846614442
 20
80.0980475697
 30
0.0
 10
94.0346809882
 20
79.404746554
 30
0.0
 10
93.7730975342
 20
78.6937835263
 30
0.0
 10
93.6098833536
 20
77.9918738743
 30
0.0
 10
93.5689045066
 20
77.5265977559
 30
0.0
 10
93.5689045066
 20
77.303029612
 30
0.0
  0
SPLINE
  5
3FB
100
AcDbEntity
  8
0
100
AcDbSpline
 62
7
  6
CONTINUOUS
 70
0
 71
3
 72
12
 73
8
 74
0
 42
0.0000001
 43
0.0000001
 44
0.0000000001
 40
0.0
 40
0.0
 40
0.0
 40
0.0
 40
0.1081612628
 40
0.2183683537
 40
0.4513474253
 40
0.7104442773
 40
1.0
 40
1.0
 40
1.0
 40
1.0
 10
126.3985831737
 20
106.404993668
 30
0.0
 10
126.3330045095
 20
106.4428546744
 30
0.0
 10
126.1937624131
 20
106.5080825758
 30
0.0
 10
125.8879907801
 20
106.5926391548
 30
0.0
 10
125.4597203934
 20
106.6041198801
 30
0.0
 10
124.9233981545
 20
106.4743676439
 30
0.0
 10
124.5741900302
 20
106.308265575
 30
0.0
 10
124.3986318091
 20
106.2069075938
 30
0.0
  0
SPLINE
  5
3FC
100
AcDbEntity
  8
0
100
AcDbSpline
 62
7
  6
CONTINUOUS
 70
0
 71
3
 72
15
 73
11
 74
0
 42
0.0000001
 43
0.0000001
 44
0.0000000001
 40
0.0
 40
0.0
 40
0.0
 40
0.0
 40
0.1141462769
 40
0.2373347432
 40
0.3669750849
 40
0.4999983967
 40
0.6330219315
 40
0.7626629244
 40
0.8858524171
 40
1.0
 40
1.0
 40
1.0
 40
1.0
 10
103.1855166927
 20
93.9595829777
 30
0.0
 10
102.9919029268
 20
93.8478006851
 30
0.0
 10
102.6094550213
 20
93.5796765709
 30
0.0
 10
102.0831960019
 20
93.0873767531
 30
0.0
 10
101.5982804644
 20
92.5053581498
 30
0.0
 10
101.1728582814
 20
91.8556146513
 30
0.0
 10
100.8228778255
 20
91.1623136357
 30
0.0
 10
100.5612943715
 20
90.451350608
 30
0.0
 10
100.3980801909
 20
89.7494409559
 30
0.0
 10
100.3571013438
 20
89.2841648375
 30
0.0
 10
100.3571013438
 20
89.0605966937
 30
0.0
  0
SPLINE
  5
3FD
100
AcDbEntity
  8
0
100
AcDbSpline
 62
7
  6
CONTINUOUS
 70
0
 71
3
 72
15
 73
11
 74
0
 42
0.0000001
 43
0.0000001
 44
0.0000000001
 40
0.0
 40
0.0
 40
0.0
 40
0.0
 40
0.1141447985
 40
0.2373324971
 40
0.3669747555
 40
0.5000005214
 40
0.6330262147
 40
0.7626682613
 40
0.8858556261
 40
1.0
 40
1.0
 40
1.0
 40
1.0
 10
107.3572103011
 20
154.1759432932
 30
0.0
 10
107.2120013396
 20
154.2597778297
 30
0.0
 10
106.8944347899
 20
154.4076364372
 30
0.0
 10
106.3773298465
 20
154.5648374897
 30
0.0
 10
105.8174497886
 20
154.66154488
 30
0.0
 10
105.2358863801
 20
154.6942111002
 30
0.0
 10
104.6543234365
 20
154.6615421198
 30
0.0
 10
104.0944447521
 20
154.5648320711
 30
0.0
 10
103.5773420349
 20
154.4076285604
 30
0.0
 10
103.2597774308
 20
154.2597683668
 30
0.0
 10
103.114569614
 20
154.1759330952
 30
0.0
  0
SPLINE
  5
3FE
100
AcDbEntity
  8
0
100
AcDbSpline
 62
7
  6
CONTINUOUS
 70
0
 71
3
 72
14
 73
10
 74
0
 42
0.0000001
 43
0.0000001
 44
0.0000000001
 40
0.0
 40
0.0
 40
0.0
 40
0.0
 40
0.0957392945
 40
0.1960578689
 40
0.30454131
 40
0.4233191735
 40
0.553123256
 40
0.6935421622
 40
1.0
 40
1.0
 40
1.0
 40
1.0
 10
67.0922088446
 20
179.1605447247
 30
0.0
 10
67.0922079023
 20
179.2836311938
 30
0.0
 10
67.0563925917
 20
179.5369164122
 30
0.0
 10
66.8997143916
 20
179.8999642942
 30
0.0
 10
66.6468270733
 20
180.2407085491
 30
0.0
 10
66.3060202678
 20
180.5516858374
 30
0.0
 10
65.8861126811
 20
180.8267183411
 30
0.0
 10
65.2153720018
 20
181.1463194949
 30
0.0
 10
64.6554792734
 20
181.2991358268
 30
0.0
 10
64.2675422005
 20
181.3679614667
 30
0.0
  0
SPLINE
  5
3FF
100
AcDbEntity
  8
0
100
AcDbSpline
 62
7
  6
CONTINUOUS
 70
0
 71
3
 72
11
 73
7
 74
0
 42
0.0000001
 43
0.0000001
 44
0.0000000001
 40
0.0
 40
0.0
 40
0.0
 40
0.0
 40
0.260153143
 40
0.5216020698
 40
0.7717920974
 40
1.0
 40
1.0
 40
1.0
 40
1.0
 10
64.2675422005
 20
181.3679614667
 30
0.0
 10
63.9161004088
 20
181.4303123166
 30
0.0
 10
63.1999970539
 20
181.4966319361
 30
0.0
 10
62.1389660898
 20
181.4315869802
 30
0.0
 10
61.1441694699
 20
181.2090696395
 30
0.0
 10
60.5349512838
 20
180.9500575751
 30
0.0
 10
60.263797402
 20
180.793507743
 30
0.0
  0
SPLINE
  5
400
100
AcDbEntity
  8
0
100
AcDbSpline
 62
7
  6
CONTINUOUS
 70
0
 71
3
 72
15
 73
11
 74
0
 42
0.0000001
 43
0.0000001
 44
0.0000000001
 40
0.0
 40
0.0
 40
0.0
 40
0.0
 40
0.1141464977
 40
0.2373352781
 40
0.3669759338
 40
0.4999994786
 40
0.633023096
 40
0.7626639634
 40
0.8858530776
 40
1.0
 40
1.0
 40
1.0
 40
1.0
 10
71.8606182807
 20
127.0684784707
 30
0.0
 10
71.7154078558
 20
126.9846416932
 30
0.0
 10
71.3978373634
 20
126.8367820758
 30
0.0
 10
70.8807314876
 20
126.6795795367
 30
0.0
 10
70.3208556468
 20
126.5828736245
 30
0.0
 10
69.7393015147
 20
126.5502053693
 30
0.0
 10
69.1577469176
 20
126.5828708643
 30
0.0
 10
68.5978697034
 20
126.6795741181
 30
0.0
 10
68.0807616013
 20
126.8367741991
 30
0.0
 10
67.7631891634
 20
126.9846322304
 30
0.0
 10
67.6179775937
 20
127.0684682727
 30
0.0
  0
SPLINE
  5
401
100
AcDbEntity
  8
0
100
AcDbSpline
 62
7
  6
CONTINUOUS
 70
0
 71
3
 72
11
 73
7
 74
0
 42
0.0000001
 43
0.0000001
 44
0.0000000001
 40
0.0
 40
0.0
 40
0.0
 40
0.0
 40
0.2897781767
 40
0.5490726313
 40
0.7822276909
 40
1.0
 40
1.0
 40
1.0
 40
1.0
 10
103.1145872778
 20
152.869581754
 30
0.0
 10
102.9829149169
 20
152.9456011072
 30
0.0
 10
102.7440594001
 20
153.1100462071
 30
0.0
 10
102.458688042
 20
153.4100777859
 30
0.0
 10
102.2781185281
 20
153.7418689788
 30
0.0
 10
102.2359208433
 20
153.9800530854
 30
0.0
 10
102.2359208418
 20
154.0943142156
 30
0.0
  0
SPLINE
  5
402
100
AcDbEntity
  8
0
100
AcDbSpline
 62
7
  6
CONTINUOUS
 70
0
 71
3
 72
15
 73
11
 74
0
 42
0.0000001
 43
0.0000001
 44
0.0000000001
 40
0.0
 40
0.0
 40
0.0
 40
0.0
 40
0.0933564697
 40
0.192039241
 40
0.3000218815
 40
0.4193885318
 40
0.5505041666
 40
0.6923753351
 40
0.8430958291
 40
1.0
 40
1.0
 40
1.0
 40
1.0
 10
69.8422248335
 20
177.5275398937
 30
0.0
 10
69.8422318028
 20
177.7560492221
 30
0.0
 10
69.7683265025
 20
178.2287738411
 30
0.0
 10
69.4477347569
 20
178.8988330422
 30
0.0
 10
68.9346589418
 20
179.5186715692
 30
0.0
 10
68.2484383043
 20
180.0729456132
 30
0.0
 10
67.4100004138
 20
180.5485027141
 30
0.0
 10
66.4437148414
 20
180.9329065518
 30
0.0
 10
65.3779750376
 20
181.2151996048
 30
0.0
 10
64.6319229724
 20
181.3284640799
 30
0.0
 10
64.2497923063
 20
181.3668670759
 30
0.0
  0
SPLINE
  5
403
100
AcDbEntity
  8
0
100
AcDbSpline
 62
7
  6
CONTINUOUS
 70
0
 71
3
 72
10
 73
6
 74
0
 42
0.0000001
 43
0.0000001
 44
0.0000000001
 40
0.0
 40
0.0
 40
0.0
 40
0.0
 40
0.2380982603
 40
0.4814216677
 40
1.0
 40
1.0
 40
1.0
 40
1.0
 10
70.5922160463
 20
172.2202741623
 30
0.0
 10
70.5922014463
 20
172.3738093792
 30
0.0
 10
70.5632298174
 20
172.6850412353
 30
0.0
 10
70.388168738
 20
173.3084221739
 30
0.0
 10
70.1326779605
 20
173.7403706817
 30
0.0
 10
69.926539637
 20
174.0036771422
 30
0.0
  0
SPLINE
  5
404
100
AcDbEntity
  8
0
100
AcDbSpline
 62
7
  6
CONTINUOUS
 70
0
 71
3
 72
19
 73
15
 74
0
 42
0.0000001
 43
0.0000001
 44
0.0000000001
 40
0.0
 40
0.0
 40
0.0
 40
0.0
 40
0.0428397378
 40
0.0874486795
 40
0.1352614443
 40
0.1872036398
 40
0.243684536
 40
0.3046792079
 40
0.3698182335
 40
0.4384686422
 40
0.5827509656
 40
0.7298405825
 40
0.8713667074
 40
1.0
 40
1.0
 40
1.0
 40
1.0
 10
51.3717261555
 20
171.8121922848
 30
0.0
 10
51.3717412997
 20
171.9616433028
 30
0.0
 10
51.3317288115
 20
172.2680109907
 30
0.0
 10
51.1560700907
 20
172.7104017579
 30
0.0
 10
50.8709406427
 20
173.1297766654
 30
0.0
 10
50.4844806548
 20
173.5178210917
 30
0.0
 10
50.0056396647
 20
173.8677343682
 30
0.0
 10
49.4445906991
 20
174.1729016134
 30
0.0
 10
48.8130298998
 20
174.427327269
 30
0.0
 10
47.8795437151
 20
174.6962485094
 30
0.0
 10
46.6286631648
 20
174.871742102
 30
0.0
 10
45.1120902244
 20
174.8298207246
 30
0.0
 10
43.6779546528
 20
174.5428697378
 30
0.0
 10
42.7980485275
 20
174.1798307569
 30
0.0
 10
42.4094181525
 20
173.9554562446
 30
0.0
  0
SPLINE
  5
405
100
AcDbEntity
  8
0
100
AcDbSpline
 62
7
  6
CONTINUOUS
 70
0
 71
3
 72
12
 73
8
 74
0
 42
0.0000001
 43
0.0000001
 44
0.0000000001
 40
0.0
 40
0.0
 40
0.0
 40
0.0
 40
0.109794855
 40
0.22138771
 40
0.4557522003
 40
0.7136740082
 40
1.0
 40
1.0
 40
1.0
 40
1.0
 10
52.1217229964
 20
170.9956898663
 30
0.0
 10
52.1217337053
 20
171.1012232615
 30
0.0
 10
52.1047112147
 20
171.3144056264
 30
0.0
 10
52.0020079067
 20
171.7418042251
 30
0.0
 10
51.7386037624
 20
172.268407284
 30
0.0
 10
51.243001642
 20
172.837031837
 30
0.0
 10
50.8243384539
 20
173.1563540363
 30
0.0
 10
50.593075777
 20
173.3055508297
 30
0.0
  0
SPLINE
  5
406
100
AcDbEntity
  8
0
100
AcDbSpline
 62
7
  6
CONTINUOUS
 70
0
 71
3
 72
11
 73
7
 74
0
 42
0.0000001
 43
0.0000001
 44
0.0000000001
 40
0.0
 40
0.0
 40
0.0
 40
0.0
 40
0.2272379022
 40
0.4647383973
 40
0.7206518845
 40
1.0
 40
1.0
 40
1.0
 40
1.0
 10
53.6217363478
 20
162.8306656897
 30
0.0
 10
53.6217312019
 20
163.0545869473
 30
0.0
 10
53.5586791841
 20
163.5146522575
 30
0.0
 10
53.2822415631
 20
164.1760829887
 30
0.0
 10
52.8353579755
 20
164.7993060681
 30
0.0
 10
52.4502427602
 20
165.164168356
 30
0.0
 10
52.2366409207
 20
165.3378010756
 30
0.0
  0
SPLINE
  5
407
100
AcDbEntity
  8
0
100
AcDbSpline
 62
7
  6
CONTINUOUS
 70
0
 71
3
 72
11
 73
7
 74
0
 42
0.0000001
 43
0.0000001
 44
0.0000000001
 40
0.0
 40
0.0
 40
0.0
 40
0.0
 40
0.2897733512
 40
0.5490657165
 40
0.7822241652
 40
1.0
 40
1.0
 40
1.0
 40
1.0
 10
67.6179569859
 20
133.6820765708
 30
0.0
 10
67.4862886272
 20
133.6060582623
 30
0.0
 10
67.2474380119
 20
133.4416174932
 30
0.0
 10
66.9620708987
 20
133.1415902526
 30
0.0
 10
66.7814983182
 20
132.8098019028
 30
0.0
 10
66.7393001749
 20
132.5716161927
 30
0.0
 10
66.7393001764
 20
132.4573543073
 30
0.0
  0
SPLINE
  5
408
100
AcDbEntity
  8
0
100
AcDbSpline
 62
7
  6
CONTINUOUS
 70
0
 71
3
 72
11
 73
7
 74
0
 42
0.0000001
 43
0.0000001
 44
0.0000000001
 40
0.0
 40
0.0
 40
0.0
 40
0.0
 40
0.2897733512
 40
0.5490657165
 40
0.7822241652
 40
1.0
 40
1.0
 40
1.0
 40
1.0
 10
25.8984832022
 20
157.7682810875
 30
0.0
 10
25.7668148435
 20
157.692262779
 30
0.0
 10
25.5279642282
 20
157.5278220099
 30
0.0
 10
25.242597115
 20
157.2277947693
 30
0.0
 10
25.0620245345
 20
156.8960064195
 30
0.0
 10
25.0198263913
 20
156.6578207094
 30
0.0
 10
25.0198263927
 20
156.543558824
 30
0.0
  0
SPLINE
  5
409
100
AcDbEntity
  8
0
100
AcDbSpline
 62
7
  6
CONTINUOUS
 70
0
 71
3
 72
12
 73
8
 74
0
 42
0.0000001
 43
0.0000001
 44
0.0000000001
 40
0.0
 40
0.0
 40
0.0
 40
0.0
 40
0.1081616963
 40
0.2183692845
 40
0.4513505142
 40
0.7104461826
 40
1.0
 40
1.0
 40
1.0
 40
1.0
 10
101.3162729664
 20
158.5033749651
 30
0.0
 10
101.3162729654
 20
158.5790999834
 30
0.0
 10
101.3031418266
 20
158.7323048663
 30
0.0
 10
101.2234796441
 20
159.0393966712
 30
0.0
 10
101.019273868
 20
159.4160336751
 30
0.0
 10
100.6387298503
 20
159.8156259565
 30
0.0
 10
100.3202680966
 20
160.0349936284
 30
0.0
 10
100.144707002
 20
160.1363515806
 30
0.0
  0
SPLINE
  5
40A
100
AcDbEntity
  8
0
100
AcDbSpline
 62
7
  6
CONTINUOUS
 70
0
 71
3
 72
11
 73
7
 74
0
 42
0.0000001
 43
0.0000001
 44
0.0000000001
 40
0.0
 40
0.0
 40
0.0
 40
0.0
 40
0.2242718271
 40
0.4624182716
 40
0.7198934372
 40
1.0
 40
1.0
 40
1.0
 40
1.0
 10
81.1483356389
 20
155.644131478
 30
0.0
 10
81.1309135323
 20
155.758319758
 30
0.0
 10
81.0643072654
 20
155.9898680399
 30
0.0
 10
80.8817239022
 20
156.3156711261
 30
0.0
 10
80.6199534278
 20
156.620410108
 30
0.0
 10
80.4060668685
 20
156.7981994229
 30
0.0
 10
80.2891485597
 20
156.8827161766
 30
0.0
  0
SPLINE
  5
40B
100
AcDbEntity
  8
0
100
AcDbSpline
 62
7
  6
CONTINUOUS
 70
0
 71
3
 72
11
 73
7
 74
0
 42
0.0000001
 43
0.0000001
 44
0.0000000001
 40
0.0
 40
0.0
 40
0.0
 40
0.0
 40
0.2177845113
 40
0.450917848
 40
0.7103083905
 40
1.0
 40
1.0
 40
1.0
 40
1.0
 10
75.4567470571
 20
148.4023719216
 30
0.0
 10
75.5227236337
 20
148.3642932143
 30
0.0
 10
75.6742965717
 20
148.3092700794
 30
0.0
 10
75.9260740632
 20
148.3029029073
 30
0.0
 10
76.1943985851
 20
148.3677054166
 30
0.0
 10
76.36897238
 20
148.4507557228
 30
0.0
 10
76.4567255114
 20
148.5014197144
 30
0.0
  0
SPLINE
  5
40C
100
AcDbEntity
  8
0
100
AcDbSpline
 62
7
  6
CONTINUOUS
 70
0
 71
3
 72
17
 73
13
 74
0
 42
0.0000001
 43
0.0000001
 44
0.0000000001
 40
0.0
 40
0.0
 40
0.0
 40
0.0
 40
0.0428590382
 40
0.0874850278
 40
0.1353193459
 40
0.1872814037
 40
0.3045420728
 40
0.4382079173
 40
0.5825499624
 40
0.7297142529
 40
0.8713069433
 40
1.0
 40
1.0
 40
1.0
 40
1.0
 10
75.1031910219
 20
148.6064902298
 30
0.0
 10
75.05388207
 20
148.63495314
 30
0.0
 10
74.9604418628
 20
148.7065215311
 30
0.0
 10
74.8479359035
 20
148.8487202502
 30
0.0
 10
74.7638933285
 20
149.0226760448
 30
0.0
 10
74.6884002532
 20
149.3023462516
 30
0.0
 10
74.6789329648
 20
149.7101141139
 30
0.0
 10
74.7844827573
 20
150.2276120221
 30
0.0
 10
74.9971416241
 20
150.7539880014
 30
0.0
 10
75.299913934
 20
151.2464200005
 30
0.0
 10
75.6677267611
 20
151.6649257137
 30
0.0
 10
75.955117497
 20
151.8860717433
 30
0.0
 10
76.1031706488
 20
151.9715497602
 30
0.0
  0
SPLINE
  5
40D
100
AcDbEntity
  8
0
100
AcDbSpline
 62
7
  6
CONTINUOUS
 70
0
 71
3
 72
17
 73
13
 74
0
 42
0.0000001
 43
0.0000001
 44
0.0000000001
 40
0.0
 40
0.0
 40
0.0
 40
0.0
 40
0.12868996
 40
0.2702722062
 40
0.4174312903
 40
0.5617781732
 40
0.6954492761
 40
0.8127130379
 40
0.8646790319
 40
0.9125109796
 40
0.9571404657
 40
1.0
 40
1.0
 40
1.0
 40
1.0
 10
62.3145839999
 20
148.1747672453
 30
0.0
 10
62.0925098518
 20
148.3029789139
 30
0.0
 10
61.5897167905
 20
148.5104362975
 30
0.0
 10
60.7702466279
 20
148.6743614949
 30
0.0
 10
59.903506383
 20
148.6983746844
 30
0.0
 10
59.060222747
 20
148.5798891024
 30
0.0
 10
58.3087633821
 20
148.3289073724
 30
0.0
 10
57.7861827688
 20
148.0107365764
 30
0.0
 10
57.4794181715
 20
147.7029719584
 30
0.0
 10
57.3165567805
 20
147.463275485
 30
0.0
 10
57.2160905509
 20
147.2105166155
 30
0.0
 10
57.1932990948
 20
147.0354367142
 30
0.0
 10
57.1932840333
 20
146.950034783
 30
0.0
  0
SPLINE
  5
40E
100
AcDbEntity
  8
0
100
AcDbSpline
 62
7
  6
CONTINUOUS
 70
0
 71
3
 72
11
 73
7
 74
0
 42
0.0000001
 43
0.0000001
 44
0.0000000001
 40
0.0
 40
0.0
 40
0.0
 40
0.0
 40
0.217780861
 40
0.4509234132
 40
0.7102539949
 40
1.0
 40
1.0
 40
1.0
 40
1.0
 10
63.1932609431
 20
146.9500347843
 30
0.0
 10
63.193281095
 20
147.0643003057
 30
0.0
 10
63.1510272631
 20
147.3024764806
 30
0.0
 10
62.9704877686
 20
147.6342934954
 30
0.0
 10
62.6850837892
 20
147.9342958534
 30
0.0
 10
62.446241634
 20
148.0987563943
 30
0.0
 10
62.3145839999
 20
148.1747672453
 30
0.0
  0
SPLINE
  5
40F
100
AcDbEntity
  8
0
100
AcDbSpline
 62
7
  6
CONTINUOUS
 70
0
 71
3
 72
11
 73
7
 74
0
 42
0.0000001
 43
0.0000001
 44
0.0000000001
 40
0.0
 40
0.0
 40
0.0
 40
0.0
 40
0.2897011399
 40
0.5490888176
 40
0.7822183492
 40
1.0
 40
1.0
 40
1.0
 40
1.0
 10
76.1031706488
 20
151.9715497602
 30
0.0
 10
76.1909267423
 20
152.0222154619
 30
0.0
 10
76.3655026885
 20
152.1052665161
 30
0.0
 10
76.6338294741
 20
152.1700696017
 30
0.0
 10
76.885601673
 20
152.1636953549
 30
0.0
 10
77.0371768293
 20
152.1086818812
 30
0.0
 10
77.1031502758
 20
152.070599622
 30
0.0
  0
SPLINE
  5
410
100
AcDbEntity
  8
0
100
AcDbSpline
 62
7
  6
CONTINUOUS
 70
0
 71
3
 72
17
 73
13
 74
0
 42
0.0000001
 43
0.0000001
 44
0.0000000001
 40
0.0
 40
0.0
 40
0.0
 40
0.0
 40
0.1286920618
 40
0.2702783064
 40
0.4174365418
 40
0.5617781925
 40
0.6954479477
 40
0.8127116203
 40
0.8646743896
 40
0.9125102982
 40
0.9571382578
 40
1.0
 40
1.0
 40
1.0
 40
1.0
 10
76.4567255114
 20
148.5014197144
 30
0.0
 10
76.6047775029
 20
148.5868970613
 30
0.0
 10
76.8921608276
 20
148.8080362579
 30
0.0
 10
77.2599635509
 20
149.2265265045
 30
0.0
 10
77.5627332411
 20
149.7189394018
 30
0.0
 10
77.7753996215
 20
150.2453090524
 30
0.0
 10
77.8809590614
 20
150.7628125112
 30
0.0
 10
77.8715058019
 20
151.1705929081
 30
0.0
 10
77.7960067144
 20
151.450267758
 30
0.0
 10
77.7119739866
 20
151.6242353076
 30
0.0
 10
77.5994581465
 20
151.7664363652
 30
0.0
 10
77.5060177573
 20
151.8380154771
 30
0.0
 10
77.4567039657
 20
151.8664771757
 30
0.0
  0
SPLINE
  5
411
100
AcDbEntity
  8
0
100
AcDbSpline
 62
7
  6
CONTINUOUS
 70
0
 71
3
 72
12
 73
8
 74
0
 42
0.0000001
 43
0.0000001
 44
0.0000000001
 40
0.0
 40
0.0
 40
0.0
 40
0.0
 40
0.2895533423
 40
0.5486488412
 40
0.7816302656
 40
0.8918380601
 40
1.0
 40
1.0
 40
1.0
 40
1.0
 10
94.4878527526
 20
160.1363379832
 30
0.0
 10
94.312294941
 20
160.0349802385
 30
0.0
 10
93.9938392307
 20
159.8156134078
 30
0.0
 10
93.6133029428
 20
159.4160240756
 30
0.0
 10
93.4091016439
 20
159.0393908616
 30
0.0
 10
93.3294411934
 20
158.7323023945
 30
0.0
 10
93.316310339
 20
158.5790991774
 30
0.0
 10
93.3163103399
 20
158.5033749651
 30
0.0
  0
SPLINE
  5
412
100
AcDbEntity
  8
0
100
AcDbSpline
 62
7
  6
CONTINUOUS
 70
0
 71
3
 72
15
 73
11
 74
0
 42
0.0000001
 43
0.0000001
 44
0.0000000001
 40
0.0
 40
0.0
 40
0.0
 40
0.0
 40
0.1141447985
 40
0.2373324971
 40
0.3669747555
 40
0.5000005214
 40
0.6330262147
 40
0.7626682613
 40
0.8858556261
 40
1.0
 40
1.0
 40
1.0
 40
1.0
 10
100.144707002
 20
160.1363515806
 30
0.0
 10
99.9510950533
 20
160.2481309625
 30
0.0
 10
99.5276729871
 20
160.4452757726
 30
0.0
 10
98.8381997292
 20
160.6548771759
 30
0.0
 10
98.0916929854
 20
160.783820363
 30
0.0
 10
97.3162751073
 20
160.8273753232
 30
0.0
 10
96.5408578492
 20
160.7838166827
 30
0.0
 10
95.7943529367
 20
160.6548699511
 30
0.0
 10
95.1048826471
 20
160.4452652702
 30
0.0
 10
94.6814631749
 20
160.2481183454
 30
0.0
 10
94.4878527526
 20
160.1363379832
 30
0.0
  0
SPLINE
  5
413
100
AcDbEntity
  8
0
100
AcDbSpline
 62
7
  6
CONTINUOUS
 70
0
 71
3
 72
11
 73
7
 74
0
 42
0.0000001
 43
0.0000001
 44
0.0000000001
 40
0.0
 40
0.0
 40
0.0
 40
0.0
 40
0.2191895662
 40
0.4529220188
 40
0.7116628037
 40
1.0
 40
1.0
 40
1.0
 40
1.0
 10
80.1637530362
 20
156.7478944773
 30
0.0
 10
80.1637725192
 20
156.8583668576
 30
0.0
 10
80.1244501771
 20
157.0880993249
 30
0.0
 10
79.9557509545
 20
157.4099163863
 30
0.0
 10
79.6880091776
 20
157.7029820442
 30
0.0
 10
79.4629329239
 20
157.8653309079
 30
0.0
 10
79.338757005
 20
157.9408234961
 30
0.0
  0
SPLINE
  5
414
100
AcDbEntity
  8
0
100
AcDbSpline
 62
7
  6
CONTINUOUS
 70
0
 71
3
 72
11
 73
7
 74
0
 42
0.0000001
 43
0.0000001
 44
0.0000000001
 40
0.0
 40
0.0
 40
0.0
 40
0.0
 40
0.2177796629
 40
0.4509238111
 40
0.7102593659
 40
1.0
 40
1.0
 40
1.0
 40
1.0
 10
31.0197945067
 20
157.686662212
 30
0.0
 10
31.0198146741
 20
157.5723991294
 30
0.0
 10
30.9775590957
 20
157.334227523
 30
0.0
 10
30.7970298275
 20
157.0024089349
 30
0.0
 10
30.5116295718
 20
156.7024102929
 30
0.0
 10
30.2727941128
 20
156.5379491315
 30
0.0
 10
30.1411415531
 20
156.4619399444
 30
0.0
  0
SPLINE
  5
415
100
AcDbEntity
  8
0
100
AcDbSpline
 62
7
  6
CONTINUOUS
 70
0
 71
3
 72
9
 73
5
 74
0
 42
0.0000001
 43
0.0000001
 44
0.0000000001
 40
0.0
 40
0.0
 40
0.0
 40
0.0
 40
0.2444296014
 40
1.0
 40
1.0
 40
1.0
 40
1.0
 10
55.9432348769
 20
161.4671633397
 30
0.0
 10
55.9203360954
 20
161.5361911864
 30
0.0
 10
55.8183374275
 20
161.8158043799
 30
0.0
 10
55.6838116041
 20
162.0832521598
 30
0.0
 10
55.5678985783
 20
162.2758756348
 30
0.0
  0
SPLINE
  5
416
100
AcDbEntity
  8
0
100
AcDbSpline
 62
7
  6
CONTINUOUS
 70
0
 71
3
 72
11
 73
7
 74
0
 42
0.0000001
 43
0.0000001
 44
0.0000000001
 40
0.0
 40
0.0
 40
0.0
 40
0.0
 40
0.2793877914
 40
0.5352676595
 40
0.7727688331
 40
1.0
 40
1.0
 40
1.0
 40
1.0
 10
40.0065771391
 20
165.3375765272
 30
0.0
 10
39.7929667207
 20
165.1639430117
 30
0.0
 10
39.407890581
 20
164.7991086031
 30
0.0
 10
38.9611696132
 20
164.1758754442
 30
0.0
 10
38.684773549
 20
163.5145658865
 30
0.0
 10
38.621746926
 20
163.0545543451
 30
0.0
 10
38.6217520712
 20
162.8306657001
 30
0.0
  0
SPLINE
  5
417
100
AcDbEntity
  8
0
100
AcDbSpline
 62
7
  6
CONTINUOUS
 70
0
 71
3
 72
11
 73
7
 74
0
 42
0.0000001
 43
0.0000001
 44
0.0000000001
 40
0.0
 40
0.0
 40
0.0
 40
0.0
 40
0.2846861367
 40
0.5420911666
 40
0.7773862295
 40
1.0
 40
1.0
 40
1.0
 40
1.0
 10
41.5270979527
 20
173.2233981262
 30
0.0
 10
41.3132941634
 20
173.0763861913
 30
0.0
 10
40.9266365577
 20
172.7638644974
 30
0.0
 10
40.4716506748
 20
172.2132982037
 30
0.0
 10
40.1872550939
 20
171.6183008984
 30
0.0
 10
40.1217860114
 20
171.1985854041
 30
0.0
 10
40.1217654226
 20
170.9956898661
 30
0.0
  0
SPLINE
  5
418
100
AcDbEntity
  8
0
100
AcDbSpline
 62
7
  6
CONTINUOUS
 70
0
 71
3
 72
9
 73
5
 74
0
 42
0.0000001
 43
0.0000001
 44
0.0000000001
 40
0.0
 40
0.0
 40
0.0
 40
0.0
 40
0.2588906838
 40
1.0
 40
1.0
 40
1.0
 40
1.0
 10
42.4094181525
 20
173.9554562446
 30
0.0
 10
42.3544625208
 20
173.9237277852
 30
0.0
 10
42.1446062288
 20
173.7970824249
 30
0.0
 10
41.9446291151
 20
173.6536876539
 30
0.0
 10
41.8051055251
 20
173.5373621689
 30
0.0
  0
SPLINE
  5
419
100
AcDbEntity
  8
0
100
AcDbSpline
 62
7
  6
CONTINUOUS
 70
0
 71
3
 72
11
 73
7
 74
0
 42
0.0000001
 43
0.0000001
 44
0.0000000001
 40
0.0
 40
0.0
 40
0.0
 40
0.0
 40
0.2766006214
 40
0.5317424179
 40
0.7704184616
 40
1.0
 40
1.0
 40
1.0
 40
1.0
 10
41.7184875157
 20
173.4628071337
 30
0.0
 10
41.5869522333
 20
173.3458729042
 30
0.0
 10
41.3502258615
 20
173.1015271353
 30
0.0
 10
41.0777069717
 20
172.6902083209
 30
0.0
 10
40.9098247565
 20
172.2574423749
 30
0.0
 10
40.871777066
 20
171.9582721873
 30
0.0
 10
40.8717622635
 20
171.8121922819
 30
0.0
  0
SPLINE
  5
41A
100
AcDbEntity
  8
0
100
AcDbSpline
 62
7
  6
CONTINUOUS
 70
0
 71
3
 72
11
 73
7
 74
0
 42
0.0000001
 43
0.0000001
 44
0.0000000001
 40
0.0
 40
0.0
 40
0.0
 40
0.0
 40
0.2228964003
 40
0.4583021121
 40
0.7156030448
 40
1.0
 40
1.0
 40
1.0
 40
1.0
 10
108.9429835183
 20
151.6448086639
 30
0.0
 10
108.942983517
 20
151.7455136166
 30
0.0
 10
108.9107189512
 20
151.9537307959
 30
0.0
 10
108.770663935
 20
152.2492099544
 30
0.0
 10
108.5463488758
 20
152.522956797
 30
0.0
 10
108.3555441171
 20
152.6786456801
 30
0.0
 10
108.2500195168
 20
152.7519566374
 30
0.0
  0
SPLINE
  5
41B
100
AcDbEntity
  8
0
100
AcDbSpline
 62
7
  6
CONTINUOUS
 70
0
 71
3
 72
11
 73
7
 74
0
 42
0.0000001
 43
0.0000001
 44
0.0000000001
 40
0.0
 40
0.0
 40
0.0
 40
0.0
 40
0.2219807049
 40
0.4569660397
 40
0.714599061
 40
1.0
 40
1.0
 40
1.0
 40
1.0
 10
108.9429835183
 20
149.1953014125
 30
0.0
 10
108.9429835196
 20
149.0922124844
 30
0.0
 10
108.9090818928
 20
148.8787670478
 30
0.0
 10
108.7622641759
 20
148.5767894066
 30
0.0
 10
108.5276388625
 20
148.2981333433
 30
0.0
 10
108.3286321933
 20
148.1406583263
 30
0.0
 10
108.2186389273
 20
148.066707288
 30
0.0
  0
SPLINE
  5
41C
100
AcDbEntity
  8
0
100
AcDbSpline
 62
7
  6
CONTINUOUS
 70
0
 71
3
 72
9
 73
5
 74
0
 42
0.0000001
 43
0.0000001
 44
0.0000000001
 40
0.0
 40
0.0
 40
0.0
 40
0.0
 40
0.2444296014
 40
1.0
 40
1.0
 40
1.0
 40
1.0
 10
72.9137269701
 20
171.2650230327
 30
0.0
 10
72.8908281886
 20
171.3340508794
 30
0.0
 10
72.7888295206
 20
171.6136640728
 30
0.0
 10
72.6543036972
 20
171.8811118527
 30
0.0
 10
72.5383906715
 20
172.0737353277
 30
0.0
  0
SPLINE
  5
41D
100
AcDbEntity
  8
0
100
AcDbSpline
 62
7
  6
CONTINUOUS
 70
0
 71
3
 72
11
 73
7
 74
0
 42
0.0000001
 43
0.0000001
 44
0.0000000001
 40
0.0
 40
0.0
 40
0.0
 40
0.0
 40
0.2177753738
 40
0.4509336309
 40
0.7102261693
 40
1.0
 40
1.0
 40
1.0
 40
1.0
 10
72.7392721463
 20
132.4573543073
 30
0.0
 10
72.7392721448
 20
132.5716174227
 30
0.0
 10
72.6970730381
 20
132.8098058811
 30
0.0
 10
72.5164965512
 20
133.1415974435
 30
0.0
 10
72.2311236422
 20
133.4416269079
 30
0.0
 10
71.9922684939
 20
133.6060683047
 30
0.0
 10
71.860597673
 20
133.6820867689
 30
0.0
  0
SPLINE
  5
41E
100
AcDbEntity
  8
0
100
AcDbSpline
 62
7
  6
CONTINUOUS
 70
0
 71
3
 72
10
 73
6
 74
0
 42
0.0000001
 43
0.0000001
 44
0.0000000001
 40
0.0
 40
0.0
 40
0.0
 40
0.0
 40
0.5197482181
 40
0.7626662032
 40
1.0
 40
1.0
 40
1.0
 40
1.0
 10
56.3060865907
 20
174.0639890559
 30
0.0
 10
56.0859412646
 20
173.7939038544
 30
0.0
 10
55.8117658681
 20
173.3487142018
 30
0.0
 10
55.6234634962
 20
172.7022151902
 30
0.0
 10
55.592241429
 20
172.3793828391
 30
0.0
 10
55.5922565589
 20
172.2202741963
 30
0.0
  0
SPLINE
  5
41F
100
AcDbEntity
  8
0
100
AcDbSpline
 62
7
  6
CONTINUOUS
 70
0
 71
3
 72
11
 73
7
 74
0
 42
0.0000001
 43
0.0000001
 44
0.0000000001
 40
0.0
 40
0.0
 40
0.0
 40
0.0
 40
0.2177753738
 40
0.4509336309
 40
0.7102261693
 40
1.0
 40
1.0
 40
1.0
 40
1.0
 10
108.2358847744
 20
152.9512108316
 30
0.0
 10
108.2358847729
 20
153.0654739471
 30
0.0
 10
108.1936856662
 20
153.3036624055
 30
0.0
 10
108.0131091793
 20
153.6354539678
 30
0.0
 10
107.7277362703
 20
153.9354834322
 30
0.0
 10
107.488881122
 20
154.0999248291
 30
0.0
 10
107.3572103011
 20
154.1759432932
 30
0.0
  0
SPLINE
  5
420
100
AcDbEntity
  8
0
100
AcDbSpline
 62
7
  6
CONTINUOUS
 70
0
 71
3
 72
12
 73
8
 74
0
 42
0.0000001
 43
0.0000001
 44
0.0000000001
 40
0.0
 40
0.0
 40
0.0
 40
0.0
 40
0.2895810204
 40
0.548637375
 40
0.7816378622
 40
0.8918387092
 40
1.0
 40
1.0
 40
1.0
 40
1.0
 10
58.3192456579
 20
180.2831649836
 30
0.0
 10
58.0229626595
 20
180.1121069359
 30
0.0
 10
57.4855343237
 20
179.7419686184
 30
0.0
 10
56.8434920627
 20
179.0675810486
 30
0.0
 10
56.4987237106
 20
178.4321107504
 30
0.0
 10
56.3645080696
 20
177.9138320984
 30
0.0
 10
56.342251669
 20
177.6553241053
 30
0.0
 10
56.3422477717
 20
177.5275398876
 30
0.0
  0
SPLINE
  5
421
100
AcDbEntity
  8
0
100
AcDbSpline
 62
7
  6
CONTINUOUS
 70
0
 71
3
 72
9
 73
5
 74
0
 42
0.0000001
 43
0.0000001
 44
0.0000000001
 40
0.0
 40
0.0
 40
0.0
 40
0.0
 40
0.2546609695
 40
1.0
 40
1.0
 40
1.0
 40
1.0
 10
61.7832326512
 20
181.3506105287
 30
0.0
 10
61.6454979964
 20
181.3348805745
 30
0.0
 10
61.1058632904
 20
181.2630900845
 30
0.0
 10
60.5713274714
 20
181.1512821865
 30
0.0
 10
60.180217837
 20
181.0433063741
 30
0.0
  0
SPLINE
  5
422
100
AcDbEntity
  8
0
100
AcDbSpline
 62
7
  6
CONTINUOUS
 70
0
 71
3
 72
9
 73
5
 74
0
 42
0.0000001
 43
0.0000001
 44
0.0000000001
 40
0.0
 40
0.0
 40
0.0
 40
0.0
 40
0.5171518061
 40
1.0
 40
1.0
 40
1.0
 40
1.0
 10
60.180217837
 20
181.0433063741
 30
0.0
 10
59.8455169435
 20
180.9509036366
 30
0.0
 10
59.2073512444
 20
180.7370348588
 30
0.0
 10
58.6000027822
 20
180.4452592174
 30
0.0
 10
58.3192456579
 20
180.2831649836
 30
0.0
  0
SPLINE
  5
423
100
AcDbEntity
  8
0
100
AcDbSpline
 62
7
  6
CONTINUOUS
 70
0
 71
3
 72
12
 73
8
 74
0
 42
0.0000001
 43
0.0000001
 44
0.0000000001
 40
0.0
 40
0.0
 40
0.0
 40
0.0
 40
0.2895556178
 40
0.5486523501
 40
0.7816338432
 40
0.8918405159
 40
1.0
 40
1.0
 40
1.0
 40
1.0
 10
60.263797402
 20
180.793507743
 30
0.0
 10
60.0882385033
 20
180.6921493705
 30
0.0
 10
59.7697815948
 20
180.4727808074
 30
0.0
 10
59.3892462962
 20
180.0731883288
 30
0.0
 10
59.1850471818
 20
179.6965543838
 30
0.0
 10
59.1053912023
 20
179.3894676976
 30
0.0
 10
59.0922631809
 20
179.2362670919
 30
0.0
 10
59.0922637606
 20
179.1605447251
 30
0.0
  0
SPLINE
  5
424
100
AcDbEntity
  8
0
100
AcDbSpline
 62
7
  6
CONTINUOUS
 70
0
 71
3
 72
12
 73
8
 74
0
 42
0.0000001
 43
0.0000001
 44
0.0000000001
 40
0.0
 40
0.0
 40
0.0
 40
0.0
 40
0.1081593122
 40
0.2183666494
 40
0.4513483409
 40
0.7104479077
 40
1.0
 40
1.0
 40
1.0
 40
1.0
 10
101.3162621386
 20
155.645616502
 30
0.0
 10
101.3162639422
 20
155.5698943102
 30
0.0
 10
101.3031360882
 20
155.41669317
 30
0.0
 10
101.2234758473
 20
155.1096075145
 30
0.0
 10
101.0192801916
 20
154.7329695737
 30
0.0
 10
100.6387424911
 20
154.3333794292
 30
0.0
 10
100.3202871884
 20
154.1140105524
 30
0.0
 10
100.1447305538
 20
154.0126534871
 30
0.0
  0
SPLINE
  5
425
100
AcDbEntity
  8
0
100
AcDbSpline
 62
7
  6
CONTINUOUS
 70
0
 71
3
 72
9
 73
5
 74
0
 42
0.0000001
 43
0.0000001
 44
0.0000000001
 40
0.0
 40
0.0
 40
0.0
 40
0.0
 40
0.4752390475
 40
1.0
 40
1.0
 40
1.0
 40
1.0
 10
25.898500866
 20
155.3188263624
 30
0.0
 10
26.1461858912
 20
155.1758285814
 30
0.0
 10
26.7122402769
 20
154.9516881104
 30
0.0
 10
27.3094868377
 20
154.8508411252
 30
0.0
 10
27.6243616927
 20
154.8266487412
 30
0.0
  0
SPLINE
  5
426
100
AcDbEntity
  8
0
100
AcDbSpline
 62
7
  6
CONTINUOUS
 70
0
 71
3
 72
17
 73
13
 74
0
 42
0.0000001
 43
0.0000001
 44
0.0000000001
 40
0.0
 40
0.0
 40
0.0
 40
0.0
 40
0.1286926234
 40
0.2702773362
 40
0.4174341499
 40
0.5617794299
 40
0.6954504977
 40
0.8127129602
 40
0.8646788349
 40
0.9125109856
 40
0.9571404061
 40
1.0
 40
1.0
 40
1.0
 40
1.0
 10
71.8606153368
 20
129.9262281763
 30
0.0
 10
71.6385373104
 20
129.7980121334
 30
0.0
 10
71.1357342448
 20
129.5905492659
 30
0.0
 10
70.3162567494
 20
129.4266277355
 30
0.0
 10
69.4495186705
 20
129.4026137708
 30
0.0
 10
68.6062424543
 20
129.5211016585
 30
0.0
 10
67.854787932
 20
129.7720823293
 30
0.0
 10
67.3322107449
 20
130.0902530277
 30
0.0
 10
67.0254443376
 20
130.3980127326
 30
0.0
 10
66.8625820038
 20
130.6377096027
 30
0.0
 10
66.7621180387
 20
130.8904691555
 30
0.0
 10
66.7393191057
 20
131.0655483063
 30
0.0
 10
66.7393040323
 20
131.1509504358
 30
0.0
  0
SPLINE
  5
427
100
AcDbEntity
  8
0
100
AcDbSpline
 62
7
  6
CONTINUOUS
 70
0
 71
3
 72
11
 73
7
 74
0
 42
0.0000001
 43
0.0000001
 44
0.0000000001
 40
0.0
 40
0.0
 40
0.0
 40
0.0
 40
0.2177845113
 40
0.450917848
 40
0.7103083905
 40
1.0
 40
1.0
 40
1.0
 40
1.0
 10
77.4567039657
 20
151.8664771757
 30
0.0
 10
77.3907273891
 20
151.9045558829
 30
0.0
 10
77.2391544511
 20
151.9595790178
 30
0.0
 10
76.9873769596
 20
151.9659461899
 30
0.0
 10
76.7190524377
 20
151.9011436806
 30
0.0
 10
76.5444786428
 20
151.8180933745
 30
0.0
 10
76.4567255114
 20
151.7674293829
 30
0.0
  0
SPLINE
  5
428
100
AcDbEntity
  8
0
100
AcDbSpline
 62
7
  6
CONTINUOUS
 70
0
 71
3
 72
15
 73
11
 74
0
 42
0.0000001
 43
0.0000001
 44
0.0000000001
 40
0.0
 40
0.0
 40
0.0
 40
0.0
 40
0.1141464977
 40
0.2373352781
 40
0.3669759338
 40
0.4999994786
 40
0.633023096
 40
0.7626639634
 40
0.8858530776
 40
1.0
 40
1.0
 40
1.0
 40
1.0
 10
67.6179569859
 20
134.8251799548
 30
0.0
 10
67.7631674108
 20
134.9090167323
 30
0.0
 10
68.0807379032
 20
135.0568763498
 30
0.0
 10
68.597843779
 20
135.2140788889
 30
0.0
 10
69.1577196198
 20
135.310784801
 30
0.0
 10
69.739273752
 20
135.3434530563
 30
0.0
 10
70.320828349
 20
135.3107875612
 30
0.0
 10
70.8807055633
 20
135.2140843074
 30
0.0
 10
71.3978136653
 20
135.0568842265
 30
0.0
 10
71.7153861033
 20
134.9090261951
 30
0.0
 10
71.860597673
 20
134.8251901529
 30
0.0
  0
SPLINE
  5
429
100
AcDbEntity
  8
0
100
AcDbSpline
 62
7
  6
CONTINUOUS
 70
0
 71
3
 72
14
 73
10
 74
0
 42
0.0000001
 43
0.0000001
 44
0.0000000001
 40
0.0
 40
0.0
 40
0.0
 40
0.0
 40
0.0923833624
 40
0.1921031356
 40
0.3019908467
 40
0.4232511131
 40
0.5555346935
 40
0.6973643847
 40
1.0
 40
1.0
 40
1.0
 40
1.0
 10
56.2087014307
 20
145.4409900474
 30
0.0
 10
56.2295225633
 20
145.3045238106
 30
0.0
 10
56.3172570876
 20
145.026306823
 30
0.0
 10
56.5648270103
 20
144.6439700683
 30
0.0
 10
56.9204775527
 20
144.2957553433
 30
0.0
 10
57.3721992214
 20
143.9900893351
 30
0.0
 10
57.9070350146
 20
143.7345884295
 30
0.0
 10
58.727087098
 20
143.4644281733
 30
0.0
 10
59.3906812994
 20
143.3661352816
 30
0.0
 10
59.8423163687
 20
143.3431689439
 30
0.0
  0
SPLINE
  5
42A
100
AcDbEntity
  8
0
100
AcDbSpline
 62
7
  6
CONTINUOUS
 70
0
 71
3
 72
17
 73
13
 74
0
 42
0.0000001
 43
0.0000001
 44
0.0000000001
 40
0.0
 40
0.0
 40
0.0
 40
0.0
 40
0.1286926234
 40
0.2702773362
 40
0.4174341499
 40
0.5617794299
 40
0.6954504977
 40
0.8127129602
 40
0.8646788349
 40
0.9125109856
 40
0.9571404061
 40
1.0
 40
1.0
 40
1.0
 40
1.0
 10
25.8984832022
 20
158.9113844715
 30
0.0
 10
26.1205612286
 20
159.0396005145
 30
0.0
 10
26.6233642942
 20
159.2470633819
 30
0.0
 10
27.4428417896
 20
159.4109849123
 30
0.0
 10
28.3095798685
 20
159.434998877
 30
0.0
 10
29.1528560847
 20
159.3165109893
 30
0.0
 10
29.904310607
 20
159.0655303186
 30
0.0
 10
30.4268877941
 20
158.7473596201
 30
0.0
 10
30.7336542014
 20
158.4395999152
 30
0.0
 10
30.8965165352
 20
158.1999030451
 30
0.0
 10
30.9969805003
 20
157.9471434923
 30
0.0
 10
31.0197794333
 20
157.7720643415
 30
0.0
 10
31.0197945067
 20
157.686662212
 30
0.0
  0
SPLINE
  5
42B
100
AcDbEntity
  8
0
100
AcDbSpline
 62
7
  6
CONTINUOUS
 70
0
 71
3
 72
11
 73
7
 74
0
 42
0.0000001
 43
0.0000001
 44
0.0000000001
 40
0.0
 40
0.0
 40
0.0
 40
0.0
 40
0.2897479759
 40
0.5490808555
 40
0.7822230711
 40
1.0
 40
1.0
 40
1.0
 40
1.0
 10
58.0719609766
 20
144.4188984546
 30
0.0
 10
57.9403027392
 20
144.4949096538
 30
0.0
 10
57.7014604123
 20
144.6593725819
 30
0.0
 10
57.4160552897
 20
144.9593759516
 30
0.0
 10
57.2355227822
 20
145.2911948748
 30
0.0
 10
57.1932704239
 20
145.5293677126
 30
0.0
 10
57.1932898523
 20
145.6436309174
 30
0.0
  0
SPLINE
  5
42C
100
AcDbEntity
  8
0
100
AcDbSpline
 62
7
  6
CONTINUOUS
 70
0
 71
3
 72
17
 73
13
 74
0
 42
0.0000001
 43
0.0000001
 44
0.0000000001
 40
0.0
 40
0.0
 40
0.0
 40
0.0
 40
0.0428577105
 40
0.0874850346
 40
0.1353175376
 40
0.187280999
 40
0.3045421928
 40
0.4382102316
 40
0.5825530817
 40
0.7297120738
 40
0.8713109572
 40
1.0
 40
1.0
 40
1.0
 40
1.0
 10
73.9389772992
 20
149.8560042459
 30
0.0
 10
73.9019898007
 20
149.877338699
 30
0.0
 10
73.8318992095
 20
149.9310061349
 30
0.0
 10
73.7475321776
 20
150.0376634748
 30
0.0
 10
73.6845020023
 20
150.1681304139
 30
0.0
 10
73.6278700645
 20
150.3778799995
 30
0.0
 10
73.62076855
 20
150.6837109739
 30
0.0
 10
73.6999295311
 20
151.0718380797
 30
0.0
 10
73.8594295493
 20
151.4666145825
 30
0.0
 10
74.0865029835
 20
151.8359443042
 30
0.0
 10
74.3623740121
 20
152.1498092421
 30
0.0
 10
74.577914873
 20
152.3156735908
 30
0.0
 10
74.6889511985
 20
152.3797800606
 30
0.0
  0
SPLINE
  5
42D
100
AcDbEntity
  8
0
100
AcDbSpline
 62
7
  6
CONTINUOUS
 70
0
 71
3
 72
11
 73
7
 74
0
 42
0.0000001
 43
0.0000001
 44
0.0000000001
 40
0.0
 40
0.0
 40
0.0
 40
0.0
 40
0.289375018
 40
0.5484713338
 40
0.78182333
 40
1.0
 40
1.0
 40
1.0
 40
1.0
 10
79.3006294369
 20
155.5322301058
 30
0.0
 10
79.4301420261
 20
155.6081098498
 30
0.0
 10
79.6650109275
 20
155.7719645749
 30
0.0
 10
79.945244448
 20
156.0700373497
 30
0.0
 10
80.1224573603
 20
156.3989417911
 30
0.0
 10
80.1637330772
 20
156.6347222471
 30
0.0
 10
80.1637530362
 20
156.7478944773
 30
0.0
  0
SPLINE
  5
42E
100
AcDbEntity
  8
0
100
AcDbSpline
 62
7
  6
CONTINUOUS
 70
0
 71
3
 72
17
 73
13
 74
0
 42
0.0000001
 43
0.0000001
 44
0.0000000001
 40
0.0
 40
0.0
 40
0.0
 40
0.0
 40
0.12868996
 40
0.2702722062
 40
0.4174312903
 40
0.5617781732
 40
0.6954492761
 40
0.8127130379
 40
0.8646790319
 40
0.9125109796
 40
0.9571404657
 40
1.0
 40
1.0
 40
1.0
 40
1.0
 10
58.0719609766
 20
145.725302322
 30
0.0
 10
58.2940351246
 20
145.5970906534
 30
0.0
 10
58.7968281859
 20
145.3896332698
 30
0.0
 10
59.6162983486
 20
145.2257080724
 30
0.0
 10
60.4830385934
 20
145.2016948829
 30
0.0
 10
61.3263222295
 20
145.320180465
 30
0.0
 10
62.0777815944
 20
145.571162195
 30
0.0
 10
62.6003622076
 20
145.8893329909
 30
0.0
 10
62.907126805
 20
146.1970976089
 30
0.0
 10
63.0699881959
 20
146.4367940823
 30
0.0
 10
63.1704544255
 20
146.6895529518
 30
0.0
 10
63.1932458816
 20
146.8646328531
 30
0.0
 10
63.1932609431
 20
146.9500347843
 30
0.0
  0
SPLINE
  5
42F
100
AcDbEntity
  8
0
100
AcDbSpline
 62
7
  6
CONTINUOUS
 70
0
 71
3
 72
12
 73
8
 74
0
 42
0.0000001
 43
0.0000001
 44
0.0000000001
 40
0.0
 40
0.0
 40
0.0
 40
0.0
 40
0.1081612941
 40
0.2183621432
 40
0.4513626358
 40
0.7104189831
 40
1.0
 40
1.0
 40
1.0
 40
1.0
 10
69.8422248398
 20
172.2202741823
 30
0.0
 10
69.8422209515
 20
172.0924899606
 30
0.0
 10
69.8199645318
 20
171.8339819614
 30
0.0
 10
69.6857489031
 20
171.3157032938
 30
0.0
 10
69.3409805233
 20
170.6802330055
 30
0.0
 10
68.6989382751
 20
170.0058454358
 30
0.0
 10
68.1615099426
 20
169.6357071322
 30
0.0
 10
67.8652269474
 20
169.4646490863
 30
0.0
  0
SPLINE
  5
430
100
AcDbEntity
  8
0
100
AcDbSpline
 62
7
  6
CONTINUOUS
 70
0
 71
3
 72
11
 73
7
 74
0
 42
0.0000001
 43
0.0000001
 44
0.0000000001
 40
0.0
 40
0.0
 40
0.0
 40
0.0
 40
0.2896408744
 40
0.5491100035
 40
0.7822350384
 40
1.0
 40
1.0
 40
1.0
 40
1.0
 10
74.6889511985
 20
152.3797800606
 30
0.0
 10
74.7547543038
 20
152.4177712744
 30
0.0
 10
74.8857020559
 20
152.4800375733
 30
0.0
 10
75.0869356168
 20
152.5286701611
 30
0.0
 10
75.2757964058
 20
152.5239222446
 30
0.0
 10
75.3894397047
 20
152.4825918843
 30
0.0
 10
75.4389250979
 20
152.454048624
 30
0.0
  0
SPLINE
  5
431
100
AcDbEntity
  8
0
100
AcDbSpline
 62
7
  6
CONTINUOUS
 70
0
 71
3
 72
14
 73
10
 74
0
 42
0.0000001
 43
0.0000001
 44
0.0000000001
 40
0.0
 40
0.0
 40
0.0
 40
0.0
 40
0.3026355409
 40
0.4444652228
 40
0.576748806
 40
0.6980090839
 40
0.8078968117
 40
0.907616619
 40
1.0
 40
1.0
 40
1.0
 40
1.0
 10
59.8423163687
 20
141.301912901
 30
0.0
 10
59.3906814111
 20
141.3248792331
 30
0.0
 10
58.7270873356
 20
141.4231720859
 30
0.0
 10
57.9070353538
 20
141.6933322574
 30
0.0
 10
57.3721995308
 20
141.948833116
 30
0.0
 10
56.9204777937
 20
142.2544991014
 30
0.0
 10
56.5648271373
 20
142.6027138489
 30
0.0
 10
56.3172571634
 20
142.9850506915
 30
0.0
 10
56.2295225675
 20
143.2632677403
 30
0.0
 10
56.2087014307
 20
143.3997340046
 30
0.0
  0
SPLINE
  5
432
100
AcDbEntity
  8
0
100
AcDbSpline
 62
7
  6
CONTINUOUS
 70
0
 71
3
 72
18
 73
14
 74
0
 42
0.0000001
 43
0.0000001
 44
0.0000000001
 40
0.0
 40
0.0
 40
0.0
 40
0.0
 40
0.1286563236
 40
0.2702033957
 40
0.417318796
 40
0.5616275679
 40
0.6952643255
 40
0.7562714577
 40
0.8127643045
 40
0.8647138825
 40
0.9125352642
 40
0.9571529617
 40
1.0
 40
1.0
 40
1.0
 40
1.0
 10
100.1447305538
 20
154.0126534871
 30
0.0
 10
99.8486313646
 20
153.841701561
 30
0.0
 10
99.1782213887
 20
153.5650964903
 30
0.0
 10
98.0856485047
 20
153.3464955113
 30
0.0
 10
96.9298205459
 20
153.3145278485
 30
0.0
 10
95.8060874788
 20
153.4723139211
 30
0.0
 10
94.9448914315
 20
153.75996802
 30
0.0
 10
94.3571447768
 20
154.0794659122
 30
0.0
 10
93.9922860275
 20
154.3460758406
 30
0.0
 10
93.6978816962
 20
154.6417632304
 30
0.0
 10
93.4806304746
 20
154.9612685649
 30
0.0
 10
93.3467448971
 20
155.2983197273
 30
0.0
 10
93.3163238799
 20
155.5317501033
 30
0.0
 10
93.3163211677
 20
155.6456165083
 30
0.0
  0
SPLINE
  5
433
100
AcDbEntity
  8
0
100
AcDbSpline
 62
7
  6
CONTINUOUS
 70
0
 71
3
 72
12
 73
8
 74
0
 42
0.0000001
 43
0.0000001
 44
0.0000000001
 40
0.0
 40
0.0
 40
0.0
 40
0.0
 40
0.1081603208
 40
0.2183607076
 40
0.4513642752
 40
0.7104112952
 40
1.0
 40
1.0
 40
1.0
 40
1.0
 10
70.5922160463
 20
170.1790181194
 30
0.0
 10
70.5922295476
 20
170.0370369411
 30
0.0
 10
70.5675023778
 20
169.7498049294
 30
0.0
 10
70.4183551431
 20
169.1739430807
 30
0.0
 10
70.0352816879
 20
168.4678771602
 30
0.0
 10
69.3219185935
 20
167.7185385618
 30
0.0
 10
68.7247712811
 20
167.3072820028
 30
0.0
 10
68.3955592412
 20
167.1172124776
 30
0.0
  0
SPLINE
  5
434
100
AcDbEntity
  8
0
100
AcDbSpline
 62
7
  6
CONTINUOUS
 70
0
 71
3
 72
9
 73
5
 74
0
 42
0.0000001
 43
0.0000001
 44
0.0000000001
 40
0.0
 40
0.0
 40
0.0
 40
0.0
 40
0.2563875355
 40
1.0
 40
1.0
 40
1.0
 40
1.0
 10
36.6755898407
 20
156.0369340009
 30
0.0
 10
36.6362585438
 20
156.1022944816
 30
0.0
 10
36.4893993848
 20
156.3610700684
 30
0.0
 10
36.3699144749
 20
156.6356550267
 30
0.0
 10
36.3002535421
 20
156.845646296
 30
0.0
  0
SPLINE
  5
435
100
AcDbEntity
  8
0
100
AcDbSpline
 62
7
  6
CONTINUOUS
 70
0
 71
3
 72
17
 73
13
 74
0
 42
0.0000001
 43
0.0000001
 44
0.0000000001
 40
0.0
 40
0.0
 40
0.0
 40
0.0
 40
0.0428575604
 40
0.0874859108
 40
0.1353172062
 40
0.1872823133
 40
0.3045426425
 40
0.438210377
 40
0.5825547796
 40
0.7297159944
 40
0.8713057371
 40
1.0
 40
1.0
 40
1.0
 40
1.0
 10
63.1932551242
 20
145.6436309151
 30
0.0
 10
63.1932406039
 20
145.5582331178
 30
0.0
 10
63.1704486654
 20
145.3831599219
 30
0.0
 10
63.0699862288
 20
145.1304087175
 30
0.0
 10
62.9071312807
 20
144.8907153103
 30
0.0
 10
62.6003794495
 20
144.5829534709
 30
0.0
 10
62.0778174049
 20
144.2647843532
 30
0.0
 10
61.3263805718
 20
144.0138006669
 30
0.0
 10
60.4831086917
 20
143.895299853
 30
0.0
 10
59.6163557886
 20
143.9193020015
 30
0.0
 10
58.7968573688
 20
144.0832191914
 30
0.0
 10
58.2940420272
 20
144.2906828009
 30
0.0
 10
58.0719609766
 20
144.4188984546
 30
0.0
  0
SPLINE
  5
436
100
AcDbEntity
  8
0
100
AcDbSpline
 62
7
  6
CONTINUOUS
 70
0
 71
3
 72
11
 73
7
 74
0
 42
0.0000001
 43
0.0000001
 44
0.0000000001
 40
0.0
 40
0.0
 40
0.0
 40
0.0
 40
0.2897733512
 40
0.5490657165
 40
0.7822241652
 40
1.0
 40
1.0
 40
1.0
 40
1.0
 10
107.3572279649
 20
151.7264885681
 30
0.0
 10
107.4888963236
 20
151.8025068766
 30
0.0
 10
107.7277469389
 20
151.9669476457
 30
0.0
 10
108.0131140521
 20
152.2669748862
 30
0.0
 10
108.1936866326
 20
152.5987632361
 30
0.0
 10
108.2358847759
 20
152.8369489462
 30
0.0
 10
108.2358847744
 20
152.9512108316
 30
0.0
  0
SPLINE
  5
437
100
AcDbEntity
  8
0
100
AcDbSpline
 62
7
  6
CONTINUOUS
 70
0
 71
3
 72
12
 73
8
 74
0
 42
0.0000001
 43
0.0000001
 44
0.0000000001
 40
0.0
 40
0.0
 40
0.0
 40
0.0
 40
0.1081589869
 40
0.2183608554
 40
0.4513554797
 40
0.7104291209
 40
1.0
 40
1.0
 40
1.0
 40
1.0
 10
51.3717233416
 20
170.9956898669
 30
0.0
 10
51.3717134419
 20
170.8963044145
 30
0.0
 10
51.354448332
 20
170.695239659
 30
0.0
 10
51.2499925064
 20
170.2921557433
 30
0.0
 10
50.9818993482
 20
169.7978678376
 30
0.0
 10
50.4824956445
 20
169.2733651284
 30
0.0
 10
50.064504169
 20
168.9854661865
 30
0.0
 10
49.8340702665
 20
168.852425905
 30
0.0
  0
SPLINE
  5
438
100
AcDbEntity
  8
0
100
AcDbSpline
 62
7
  6
CONTINUOUS
 70
0
 71
3
 72
11
 73
7
 74
0
 42
0.0000001
 43
0.0000001
 44
0.0000000001
 40
0.0
 40
0.0
 40
0.0
 40
0.0
 40
0.2897776971
 40
0.5490719787
 40
0.7822272299
 40
1.0
 40
1.0
 40
1.0
 40
1.0
 10
108.0643347461
 20
150.4200864003
 30
0.0
 10
108.1960046447
 20
150.496105598
 30
0.0
 10
108.4348556285
 20
150.6605500701
 30
0.0
 10
108.7202211909
 20
150.9605794249
 30
0.0
 10
108.9007867985
 20
151.2923674053
 30
0.0
 10
108.9429835198
 20
151.5305487638
 30
0.0
 10
108.9429835183
 20
151.6448086639
 30
0.0
  0
SPLINE
  5
439
100
AcDbEntity
  8
0
100
AcDbSpline
 62
7
  6
CONTINUOUS
 70
0
 71
3
 72
19
 73
15
 74
0
 42
0.0000001
 43
0.0000001
 44
0.0000000001
 40
0.0
 40
0.0
 40
0.0
 40
0.0
 40
0.0428397378
 40
0.0874486795
 40
0.1352614443
 40
0.1872036398
 40
0.243684536
 40
0.3046792079
 40
0.3698182335
 40
0.4384686422
 40
0.5827509656
 40
0.7298405825
 40
0.8713667074
 40
1.0
 40
1.0
 40
1.0
 40
1.0
 10
40.8717622635
 20
171.8121922819
 30
0.0
 10
40.8717471193
 20
171.662741264
 30
0.0
 10
40.9117596075
 20
171.3563735761
 30
0.0
 10
41.0874183283
 20
170.9139828089
 30
0.0
 10
41.3725477763
 20
170.4946079014
 30
0.0
 10
41.7590077642
 20
170.106563475
 30
0.0
 10
42.2378487543
 20
169.7566501986
 30
0.0
 10
42.7988977199
 20
169.4514829533
 30
0.0
 10
43.4304585192
 20
169.1970572978
 30
0.0
 10
44.3639447039
 20
168.9281360573
 30
0.0
 10
45.6148252542
 20
168.7526424647
 30
0.0
 10
47.1313981946
 20
168.7945638421
 30
0.0
 10
48.5655337662
 20
169.0815148289
 30
0.0
 10
49.4454398915
 20
169.4445538098
 30
0.0
 10
49.8340702665
 20
169.6689283221
 30
0.0
  0
SPLINE
  5
43A
100
AcDbEntity
  8
0
100
AcDbSpline
 62
7
  6
CONTINUOUS
 70
0
 71
3
 72
11
 73
7
 74
0
 42
0.0000001
 43
0.0000001
 44
0.0000000001
 40
0.0
 40
0.0
 40
0.0
 40
0.0
 40
0.217780861
 40
0.4509234132
 40
0.7102539949
 40
1.0
 40
1.0
 40
1.0
 40
1.0
 10
57.1932840333
 20
146.950034783
 30
0.0
 10
57.1932638814
 20
146.8357692616
 30
0.0
 10
57.2355177133
 20
146.5975930867
 30
0.0
 10
57.4160572078
 20
146.2657760719
 30
0.0
 10
57.7014611872
 20
145.9657737139
 30
0.0
 10
57.9403033424
 20
145.801313173
 30
0.0
 10
58.0719609766
 20
145.725302322
 30
0.0
  0
SPLINE
  5
43B
100
AcDbEntity
  8
0
100
AcDbSpline
 62
7
  6
CONTINUOUS
 70
0
 71
3
 72
15
 73
11
 74
0
 42
0.0000001
 43
0.0000001
 44
0.0000000001
 40
0.0
 40
0.0
 40
0.0
 40
0.0
 40
0.1230330444
 40
0.257662499
 40
0.3986377425
 40
0.5397984923
 40
0.6749650276
 40
0.738641253
 40
0.7989583448
 40
1.0
 40
1.0
 40
1.0
 40
1.0
 10
76.4567255114
 20
151.7674293829
 30
0.0
 10
76.3273030799
 20
151.6927077533
 30
0.0
 10
76.0742611511
 20
151.5043342475
 30
0.0
 10
75.7410848991
 20
151.1503589145
 30
0.0
 10
75.4534981203
 20
150.731389432
 30
0.0
 10
75.2301811414
 20
150.2743082817
 30
0.0
 10
75.1067974036
 20
149.8782743248
 30
0.0
 10
75.0542794195
 20
149.5669522969
 30
0.0
 10
75.0263819398
 20
149.1750774204
 30
0.0
 10
75.0835172944
 20
148.8361693459
 30
0.0
 10
75.2175702969
 20
148.6320552111
 30
0.0
  0
SPLINE
  5
43C
100
AcDbEntity
  8
0
100
AcDbSpline
 62
7
  6
CONTINUOUS
 70
0
 71
3
 72
9
 73
5
 74
0
 42
0.0000001
 43
0.0000001
 44
0.0000000001
 40
0.0
 40
0.0
 40
0.0
 40
0.0
 40
0.508470442
 40
1.0
 40
1.0
 40
1.0
 40
1.0
 10
75.2274296532
 20
148.6173902094
 30
0.0
 10
75.2578247465
 20
148.5732238832
 30
0.0
 10
75.326530318
 20
148.4920438701
 30
0.0
 10
75.4118586273
 20
148.4282795007
 30
0.0
 10
75.4567470571
 20
148.4023719216
 30
0.0
  0
SPLINE
  5
43D
100
AcDbEntity
  8
0
100
AcDbSpline
 62
7
  6
CONTINUOUS
 70
0
 71
3
 72
9
 73
5
 74
0
 42
0.0000001
 43
0.0000001
 44
0.0000000001
 40
0.0
 40
0.0
 40
0.0
 40
0.0
 40
0.4750938762
 40
1.0
 40
1.0
 40
1.0
 40
1.0
 10
107.3572279649
 20
150.4200847006
 30
0.0
 10
107.1039604584
 20
150.2738615104
 30
0.0
 10
106.5240087099
 20
150.0463037283
 30
0.0
 10
105.9123423772
 20
149.9470252093
 30
0.0
 10
105.5899912557
 20
149.9248931553
 30
0.0
  0
SPLINE
  5
43E
100
AcDbEntity
  8
0
100
AcDbSpline
 62
7
  6
CONTINUOUS
 70
0
 71
3
 72
9
 73
5
 74
0
 42
0.0000001
 43
0.0000001
 44
0.0000000001
 40
0.0
 40
0.0
 40
0.0
 40
0.0
 40
0.2563875355
 40
1.0
 40
1.0
 40
1.0
 40
1.0
 10
53.6460819338
 20
165.8347936938
 30
0.0
 10
53.6067506369
 20
165.9001541745
 30
0.0
 10
53.4598914779
 20
166.1589297614
 30
0.0
 10
53.340406568
 20
166.4335147196
 30
0.0
 10
53.2707456352
 20
166.6435059889
 30
0.0
  0
SPLINE
  5
43F
100
AcDbEntity
  8
0
100
AcDbSpline
 62
7
  6
CONTINUOUS
 70
0
 71
3
 72
12
 73
8
 74
0
 42
0.0000001
 43
0.0000001
 44
0.0000000001
 40
0.0
 40
0.0
 40
0.0
 40
0.0
 40
0.2895533423
 40
0.5486488412
 40
0.7816302656
 40
0.8918380601
 40
1.0
 40
1.0
 40
1.0
 40
1.0
 10
100.1447305538
 20
156.870411947
 30
0.0
 10
100.3202883654
 20
156.9717696918
 30
0.0
 10
100.6387440757
 20
157.1911365225
 30
0.0
 10
101.0192803636
 20
157.5907258547
 30
0.0
 10
101.2234816624
 20
157.9673590687
 30
0.0
 10
101.3031421129
 20
158.2744475357
 30
0.0
 10
101.3162729674
 20
158.4276507529
 30
0.0
 10
101.3162729664
 20
158.5033749651
 30
0.0
  0
SPLINE
  5
440
100
AcDbEntity
  8
0
100
AcDbSpline
 62
7
  6
CONTINUOUS
 70
0
 71
3
 72
15
 73
11
 74
0
 42
0.0000001
 43
0.0000001
 44
0.0000000001
 40
0.0
 40
0.0
 40
0.0
 40
0.0
 40
0.1141447985
 40
0.2373324971
 40
0.3669747555
 40
0.5000005214
 40
0.6330262147
 40
0.7626682613
 40
0.8858556261
 40
1.0
 40
1.0
 40
1.0
 40
1.0
 10
94.4878763043
 20
156.8703983496
 30
0.0
 10
94.681488253
 20
156.7586189677
 30
0.0
 10
95.1049103192
 20
156.5614741577
 30
0.0
 10
95.7943835772
 20
156.3518727544
 30
0.0
 10
96.540890321
 20
156.2229295673
 30
0.0
 10
97.316308199
 20
156.1793746071
 30
0.0
 10
98.0917254572
 20
156.2229332476
 30
0.0
 10
98.8382303696
 20
156.3518799792
 30
0.0
 10
99.5277006593
 20
156.56148466
 30
0.0
 10
99.9511201314
 20
156.7586315848
 30
0.0
 10
100.1447305538
 20
156.870411947
 30
0.0
  0
SPLINE
  5
441
100
AcDbEntity
  8
0
100
AcDbSpline
 62
7
  6
CONTINUOUS
 70
0
 71
3
 72
11
 73
7
 74
0
 42
0.0000001
 43
0.0000001
 44
0.0000000001
 40
0.0
 40
0.0
 40
0.0
 40
0.0
 40
0.2181692082
 40
0.4515211485
 40
0.7106215484
 40
1.0
 40
1.0
 40
1.0
 40
1.0
 10
80.1637472173
 20
155.441490608
 30
0.0
 10
80.1637279738
 20
155.3283141909
 30
0.0
 10
80.1224419842
 20
155.0925216212
 30
0.0
 10
79.9452115234
 20
154.7635989259
 30
0.0
 10
79.664943533
 20
154.4655119318
 30
0.0
 10
79.4300471881
 20
154.3016545045
 30
0.0
 10
79.3005212282
 20
154.2257729174
 30
0.0
  0
SPLINE
  5
442
100
AcDbEntity
  8
0
100
AcDbSpline
 62
7
  6
CONTINUOUS
 70
0
 71
3
 72
12
 73
8
 74
0
 42
0.0000001
 43
0.0000001
 44
0.0000000001
 40
0.0
 40
0.0
 40
0.0
 40
0.0
 40
0.1081590056
 40
0.2183607065
 40
0.4513548963
 40
0.7104290909
 40
1.0
 40
1.0
 40
1.0
 40
1.0
 10
52.1217202526
 20
162.8306656957
 30
0.0
 10
52.1217089367
 20
162.7170823046
 30
0.0
 10
52.1019774605
 20
162.487294172
 30
0.0
 10
51.9825996015
 20
162.0266274202
 30
0.0
 10
51.6762075449
 20
161.4617270148
 30
0.0
 10
51.1054606719
 20
160.8622949135
 30
0.0
 10
50.6277556127
 20
160.5332672159
 30
0.0
 10
50.3644025604
 20
160.3812211678
 30
0.0
  0
SPLINE
  5
443
100
AcDbEntity
  8
0
100
AcDbSpline
 62
7
  6
CONTINUOUS
 70
0
 71
3
 72
20
 73
16
 74
0
 42
0.0000001
 43
0.0000001
 44
0.0000000001
 40
0.0
 40
0.0
 40
0.0
 40
0.0
 40
0.042831497
 40
0.0874317462
 40
0.1352349413
 40
0.1871665786
 40
0.2436359509
 40
0.3046181598
 40
0.3697438468
 40
0.4383802022
 40
0.5826337234
 40
0.7296942023
 40
0.8711922306
 40
0.9375942137
 40
1.0
 40
1.0
 40
1.0
 40
1.0
 10
40.1217654226
 20
170.9956898661
 30
0.0
 10
40.1217480906
 20
170.8248874328
 30
0.0
 10
40.1674777443
 20
170.4747509108
 30
0.0
 10
40.36823091
 20
169.9691592613
 30
0.0
 10
40.6940957413
 20
169.4898752222
 30
0.0
 10
41.1357628407
 20
169.0463972017
 30
0.0
 10
41.6830077754
 20
168.6464980125
 30
0.0
 10
42.3242028628
 20
168.2977372982
 30
0.0
 10
43.0459869195
 20
168.0069666982
 30
0.0
 10
44.1128035279
 20
167.699623602
 30
0.0
 10
45.5425603174
 20
167.4990924528
 30
0.0
 10
47.275039294
 20
167.5468592396
 30
0.0
 10
48.6718704769
 20
167.8263218544
 30
0.0
 10
49.6868390075
 20
168.1940490082
 30
0.0
 10
50.1488828764
 20
168.4218157343
 30
0.0
 10
50.3644025604
 20
168.5462453391
 30
0.0
  0
SPLINE
  5
444
100
AcDbEntity
  8
0
100
AcDbSpline
 62
7
  6
CONTINUOUS
 70
0
 71
3
 72
12
 73
8
 74
0
 42
0.0000001
 43
0.0000001
 44
0.0000000001
 40
0.0
 40
0.0
 40
0.0
 40
0.0
 40
0.1081593122
 40
0.2183666494
 40
0.4513483409
 40
0.7104479077
 40
1.0
 40
1.0
 40
1.0
 40
1.0
 10
67.0922067881
 20
177.5275398875
 30
0.0
 10
67.0922085917
 20
177.4518176957
 30
0.0
 10
67.0790807377
 20
177.2986165555
 30
0.0
 10
66.9994204967
 20
176.9915309
 30
0.0
 10
66.7952248411
 20
176.6148929592
 30
0.0
 10
66.4146871406
 20
176.2153028147
 30
0.0
 10
66.0962318379
 20
175.9959339378
 30
0.0
 10
65.9206752032
 20
175.8945768726
 30
0.0
  0
SPLINE
  5
445
100
AcDbEntity
  8
0
100
AcDbSpline
 62
7
  6
CONTINUOUS
 70
0
 71
3
 72
15
 73
11
 74
0
 42
0.0000001
 43
0.0000001
 44
0.0000000001
 40
0.0
 40
0.0
 40
0.0
 40
0.0
 40
0.0933564697
 40
0.192039241
 40
0.3000218815
 40
0.4193885318
 40
0.5505041666
 40
0.6923753351
 40
0.8430958291
 40
1.0
 40
1.0
 40
1.0
 40
1.0
 10
56.3422477717
 20
177.5275398876
 30
0.0
 10
56.3422408025
 20
177.2990305592
 30
0.0
 10
56.4161461027
 20
176.8263059402
 30
0.0
 10
56.7367378484
 20
176.1562467391
 30
0.0
 10
57.2498136635
 20
175.5364082121
 30
0.0
 10
57.936034301
 20
174.9821341681
 30
0.0
 10
58.7744721915
 20
174.5065770671
 30
0.0
 10
59.7407577638
 20
174.1221732294
 30
0.0
 10
60.8064975677
 20
173.8398801764
 30
0.0
 10
61.5525496329
 20
173.7266157013
 30
0.0
 10
61.934680299
 20
173.6882127053
 30
0.0
  0
SPLINE
  5
446
100
AcDbEntity
  8
0
100
AcDbSpline
 62
7
  6
CONTINUOUS
 70
0
 71
3
 72
9
 73
5
 74
0
 42
0.0000001
 43
0.0000001
 44
0.0000000001
 40
0.0
 40
0.0
 40
0.0
 40
0.0
 40
0.2444296014
 40
1.0
 40
1.0
 40
1.0
 40
1.0
 10
36.3002535421
 20
159.2951535474
 30
0.0
 10
36.3231523236
 20
159.2261257007
 30
0.0
 10
36.4251509915
 20
158.9465125072
 30
0.0
 10
36.559676815
 20
158.6790647273
 30
0.0
 10
36.6755898407
 20
158.4864412523
 30
0.0
  0
SPLINE
  5
447
100
AcDbEntity
  8
0
100
AcDbSpline
 62
7
  6
CONTINUOUS
 70
0
 71
3
 72
21
 73
17
 74
0
 42
0.0000001
 43
0.0000001
 44
0.0000000001
 40
0.0
 40
0.0
 40
0.0
 40
0.0
 40
0.0624003458
 40
0.1287841864
 40
0.1984007715
 40
0.2704102929
 40
0.4174488543
 40
0.5616836202
 40
0.6303111589
 40
0.6954267627
 40
0.7564009216
 40
0.8128631192
 40
0.8647856771
 40
0.9125805719
 40
0.9571742916
 40
1.0
 40
1.0
 40
1.0
 40
1.0
 10
51.4250671481
 20
157.3193527846
 30
0.0
 10
51.1556503227
 20
157.1638058365
 30
0.0
 10
50.5781467407
 20
156.8791191184
 30
0.0
 10
49.6466755436
 20
156.5415345424
 30
0.0
 10
48.6399308345
 20
156.2859981075
 30
0.0
 10
47.2169376071
 20
156.0604251968
 30
0.0
 10
45.39743245
 20
156.0104665415
 30
0.0
 10
43.6106400055
 20
156.2610331963
 30
0.0
 10
42.2770452552
 20
156.6452349534
 30
0.0
 10
41.3748318571
 20
157.0087446259
 30
0.0
 10
40.5733120586
 20
157.4446694088
 30
0.0
 10
39.8892238525
 20
157.9445152274
 30
0.0
 10
39.3371817151
 20
158.4989042511
 30
0.0
 10
38.9298850798
 20
159.0980069075
 30
0.0
 10
38.6788612042
 20
159.7299707112
 30
0.0
 10
38.6217548842
 20
160.167651997
 30
0.0
 10
38.6217530355
 20
160.3811584443
 30
0.0
  0
SPLINE
  5
448
100
AcDbEntity
  8
0
100
AcDbSpline
 62
7
  6
CONTINUOUS
 70
0
 71
3
 72
9
 73
5
 74
0
 42
0.0000001
 43
0.0000001
 44
0.0000000001
 40
0.0
 40
0.0
 40
0.0
 40
0.0
 40
0.2270454721
 40
1.0
 40
1.0
 40
1.0
 40
1.0
 10
30.8615755578
 20
157.0986383856
 30
0.0
 10
30.8236998224
 20
157.1632931547
 30
0.0
 10
30.6324550104
 20
157.4338751595
 30
0.0
 10
30.3620473002
 20
157.6407439804
 30
0.0
 10
30.1411238893
 20
157.7682912856
 30
0.0
  0
SPLINE
  5
449
100
AcDbEntity
  8
0
100
AcDbSpline
 62
7
  6
CONTINUOUS
 70
0
 71
3
 72
12
 73
8
 74
0
 42
0.0000001
 43
0.0000001
 44
0.0000000001
 40
0.0
 40
0.0
 40
0.0
 40
0.0
 40
0.1081590514
 40
0.2183578759
 40
0.4513599045
 40
0.7104171385
 40
1.0
 40
1.0
 40
1.0
 40
1.0
 10
53.6217353835
 20
160.3811584428
 30
0.0
 10
53.6217366128
 20
160.2391788313
 30
0.0
 10
53.5970029403
 20
159.9519528719
 30
0.0
 10
53.4478776793
 20
159.3760910029
 30
0.0
 10
53.064800813
 20
158.6700116688
 30
0.0
 10
52.3514202552
 20
157.9206840498
 30
0.0
 10
51.7542727744
 20
157.5094186071
 30
0.0
 10
51.4250671481
 20
157.3193527846
 30
0.0
  0
SPLINE
  5
44A
100
AcDbEntity
  8
0
100
AcDbSpline
 62
7
  6
CONTINUOUS
 70
0
 71
3
 72
12
 73
8
 74
0
 42
0.0000001
 43
0.0000001
 44
0.0000000001
 40
0.0
 40
0.0
 40
0.0
 40
0.0
 40
0.2895817993
 40
0.5486371749
 40
0.7816400895
 40
0.8918396553
 40
1.0
 40
1.0
 40
1.0
 40
1.0
 10
51.4250671481
 20
159.768860036
 30
0.0
 10
51.7542716377
 20
159.9589252022
 30
0.0
 10
52.351417238
 20
160.3701872614
 30
0.0
 10
53.0647949687
 20
161.1195132283
 30
0.0
 10
53.4478773591
 20
161.8255899317
 30
0.0
 10
53.5970024454
 20
162.4014556829
 30
0.0
 10
53.6217396107
 20
162.68868435
 30
0.0
 10
53.6217363478
 20
162.8306656897
 30
0.0
  0
SPLINE
  5
44B
100
AcDbEntity
  8
0
100
AcDbSpline
 62
7
  6
CONTINUOUS
 70
0
 71
3
 72
20
 73
16
 74
0
 42
0.0000001
 43
0.0000001
 44
0.0000000001
 40
0.0
 40
0.0
 40
0.0
 40
0.0
 40
0.062405373
 40
0.1288058257
 40
0.2703020853
 40
0.4173625289
 40
0.561618551
 40
0.6302561306
 40
0.6953826383
 40
0.756365199
 40
0.8128344538
 40
0.8647656649
 40
0.9125684549
 40
0.9571684557
 40
1.0
 40
1.0
 40
1.0
 40
1.0
 10
50.3644025604
 20
160.3812211678
 30
0.0
 10
50.1488843047
 20
160.2567923876
 30
0.0
 10
49.6868483686
 20
160.0290270876
 30
0.0
 10
48.6718934765
 20
159.6613060142
 30
0.0
 10
47.2750776766
 20
159.3818358854
 30
0.0
 10
45.5425957901
 20
159.3340674573
 30
0.0
 10
44.1128231677
 20
159.5345930459
 30
0.0
 10
43.0459892588
 20
159.8419420563
 30
0.0
 10
42.324196248
 20
160.1327159836
 30
0.0
 10
41.6829977554
 20
160.4814793462
 30
0.0
 10
41.1357545869
 20
160.88137992
 30
0.0
 10
40.6940929156
 20
161.3248577194
 30
0.0
 10
40.3682291365
 20
161.804136985
 30
0.0
 10
40.1674773969
 20
162.309727121
 30
0.0
 10
40.12175115
 20
162.6598630729
 30
0.0
 10
40.1217681664
 20
162.8306656941
 30
0.0
  0
SPLINE
  5
44C
100
AcDbEntity
  8
0
100
AcDbSpline
 62
7
  6
CONTINUOUS
 70
0
 71
3
 72
11
 73
7
 74
0
 42
0.0000001
 43
0.0000001
 44
0.0000000001
 40
0.0
 40
0.0
 40
0.0
 40
0.0
 40
0.2177753738
 40
0.4509336309
 40
0.7102261693
 40
1.0
 40
1.0
 40
1.0
 40
1.0
 10
25.0198263927
 20
156.543558824
 30
0.0
 10
25.0198263942
 20
156.4292957085
 30
0.0
 10
25.0620255009
 20
156.1911072501
 30
0.0
 10
25.2426019878
 20
155.8593156878
 30
0.0
 10
25.5279748968
 20
155.5592862234
 30
0.0
 10
25.7668300451
 20
155.3948448265
 30
0.0
 10
25.898500866
 20
155.3188263624
 30
0.0
  0
SPLINE
  5
44D
100
AcDbEntity
  8
0
100
AcDbSpline
 62
7
  6
CONTINUOUS
 70
0
 71
3
 72
12
 73
8
 74
0
 42
0.0000001
 43
0.0000001
 44
0.0000000001
 40
0.0
 40
0.0
 40
0.0
 40
0.0
 40
0.2895712537
 40
0.548642979
 40
0.7816379705
 40
0.8918399225
 40
1.0
 40
1.0
 40
1.0
 40
1.0
 10
50.3644025604
 20
168.5462453391
 30
0.0
 10
50.6277560473
 20
168.6982916381
 30
0.0
 10
51.1054610856
 20
169.0273168072
 30
0.0
 10
51.67620394
 20
169.6267495097
 30
0.0
 10
51.9826043058
 20
170.1916453616
 30
0.0
 10
52.1019753958
 20
170.652316245
 30
0.0
 10
52.1217114704
 20
170.8821052974
 30
0.0
 10
52.1217229964
 20
170.9956898663
 30
0.0
  0
SPLINE
  5
44E
100
AcDbEntity
  8
0
100
AcDbSpline
 62
7
  6
CONTINUOUS
 70
0
 71
3
 72
19
 73
15
 74
0
 42
0.0000001
 43
0.0000001
 44
0.0000000001
 40
0.0
 40
0.0
 40
0.0
 40
0.0
 40
0.1286314639
 40
0.2701555002
 40
0.4172445321
 40
0.5615291142
 40
0.6301807596
 40
0.6953206819
 40
0.7563158307
 40
0.8127967101
 40
0.8647385947
 40
0.9125511273
 40
0.9571600051
 40
1.0
 40
1.0
 40
1.0
 40
1.0
 10
49.8340702665
 20
168.852425905
 30
0.0
 10
49.4454454232
 20
168.6280545864
 30
0.0
 10
48.5655529794
 20
168.2650197852
 30
0.0
 10
47.1314345951
 20
167.9780628366
 30
0.0
 10
45.6148633309
 20
167.9361392964
 30
0.0
 10
44.363971312
 20
168.1116256494
 30
0.0
 10
43.4304703427
 20
168.3805513075
 30
0.0
 10
42.7989006317
 20
168.6349790677
 30
0.0
 10
42.2378469714
 20
168.9401476934
 30
0.0
 10
41.7590061902
 20
169.2900624563
 30
0.0
 10
41.3725496235
 20
169.6781071282
 30
0.0
 10
41.0874183633
 20
170.0974780626
 30
0.0
 10
40.9117601417
 20
170.539869432
 30
0.0
 10
40.8717501907
 20
170.8462379533
 30
0.0
 10
40.8717650774
 20
170.9956898655
 30
0.0
  0
SPLINE
  5
44F
100
AcDbEntity
  8
0
100
AcDbSpline
 62
7
  6
CONTINUOUS
 70
0
 71
3
 72
12
 73
8
 74
0
 42
0.0000001
 43
0.0000001
 44
0.0000000001
 40
0.0
 40
0.0
 40
0.0
 40
0.0
 40
0.2895719878
 40
0.5486432193
 40
0.7816383539
 40
0.8918402078
 40
1.0
 40
1.0
 40
1.0
 40
1.0
 10
49.8340702665
 20
169.6689283221
 30
0.0
 10
50.0645051661
 20
169.8019691793
 30
0.0
 10
50.4824972301
 20
170.0898664965
 30
0.0
 10
50.981897273
 20
170.6143704802
 30
0.0
 10
51.2499976319
 20
171.1086540387
 30
0.0
 10
51.3544465419
 20
171.5117410183
 30
0.0
 10
51.3717160846
 20
171.7128060429
 30
0.0
 10
51.3717261555
 20
171.8121922848
 30
0.0
  0
SPLINE
  5
450
100
AcDbEntity
  8
0
100
AcDbSpline
 62
7
  6
CONTINUOUS
 70
0
 71
3
 72
15
 73
11
 74
0
 42
0.0000001
 43
0.0000001
 44
0.0000000001
 40
0.0
 40
0.0
 40
0.0
 40
0.0
 40
0.0997512157
 40
0.2030536575
 40
0.3128702509
 40
0.4312507556
 40
0.5592731363
 40
0.6971338993
 40
0.8444298663
 40
1.0
 40
1.0
 40
1.0
 40
1.0
 10
55.5922565589
 20
172.2202741963
 30
0.0
 10
55.5922753328
 20
172.0228456408
 30
0.0
 10
55.6407490991
 20
171.6194658163
 30
0.0
 10
55.855051967
 20
171.0334337943
 30
0.0
 10
56.2043424439
 20
170.4731592446
 30
0.0
 10
56.6800899187
 20
169.948528204
 30
0.0
 10
57.2726468704
 20
169.4677822871
 30
0.0
 10
57.9710807217
 20
169.0385521597
 30
0.0
 10
58.7626574678
 20
168.6683243912
 30
0.0
 10
59.3293635169
 20
168.4697120458
 30
0.0
 10
59.6241953625
 20
168.3809414403
 30
0.0
  0
SPLINE
  5
451
100
AcDbEntity
  8
0
100
AcDbSpline
 62
7
  6
CONTINUOUS
 70
0
 71
3
 72
21
 73
17
 74
0
 42
0.0000001
 43
0.0000001
 44
0.0000000001
 40
0.0
 40
0.0
 40
0.0
 40
0.0
 40
0.0428259468
 40
0.0874201842
 40
0.135215697
 40
0.1871387842
 40
0.2436012447
 40
0.3045752709
 40
0.3696902724
 40
0.4383167261
 40
0.5825489835
 40
0.7295867603
 40
0.8015967035
 40
0.8712139216
 40
0.9375991226
 40
1.0
 40
1.0
 40
1.0
 40
1.0
 10
38.6217520712
 20
162.8306657001
 30
0.0
 10
38.6217569778
 20
162.6171580625
 30
0.0
 10
38.6788580259
 20
162.1794726319
 30
0.0
 10
38.9298912596
 20
161.5475040419
 30
0.0
 10
39.3371942356
 20
160.9483962252
 30
0.0
 10
39.889244206
 20
160.3940046717
 30
0.0
 10
40.5733377751
 20
159.8941607269
 30
0.0
 10
41.3748571428
 20
159.4582401676
 30
0.0
 10
42.277063136
 20
159.0947365097
 30
0.0
 10
43.6106382352
 20
158.7105425202
 30
0.0
 10
45.3974083337
 20
158.459976258
 30
0.0
 10
47.2168990351
 20
158.5099311763
 30
0.0
 10
48.6398946486
 20
158.735497449
 30
0.0
 10
49.6466519222
 20
158.9910340192
 30
0.0
 10
50.5781348753
 20
159.3286230278
 30
0.0
 10
51.1556480248
 20
159.6133117612
 30
0.0
 10
51.4250671481
 20
159.768860036
 30
0.0
  0
SPLINE
  5
452
100
AcDbEntity
  8
0
100
AcDbSpline
 62
7
  6
CONTINUOUS
 70
0
 71
3
 72
9
 73
5
 74
0
 42
0.0000001
 43
0.0000001
 44
0.0000000001
 40
0.0
 40
0.0
 40
0.0
 40
0.0
 40
0.5247613351
 40
1.0
 40
1.0
 40
1.0
 40
1.0
 10
105.6313887762
 20
151.2343037672
 30
0.0
 10
105.9462603646
 20
151.2584983473
 30
0.0
 10
106.5434998999
 20
151.3593485297
 30
0.0
 10
107.1095467733
 20
151.583490619
 30
0.0
 10
107.3572279649
 20
151.7264885681
 30
0.0
  0
SPLINE
  5
453
100
AcDbEntity
  8
0
100
AcDbSpline
 62
7
  6
CONTINUOUS
 70
0
 71
3
 72
9
 73
5
 74
0
 42
0.0000001
 43
0.0000001
 44
0.0000000001
 40
0.0
 40
0.0
 40
0.0
 40
0.0
 40
0.2444296014
 40
1.0
 40
1.0
 40
1.0
 40
1.0
 10
53.2707456352
 20
169.0930132403
 30
0.0
 10
53.2936444167
 20
169.0239853936
 30
0.0
 10
53.3956430846
 20
168.7443722001
 30
0.0
 10
53.5301689081
 20
168.4769244202
 30
0.0
 10
53.6460819338
 20
168.2843009452
 30
0.0
  0
SPLINE
  5
454
100
AcDbEntity
  8
0
100
AcDbSpline
 62
7
  6
CONTINUOUS
 70
0
 71
3
 72
9
 73
5
 74
0
 42
0.0000001
 43
0.0000001
 44
0.0000000001
 40
0.0
 40
0.0
 40
0.0
 40
0.0
 40
0.2744293402
 40
1.0
 40
1.0
 40
1.0
 40
1.0
 10
103.114569614
 20
154.1759330952
 30
0.0
 10
103.0390068418
 20
154.1323071687
 30
0.0
 10
102.7716963944
 20
153.9611691313
 30
0.0
 10
102.5347646719
 20
153.7330535699
 30
0.0
 10
102.4128267085
 20
153.5372264132
 30
0.0
  0
SPLINE
  5
455
100
AcDbEntity
  8
0
100
AcDbSpline
 62
7
  6
CONTINUOUS
 70
0
 71
3
 72
15
 73
11
 74
0
 42
0.0000001
 43
0.0000001
 44
0.0000000001
 40
0.0
 40
0.0
 40
0.0
 40
0.0
 40
0.1141447985
 40
0.2373324971
 40
0.3669747555
 40
0.5000005214
 40
0.6330262147
 40
0.7626682613
 40
0.8858556261
 40
1.0
 40
1.0
 40
1.0
 40
1.0
 10
71.860597673
 20
133.6820867689
 30
0.0
 10
71.7153887114
 20
133.7659213053
 30
0.0
 10
71.3978221618
 20
133.9137799128
 30
0.0
 10
70.8807172183
 20
134.0709809653
 30
0.0
 10
70.3208371605
 20
134.1676883557
 30
0.0
 10
69.7392737519
 20
134.2003545758
 30
0.0
 10
69.1577108083
 20
134.1676855954
 30
0.0
 10
68.597832124
 20
134.0709755467
 30
0.0
 10
68.0807294068
 20
133.9137720361
 30
0.0
 10
67.7631648026
 20
133.7659118425
 30
0.0
 10
67.6179569859
 20
133.6820765708
 30
0.0
  0
SPLINE
  5
456
100
AcDbEntity
  8
0
100
AcDbSpline
 62
7
  6
CONTINUOUS
 70
0
 71
3
 72
9
 73
5
 74
0
 42
0.0000001
 43
0.0000001
 44
0.0000000001
 40
0.0
 40
0.0
 40
0.0
 40
0.0
 40
0.238069298
 40
1.0
 40
1.0
 40
1.0
 40
1.0
 10
68.3955592412
 20
167.1172124776
 30
0.0
 10
68.2584063534
 20
167.0380276935
 30
0.0
 10
67.6711558282
 20
166.7248132926
 30
0.0
 10
67.0456674009
 20
166.4858339698
 30
0.0
 10
66.560332616
 20
166.3397020699
 30
0.0
  0
SPLINE
  5
457
100
AcDbEntity
  8
0
100
AcDbSpline
 62
7
  6
CONTINUOUS
 70
0
 71
3
 72
11
 73
7
 74
0
 42
0.0000001
 43
0.0000001
 44
0.0000000001
 40
0.0
 40
0.0
 40
0.0
 40
0.0
 40
0.2897733512
 40
0.5490657165
 40
0.7822241652
 40
1.0
 40
1.0
 40
1.0
 40
1.0
 10
71.8606153368
 20
131.2326320437
 30
0.0
 10
71.9922836955
 20
131.3086503523
 30
0.0
 10
72.2311343108
 20
131.4730911214
 30
0.0
 10
72.516501424
 20
131.7731183619
 30
0.0
 10
72.6970740045
 20
132.1049067117
 30
0.0
 10
72.7392721477
 20
132.3430924219
 30
0.0
 10
72.7392721463
 20
132.4573543073
 30
0.0
  0
SPLINE
  5
458
100
AcDbEntity
  8
0
100
AcDbSpline
 62
7
  6
CONTINUOUS
 70
0
 71
3
 72
11
 73
7
 74
0
 42
0.0000001
 43
0.0000001
 44
0.0000000001
 40
0.0
 40
0.0
 40
0.0
 40
0.0
 40
0.2177753738
 40
0.4509336309
 40
0.7102261693
 40
1.0
 40
1.0
 40
1.0
 40
1.0
 10
66.7393001764
 20
132.4573543073
 30
0.0
 10
66.7393001779
 20
132.3430911918
 30
0.0
 10
66.7814992846
 20
132.1049027334
 30
0.0
 10
66.9620757715
 20
131.7731111711
 30
0.0
 10
67.2474486805
 20
131.4730817067
 30
0.0
 10
67.4863038288
 20
131.3086403098
 30
0.0
 10
67.6179746497
 20
131.2326218457
 30
0.0
  0
SPLINE
  5
459
100
AcDbEntity
  8
0
100
AcDbSpline
 62
7
  6
CONTINUOUS
 70
0
 71
3
 72
15
 73
11
 74
0
 42
0.0000001
 43
0.0000001
 44
0.0000000001
 40
0.0
 40
0.0
 40
0.0
 40
0.0
 40
0.1141447985
 40
0.2373324971
 40
0.3669747555
 40
0.5000005214
 40
0.6330262147
 40
0.7626682613
 40
0.8858556261
 40
1.0
 40
1.0
 40
1.0
 40
1.0
 10
67.6179746497
 20
131.2326218457
 30
0.0
 10
67.7631836112
 20
131.1487873092
 30
0.0
 10
68.0807501609
 20
131.0009287017
 30
0.0
 10
68.5978551043
 20
130.8437276492
 30
0.0
 10
69.1577351622
 20
130.7470202589
 30
0.0
 10
69.7392985707
 20
130.7143540387
 30
0.0
 10
70.3208615143
 20
130.7470230191
 30
0.0
 10
70.8807401987
 20
130.8437330678
 30
0.0
 10
71.3978429159
 20
131.0009365784
 30
0.0
 10
71.71540752
 20
131.1487967721
 30
0.0
 10
71.8606153368
 20
131.2326320437
 30
0.0
  0
SPLINE
  5
45A
100
AcDbEntity
  8
0
100
AcDbSpline
 62
7
  6
CONTINUOUS
 70
0
 71
3
 72
15
 73
11
 74
0
 42
0.0000001
 43
0.0000001
 44
0.0000000001
 40
0.0
 40
0.0
 40
0.0
 40
0.0
 40
0.1555701337
 40
0.3028661007
 40
0.4407268637
 40
0.5687492444
 40
0.6871297491
 40
0.7969463425
 40
0.9002487843
 40
1.0
 40
1.0
 40
1.0
 40
1.0
 10
59.6241953625
 20
166.3396853974
 30
0.0
 10
59.3293635169
 20
166.428456003
 30
0.0
 10
58.7626574678
 20
166.6270683484
 30
0.0
 10
57.9710807217
 20
166.9972961168
 30
0.0
 10
57.2726468704
 20
167.4265262443
 30
0.0
 10
56.6800899187
 20
167.9072721612
 30
0.0
 10
56.2043424439
 20
168.4319032018
 30
0.0
 10
55.855051967
 20
168.9921777515
 30
0.0
 10
55.6407490991
 20
169.5782097735
 30
0.0
 10
55.5922753328
 20
169.981589598
 30
0.0
 10
55.5922565589
 20
170.1790181535
 30
0.0
  0
SPLINE
  5
45B
100
AcDbEntity
  8
0
100
AcDbSpline
 62
7
  6
CONTINUOUS
 70
0
 71
3
 72
11
 73
7
 74
0
 42
0.0000001
 43
0.0000001
 44
0.0000000001
 40
0.0
 40
0.0
 40
0.0
 40
0.0
 40
0.2177727701
 40
0.4509280213
 40
0.7102223029
 40
1.0
 40
1.0
 40
1.0
 40
1.0
 10
72.739264109
 20
131.1509504399
 30
0.0
 10
72.7392641104
 20
131.0366905397
 30
0.0
 10
72.6970673892
 20
130.7985091812
 30
0.0
 10
72.5165017815
 20
130.4667212008
 30
0.0
 10
72.2311362192
 20
130.166691846
 30
0.0
 10
71.9922852354
 20
130.002247374
 30
0.0
 10
71.8606153368
 20
129.9262281763
 30
0.0
  0
SPLINE
  5
45C
100
AcDbEntity
  8
0
100
AcDbSpline
 62
7
  6
CONTINUOUS
 70
0
 71
3
 72
12
 73
8
 74
0
 42
0.0000001
 43
0.0000001
 44
0.0000000001
 40
0.0
 40
0.0
 40
0.0
 40
0.0
 40
0.1081616963
 40
0.2183692845
 40
0.4513505142
 40
0.7104461826
 40
1.0
 40
1.0
 40
1.0
 40
1.0
 10
93.3163103399
 20
158.5033749651
 30
0.0
 10
93.3163103409
 20
158.4276499469
 30
0.0
 10
93.3294414797
 20
158.2744450639
 30
0.0
 10
93.4091036623
 20
157.9673532591
 30
0.0
 10
93.6133094384
 20
157.5907162552
 30
0.0
 10
93.9938534561
 20
157.1911239737
 30
0.0
 10
94.3123152097
 20
156.9717563018
 30
0.0
 10
94.4878763043
 20
156.8703983496
 30
0.0
  0
SPLINE
  5
45D
100
AcDbEntity
  8
0
100
AcDbSpline
 62
7
  6
CONTINUOUS
 70
0
 71
3
 72
12
 73
8
 74
0
 42
0.0000001
 43
0.0000001
 44
0.0000000001
 40
0.0
 40
0.0
 40
0.0
 40
0.0
 40
0.2895887048
 40
0.5486357248
 40
0.7816392924
 40
0.8918396792
 40
1.0
 40
1.0
 40
1.0
 40
1.0
 10
68.3955592412
 20
169.1584685204
 30
0.0
 10
68.7247712811
 20
169.3485380457
 30
0.0
 10
69.3219185935
 20
169.7597946046
 30
0.0
 10
70.0352816879
 20
170.509133203
 30
0.0
 10
70.4183551431
 20
171.2151991236
 30
0.0
 10
70.5675023778
 20
171.7910609723
 30
0.0
 10
70.5922295476
 20
172.0782929839
 30
0.0
 10
70.5922160463
 20
172.2202741623
 30
0.0
  0
SPLINE
  5
45E
100
AcDbEntity
  8
0
100
AcDbSpline
 62
7
  6
CONTINUOUS
 70
0
 71
3
 72
9
 73
5
 74
0
 42
0.0000001
 43
0.0000001
 44
0.0000000001
 40
0.0
 40
0.0
 40
0.0
 40
0.0
 40
0.2616987796
 40
1.0
 40
1.0
 40
1.0
 40
1.0
 10
66.560332616
 20
168.3809581127
 30
0.0
 10
66.727016487
 20
168.4311458007
 30
0.0
 10
67.3588200218
 20
168.6389863942
 30
0.0
 10
67.9702536557
 20
168.9129196918
 30
0.0
 10
68.3955592412
 20
169.1584685204
 30
0.0
  0
SPLINE
  5
45F
100
AcDbEntity
  8
0
100
AcDbSpline
 62
7
  6
CONTINUOUS
 70
0
 71
3
 72
10
 73
6
 74
0
 42
0.0000001
 43
0.0000001
 44
0.0000000001
 40
0.0
 40
0.0
 40
0.0
 40
0.0
 40
0.2304925296
 40
0.4761463899
 40
1.0
 40
1.0
 40
1.0
 40
1.0
 10
67.8652269474
 20
169.4646490863
 30
0.0
 10
67.6125388418
 20
169.3187604114
 30
0.0
 10
67.0694635276
 20
169.0529011194
 30
0.0
 10
65.8748735834
 20
168.6288545098
 30
0.0
 10
64.9096658659
 20
168.4472655934
 30
0.0
 10
64.2498476795
 20
168.380952559
 30
0.0
  0
SPLINE
  5
460
100
AcDbEntity
  8
0
100
AcDbSpline
 62
7
  6
CONTINUOUS
 70
0
 71
3
 72
14
 73
10
 74
0
 42
0.0000001
 43
0.0000001
 44
0.0000000001
 40
0.0
 40
0.0
 40
0.0
 40
0.0
 40
0.3072077455
 40
0.4497476581
 40
0.5815295956
 40
0.7013156741
 40
0.80928384
 40
0.9074709327
 40
1.0
 40
1.0
 40
1.0
 40
1.0
 10
27.6617142138
 20
153.517523959
 30
0.0
 10
27.3124924682
 20
153.541745794
 30
0.0
 10
26.8016319347
 20
153.6289415566
 30
0.0
 10
26.1782733435
 20
153.8579586631
 30
0.0
 10
25.7806284538
 20
154.0704006113
 30
0.0
 10
25.4540576852
 20
154.3214347535
 30
0.0
 10
25.2090529208
 20
154.6047824481
 30
0.0
 10
25.0553521369
 20
154.913087232
 30
0.0
 10
25.019848858
 20
155.1317188294
 30
0.0
 10
25.0198302486
 20
155.2371549525
 30
0.0
  0
SPLINE
  5
461
100
AcDbEntity
  8
0
100
AcDbSpline
 62
7
  6
CONTINUOUS
 70
0
 71
3
 72
11
 73
7
 74
0
 42
0.0000001
 43
0.0000001
 44
0.0000000001
 40
0.0
 40
0.0
 40
0.0
 40
0.0
 40
0.2177727701
 40
0.4509280213
 40
0.7102223029
 40
1.0
 40
1.0
 40
1.0
 40
1.0
 10
102.2359208418
 20
154.0943142156
 30
0.0
 10
102.2359208404
 20
154.2085741157
 30
0.0
 10
102.2781175616
 20
154.4467554742
 30
0.0
 10
102.4586831693
 20
154.7785434546
 30
0.0
 10
102.7440487316
 20
155.0785728094
 30
0.0
 10
102.9828997154
 20
155.2430172815
 30
0.0
 10
103.114569614
 20
155.3190364792
 30
0.0
  0
SPLINE
  5
462
100
AcDbEntity
  8
0
100
AcDbSpline
 62
7
  6
CONTINUOUS
 70
0
 71
3
 72
11
 73
7
 74
0
 42
0.0000001
 43
0.0000001
 44
0.0000000001
 40
0.0
 40
0.0
 40
0.0
 40
0.0
 40
0.2177796629
 40
0.4509238111
 40
0.7102593659
 40
1.0
 40
1.0
 40
1.0
 40
1.0
 10
108.2358809185
 20
151.6448069682
 30
0.0
 10
108.2359010859
 20
151.5305438857
 30
0.0
 10
108.1936455075
 20
151.2923722793
 30
0.0
 10
108.0131162393
 20
150.9605536912
 30
0.0
 10
107.7277159836
 20
150.6605550492
 30
0.0
 10
107.4888805246
 20
150.4960938877
 30
0.0
 10
107.3572279649
 20
150.4200847006
 30
0.0
  0
SPLINE
  5
463
100
AcDbEntity
  8
0
100
AcDbSpline
 62
7
  6
CONTINUOUS
 70
0
 71
3
 72
15
 73
11
 74
0
 42
0.0000001
 43
0.0000001
 44
0.0000000001
 40
0.0
 40
0.0
 40
0.0
 40
0.0
 40
0.1569041761
 40
0.3076246809
 40
0.4494958491
 40
0.5806114842
 40
0.6999781321
 40
0.8079607691
 40
0.9066435358
 40
1.0
 40
1.0
 40
1.0
 40
1.0
 10
61.934680299
 20
168.380946994
 30
0.0
 10
61.5525496201
 20
168.4193499913
 30
0.0
 10
60.8064975178
 20
168.5326144827
 30
0.0
 10
59.7407576752
 20
168.8149075436
 30
0.0
 10
58.7744720883
 20
169.1993114177
 30
0.0
 10
57.9360342078
 20
169.674868524
 30
0.0
 10
57.2498135907
 20
170.2291425737
 30
0.0
 10
56.7367378066
 20
170.84898109
 30
0.0
 10
56.4161460746
 20
171.5190402661
 30
0.0
 10
56.3422408121
 20
171.9917648613
 30
0.0
 10
56.3422477654
 20
172.2202741763
 30
0.0
  0
SPLINE
  5
464
100
AcDbEntity
  8
0
100
AcDbSpline
 62
7
  6
CONTINUOUS
 70
0
 71
3
 72
18
 73
14
 74
0
 42
0.0000001
 43
0.0000001
 44
0.0000000001
 40
0.0
 40
0.0
 40
0.0
 40
0.0
 40
0.0428461008
 40
0.0874632736
 40
0.1352847226
 40
0.1872342622
 40
0.2437266487
 40
0.3047331774
 40
0.4383671161
 40
0.5826741421
 40
0.729791723
 40
0.8713420336
 40
1.0
 40
1.0
 40
1.0
 40
1.0
 10
59.0922637606
 20
179.1605447251
 30
0.0
 10
59.0922646324
 20
179.0466808076
 30
0.0
 10
59.1226921252
 20
178.8132554124
 30
0.0
 10
59.2565647535
 20
178.476203859
 30
0.0
 10
59.4738195101
 20
178.1567012657
 30
0.0
 10
59.7682211782
 20
177.8610139503
 30
0.0
 10
60.1330743755
 20
177.5944008733
 30
0.0
 10
60.7208128823
 20
177.2749095233
 30
0.0
 10
61.5819919115
 20
176.9872499736
 30
0.0
 10
62.7057186456
 20
176.8294606486
 30
0.0
 10
63.8615563527
 20
176.8614208239
 30
0.0
 10
64.954149488
 20
177.0800184366
 30
0.0
 10
65.6245722229
 20
177.3566275919
 30
0.0
 10
65.9206752032
 20
177.5275817068
 30
0.0
  0
SPLINE
  5
465
100
AcDbEntity
  8
0
100
AcDbSpline
 62
7
  6
CONTINUOUS
 70
0
 71
3
 72
12
 73
8
 74
0
 42
0.0000001
 43
0.0000001
 44
0.0000000001
 40
0.0
 40
0.0
 40
0.0
 40
0.0
 40
0.2895810204
 40
0.548637375
 40
0.7816378622
 40
0.8918387092
 40
1.0
 40
1.0
 40
1.0
 40
1.0
 10
67.8652269474
 20
174.7719147976
 30
0.0
 10
68.1615099457
 20
174.9429728454
 30
0.0
 10
68.6989382816
 20
175.3131111628
 30
0.0
 10
69.3409805426
 20
175.9874987326
 30
0.0
 10
69.6857488947
 20
176.6229690308
 30
0.0
 10
69.8199645356
 20
177.1412476828
 30
0.0
 10
69.8422209363
 20
177.399755676
 30
0.0
 10
69.8422248335
 20
177.5275398937
 30
0.0
  0
SPLINE
  5
466
100
AcDbEntity
  8
0
100
AcDbSpline
 62
7
  6
CONTINUOUS
 70
0
 71
3
 72
10
 73
6
 74
0
 42
0.0000001
 43
0.0000001
 44
0.0000000001
 40
0.0
 40
0.0
 40
0.0
 40
0.0
 40
0.5238536101
 40
0.7695074704
 40
1.0
 40
1.0
 40
1.0
 40
1.0
 10
64.2498476795
 20
173.6882182703
 30
0.0
 10
64.9096658659
 20
173.7545313048
 30
0.0
 10
65.8748735834
 20
173.9361202211
 30
0.0
 10
67.0694635276
 20
174.3601668308
 30
0.0
 10
67.6125388418
 20
174.6260261227
 30
0.0
 10
67.8652269474
 20
174.7719147976
 30
0.0
  0
SPLINE
  5
467
100
AcDbEntity
  8
0
100
AcDbSpline
 62
7
  6
CONTINUOUS
 70
0
 71
3
 72
15
 73
11
 74
0
 42
0.0000001
 43
0.0000001
 44
0.0000000001
 40
0.0
 40
0.0
 40
0.0
 40
0.0
 40
0.1141469224
 40
0.2373360366
 40
0.366976904
 40
0.5000005214
 40
0.6330240662
 40
0.7626647219
 40
0.8858535023
 40
1.0
 40
1.0
 40
1.0
 40
1.0
 10
67.6179775937
 20
129.5179755241
 30
0.0
 10
67.7631891634
 20
129.4341394818
 30
0.0
 10
68.0807616013
 20
129.2862814505
 30
0.0
 10
68.5978697034
 20
129.1290813695
 30
0.0
 10
69.1577469176
 20
129.0323781157
 30
0.0
 10
69.7393015147
 20
128.9997126206
 30
0.0
 10
70.3208556468
 20
129.0323808759
 30
0.0
 10
70.8807314876
 20
129.129086788
 30
0.0
 10
71.3978373634
 20
129.2862893272
 30
0.0
 10
71.7154078558
 20
129.4341489446
 30
0.0
 10
71.8606182807
 20
129.5179857221
 30
0.0
  0
SPLINE
  5
468
100
AcDbEntity
  8
0
100
AcDbSpline
 62
7
  6
CONTINUOUS
 70
0
 71
3
 72
18
 73
14
 74
0
 42
0.0000001
 43
0.0000001
 44
0.0000000001
 40
0.0
 40
0.0
 40
0.0
 40
0.0
 40
0.1286563236
 40
0.2702033957
 40
0.417318796
 40
0.5616275679
 40
0.6952643255
 40
0.7562714577
 40
0.8127643045
 40
0.8647138825
 40
0.9125352642
 40
0.9571529617
 40
1.0
 40
1.0
 40
1.0
 40
1.0
 10
65.9206752032
 20
175.8945768726
 30
0.0
 10
65.624576014
 20
175.7236249464
 30
0.0
 10
64.9541660382
 20
175.4470198757
 30
0.0
 10
63.8615931542
 20
175.2284188968
 30
0.0
 10
62.7057651954
 20
175.1964512339
 30
0.0
 10
61.5820321283
 20
175.3542373066
 30
0.0
 10
60.7208360809
 20
175.6418914055
 30
0.0
 10
60.1330894262
 20
175.9613892977
 30
0.0
 10
59.768230677
 20
176.2279992261
 30
0.0
 10
59.4738263456
 20
176.5236866158
 30
0.0
 10
59.2565751241
 20
176.8431919503
 30
0.0
 10
59.1226895466
 20
177.1802431128
 30
0.0
 10
59.0922685293
 20
177.4136734888
 30
0.0
 10
59.0922658172
 20
177.5275398938
 30
0.0
  0
SPLINE
  5
469
100
AcDbEntity
  8
0
100
AcDbSpline
 62
7
  6
CONTINUOUS
 70
0
 71
3
 72
15
 73
11
 74
0
 42
0.0000001
 43
0.0000001
 44
0.0000000001
 40
0.0
 40
0.0
 40
0.0
 40
0.0
 40
0.1141447985
 40
0.2373324971
 40
0.3669747555
 40
0.5000005214
 40
0.6330262147
 40
0.7626682613
 40
0.8858556261
 40
1.0
 40
1.0
 40
1.0
 40
1.0
 10
30.1411238893
 20
157.7682912856
 30
0.0
 10
29.9959149278
 20
157.852125822
 30
0.0
 10
29.6783483781
 20
157.9999844295
 30
0.0
 10
29.1612434347
 20
158.157185482
 30
0.0
 10
28.6013633768
 20
158.2538928724
 30
0.0
 10
28.0197999683
 20
158.2865590925
 30
0.0
 10
27.4382370247
 20
158.2538901121
 30
0.0
 10
26.8783583403
 20
158.1571800634
 30
0.0
 10
26.3612556231
 20
157.9999765528
 30
0.0
 10
26.043691019
 20
157.8521163592
 30
0.0
 10
25.8984832022
 20
157.7682810875
 30
0.0
  0
SPLINE
  5
46A
100
AcDbEntity
  8
0
100
AcDbSpline
 62
7
  6
CONTINUOUS
 70
0
 71
3
 72
12
 73
8
 74
0
 42
0.0000001
 43
0.0000001
 44
0.0000000001
 40
0.0
 40
0.0
 40
0.0
 40
0.0
 40
0.2895556178
 40
0.5486523501
 40
0.7816338432
 40
0.8918405159
 40
1.0
 40
1.0
 40
1.0
 40
1.0
 10
65.9206752032
 20
177.5275817068
 30
0.0
 10
66.096234102
 20
177.6289400792
 30
0.0
 10
66.4146910105
 20
177.8483086423
 30
0.0
 10
66.7952263091
 20
178.247901121
 30
0.0
 10
66.9994254234
 20
178.624535066
 30
0.0
 10
67.0790814029
 20
178.9316217522
 30
0.0
 10
67.0922094244
 20
179.0848223579
 30
0.0
 10
67.0922088446
 20
179.1605447247
 30
0.0
  0
SPLINE
  5
46B
100
AcDbEntity
  8
0
100
AcDbSpline
 62
7
  6
CONTINUOUS
 70
0
 71
3
 72
11
 73
7
 74
0
 42
0.0000001
 43
0.0000001
 44
0.0000000001
 40
0.0
 40
0.0
 40
0.0
 40
0.0
 40
0.2177839237
 40
0.4509111717
 40
0.7102971901
 40
1.0
 40
1.0
 40
1.0
 40
1.0
 10
56.9255664381
 20
64.2939737605
 30
0.0
 10
57.024523111
 20
64.2368424413
 30
0.0
 10
57.2518912757
 20
64.1543306741
 30
0.0
 10
57.6295451446
 20
64.1447717787
 30
0.0
 10
58.0320352068
 20
64.241969521
 30
0.0
 10
58.293898899
 20
64.3665456296
 30
0.0
 10
58.4255335029
 20
64.44254445
 30
0.0
  0
SPLINE
  5
46C
100
AcDbEntity
  8
0
100
AcDbSpline
 62
7
  6
CONTINUOUS
 70
0
 71
3
 72
11
 73
7
 74
0
 42
0.0000001
 43
0.0000001
 44
0.0000000001
 40
0.0
 40
0.0
 40
0.0
 40
0.0
 40
0.2177825102
 40
0.4509091639
 40
0.7102957096
 40
1.0
 40
1.0
 40
1.0
 40
1.0
 10
24.0449642188
 20
83.2771688457
 30
0.0
 10
23.9460042949
 20
83.3343021034
 30
0.0
 10
23.7608540884
 20
83.4899560633
 30
0.0
 10
23.5637400114
 20
83.8122458988
 30
0.0
 10
23.4466659084
 20
84.2094279568
 30
0.0
 10
23.423619772
 20
84.4985092057
 30
0.0
 10
23.423619772
 20
84.650514325
 30
0.0
  0
SPLINE
  5
46D
100
AcDbEntity
  8
0
100
AcDbSpline
 62
7
  6
CONTINUOUS
 70
0
 71
3
 72
13
 73
9
 74
0
 42
0.0000001
 43
0.0000001
 44
0.0000000001
 40
0.0
 40
0.0
 40
0.0
 40
0.0
 40
0.1142249338
 40
0.2375584468
 40
0.4999994088
 40
0.7624406902
 40
0.885774603
 40
1.0
 40
1.0
 40
1.0
 40
1.0
 10
71.8606182807
 20
103.9614600659
 30
0.0
 10
71.7154378562
 20
103.8776406091
 30
0.0
 10
71.397821496
 20
103.7297796582
 30
0.0
 10
70.6940181
 20
103.5159448381
 30
0.0
 10
69.7393015214
 20
103.4121378298
 30
0.0
 10
68.7845839023
 20
103.5159403149
 30
0.0
 10
68.0807776786
 20
103.7297717361
 30
0.0
 10
67.7631592114
 20
103.8776311181
 30
0.0
 10
67.6179775937
 20
103.9614498679
 30
0.0
  0
SPLINE
  5
46E
100
AcDbEntity
  8
0
100
AcDbSpline
 62
7
  6
CONTINUOUS
 70
0
 71
3
 72
11
 73
7
 74
0
 42
0.0000001
 43
0.0000001
 44
0.0000000001
 40
0.0
 40
0.0
 40
0.0
 40
0.0
 40
0.2177821605
 40
0.4509085882
 40
0.7102951949
 40
1.0
 40
1.0
 40
1.0
 40
1.0
 10
108.942990601
 20
126.0882830078
 30
0.0
 10
108.942990569
 20
125.9740189972
 30
0.0
 10
108.9007648953
 20
125.7358568113
 30
0.0
 10
108.7202150927
 20
125.4040200719
 30
0.0
 10
108.4347911771
 20
125.1040525926
 30
0.0
 10
108.1959705833
 20
124.9395602765
 30
0.0
 10
108.0643347461
 20
124.8635607442
 30
0.0
  0
SPLINE
  5
46F
100
AcDbEntity
  8
0
100
AcDbSpline
 62
7
  6
CONTINUOUS
 70
0
 71
3
 72
11
 73
7
 74
0
 42
0.0000001
 43
0.0000001
 44
0.0000000001
 40
0.0
 40
0.0
 40
0.0
 40
0.0
 40
0.2897042895
 40
0.5490907647
 40
0.7822174449
 40
1.0
 40
1.0
 40
1.0
 40
1.0
 10
56.3042219913
 20
65.6673192398
 30
0.0
 10
56.3042219913
 20
65.5153141205
 30
0.0
 10
56.327268076
 20
65.226232904
 30
0.0
 10
56.4443422087
 20
64.8290508693
 30
0.0
 10
56.6414562789
 20
64.506761053
 30
0.0
 10
56.8266064669
 20
64.3511069841
 30
0.0
 10
56.9255664381
 20
64.2939737605
 30
0.0
  0
SPLINE
  5
470
100
AcDbEntity
  8
0
100
AcDbSpline
 62
7
  6
CONTINUOUS
 70
0
 71
3
 72
9
 73
5
 74
0
 42
0.0000001
 43
0.0000001
 44
0.0000000001
 40
0.0
 40
0.0
 40
0.0
 40
0.0
 40
0.2465708886
 40
1.0
 40
1.0
 40
1.0
 40
1.0
 10
68.6280530804
 20
126.6843854751
 30
0.0
 10
68.6711168377
 20
126.6744713695
 30
0.0
 10
68.8463515298
 20
126.6368318742
 30
0.0
 10
69.0237407135
 20
126.6093247887
 30
0.0
 10
69.1579014599
 20
126.5940371755
 30
0.0
  0
SPLINE
  5
471
100
AcDbEntity
  8
0
100
AcDbSpline
 62
7
  6
CONTINUOUS
 70
0
 71
3
 72
9
 73
5
 74
0
 42
0.0000001
 43
0.0000001
 44
0.0000000001
 40
0.0
 40
0.0
 40
0.0
 40
0.0
 40
0.2532154778
 40
1.0
 40
1.0
 40
1.0
 40
1.0
 10
70.3206472961
 20
126.5940338189
 30
0.0
 10
70.365732598
 20
126.5991710163
 30
0.0
 10
70.5434974066
 20
126.621873971
 30
0.0
 10
70.720036835
 20
126.6543468493
 30
0.0
 10
70.85045211
 20
126.6843686687
 30
0.0
  0
SPLINE
  5
472
100
AcDbEntity
  8
0
100
AcDbSpline
 62
7
  6
CONTINUOUS
 70
0
 71
3
 72
9
 73
5
 74
0
 42
0.0000001
 43
0.0000001
 44
0.0000000001
 40
0.0
 40
0.0
 40
0.0
 40
0.0
 40
0.256139438
 40
1.0
 40
1.0
 40
1.0
 40
1.0
 10
108.2523686554
 20
148.0898104387
 30
0.0
 10
108.2711424942
 20
148.1028893964
 30
0.0
 10
108.3437172039
 20
148.1549725015
 30
0.0
 10
108.4133357427
 20
148.2112175774
 30
0.0
 10
108.4628952104
 20
148.2554799714
 30
0.0
  0
SPLINE
  5
473
100
AcDbEntity
  8
0
100
AcDbSpline
 62
7
  6
CONTINUOUS
 70
0
 71
3
 72
9
 73
5
 74
0
 42
0.0000001
 43
0.0000001
 44
0.0000000001
 40
0.0
 40
0.0
 40
0.0
 40
0.0
 40
0.2609341878
 40
1.0
 40
1.0
 40
1.0
 40
1.0
 10
108.4628952104
 20
148.2554799714
 30
0.0
 10
108.4888843732
 20
148.2786913298
 30
0.0
 10
108.5861384531
 20
148.3701964671
 30
0.0
 10
108.6735061684
 20
148.472529484
 30
0.0
 10
108.7295951763
 20
148.5537381662
 30
0.0
  0
SPLINE
  5
474
100
AcDbEntity
  8
0
100
AcDbSpline
 62
7
  6
CONTINUOUS
 70
0
 71
3
 72
9
 73
5
 74
0
 42
0.0000001
 43
0.0000001
 44
0.0000000001
 40
0.0
 40
0.0
 40
0.0
 40
0.0
 40
0.2604112263
 40
1.0
 40
1.0
 40
1.0
 40
1.0
 10
108.7295951763
 20
148.5537381662
 30
0.0
 10
108.7503368533
 20
148.5837690818
 30
0.0
 10
108.8256038547
 20
148.7019944084
 30
0.0
 10
108.8817775011
 20
148.8328439272
 30
0.0
 10
108.9083526625
 20
148.9330354251
 30
0.0
  0
SPLINE
  5
475
100
AcDbEntity
  8
0
100
AcDbSpline
 62
7
  6
CONTINUOUS
 70
0
 71
3
 72
9
 73
5
 74
0
 42
0.0000001
 43
0.0000001
 44
0.0000000001
 40
0.0
 40
0.0
 40
0.0
 40
0.0
 40
0.2527278947
 40
1.0
 40
1.0
 40
1.0
 40
1.0
 10
108.9083526625
 20
148.9330354251
 30
0.0
 10
108.914075255
 20
148.9546102745
 30
0.0
 10
108.9340627081
 20
149.0406567422
 30
0.0
 10
108.9429906133
 20
149.1293024473
 30
0.0
 10
108.942990601
 20
149.1953014125
 30
0.0
  0
ENDSEC
  0
SECTION
  2
OBJECTS
  0
DICTIONARY
  5
C
100
AcDbDictionary
280
0
281
1
  3
ACAD_GROUP
350
D
  3
ACAD_MLINESTYLE
350
17
  3
ACAD_LAYOUT
350
1A
  3
ACAD_PLOTSETTINGS
350
19
  3
ACAD_PLOTSTYLENAME
350
E
  0
DICTIONARY
  5
D
102
{ACAD_REACTORS
330
C
102
}
100
AcDbDictionary
280
0
281
1
  0
ACDBDICTIONARYWDFLT
  5
E
102
{ACAD_REACTORS
330
C
102
}
100
AcDbDictionary
281
1
  3
Normal
350
F
100
AcDbDictionaryWithDefault
340
F
  0
DICTIONARY
  5
17
102
{ACAD_REACTORS
330
C
102
}
100
AcDbDictionary
280
0
281
1
  3
Standard
350
18
  0
DICTIONARY
  5
19
102
{ACAD_REACTORS
330
C
102
}
100
AcDbDictionary
281
1
  0
DICTIONARY
  5
1A
102
{ACAD_REACTORS
330
C
102
}
100
AcDbDictionary
281
1
  3
Model
350
476
  3
Layout1
350
477
  0
ACDBPLACEHOLDER
  5
F
102
{ACAD_REACTORS
330
E
102
}
  0
MLINESTYLE
  5
18
102
{ACAD_REACTORS
330
17
102
}
100
AcDbMlineStyle
  2
STANDARD
 70
0
  3

 62
256
 51
90.0
 52
90.0
 71
2
 49
0.5
 62
256
  6
BYLAYER
 49
-0.5
 62
256
  6
BYLAYER
  0
LAYOUT
  5
476
102
{ACAD_REACTORS
330
1A
102
}
100
AcDbPlotSettings
  1

  2
none_device
  4

  6

 40
0.0
 41
0.0
 42
0.0
 43
0.0
 44
210.0
 45
297.0
 46
0.0
 47
0.0
 48
0.0
 49
0.0
140
0.0
141
0.0
142
1.0
143
1.0
 70
1024
 72
1
 73
0
 74
0
  7

 75
0
147
1.0
148
0.0
149
0.0
100
AcDbLayout
  1
Model
 70
0
 71
0
 10
0.0
 20
0.0
 11
210.0
 21
297.0
 12
0.0
 22
0.0
 32
0.0
 14
0.0
 24
0.0
 34
0.0
 15
0.0
 25
0.0
 35
0.0
146
0.0
 13
0.0
 23
0.0
 33
0.0
 16
1.0
 26
0.0
 36
0.0
 17
0.0
 27
1.0
 37
0.0
 76
0
330
210
345
0
346
0
  0
LAYOUT
  5
477
102
{ACAD_REACTORS
330
1A
102
}
100
AcDbPlotSettings
  1

  2
none_device
  4

  6

 40
0.0
 41
0.0
 42
0.0
 43
0.0
 44
210.0
 45
297.0
 46
0.0
 47
0.0
 48
0.0
 49
0.0
140
0.0
141
0.0
142
1.0
143
1.0
 70
0
 72
1
 73
0
 74
0
  7

 75
0
147
1.0
148
0.0
149
0.0
100
AcDbLayout
  1
Layout1
 70
0
 71
1
 10
0.0
 20
0.0
 11
210.0
 21
297.0
 12
0.0
 22
0.0
 32
0.0
 14
0.0
 24
0.0
 34
0.0
 15
0.0
 25
0.0
 35
0.0
146
0.0
 13
0.0
 23
0.0
 33
0.0
 16
1.0
 26
0.0
 36
0.0
 17
0.0
 27
1.0
 37
0.0
 76
0
330
211
345
0
346
0
  0
ENDSEC
  0
EOF
