999
DXF file: C:\Users\sesa63760\Dev\_Creo\CAD\MCADID0001257_3D-CAD\drw0001_5.dxf
999
Pro/ENGINEER 2019471 by Parametric Technology Corporation
  0
SECTION
  2
HEADER
  9
$ACADVER
  1
AC1024
  9
$DWGCODEPAGE
  3
ANSI_1252
  9
$EXTMAX
 10
140.6875559277
 20
198.9724005262
 30
0.0
  9
$EXTMIN
 10
0.0
 20
0.0
 30
0.0
  9
$LIMMIN
 10
0.0
 20
0.0
  9
$LIMMAX
 10
140.6875559277
 20
198.9724005262
  9
$VIEWCTR
 10
70.3437779638
 20
99.4862002631
  9
$VIEWSIZE
 40
198.9724005262
  9
$CLAYER
  8
0
  9
$LTSCALE
 40
12.970052775
  9
$CELTYPE
  6
BYLAYER
  9
$DIMSCALE
 40
1.0
  9
$DIMASZ
 40
1.6748518563
  9
$DIMEXO
 40
1.0
  9
$DIMDLI
 40
8.9611273718
  9
$DIMEXE
 40
1.0
  9
$DIMCEN
 40
2.1223722723
  9
$DIMLFAC
 40
1.0
  9
$DIMBLK
  1
_FILLED
  9
$DIMALT
 70
0
  9
$DIMALTF
 40
0.0393700787
  9
$DIMTXT
 40
2.3447925988
  9
$DIMTOL
 70
1
  9
$DIMLIM
 70
0
  9
$DIMTFAC
 40
1.0
  9
$DIMTP
 40
0.01
  9
$DIMTM
 40
0.01
  9
$DIMGAP
 40
0.625
  9
$DIMDSEP
 70
46
  9
$AUNITS
 70
0
  9
$PDMODE
 70
3
  9
$PDSIZE
 40
0.3125
  9
$HANDSEED
  5
289
  9
$TILEMODE
 70
1
  9
$MEASUREMENT
 70
1
  9
$INSUNITS
 70
4
  0
ENDSEC
  0
SECTION
  2
CLASSES
  0
CLASS
  1
ACDBDICTIONARYWDFLT
  2
AcDbDictionaryWithDefault
  3
AutoCAD 2000
 90
0
 91
1
280
0
281
0
  0
CLASS
  1
ACDBPLACEHOLDER
  2
AcDbPlaceHolder
  3
AutoCAD 2000
 90
0
 91
1
280
0
281
0
  0
CLASS
  1
LAYOUT
  2
AcDbLayout
  3
AutoCAD 2000
 90
0
 91
0
280
0
281
0
  0
ENDSEC
  0
SECTION
  2
TABLES
  0
TABLE
  2
VPORT
  5
8
100
AcDbSymbolTable
 70
2
  0
VPORT
  5
1F4
100
AcDbSymbolTableRecord
100
AcDbViewportTableRecord
  2
*ACTIVE
 70
0
 10
0.0
 20
0.0
 11
1.0
 21
1.0
 12
70.3437779638
 22
99.4862002631
 13
0.0
 23
0.0
 14
1.0
 24
1.0
 15
0.0
 25
0.0
 16
0.0
 26
0.0
 36
1.0
 17
0.0
 27
0.0
 37
0.0
 40
198.9724005262
 41
0.7070707071
 42
50.0
 43
0.0
 44
0.0
 50
0.0
 51
0.0
 71
0
 72
100
 73
1
 74
1
 75
0
 76
0
 77
0
 78
0
  0
ENDTAB
  0
TABLE
  2
LTYPE
  5
5
100
AcDbSymbolTable
 70
6
  0
LTYPE
  5
14
100
AcDbSymbolTableRecord
100
AcDbLinetypeTableRecord
  2
BYBLOCK
 70
0
  3

 72
65
 73
0
 40
0.0
  0
LTYPE
  5
15
100
AcDbSymbolTableRecord
100
AcDbLinetypeTableRecord
  2
BYLAYER
 70
0
  3

 72
65
 73
0
 40
0.0
  0
LTYPE
  5
16
100
AcDbSymbolTableRecord
100
AcDbLinetypeTableRecord
  2
CONTINUOUS
 70
64
  3
Solid line
 72
65
 73
0
 40
0.0
  0
LTYPE
  5
1F5
100
AcDbSymbolTableRecord
100
AcDbLinetypeTableRecord
  2
CENTER
 70
64
  3
____ _ ____ _ ____ _ ____ _ ____ _ ____ _ ____
 72
65
 73
4
 40
0.6
 49
0.375
 74
0
 49
-0.075
 74
0
 49
0.075
 74
0
 49
-0.075
 74
0
  0
LTYPE
  5
1F6
100
AcDbSymbolTableRecord
100
AcDbLinetypeTableRecord
  2
HIDDEN
 70
64
  3
- - - - - - - - - - - - - - - - - - - -
 72
65
 73
2
 40
0.2
 49
0.1
 74
0
 49
-0.1
 74
0
  0
LTYPE
  5
1F7
100
AcDbSymbolTableRecord
100
AcDbLinetypeTableRecord
  2
PHANTOM
 70
64
  3
_____ _ _ _____ _ _ _____ _ _ _____
 72
65
 73
6
 40
0.8
 49
0.45
 74
0
 49
-0.05
 74
0
 49
0.1
 74
0
 49
-0.05
 74
0
 49
0.1
 74
0
 49
-0.05
 74
0
  0
LTYPE
  5
1F8
100
AcDbSymbolTableRecord
100
AcDbLinetypeTableRecord
  2
DOT
 70
64
  3
. . . . . . . . . . . . . . . . . . . .
 72
65
 73
2
 40
0.2
 49
0.1
 74
0
 49
-0.1
 74
0
  0
LTYPE
  5
1F9
100
AcDbSymbolTableRecord
100
AcDbLinetypeTableRecord
  2
DASHED
 70
64
  3
- - - - - - - - - - - - - - - - - - - -
 72
65
 73
2
 40
0.2
 49
0.1
 74
0
 49
-0.1
 74
0
  0
ENDTAB
  0
TABLE
  2
LAYER
  5
2
100
AcDbSymbolTable
 70
36
  0
LAYER
  5
10
100
AcDbSymbolTableRecord
100
AcDbLayerTableRecord
  2
0
 70
0
 62
7
  6
CONTINUOUS
370
-3
390
F
  0
LAYER
  5
1FA
100
AcDbSymbolTableRecord
100
AcDbLayerTableRecord
  2
DEFAULT_1
 70
0
 62
7
  6
CENTER
370
-3
390
F
  0
LAYER
  5
1FB
100
AcDbSymbolTableRecord
100
AcDbLayerTableRecord
  2
DEFAULT_2
 70
0
 62
8
  6
HIDDEN
370
-3
390
F
  0
LAYER
  5
1FC
100
AcDbSymbolTableRecord
100
AcDbLayerTableRecord
  2
DEFAULT_3
 70
0
 62
7
  6
PHANTOM
370
-3
390
F
  0
LAYER
  5
1FD
100
AcDbSymbolTableRecord
100
AcDbLayerTableRecord
  2
00_COMPONENTS
 70
0
 62
7
  6
CONTINUOUS
370
-3
390
F
  0
LAYER
  5
1FE
100
AcDbSymbolTableRecord
100
AcDbLayerTableRecord
  2
01_1_DEFAULT_DATUMS
 70
0
 62
7
  6
CONTINUOUS
370
-3
390
F
  0
LAYER
  5
1FF
100
AcDbSymbolTableRecord
100
AcDbLayerTableRecord
  2
01_PLANES
 70
0
 62
7
  6
CONTINUOUS
370
-3
390
F
  0
LAYER
  5
200
100
AcDbSymbolTableRecord
100
AcDbLayerTableRecord
  2
02_COORD_SYS
 70
0
 62
7
  6
CONTINUOUS
370
-3
390
F
  0
LAYER
  5
201
100
AcDbSymbolTableRecord
100
AcDbLayerTableRecord
  2
03_AXES
 70
0
 62
7
  6
CONTINUOUS
370
-3
390
F
  0
LAYER
  5
202
100
AcDbSymbolTableRecord
100
AcDbLayerTableRecord
  2
04_POINTS
 70
0
 62
7
  6
CONTINUOUS
370
-3
390
F
  0
LAYER
  5
203
100
AcDbSymbolTableRecord
100
AcDbLayerTableRecord
  2
05_CURVES
 70
0
 62
7
  6
CONTINUOUS
370
-3
390
F
  0
LAYER
  5
204
100
AcDbSymbolTableRecord
100
AcDbLayerTableRecord
  2
06_SURFS
 70
0
 62
7
  6
CONTINUOUS
370
-3
390
F
  0
LAYER
  5
205
100
AcDbSymbolTableRecord
100
AcDbLayerTableRecord
  2
07_COSMETICS
 70
0
 62
7
  6
CONTINUOUS
370
-3
390
F
  0
LAYER
  5
206
100
AcDbSymbolTableRecord
100
AcDbLayerTableRecord
  2
10_NOTES
 70
0
 62
7
  6
CONTINUOUS
370
-3
390
F
  0
LAYER
  5
207
100
AcDbSymbolTableRecord
100
AcDbLayerTableRecord
  2
11_NOTES_PUB
 70
0
 62
7
  6
CONTINUOUS
370
-3
390
F
  0
LAYER
  5
208
100
AcDbSymbolTableRecord
100
AcDbLayerTableRecord
  2
13_REF_GTOL
 70
0
 62
7
  6
CONTINUOUS
370
-3
390
F
  0
LAYER
  5
209
100
AcDbSymbolTableRecord
100
AcDbLayerTableRecord
  2
16_MISC
 70
0
 62
7
  6
CONTINUOUS
370
-3
390
F
  0
LAYER
  5
20A
100
AcDbSymbolTableRecord
100
AcDbLayerTableRecord
  2
17_NO_PRINT
 70
0
 62
7
  6
CONTINUOUS
370
-3
390
F
  0
LAYER
  5
20B
100
AcDbSymbolTableRecord
100
AcDbLayerTableRecord
  2
18_DATUM_CAMS_JOINTS
 70
0
 62
7
  6
CONTINUOUS
370
-3
390
F
  0
LAYER
  5
20C
100
AcDbSymbolTableRecord
100
AcDbLayerTableRecord
  2
19_DATUM_FUNCTIONAL
 70
0
 62
7
  6
CONTINUOUS
370
-3
390
F
  0
LAYER
  5
20D
100
AcDbSymbolTableRecord
100
AcDbLayerTableRecord
  2
20_DATUM_KINEMATIC_SCHEME
 70
0
 62
7
  6
CONTINUOUS
370
-3
390
F
  0
LAYER
  5
20E
100
AcDbSymbolTableRecord
100
AcDbLayerTableRecord
  2
INTFCLR_124221
 70
0
 62
7
  6
CONTINUOUS
370
-3
390
F
  0
LAYER
  5
20F
100
AcDbSymbolTableRecord
100
AcDbLayerTableRecord
  2
INTFCLR_88293
 70
0
 62
7
  6
CONTINUOUS
370
-3
390
F
  0
LAYER
  5
210
100
AcDbSymbolTableRecord
100
AcDbLayerTableRecord
  2
INTFCLR_89252
 70
0
 62
7
  6
CONTINUOUS
370
-3
390
F
  0
LAYER
  5
211
100
AcDbSymbolTableRecord
100
AcDbLayerTableRecord
  2
INTF_YELLOW
 70
0
 62
7
  6
CONTINUOUS
370
-3
390
F
  0
ENDTAB
  0
TABLE
  2
STYLE
  5
3
100
AcDbSymbolTable
 70
1
  0
STYLE
  5
11
100
AcDbSymbolTableRecord
100
AcDbTextStyleTableRecord
  2
STANDARD
 70
0
 40
0.0
 41
0.8
 50
0.0
 71
0
 42
0.2
  3
txt
  4

  0
STYLE
  5
212
100
AcDbSymbolTableRecord
100
AcDbTextStyleTableRecord
  2
TEXTSTYLE_1
 70
0
 40
0.0
 41
0.8
 50
0.0
 71
0
 42
0.2
  3
gdt
  4

  0
ENDTAB
  0
TABLE
  2
VIEW
  5
6
100
AcDbSymbolTable
 70
0
  0
ENDTAB
  0
TABLE
  2
UCS
  5
7
100
AcDbSymbolTable
 70
0
  0
ENDTAB
  0
TABLE
  2
APPID
  5
9
100
AcDbSymbolTable
 70
1
  0
APPID
  5
213
100
AcDbSymbolTableRecord
100
AcDbRegAppTableRecord
  2
ACAD
 70
0
  0
ENDTAB
  0
TABLE
  2
BLOCK_RECORD
  5
1
100
AcDbSymbolTable
 70
0
  0
BLOCK_RECORD
  5
214
100
AcDbSymbolTableRecord
100
AcDbBlockTableRecord
  2
*Model_Space
  0
BLOCK_RECORD
  5
215
100
AcDbSymbolTableRecord
100
AcDbBlockTableRecord
  2
*Paper_Space
  0
BLOCK_RECORD
  5
216
100
AcDbSymbolTableRecord
100
AcDbBlockTableRecord
  2
_FILLED
  0
ENDTAB
  0
TABLE
  2
DIMSTYLE
  5
A
100
AcDbSymbolTable
 70
1
100
AcDbDimStyleTable
 71
0
  0
DIMSTYLE
105
217
100
AcDbSymbolTableRecord
100
AcDbDimStyleTableRecord
  2
STANDARD
 70
0
  3

  4

 40
1.0
 41
1.6748518563
 42
1.0
 43
0.38
 44
1.0
 45
0.0
 46
0.0
 47
0.01
 48
0.01
140
2.3447925988
141
0.09
142
0.0
143
25.4
144
1.0
145
0.0
146
1.0
147
0.625
 71
1
 72
0
 73
0
 74
0
 75
0
 76
0
 77
1
 78
8
 79
2
170
0
171
1
172
0
173
0
174
0
175
0
176
0
177
0
178
0
270
2
179
2
271
2
272
2
273
2
274
2
275
0
280
0
281
0
282
0
283
1
284
8
285
0
286
0
287
3
288
0
340
11
278
46
341
216
342
216
343
216
344
216
  0
ENDTAB
  0
ENDSEC
  0
SECTION
  2
BLOCKS
  0
BLOCK
  5
20
100
AcDbEntity
  8
0
100
AcDbBlockBegin
  2
*Model_Space
 70
0
 10
0.0
 20
0.0
 30
0.0
  3
*Model_Space
  1

  0
ENDBLK
  5
21
100
AcDbEntity
  8
0
100
AcDbBlockEnd
  0
BLOCK
  5
1C
100
AcDbEntity
  8
0
100
AcDbBlockBegin
  2
*Paper_Space
 70
0
 10
0.0
 20
0.0
 30
0.0
  3
*Paper_Space
  1

  0
ENDBLK
  5
1D
100
AcDbEntity
  8
0
100
AcDbBlockEnd
  0
BLOCK
  5
218
100
AcDbEntity
  8
0
100
AcDbBlockBegin
  2
_FILLED
 70
64
 10
0.0
 20
0.0
  3
_FILLED
  1

  0
SOLID
  5
219
100
AcDbEntity
  8
0
  6
BYBLOCK
 62
0
100
AcDbTrace
 10
0.0
 20
0.0
 11
-1.0
 21
0.25
 12
-1.0
 22
-0.25
 13
-1.0
 23
-0.25
  0
ENDBLK
  5
21A
100
AcDbEntity
  8
0
  6
BYBLOCK
 62
0
100
AcDbBlockEnd
  0
ENDSEC
  0
SECTION
  2
ENTITIES
  0
LINE
  5
21B
100
AcDbEntity
  8
0
100
AcDbLine
 62
7
  6
CONTINUOUS
 10
16.3996081764
 20
89.2298171532
 11
16.3996081764
 21
110.2296505117
  0
LINE
  5
21C
100
AcDbEntity
  8
0
100
AcDbLine
 62
7
  6
CONTINUOUS
 10
16.8061696909
 20
111.3884397484
 11
16.8061707948
 21
88.0710398625
  0
LINE
  5
21D
100
AcDbEntity
  8
0
100
AcDbLine
 62
7
  6
CONTINUOUS
 10
16.4002328836
 20
110.2297249154
 11
16.8061621861
 21
111.3884298546
  0
LINE
  5
21E
100
AcDbEntity
  8
0
100
AcDbLine
 62
7
  6
CONTINUOUS
 10
16.4002328836
 20
89.2297561507
 11
16.8061621861
 21
88.0710512115
  0
LINE
  5
21F
100
AcDbEntity
  8
0
100
AcDbLine
 62
7
  6
CONTINUOUS
 10
23.2922635717
 20
102.3695243289
 11
23.2922721404
 21
106.3172472578
  0
LINE
  5
220
100
AcDbEntity
  8
0
100
AcDbLine
 62
7
  6
CONTINUOUS
 10
23.2922669364
 20
87.8187777074
 11
23.2922717179
 21
94.5488383748
  0
LINE
  5
221
100
AcDbEntity
  8
0
100
AcDbLine
 62
7
  6
CONTINUOUS
 10
23.292271745
 20
114.2814722519
 11
23.2922430991
 21
115.2346848363
  0
LINE
  5
222
100
AcDbEntity
  8
0
100
AcDbLine
 62
7
  6
CONTINUOUS
 10
23.2922428979
 20
84.22479626
 11
23.2922669952
 21
84.483295969
  0
LINE
  5
223
100
AcDbEntity
  8
0
100
AcDbLine
 62
7
  6
CONTINUOUS
 10
31.6996081764
 20
115.8773000601
 11
31.6996081764
 21
108.1993443111
  0
LINE
  5
224
100
AcDbEntity
  8
0
100
AcDbLine
 62
7
  6
CONTINUOUS
 10
31.6996081764
 20
105.1522076449
 11
31.6996081764
 21
91.7667320994
  0
LINE
  5
225
100
AcDbEntity
  8
0
100
AcDbLine
 62
7
  6
CONTINUOUS
 10
31.6996081764
 20
89.0046481179
 11
31.6996081764
 21
83.2971283213
  0
LINE
  5
226
100
AcDbEntity
  8
0
100
AcDbLine
 62
7
  6
CONTINUOUS
 10
37.4826786499
 20
110.0260689384
 11
37.4826767337
 21
116.4278399839
  0
LINE
  5
227
100
AcDbEntity
  8
0
100
AcDbLine
 62
7
  6
CONTINUOUS
 10
37.4826767337
 20
83.0316410822
 11
37.4826790734
 21
89.4315659177
  0
LINE
  5
228
100
AcDbEntity
  8
0
100
AcDbLine
 62
7
  6
CONTINUOUS
 10
37.5845920704
 20
116.3278030162
 11
37.5845920704
 21
110.5880220534
  0
LINE
  5
229
100
AcDbEntity
  8
0
100
AcDbLine
 62
7
  6
CONTINUOUS
 10
37.5845920704
 20
88.8701719741
 11
37.5845920704
 21
83.1316780499
  0
LINE
  5
22A
100
AcDbEntity
  8
0
100
AcDbLine
 62
7
  6
CONTINUOUS
 10
37.7811015892
 20
83.1940718426
 11
37.7811015892
 21
87.7876873368
  0
LINE
  5
22B
100
AcDbEntity
  8
0
100
AcDbLine
 62
7
  6
CONTINUOUS
 10
37.7811015892
 20
111.6715803879
 11
37.7811015892
 21
116.2654092234
  0
LINE
  5
22C
100
AcDbEntity
  8
0
100
AcDbLine
 62
7
  6
CONTINUOUS
 10
83.1459640538
 20
62.7889893717
 11
81.4175509557
 21
62.6767923922
  0
LINE
  5
22D
100
AcDbEntity
  8
0
100
AcDbLine
 62
7
  6
CONTINUOUS
 10
81.2232200868
 20
65.6704916947
 11
82.9516331849
 21
65.7826886742
  0
LINE
  5
22E
100
AcDbEntity
  8
0
100
AcDbLine
 62
7
  6
CONTINUOUS
 10
45.574113914
 20
98.4005158478
 11
44.9782106474
 21
100.0268304843
  0
LINE
  5
22F
100
AcDbEntity
  8
0
100
AcDbLine
 62
7
  6
CONTINUOUS
 10
44.9782106474
 20
100.0268304843
 11
46.0886888039
 21
101.3560551695
  0
LINE
  5
230
100
AcDbEntity
  8
0
100
AcDbLine
 62
7
  6
CONTINUOUS
 10
23.2922721444
 20
84.2247918799
 11
37.4826767337
 21
83.0316410822
  0
LINE
  5
231
100
AcDbEntity
  8
0
100
AcDbLine
 62
7
  6
CONTINUOUS
 10
47.7950702269
 20
101.0589652183
 11
48.3909734935
 21
99.4326505818
  0
LINE
  5
232
100
AcDbEntity
  8
0
100
AcDbLine
 62
7
  6
CONTINUOUS
 10
48.3909734935
 20
99.4326505818
 11
47.280495337
 21
98.1034258965
  0
LINE
  5
233
100
AcDbEntity
  8
0
100
AcDbLine
 62
7
  6
CONTINUOUS
 10
37.7811015892
 20
83.1940718426
 11
39.2736593054
 21
83.1680191508
  0
LINE
  5
234
100
AcDbEntity
  8
0
100
AcDbLine
 62
7
  6
CONTINUOUS
 10
37.5845920704
 20
83.131622738
 11
37.4845920704
 21
83.031622738
  0
LINE
  5
235
100
AcDbEntity
  8
0
100
AcDbLine
 62
7
  6
CONTINUOUS
 10
37.5845920704
 20
116.3278583281
 11
37.4845920704
 21
116.4278583281
  0
LINE
  5
236
100
AcDbEntity
  8
0
100
AcDbLine
 62
7
  6
CONTINUOUS
 10
81.4175509557
 20
62.6767923922
 11
80.4561789722
 21
64.1175435537
  0
LINE
  5
237
100
AcDbEntity
  8
0
100
AcDbLine
 62
7
  6
CONTINUOUS
 10
82.9516331849
 20
65.7826886742
 11
83.9130051684
 21
64.3419375127
  0
LINE
  5
238
100
AcDbEntity
  8
0
100
AcDbLine
 62
7
  6
CONTINUOUS
 10
80.4553191018
 20
135.1316844236
 11
81.2350365044
 21
136.678306799
  0
LINE
  5
239
100
AcDbEntity
  8
0
100
AcDbLine
 62
7
  6
CONTINUOUS
 10
83.9138650387
 20
135.3277966422
 11
83.1341476362
 21
133.7811742668
  0
LINE
  5
23A
100
AcDbEntity
  8
0
100
AcDbLine
 62
7
  6
CONTINUOUS
 10
47.280495337
 20
98.1034258965
 11
45.574113914
 21
98.4005158478
  0
LINE
  5
23B
100
AcDbEntity
  8
0
100
AcDbLine
 62
7
  6
CONTINUOUS
 10
46.0886888039
 20
101.3560551695
 11
47.7950702269
 21
101.0589652183
  0
LINE
  5
23C
100
AcDbEntity
  8
0
100
AcDbLine
 62
7
  6
CONTINUOUS
 10
118.1675036708
 20
98.0663715463
 11
116.4855280721
 21
98.4798423257
  0
LINE
  5
23D
100
AcDbEntity
  8
0
100
AcDbLine
 62
7
  6
CONTINUOUS
 10
117.2016804695
 20
101.3931095198
 11
118.8836560682
 21
100.9796387404
  0
LINE
  5
23E
100
AcDbEntity
  8
0
100
AcDbLine
 62
7
  6
CONTINUOUS
 10
23.2922721444
 20
115.2346891862
 11
37.4826767337
 21
116.4278399839
  0
LINE
  5
23F
100
AcDbEntity
  8
0
100
AcDbLine
 62
7
  6
CONTINUOUS
 10
37.7811015892
 20
116.2654092234
 11
39.2736168129
 21
116.2914611736
  0
LINE
  5
240
100
AcDbEntity
  8
0
100
AcDbLine
 62
7
  6
CONTINUOUS
 10
80.4561789722
 20
64.1175435537
 11
81.2232200868
 21
65.6704916947
  0
LINE
  5
241
100
AcDbEntity
  8
0
100
AcDbLine
 62
7
  6
CONTINUOUS
 10
83.9130051684
 20
64.3419375127
 11
83.1459640538
 21
62.7889893717
  0
LINE
  5
242
100
AcDbEntity
  8
0
100
AcDbLine
 62
7
  6
CONTINUOUS
 10
81.4048746678
 20
133.6831181575
 11
80.4553191018
 21
135.1316844236
  0
LINE
  5
243
100
AcDbEntity
  8
0
100
AcDbLine
 62
7
  6
CONTINUOUS
 10
82.9643094728
 20
136.7763629083
 11
83.9138650387
 21
135.3277966422
  0
LINE
  5
244
100
AcDbEntity
  8
0
100
AcDbLine
 62
7
  6
CONTINUOUS
 10
116.0026164715
 20
100.1432113125
 11
117.2016804695
 21
101.3931095198
  0
LINE
  5
245
100
AcDbEntity
  8
0
100
AcDbLine
 62
7
  6
CONTINUOUS
 10
119.3665676688
 20
99.3162697536
 11
118.1675036708
 21
98.0663715463
  0
LINE
  5
246
100
AcDbEntity
  8
0
100
AcDbLine
 62
7
  6
CONTINUOUS
 10
83.1341476362
 20
133.7811742668
 11
81.4048746678
 21
133.6831181575
  0
LINE
  5
247
100
AcDbEntity
  8
0
100
AcDbLine
 62
7
  6
CONTINUOUS
 10
81.2350365044
 20
136.678306799
 11
82.9643094728
 21
136.7763629083
  0
LINE
  5
248
100
AcDbEntity
  8
0
100
AcDbLine
 62
7
  6
CONTINUOUS
 10
116.4855280721
 20
98.4798423257
 11
116.0026164715
 21
100.1432113125
  0
LINE
  5
249
100
AcDbEntity
  8
0
100
AcDbLine
 62
7
  6
CONTINUOUS
 10
118.8836560682
 20
100.9796387404
 11
119.3665676688
 21
99.3162697536
  0
ARC
  5
24A
100
AcDbEntity
  8
0
100
AcDbCircle
 62
7
  6
CONTINUOUS
 10
37.6526695445
 20
8.4890631306
 40
80.7353600692
100
AcDbArc
 50
94.2285700546
 51
95.9328569605
  0
ARC
  5
24B
100
AcDbEntity
  8
0
100
AcDbCircle
 62
7
  6
CONTINUOUS
 10
28.7579460854
 20
106.2303640129
 40
22.4232800494
100
AcDbArc
 50
255.8920268541
 51
256.0194517281
  0
ARC
  5
24C
100
AcDbEntity
  8
0
100
AcDbCircle
 62
7
  6
CONTINUOUS
 10
24.7733921376
 20
94.1144978191
 40
10.0
100
AcDbArc
 50
217.1816988932
 51
261.482470025
  0
ARC
  5
24D
100
AcDbEntity
  8
0
100
AcDbCircle
 62
7
  6
CONTINUOUS
 10
24.7733921376
 20
105.3449832469
 40
10.0
100
AcDbArc
 50
98.517529975
 51
142.8183011068
  0
ARC
  5
24E
100
AcDbEntity
  8
0
100
AcDbCircle
 62
7
  6
CONTINUOUS
 10
26.6824190937
 20
84.6244367142
 40
7.6689293157
100
AcDbArc
 50
9.5405564069
 51
9.9326092188
  0
ARC
  5
24F
100
AcDbEntity
  8
0
100
AcDbCircle
 62
7
  6
CONTINUOUS
 10
26.7374175456
 20
84.6341062599
 40
7.6130873211
100
AcDbArc
 50
9.9323236579
 51
10.2272834436
  0
ARC
  5
250
100
AcDbEntity
  8
0
100
AcDbCircle
 62
7
  6
CONTINUOUS
 10
28.2926044177
 20
85.0044494077
 40
6.0134581481
100
AcDbArc
 50
16.0800710179
 51
17.870168317
  0
ARC
  5
251
100
AcDbEntity
  8
0
100
AcDbCircle
 62
7
  6
CONTINUOUS
 10
28.7251806123
 20
85.1452188
 40
5.5585553779
100
AcDbArc
 50
17.8574171034
 51
20.2130282085
  0
CIRCLE
  5
252
100
AcDbEntity
  8
0
100
AcDbCircle
 62
7
  6
CONTINUOUS
 10
46.6845920703
 20
99.729740533
 40
4.0
  0
CIRCLE
  5
253
100
AcDbEntity
  8
0
100
AcDbCircle
 62
7
  6
CONTINUOUS
 10
46.6845920704
 20
99.729740533
 40
3.5
  0
CIRCLE
  5
254
100
AcDbEntity
  8
0
100
AcDbCircle
 62
7
  6
CONTINUOUS
 10
46.6845920704
 20
99.729740533
 40
3.1
  0
CIRCLE
  5
255
100
AcDbEntity
  8
0
100
AcDbCircle
 62
7
  6
CONTINUOUS
 10
57.0823013382
 20
74.6274498009
 40
2.4585
  0
CIRCLE
  5
256
100
AcDbEntity
  8
0
100
AcDbCircle
 62
7
  6
CONTINUOUS
 10
57.0823013382
 20
124.8320312652
 40
2.4585
  0
ARC
  5
257
100
AcDbEntity
  8
0
100
AcDbCircle
 62
7
  6
CONTINUOUS
 10
37.7845920704
 20
116.0654396844
 40
0.2
100
AcDbArc
 50
91.0
 51
180.0
  0
ARC
  5
258
100
AcDbEntity
  8
0
100
AcDbCircle
 62
7
  6
CONTINUOUS
 10
37.7845920704
 20
83.3940413817
 40
0.2
100
AcDbArc
 50
180.0
 51
269.0
  0
CIRCLE
  5
259
100
AcDbEntity
  8
0
100
AcDbCircle
 62
7
  6
CONTINUOUS
 10
82.1845920703
 20
64.229740533
 40
4.0
  0
CIRCLE
  5
25A
100
AcDbEntity
  8
0
100
AcDbCircle
 62
7
  6
CONTINUOUS
 10
82.1845920703
 20
64.2297405332
 40
3.5
  0
CIRCLE
  5
25B
100
AcDbEntity
  8
0
100
AcDbCircle
 62
7
  6
CONTINUOUS
 10
82.1845920703
 20
64.2297405332
 40
3.1
  0
CIRCLE
  5
25C
100
AcDbEntity
  8
0
100
AcDbCircle
 62
7
  6
CONTINUOUS
 10
82.1845920703
 20
99.729740533
 40
45.999999999
  0
ARC
  5
25D
100
AcDbEntity
  8
0
100
AcDbCircle
 62
7
  6
CONTINUOUS
 10
82.1845920703
 20
99.729740533
 40
45.9
100
AcDbArc
 50
268.9261107638
 51
276.4920194114
  0
CIRCLE
  5
25E
100
AcDbEntity
  8
0
100
AcDbCircle
 62
7
  6
CONTINUOUS
 10
82.1845920703
 20
99.729740533
 40
44.1999999997
  0
CIRCLE
  5
25F
100
AcDbEntity
  8
0
100
AcDbCircle
 62
7
  6
CONTINUOUS
 10
82.1845920703
 20
99.729740533
 40
42.0
  0
CIRCLE
  5
260
100
AcDbEntity
  8
0
100
AcDbCircle
 62
7
  6
CONTINUOUS
 10
82.1845920703
 20
99.729740533
 40
29.9999999998
  0
CIRCLE
  5
261
100
AcDbEntity
  8
0
100
AcDbCircle
 62
7
  6
CONTINUOUS
 10
82.1845920703
 20
99.729740533
 40
29.5000000002
  0
CIRCLE
  5
262
100
AcDbEntity
  8
0
100
AcDbCircle
 62
7
  6
CONTINUOUS
 10
82.1845920703
 20
99.729740533
 40
26.4999999998
  0
CIRCLE
  5
263
100
AcDbEntity
  8
0
100
AcDbCircle
 62
7
  6
CONTINUOUS
 10
82.1845920703
 20
99.729740533
 40
26.0000000002
  0
CIRCLE
  5
264
100
AcDbEntity
  8
0
100
AcDbCircle
 62
7
  6
CONTINUOUS
 10
82.1845920703
 20
99.729740533
 40
25.8000000001
  0
CIRCLE
  5
265
100
AcDbEntity
  8
0
100
AcDbCircle
 62
7
  6
CONTINUOUS
 10
82.1845920703
 20
99.729740533
 40
7.8999999999
  0
CIRCLE
  5
266
100
AcDbEntity
  8
0
100
AcDbCircle
 62
7
  6
CONTINUOUS
 10
82.1845920703
 20
99.729740533
 40
7.7000000001
  0
CIRCLE
  5
267
100
AcDbEntity
  8
0
100
AcDbCircle
 62
7
  6
CONTINUOUS
 10
82.1845920703
 20
99.729740533
 40
7.5
  0
CIRCLE
  5
268
100
AcDbEntity
  8
0
100
AcDbCircle
 62
7
  6
CONTINUOUS
 10
82.1845920703
 20
99.729740533
 40
7.4269849755
  0
CIRCLE
  5
269
100
AcDbEntity
  8
0
100
AcDbCircle
 62
7
  6
CONTINUOUS
 10
82.1845920703
 20
99.729740533
 40
6.9999999998
  0
CIRCLE
  5
26A
100
AcDbEntity
  8
0
100
AcDbCircle
 62
7
  6
CONTINUOUS
 10
82.1845920703
 20
99.729740533
 40
6.5000000002
  0
CIRCLE
  5
26B
100
AcDbEntity
  8
0
100
AcDbCircle
 62
7
  6
CONTINUOUS
 10
82.1845920703
 20
99.729740533
 40
4.0356406453
  0
CIRCLE
  5
26C
100
AcDbEntity
  8
0
100
AcDbCircle
 62
7
  6
CONTINUOUS
 10
82.1845920703
 20
99.729740533
 40
2.6500000007
  0
CIRCLE
  5
26D
100
AcDbEntity
  8
0
100
AcDbCircle
 62
7
  6
CONTINUOUS
 10
82.1845920703
 20
99.729740533
 40
2.067
  0
CIRCLE
  5
26E
100
AcDbEntity
  8
0
100
AcDbCircle
 62
7
  6
CONTINUOUS
 10
82.1845920703
 20
135.229740533
 40
4.0
  0
CIRCLE
  5
26F
100
AcDbEntity
  8
0
100
AcDbCircle
 62
7
  6
CONTINUOUS
 10
82.1845920703
 20
135.2297405329
 40
3.5
  0
CIRCLE
  5
270
100
AcDbEntity
  8
0
100
AcDbCircle
 62
7
  6
CONTINUOUS
 10
82.1845920703
 20
135.2297405329
 40
3.1
  0
CIRCLE
  5
271
100
AcDbEntity
  8
0
100
AcDbCircle
 62
7
  6
CONTINUOUS
 10
117.6845920703
 20
99.729740533
 40
4.0
  0
CIRCLE
  5
272
100
AcDbEntity
  8
0
100
AcDbCircle
 62
7
  6
CONTINUOUS
 10
117.6845920702
 20
99.729740533
 40
3.5
  0
CIRCLE
  5
273
100
AcDbEntity
  8
0
100
AcDbCircle
 62
7
  6
CONTINUOUS
 10
117.6845920702
 20
99.729740533
 40
3.1
  0
CIRCLE
  5
274
100
AcDbEntity
  8
0
100
AcDbCircle
 62
7
  6
CONTINUOUS
 10
107.2868828024
 20
74.6274498009
 40
2.4585
  0
CIRCLE
  5
275
100
AcDbEntity
  8
0
100
AcDbCircle
 62
7
  6
CONTINUOUS
 10
107.2868828024
 20
124.8320312652
 40
2.4585
  0
SPLINE
  5
276
100
AcDbEntity
  8
0
100
AcDbSpline
 62
7
  6
CONTINUOUS
 70
0
 71
3
 72
15
 73
11
 74
0
 42
0.0000001
 43
0.0000001
 44
0.0000000001
 40
0.0
 40
0.0
 40
0.0
 40
0.0
 40
0.1524085163
 40
0.2826512183
 40
0.3958410234
 40
0.5000056802
 40
0.6041691609
 40
0.7173546921
 40
0.8475931886
 40
1.0
 40
1.0
 40
1.0
 40
1.0
 10
23.2922721444
 20
109.7951754922
 30
0.0
 10
22.9865880757
 20
109.8985614038
 30
0.0
 10
22.4380113909
 20
110.1567567716
 30
0.0
 10
21.7954514314
 20
110.712616539
 30
0.0
 10
21.4075909791
 20
111.3543841296
 30
0.0
 10
21.2779278191
 20
112.0383571996
 30
0.0
 10
21.4076160278
 20
112.7223148838
 30
0.0
 10
21.7954789119
 20
113.3640559453
 30
0.0
 10
22.4380280414
 20
113.9198889063
 30
0.0
 10
22.9865862836
 20
114.1780995338
 30
0.0
 10
23.2922721444
 20
114.281468879
 30
0.0
  0
SPLINE
  5
277
100
AcDbEntity
  8
0
100
AcDbSpline
 62
7
  6
CONTINUOUS
 70
0
 71
3
 72
11
 73
7
 74
0
 42
0.0000001
 43
0.0000001
 44
0.0000000001
 40
0.0
 40
0.0
 40
0.0
 40
0.0
 40
0.2656015163
 40
0.5215340146
 40
0.7667106714
 40
1.0
 40
1.0
 40
1.0
 40
1.0
 10
23.2922721404
 20
106.3172472578
 30
0.0
 10
23.2922721404
 20
106.6251983561
 30
0.0
 10
23.2927675831
 20
107.2298899703
 30
0.0
 10
23.2912833632
 20
108.1188503445
 30
0.0
 10
23.2925812474
 20
108.9703479819
 30
0.0
 10
23.2964690381
 20
109.5250962598
 30
0.0
 10
23.2964703454
 20
109.7955830626
 30
0.0
  0
SPLINE
  5
278
100
AcDbEntity
  8
0
100
AcDbSpline
 62
7
  6
CONTINUOUS
 70
0
 71
3
 72
15
 73
11
 74
0
 42
0.0000001
 43
0.0000001
 44
0.0000000001
 40
0.0
 40
0.0
 40
0.0
 40
0.0
 40
0.1249727114
 40
0.2499776356
 40
0.3749856314
 40
0.4999930601
 40
0.6250024876
 40
0.7500162561
 40
0.875025773
 40
1.0
 40
1.0
 40
1.0
 40
1.0
 10
23.2922721444
 20
94.5488475411
 30
0.0
 10
22.9647965189
 20
94.7419036827
 30
0.0
 10
22.3766182584
 20
95.2492691551
 30
0.0
 10
21.7608038994
 20
96.224105415
 30
0.0
 10
21.3990137996
 20
97.3165299326
 30
0.0
 10
21.2804092896
 20
98.4594116291
 30
0.0
 10
21.3989899719
 20
99.6023148706
 30
0.0
 10
21.7607759659
 20
100.6947787831
 30
0.0
 10
22.376595024
 20
101.6696642598
 30
0.0
 10
22.9648052206
 20
102.1770122247
 30
0.0
 10
23.2922721444
 20
102.3700922032
 30
0.0
  0
SPLINE
  5
279
100
AcDbEntity
  8
0
100
AcDbSpline
 62
7
  6
CONTINUOUS
 70
0
 71
3
 72
15
 73
11
 74
0
 42
0.0000001
 43
0.0000001
 44
0.0000000001
 40
0.0
 40
0.0
 40
0.0
 40
0.0
 40
0.1682165801
 40
0.3028157364
 40
0.4094791102
 40
0.5000000066
 40
0.5905209039
 40
0.697184274
 40
0.8317834354
 40
1.0
 40
1.0
 40
1.0
 40
1.0
 10
23.2922721444
 20
84.4834125819
 30
0.0
 10
22.9929128146
 20
84.5586518282
 30
0.0
 10
22.463116064
 20
84.7410969764
 30
0.0
 10
21.8201660677
 20
85.1450854631
 30
0.0
 10
21.4177553006
 20
85.6202418626
 30
0.0
 10
21.2750363701
 20
86.1508882599
 30
0.0
 10
21.4177553394
 20
86.6815346383
 30
0.0
 10
21.8201661255
 20
87.1566910228
 30
0.0
 10
22.46311611
 20
87.5606794804
 30
0.0
 10
22.9929128425
 20
87.7431246173
 30
0.0
 10
23.2922721444
 20
87.8183638573
 30
0.0
  0
SPLINE
  5
27A
100
AcDbEntity
  8
0
100
AcDbSpline
 62
7
  6
CONTINUOUS
 70
0
 71
3
 72
10
 73
6
 74
0
 42
0.0000001
 43
0.0000001
 44
0.0000000001
 40
0.0
 40
0.0
 40
0.0
 40
0.0
 40
0.5092098684
 40
0.7583831399
 40
1.0
 40
1.0
 40
1.0
 40
1.0
 10
31.6996081764
 20
108.1993443111
 30
0.0
 10
30.2519634145
 20
108.3448296765
 30
0.0
 10
28.1004716547
 20
108.6278584935
 30
0.0
 10
25.3004964101
 20
109.2011821083
 30
0.0
 10
23.9462404393
 20
109.5739965709
 30
0.0
 10
23.2922721444
 20
109.7951754922
 30
0.0
  0
SPLINE
  5
27B
100
AcDbEntity
  8
0
100
AcDbSpline
 62
7
  6
CONTINUOUS
 70
0
 71
3
 72
10
 73
6
 74
0
 42
0.0000001
 43
0.0000001
 44
0.0000000001
 40
0.0
 40
0.0
 40
0.0
 40
0.0
 40
0.2416174919
 40
0.4907885979
 40
1.0
 40
1.0
 40
1.0
 40
1.0
 10
23.2922721444
 20
114.281468879
 30
0.0
 10
23.9462530422
 20
114.5026160398
 30
0.0
 10
25.300495212
 20
114.8754516233
 30
0.0
 10
28.1004670951
 20
115.4488041652
 30
0.0
 10
30.2519601079
 20
115.7318046417
 30
0.0
 10
31.6996081764
 20
115.8773000601
 30
0.0
  0
SPLINE
  5
27C
100
AcDbEntity
  8
0
100
AcDbSpline
 62
7
  6
CONTINUOUS
 70
0
 71
3
 72
10
 73
6
 74
0
 42
0.0000001
 43
0.0000001
 44
0.0000000001
 40
0.0
 40
0.0
 40
0.0
 40
0.0
 40
0.5112759523
 40
0.7602241171
 40
1.0
 40
1.0
 40
1.0
 40
1.0
 10
31.6996081764
 20
83.2971283213
 30
0.0
 10
30.2637059137
 20
83.4044078434
 30
0.0
 10
28.1310657192
 20
83.6122798037
 30
0.0
 10
25.3461188214
 20
84.0342594076
 30
0.0
 10
23.995926553
 20
84.3081665536
 30
0.0
 10
23.3406504847
 20
84.471310804
 30
0.0
  0
SPLINE
  5
27D
100
AcDbEntity
  8
0
100
AcDbSpline
 62
7
  6
CONTINUOUS
 70
0
 71
3
 72
10
 73
6
 74
0
 42
0.0000001
 43
0.0000001
 44
0.0000000001
 40
0.0
 40
0.0
 40
0.0
 40
0.0
 40
0.2404913329
 40
0.4892844361
 40
1.0
 40
1.0
 40
1.0
 40
1.0
 10
23.2922721444
 20
87.8183638573
 30
0.0
 10
23.7663507023
 20
87.9375156373
 30
0.0
 10
24.7388338007
 20
88.1485170292
 30
0.0
 10
26.7422858519
 20
88.493277129
 30
0.0
 10
28.2751337061
 20
88.6844041056
 30
0.0
 10
29.3076250216
 20
88.7919808696
 30
0.0
  0
SPLINE
  5
27E
100
AcDbEntity
  8
0
100
AcDbSpline
 62
7
  6
CONTINUOUS
 70
0
 71
3
 72
10
 73
6
 74
0
 42
0.0000001
 43
0.0000001
 44
0.0000000001
 40
0.0
 40
0.0
 40
0.0
 40
0.0
 40
0.4999205895
 40
0.7500378704
 40
1.0
 40
1.0
 40
1.0
 40
1.0
 10
31.6996081764
 20
91.7667320994
 30
0.0
 10
30.2396886392
 20
92.0225338093
 30
0.0
 10
28.0644060012
 20
92.5249145185
 30
0.0
 10
25.270619449
 20
93.5249049719
 30
0.0
 10
23.9306782527
 20
94.1724892058
 30
0.0
 10
23.2922721444
 20
94.5488475411
 30
0.0
  0
SPLINE
  5
27F
100
AcDbEntity
  8
0
100
AcDbSpline
 62
7
  6
CONTINUOUS
 70
0
 71
3
 72
10
 73
6
 74
0
 42
0.0000001
 43
0.0000001
 44
0.0000000001
 40
0.0
 40
0.0
 40
0.0
 40
0.0
 40
0.2499622345
 40
0.5000812025
 40
1.0
 40
1.0
 40
1.0
 40
1.0
 10
23.2922721444
 20
102.3700922032
 30
0.0
 10
23.9306518041
 20
102.7464962493
 30
0.0
 10
25.2706174912
 20
103.3940599794
 30
0.0
 10
28.0644195289
 20
104.3939910235
 30
0.0
 10
30.2396907283
 20
104.8964233913
 30
0.0
 10
31.6996081764
 20
105.1522076449
 30
0.0
  0
SPLINE
  5
280
100
AcDbEntity
  8
0
100
AcDbSpline
 62
7
  6
CONTINUOUS
 70
0
 71
3
 72
19
 73
15
 74
0
 42
0.0000001
 43
0.0000001
 44
0.0000000001
 40
0.0
 40
0.0
 40
0.0
 40
0.0
 40
0.133364287
 40
0.245223361
 40
0.3285976747
 40
0.3904335954
 40
0.4770393627
 40
0.5134541112
 40
0.5504228211
 40
0.5902387095
 40
0.6341242368
 40
0.7360554416
 40
0.8579623912
 40
1.0
 40
1.0
 40
1.0
 40
1.0
 10
31.6996081764
 20
83.2971283213
 30
0.0
 10
31.9155830073
 20
83.2809923508
 30
0.0
 10
32.312982505
 20
83.2540608873
 30
0.0
 10
32.8458096562
 20
83.2281882328
 30
0.0
 10
33.264294474
 20
83.2309860048
 30
0.0
 10
33.6376572645
 20
83.2712365803
 30
0.0
 10
33.9321533516
 20
83.3792815151
 30
0.0
 10
34.1142678376
 20
83.5694465623
 30
0.0
 10
34.205880932
 20
83.7303643
 30
0.0
 10
34.2702394716
 20
83.9162892416
 30
0.0
 10
34.3310091357
 20
84.2121345067
 30
0.0
 10
34.3583146836
 20
84.6477099098
 30
0.0
 10
34.3358009351
 20
85.2418901524
 30
0.0
 10
34.283507177
 20
85.6680573883
 30
0.0
 10
34.2452758183
 20
85.8955287692
 30
0.0
  0
SPLINE
  5
281
100
AcDbEntity
  8
0
100
AcDbSpline
 62
7
  6
CONTINUOUS
 70
0
 71
3
 72
9
 73
5
 74
0
 42
0.0000001
 43
0.0000001
 44
0.0000000001
 40
0.0
 40
0.0
 40
0.0
 40
0.0
 40
0.2395289645
 40
1.0
 40
1.0
 40
1.0
 40
1.0
 10
34.229541825
 20
85.9858356484
 30
0.0
 10
34.2195817361
 20
86.0410388482
 30
0.0
 10
34.1754235095
 20
86.2710240402
 30
0.0
 10
34.1201392218
 20
86.4989414961
 30
0.0
 10
34.0707893435
 20
86.670059765
 30
0.0
  0
SPLINE
  5
282
100
AcDbEntity
  8
0
100
AcDbSpline
 62
7
  6
CONTINUOUS
 70
0
 71
3
 72
13
 73
9
 74
0
 42
0.0000001
 43
0.0000001
 44
0.0000000001
 40
0.0
 40
0.0
 40
0.0
 40
0.0
 40
0.2109272152
 40
0.4440381646
 40
0.5714858723
 40
0.7076600731
 40
0.8522061274
 40
1.0
 40
1.0
 40
1.0
 40
1.0
 10
33.9414094824
 20
87.0657641035
 30
0.0
 10
33.8641655769
 20
87.2753294572
 30
0.0
 10
33.6738979985
 20
87.7069017361
 30
0.0
 10
33.3344700478
 20
88.2145523858
 30
0.0
 10
32.9589290292
 20
88.5857604167
 30
0.0
 10
32.5990479733
 20
88.8307674598
 30
0.0
 10
32.169798728
 20
88.9929825852
 30
0.0
 10
31.8556700589
 20
89.0163078558
 30
0.0
 10
31.6996081764
 20
89.0046481179
 30
0.0
  0
SPLINE
  5
283
100
AcDbEntity
  8
0
100
AcDbSpline
 62
7
  6
CONTINUOUS
 70
0
 71
3
 72
27
 73
23
 74
0
 42
0.0000001
 43
0.0000001
 44
0.0000000001
 40
0.0
 40
0.0
 40
0.0
 40
0.0
 40
0.0318742105
 40
0.062837404
 40
0.092878312
 40
0.1224782859
 40
0.1816301438
 40
0.2418137207
 40
0.3031983438
 40
0.3656487192
 40
0.4289439067
 40
0.4928376292
 40
0.5570741354
 40
0.6213954515
 40
0.6855437549
 40
0.7492635006
 40
0.8123227787
 40
0.8745952976
 40
0.9056051006
 40
0.9366960894
 40
0.9681257283
 40
1.0
 40
1.0
 40
1.0
 40
1.0
 10
31.6996081764
 20
91.7667320994
 30
0.0
 10
31.8654026135
 20
91.7376822104
 30
0.0
 10
32.2067681975
 20
91.7408510048
 30
0.0
 10
32.6700594583
 20
91.9286302137
 30
0.0
 10
33.0443962995
 20
92.2350048034
 30
0.0
 10
33.4346572383
 20
92.7304191793
 30
0.0
 10
33.7710178336
 20
93.450525168
 30
0.0
 10
34.0253004844
 20
94.3721443594
 30
0.0
 10
34.1868560049
 20
95.3316516345
 30
0.0
 10
34.2854321175
 20
96.3153437073
 30
0.0
 10
34.3384490521
 20
97.3156658423
 30
0.0
 10
34.355079023
 20
98.3265895679
 30
0.0
 10
34.3382392049
 20
99.3429269299
 30
0.0
 10
34.2849948315
 20
100.3594429369
 30
0.0
 10
34.1861393076
 20
101.3699278761
 30
0.0
 10
34.0242394441
 20
102.3662743345
 30
0.0
 10
33.7698670972
 20
103.3332296465
 30
0.0
 10
33.4352637657
 20
104.0963922786
 30
0.0
 10
33.0460869903
 20
104.6293987746
 30
0.0
 10
32.6740378386
 20
104.9621151036
 30
0.0
 10
32.2107595463
 20
105.172619504
 30
0.0
 10
31.8654032616
 20
105.1812557066
 30
0.0
 10
31.6996081764
 20
105.1522076449
 30
0.0
  0
SPLINE
  5
284
100
AcDbEntity
  8
0
100
AcDbSpline
 62
7
  6
CONTINUOUS
 70
0
 71
3
 72
26
 73
22
 74
0
 42
0.0000001
 43
0.0000001
 44
0.0000000001
 40
0.0
 40
0.0
 40
0.0
 40
0.0
 40
0.046793036
 40
0.0929698727
 40
0.1373955543
 40
0.1799818839
 40
0.2603279343
 40
0.3354214072
 40
0.4057392658
 40
0.4714165697
 40
0.5324287606
 40
0.5886796847
 40
0.6400630937
 40
0.686552308
 40
0.7283967484
 40
0.7666231381
 40
0.8042364775
 40
0.8482486756
 40
0.8764187565
 40
0.9111330981
 40
1.0
 40
1.0
 40
1.0
 40
1.0
 10
31.6996081764
 20
108.1993443111
 30
0.0
 10
31.8675491193
 20
108.1824665866
 30
0.0
 10
32.2106080886
 20
108.2108666452
 30
0.0
 10
32.6677552267
 20
108.4214087927
 30
0.0
 10
33.0393625944
 20
108.7322068805
 30
0.0
 10
33.4224592319
 20
109.2019083806
 30
0.0
 10
33.7571640553
 20
109.8398650862
 30
0.0
 10
34.0165257007
 20
110.6135564872
 30
0.0
 10
34.1813270854
 20
111.3580197701
 30
0.0
 10
34.2821363166
 20
112.0619411724
 30
0.0
 10
34.3368450379
 20
112.7198868151
 30
0.0
 10
34.3550340378
 20
113.3282272573
 30
0.0
 10
34.3399109135
 20
113.8843164417
 30
0.0
 10
34.28881152
 20
114.3863628621
 30
0.0
 10
34.1918538733
 20
114.833852809
 30
0.0
 10
34.0271540626
 20
115.2292566332
 30
0.0
 10
33.7444105087
 20
115.5681523998
 30
0.0
 10
33.3851726028
 20
115.7563153541
 30
0.0
 10
33.0116273239
 20
115.8543053765
 30
0.0
 10
32.4673330779
 20
115.9236249415
 30
0.0
 10
32.0185526737
 20
115.9093554775
 30
0.0
 10
31.6996081764
 20
115.8773000601
 30
0.0
  0
SPLINE
  5
285
100
AcDbEntity
  8
0
100
AcDbSpline
 62
7
  6
CONTINUOUS
 70
0
 71
3
 72
27
 73
23
 74
0
 42
0.0000001
 43
0.0000001
 44
0.0000000001
 40
0.0
 40
0.0
 40
0.0
 40
0.0
 40
0.0624822408
 40
0.0937618293
 40
0.125037863
 40
0.1875191104
 40
0.2499992258
 40
0.2812777171
 40
0.3125561471
 40
0.3750378711
 40
0.4375193078
 40
0.5000003949
 40
0.5624812421
 40
0.6249620015
 40
0.6874428286
 40
0.7187209289
 40
0.7499991839
 40
0.8124790452
 40
0.8749610619
 40
0.9062361517
 40
0.937516762
 40
1.0
 40
1.0
 40
1.0
 40
1.0
 10
60.8299672785
 20
121.0843653249
 30
0.0
 10
62.227389179
 20
122.4778090284
 30
0.0
 10
64.5335215962
 20
124.3747466604
 30
0.0
 10
67.9253965215
 20
126.4067141595
 30
0.0
 10
71.50069461
 20
128.0974197267
 30
0.0
 10
76.2546726625
 20
129.5408873502
 30
0.0
 10
81.199389274
 20
130.0268161587
 30
0.0
 10
85.1493484222
 20
129.832482716
 30
0.0
 10
89.0612925087
 20
129.2525642118
 30
0.0
 10
93.8167477847
 20
127.8106016641
 30
0.0
 10
99.0707067428
 20
125.0018814789
 30
0.0
 10
103.6768261025
 20
121.2219601859
 30
0.0
 10
107.4567309706
 20
116.6158549834
 30
0.0
 10
110.2654261674
 20
111.3619503033
 30
0.0
 10
111.7073922779
 20
106.6065577868
 30
0.0
 10
112.2873062306
 20
102.6946624842
 30
0.0
 10
112.4817020808
 20
98.7447261617
 30
0.0
 10
111.9956481047
 20
93.8000395435
 30
0.0
 10
110.5526108733
 20
89.0459304063
 30
0.0
 10
108.8613358298
 20
85.4708077912
 30
0.0
 10
106.8292672714
 20
82.0791917743
 30
0.0
 10
104.9346733531
 20
79.7705722322
 30
0.0
 10
103.5392168621
 20
78.3751157412
 30
0.0
  0
SPLINE
  5
286
100
AcDbEntity
  8
0
100
AcDbSpline
 62
7
  6
CONTINUOUS
 70
0
 71
3
 72
27
 73
23
 74
0
 42
0.0000001
 43
0.0000001
 44
0.0000000001
 40
0.0
 40
0.0
 40
0.0
 40
0.0
 40
0.0624823606
 40
0.0937623827
 40
0.1250371836
 40
0.1875188093
 40
0.2499987449
 40
0.2812772615
 40
0.31255573
 40
0.375037429
 40
0.4375188689
 40
0.4999999505
 40
0.5624807968
 40
0.6249615456
 40
0.6874423938
 40
0.7187204457
 40
0.7499986711
 40
0.8124787221
 40
0.8749603258
 40
0.906236825
 40
0.9375168947
 40
1.0
 40
1.0
 40
1.0
 40
1.0
 10
103.5392168621
 20
78.3751157412
 30
0.0
 10
102.1437798926
 20
76.9796787717
 30
0.0
 10
99.8352004552
 20
75.0851107053
 30
0.0
 10
96.443640053
 20
73.053056684
 30
0.0
 10
92.8685596104
 20
71.361786627
 30
0.0
 10
88.1144797775
 20
69.9187178343
 30
0.0
 10
83.1697975238
 20
69.4326434537
 30
0.0
 10
79.2198363981
 20
69.6269990539
 30
0.0
 10
75.3078930911
 20
70.206917924
 30
0.0
 10
70.5524354681
 20
71.648878902
 30
0.0
 10
65.2984776531
 20
74.4575997113
 30
0.0
 10
60.6923580098
 20
78.2375209242
 30
0.0
 10
56.9124530155
 20
82.8436257903
 30
0.0
 10
54.1037585783
 20
88.0975317682
 30
0.0
 10
52.6617905578
 20
92.8529215618
 30
0.0
 10
52.081877336
 20
96.764817831
 30
0.0
 10
51.8875059851
 20
100.7147516365
 30
0.0
 10
52.3733961037
 20
105.6594782945
 30
0.0
 10
53.8168869728
 20
110.4134708143
 30
0.0
 10
55.5075072205
 20
113.9888479135
 30
0.0
 10
57.5395101155
 20
117.3808010468
 30
0.0
 10
59.4367806828
 20
119.6866483946
 30
0.0
 10
60.8299672785
 20
121.0843653249
 30
0.0
  0
ENDSEC
  0
SECTION
  2
OBJECTS
  0
DICTIONARY
  5
C
100
AcDbDictionary
280
0
281
1
  3
ACAD_GROUP
350
D
  3
ACAD_MLINESTYLE
350
17
  3
ACAD_LAYOUT
350
1A
  3
ACAD_PLOTSETTINGS
350
19
  3
ACAD_PLOTSTYLENAME
350
E
  0
DICTIONARY
  5
D
102
{ACAD_REACTORS
330
C
102
}
100
AcDbDictionary
280
0
281
1
  0
ACDBDICTIONARYWDFLT
  5
E
102
{ACAD_REACTORS
330
C
102
}
100
AcDbDictionary
281
1
  3
Normal
350
F
100
AcDbDictionaryWithDefault
340
F
  0
DICTIONARY
  5
17
102
{ACAD_REACTORS
330
C
102
}
100
AcDbDictionary
280
0
281
1
  3
Standard
350
18
  0
DICTIONARY
  5
19
102
{ACAD_REACTORS
330
C
102
}
100
AcDbDictionary
281
1
  0
DICTIONARY
  5
1A
102
{ACAD_REACTORS
330
C
102
}
100
AcDbDictionary
281
1
  3
Model
350
287
  3
Layout1
350
288
  0
ACDBPLACEHOLDER
  5
F
102
{ACAD_REACTORS
330
E
102
}
  0
MLINESTYLE
  5
18
102
{ACAD_REACTORS
330
17
102
}
100
AcDbMlineStyle
  2
STANDARD
 70
0
  3

 62
256
 51
90.0
 52
90.0
 71
2
 49
0.5
 62
256
  6
BYLAYER
 49
-0.5
 62
256
  6
BYLAYER
  0
LAYOUT
  5
287
102
{ACAD_REACTORS
330
1A
102
}
100
AcDbPlotSettings
  1

  2
none_device
  4

  6

 40
0.0
 41
0.0
 42
0.0
 43
0.0
 44
210.0
 45
297.0
 46
0.0
 47
0.0
 48
0.0
 49
0.0
140
0.0
141
0.0
142
1.0
143
1.0
 70
1024
 72
1
 73
0
 74
0
  7

 75
0
147
1.0
148
0.0
149
0.0
100
AcDbLayout
  1
Model
 70
0
 71
0
 10
0.0
 20
0.0
 11
210.0
 21
297.0
 12
0.0
 22
0.0
 32
0.0
 14
0.0
 24
0.0
 34
0.0
 15
0.0
 25
0.0
 35
0.0
146
0.0
 13
0.0
 23
0.0
 33
0.0
 16
1.0
 26
0.0
 36
0.0
 17
0.0
 27
1.0
 37
0.0
 76
0
330
214
345
0
346
0
  0
LAYOUT
  5
288
102
{ACAD_REACTORS
330
1A
102
}
100
AcDbPlotSettings
  1

  2
none_device
  4

  6

 40
0.0
 41
0.0
 42
0.0
 43
0.0
 44
210.0
 45
297.0
 46
0.0
 47
0.0
 48
0.0
 49
0.0
140
0.0
141
0.0
142
1.0
143
1.0
 70
0
 72
1
 73
0
 74
0
  7

 75
0
147
1.0
148
0.0
149
0.0
100
AcDbLayout
  1
Layout1
 70
0
 71
1
 10
0.0
 20
0.0
 11
210.0
 21
297.0
 12
0.0
 22
0.0
 32
0.0
 14
0.0
 24
0.0
 34
0.0
 15
0.0
 25
0.0
 35
0.0
146
0.0
 13
0.0
 23
0.0
 33
0.0
 16
1.0
 26
0.0
 36
0.0
 17
0.0
 27
1.0
 37
0.0
 76
0
330
215
345
0
346
0
  0
ENDSEC
  0
EOF
