999
DXF file: Y:\001_SCHNEIDER_PARIS\78_2020_429_Grey Project M580\TRAVAIL LUCAS SANTANA G3\CAD3D\2D-Views\BMENOC0301_2D-Views\BMENOC0301_2D-RIGHT.dxf
999
Pro/ENGINEER 2018260 by Parametric Technology Corporation
  0
SECTION
  2
HEADER
  9
$ACADVER
  1
AC1027
  9
$DWGCODEPAGE
  3
ANSI_1252
  9
$EXTMAX
 10
558.8
 20
431.8
 30
0.0
  9
$EXTMIN
 10
0.0
 20
0.0
 30
0.0
  9
$LIMMIN
 10
0.0
 20
0.0
  9
$LIMMAX
 10
558.8
 20
431.8
  9
$VIEWCTR
 10
279.4
 20
215.9
  9
$VIEWSIZE
 40
431.8
  9
$CLAYER
  8
0
  9
$LTSCALE
 40
30.734
  9
$CELTYPE
  6
BYLAYER
  9
$DIMSCALE
 40
1.0
  9
$DIMASZ
 40
3.5
  9
$DIMEXO
 40
1.0
  9
$DIMDLI
 40
21.2344
  9
$DIMEXE
 40
3.0
  9
$DIMCEN
 40
5.0292
  9
$DIMLFAC
 40
1.0
  9
$DIMBLK
  1
_FILLED
  9
$DIMALT
 70
0
  9
$DIMALTF
 40
0.0393700787
  9
$DIMTXT
 40
4.0
  9
$DIMTOL
 70
1
  9
$DIMLIM
 70
0
  9
$DIMTFAC
 40
1.0
  9
$DIMTP
 40
0.0001
  9
$DIMTM
 40
0.0001
  9
$DIMGAP
 40
0.625
  9
$DIMDSEP
 70
46
  9
$AUNITS
 70
0
  9
$PDMODE
 70
0
  9
$PDSIZE
 40
0.01
  9
$HANDSEED
  5
292
  9
$TILEMODE
 70
1
  9
$MEASUREMENT
 70
1
  9
$INSUNITS
 70
4
  0
ENDSEC
  0
SECTION
  2
CLASSES
  0
CLASS
  1
ACDBDICTIONARYWDFLT
  2
AcDbDictionaryWithDefault
  3
AutoCAD 2000
 90
0
 91
1
280
0
281
0
  0
CLASS
  1
ACDBPLACEHOLDER
  2
AcDbPlaceHolder
  3
AutoCAD 2000
 90
0
 91
1
280
0
281
0
  0
CLASS
  1
LAYOUT
  2
AcDbLayout
  3
AutoCAD 2000
 90
0
 91
0
280
0
281
0
  0
ENDSEC
  0
SECTION
  2
TABLES
  0
TABLE
  2
VPORT
  5
8
100
AcDbSymbolTable
 70
2
  0
VPORT
  5
1F4
100
AcDbSymbolTableRecord
100
AcDbViewportTableRecord
  2
*ACTIVE
 70
0
 10
0.0
 20
0.0
 11
1.0
 21
1.0
 12
279.4
 22
215.9
 13
0.0
 23
0.0
 14
1.0
 24
1.0
 15
0.0
 25
0.0
 16
0.0
 26
0.0
 36
1.0
 17
0.0
 27
0.0
 37
0.0
 40
431.8
 41
1.2941176471
 42
50.0
 43
0.0
 44
0.0
 50
0.0
 51
0.0
 71
0
 72
100
 73
1
 74
1
 75
0
 76
0
 77
0
 78
0
  0
ENDTAB
  0
TABLE
  2
LTYPE
  5
5
100
AcDbSymbolTable
 70
6
  0
LTYPE
  5
14
100
AcDbSymbolTableRecord
100
AcDbLinetypeTableRecord
  2
BYBLOCK
 70
0
  3

 72
65
 73
0
 40
0.0
  0
LTYPE
  5
15
100
AcDbSymbolTableRecord
100
AcDbLinetypeTableRecord
  2
BYLAYER
 70
0
  3

 72
65
 73
0
 40
0.0
  0
LTYPE
  5
16
100
AcDbSymbolTableRecord
100
AcDbLinetypeTableRecord
  2
CONTINUOUS
 70
64
  3
Solid line
 72
65
 73
0
 40
0.0
  0
LTYPE
  5
1F5
100
AcDbSymbolTableRecord
100
AcDbLinetypeTableRecord
  2
CENTER
 70
64
  3
____ _ ____ _ ____ _ ____ _ ____ _ ____ _ ____
 72
65
 73
4
 40
0.6
 49
0.375
 74
0
 49
-0.075
 74
0
 49
0.075
 74
0
 49
-0.075
 74
0
  0
LTYPE
  5
1F6
100
AcDbSymbolTableRecord
100
AcDbLinetypeTableRecord
  2
HIDDEN
 70
64
  3
- - - - - - - - - - - - - - - - - - - -
 72
65
 73
2
 40
0.2
 49
0.1
 74
0
 49
-0.1
 74
0
  0
LTYPE
  5
1F7
100
AcDbSymbolTableRecord
100
AcDbLinetypeTableRecord
  2
PHANTOM
 70
64
  3
_____ _ _ _____ _ _ _____ _ _ _____
 72
65
 73
6
 40
0.8
 49
0.45
 74
0
 49
-0.05
 74
0
 49
0.1
 74
0
 49
-0.05
 74
0
 49
0.1
 74
0
 49
-0.05
 74
0
  0
LTYPE
  5
1F8
100
AcDbSymbolTableRecord
100
AcDbLinetypeTableRecord
  2
DOT
 70
64
  3
. . . . . . . . . . . . . . . . . . . .
 72
65
 73
2
 40
0.2
 49
0.1
 74
0
 49
-0.1
 74
0
  0
LTYPE
  5
1F9
100
AcDbSymbolTableRecord
100
AcDbLinetypeTableRecord
  2
DASHED
 70
64
  3
- - - - - - - - - - - - - - - - - - - -
 72
65
 73
2
 40
0.2
 49
0.1
 74
0
 49
-0.1
 74
0
  0
ENDTAB
  0
TABLE
  2
LAYER
  5
2
100
AcDbSymbolTable
 70
36
  0
LAYER
  5
10
100
AcDbSymbolTableRecord
100
AcDbLayerTableRecord
  2
0
 70
0
 62
7
  6
CONTINUOUS
370
-3
390
F
  0
LAYER
  5
1FA
100
AcDbSymbolTableRecord
100
AcDbLayerTableRecord
  2
DEFAULT_1
 70
0
 62
7
  6
CENTER
370
-3
390
F
  0
LAYER
  5
1FB
100
AcDbSymbolTableRecord
100
AcDbLayerTableRecord
  2
DEFAULT_2
 70
0
 62
8
  6
HIDDEN
370
-3
390
F
  0
LAYER
  5
1FC
100
AcDbSymbolTableRecord
100
AcDbLayerTableRecord
  2
DEFAULT_3
 70
0
 62
7
  6
PHANTOM
370
-3
390
F
  0
LAYER
  5
1FD
100
AcDbSymbolTableRecord
100
AcDbLayerTableRecord
  2
01_ALL_DTM_PLN
 70
0
 62
7
  6
CONTINUOUS
370
-3
390
F
  0
LAYER
  5
1FE
100
AcDbSymbolTableRecord
100
AcDbLayerTableRecord
  2
01__ASM_ALL_DTM_PLN
 70
0
 62
7
  6
CONTINUOUS
370
-3
390
F
  0
LAYER
  5
1FF
100
AcDbSymbolTableRecord
100
AcDbLayerTableRecord
  2
01__ASM_DEF_DTM_PLN
 70
0
 62
7
  6
CONTINUOUS
370
-3
390
F
  0
LAYER
  5
200
100
AcDbSymbolTableRecord
100
AcDbLayerTableRecord
  2
01___PRT_ALL_DTM_PLN
 70
0
 62
7
  6
CONTINUOUS
370
-3
390
F
  0
LAYER
  5
201
100
AcDbSymbolTableRecord
100
AcDbLayerTableRecord
  2
01___PRT_DEF_DTM_PLN
 70
0
 62
7
  6
CONTINUOUS
370
-3
390
F
  0
LAYER
  5
202
100
AcDbSymbolTableRecord
100
AcDbLayerTableRecord
  2
02_ALL_AXES
 70
0
 62
7
  6
CONTINUOUS
370
-3
390
F
  0
LAYER
  5
203
100
AcDbSymbolTableRecord
100
AcDbLayerTableRecord
  2
02__ASM_ALL_AXES
 70
0
 62
7
  6
CONTINUOUS
370
-3
390
F
  0
LAYER
  5
204
100
AcDbSymbolTableRecord
100
AcDbLayerTableRecord
  2
02___PRT_ALL_AXES
 70
0
 62
7
  6
CONTINUOUS
370
-3
390
F
  0
LAYER
  5
205
100
AcDbSymbolTableRecord
100
AcDbLayerTableRecord
  2
03_ALL_CURVES
 70
0
 62
7
  6
CONTINUOUS
370
-3
390
F
  0
LAYER
  5
206
100
AcDbSymbolTableRecord
100
AcDbLayerTableRecord
  2
03__ASM_ALL_CURVES
 70
0
 62
7
  6
CONTINUOUS
370
-3
390
F
  0
LAYER
  5
207
100
AcDbSymbolTableRecord
100
AcDbLayerTableRecord
  2
03___PRT_ALL_CURVES
 70
0
 62
7
  6
CONTINUOUS
370
-3
390
F
  0
LAYER
  5
208
100
AcDbSymbolTableRecord
100
AcDbLayerTableRecord
  2
04_ALL_DTM_PNT
 70
0
 62
7
  6
CONTINUOUS
370
-3
390
F
  0
LAYER
  5
209
100
AcDbSymbolTableRecord
100
AcDbLayerTableRecord
  2
04__ASM_ALL_DTM_PNT
 70
0
 62
7
  6
CONTINUOUS
370
-3
390
F
  0
LAYER
  5
20A
100
AcDbSymbolTableRecord
100
AcDbLayerTableRecord
  2
04___PRT_ALL_DTM_PNT
 70
0
 62
7
  6
CONTINUOUS
370
-3
390
F
  0
LAYER
  5
20B
100
AcDbSymbolTableRecord
100
AcDbLayerTableRecord
  2
05_ALL_DTM_CSYS
 70
0
 62
7
  6
CONTINUOUS
370
-3
390
F
  0
LAYER
  5
20C
100
AcDbSymbolTableRecord
100
AcDbLayerTableRecord
  2
05__ASM_ALL_DTM_CSYS
 70
0
 62
7
  6
CONTINUOUS
370
-3
390
F
  0
LAYER
  5
20D
100
AcDbSymbolTableRecord
100
AcDbLayerTableRecord
  2
05__ASM_DEF_DTM_CSYS
 70
0
 62
7
  6
CONTINUOUS
370
-3
390
F
  0
LAYER
  5
20E
100
AcDbSymbolTableRecord
100
AcDbLayerTableRecord
  2
05___PRT_ALL_DTM_CSYS
 70
0
 62
7
  6
CONTINUOUS
370
-3
390
F
  0
LAYER
  5
20F
100
AcDbSymbolTableRecord
100
AcDbLayerTableRecord
  2
05___PRT_DEF_DTM_CSYS
 70
0
 62
7
  6
CONTINUOUS
370
-3
390
F
  0
LAYER
  5
210
100
AcDbSymbolTableRecord
100
AcDbLayerTableRecord
  2
06_ALL_SURFS
 70
0
 62
7
  6
CONTINUOUS
370
-3
390
F
  0
LAYER
  5
211
100
AcDbSymbolTableRecord
100
AcDbLayerTableRecord
  2
06__ASM_ALL_SURFS
 70
0
 62
7
  6
CONTINUOUS
370
-3
390
F
  0
LAYER
  5
212
100
AcDbSymbolTableRecord
100
AcDbLayerTableRecord
  2
06___PRT_ALL_SURFS
 70
0
 62
7
  6
CONTINUOUS
370
-3
390
F
  0
LAYER
  5
213
100
AcDbSymbolTableRecord
100
AcDbLayerTableRecord
  2
07__ASM_ALL_SKELETONS
 70
0
 62
7
  6
CONTINUOUS
370
-3
390
F
  0
ENDTAB
  0
TABLE
  2
STYLE
  5
3
100
AcDbSymbolTable
 70
1
  0
STYLE
  5
11
100
AcDbSymbolTableRecord
100
AcDbTextStyleTableRecord
  2
STANDARD
 70
0
 40
0.0
 41
0.6
 50
0.0
 71
0
 42
0.2
  3
txt
  4

  0
STYLE
  5
214
100
AcDbSymbolTableRecord
100
AcDbTextStyleTableRecord
  2
TEXTSTYLE_1
 70
0
 40
0.0
 41
0.8
 50
0.0
 71
0
 42
0.2
  3
gdt
  4

  0
ENDTAB
  0
TABLE
  2
VIEW
  5
6
100
AcDbSymbolTable
 70
0
  0
ENDTAB
  0
TABLE
  2
UCS
  5
7
100
AcDbSymbolTable
 70
0
  0
ENDTAB
  0
TABLE
  2
APPID
  5
9
100
AcDbSymbolTable
 70
1
  0
APPID
  5
215
100
AcDbSymbolTableRecord
100
AcDbRegAppTableRecord
  2
ACAD
 70
0
  0
ENDTAB
  0
TABLE
  2
BLOCK_RECORD
  5
1
100
AcDbSymbolTable
 70
0
  0
BLOCK_RECORD
  5
216
100
AcDbSymbolTableRecord
100
AcDbBlockTableRecord
  2
*Model_Space
  0
BLOCK_RECORD
  5
217
100
AcDbSymbolTableRecord
100
AcDbBlockTableRecord
  2
*Paper_Space
  0
BLOCK_RECORD
  5
218
100
AcDbSymbolTableRecord
100
AcDbBlockTableRecord
  2
_FILLED
  0
ENDTAB
  0
TABLE
  2
DIMSTYLE
  5
A
100
AcDbSymbolTable
 70
1
100
AcDbDimStyleTable
 71
0
  0
DIMSTYLE
105
219
100
AcDbSymbolTableRecord
100
AcDbDimStyleTableRecord
  2
STANDARD
 70
0
  3

  4

 40
1.0
 41
3.5
 42
1.0
 43
0.38
 44
3.0
 45
0.0
 46
0.0
 47
0.0001
 48
0.0001
140
4.0
141
0.09
142
0.0
143
25.4
144
1.0
145
0.0
146
1.0
147
0.625
 71
1.0
 72
0.0
 73
0
 74
0
 75
0
 76
0
 77
1
 78
8
 79
2
170
0
171
3
172
0
173
0
174
0
175
0
176
0
177
0
178
0
270
2
179
4
271
4
272
4
273
2
274
2
275
0
280
0
281
0
282
0
283
1
284
8
285
0
286
0
287
3
288
0
340
11
278
46
341
218
342
218
343
218
344
218
  0
ENDTAB
  0
ENDSEC
  0
SECTION
  2
BLOCKS
  0
BLOCK
  5
20
100
AcDbEntity
  8
0
100
AcDbBlockBegin
  2
*Model_Space
 70
0
 10
0.0
 20
0.0
 30
0.0
  3
*Model_Space
  1

  0
ENDBLK
  5
21
100
AcDbEntity
  8
0
100
AcDbBlockEnd
  0
BLOCK
  5
1C
100
AcDbEntity
  8
0
100
AcDbBlockBegin
  2
*Paper_Space
 70
0
 10
0.0
 20
0.0
 30
0.0
  3
*Paper_Space
  1

  0
ENDBLK
  5
1D
100
AcDbEntity
  8
0
100
AcDbBlockEnd
  0
BLOCK
  5
21A
100
AcDbEntity
  8
0
100
AcDbBlockBegin
  2
_FILLED
 70
64
 10
0.0
 20
0.0
  3
_FILLED
  1

  0
SOLID
  5
21B
100
AcDbEntity
  8
0
  6
BYBLOCK
 62
0
100
AcDbTrace
 10
0.0
 20
0.0
 11
-1.0
 21
0.2857142857
 12
-1.0
 22
-0.2857142857
 13
-1.0
 23
-0.2857142857
  0
ENDBLK
  5
21C
100
AcDbEntity
  8
0
  6
BYBLOCK
 62
0
100
AcDbBlockEnd
  0
ENDSEC
  0
SECTION
  2
ENTITIES
  0
LINE
  5
21D
100
AcDbEntity
  8
0
100
AcDbLine
 62
7
  6
CONTINUOUS
 10
347.725321155
 20
272.6410261532
 11
348.9206661513
 21
275.2044517702
  0
LINE
  5
21E
100
AcDbEntity
  8
0
100
AcDbLine
 62
7
  6
CONTINUOUS
 10
347.9183369868
 20
272.4544517702
 11
348.0030772738
 21
272.6361779021
  0
LINE
  5
21F
100
AcDbEntity
  8
0
100
AcDbLine
 62
7
  6
CONTINUOUS
 10
349.0286769569
 20
272.4544517668
 11
349.104452677
 21
272.6169533229
  0
LINE
  5
220
100
AcDbEntity
  8
0
100
AcDbLine
 62
7
  6
CONTINUOUS
 10
349.1637148038
 20
272.1044517702
 11
349.40565778
 21
272.6116957683
  0
LINE
  5
221
100
AcDbEntity
  8
0
100
AcDbLine
 62
7
  6
CONTINUOUS
 10
346.8206661513
 20
175.0386412822
 11
346.8206661513
 21
259.5307567965
  0
LINE
  5
222
100
AcDbEntity
  8
0
100
AcDbLine
 62
7
  6
CONTINUOUS
 10
346.04673264
 20
233.1581285878
 11
346.0471573189
 21
233.1590710252
  0
LINE
  5
223
100
AcDbEntity
  8
0
100
AcDbLine
 62
7
  6
CONTINUOUS
 10
365.8206661513
 20
175.2044517702
 11
346.8206661513
 21
175.0386412822
  0
LINE
  5
224
100
AcDbEntity
  8
0
100
AcDbLine
 62
7
  6
CONTINUOUS
 10
430.2803249669
 20
175.2044517702
 11
365.8206661513
 21
175.2044517702
  0
LINE
  5
225
100
AcDbEntity
  8
0
100
AcDbLine
 62
7
  6
CONTINUOUS
 10
435.7486066198
 20
177.6044517702
 11
438.8206661513
 21
177.6044517702
  0
LINE
  5
226
100
AcDbEntity
  8
0
100
AcDbLine
 62
7
  6
CONTINUOUS
 10
432.9361362051
 20
179.6044517702
 11
434.8806246437
 21
179.6044517702
  0
LINE
  5
227
100
AcDbEntity
  8
0
100
AcDbLine
 62
7
  6
CONTINUOUS
 10
346.0467326398
 20
229.2507749527
 11
346.0471573288
 21
229.2498325153
  0
LINE
  5
228
100
AcDbEntity
  8
0
100
AcDbLine
 62
7
  6
CONTINUOUS
 10
346.8206661513
 20
184.4048517702
 11
346.7265300461
 21
184.4048517702
  0
LINE
  5
229
100
AcDbEntity
  8
0
100
AcDbLine
 62
7
  6
CONTINUOUS
 10
346.7265300461
 20
188.3926517702
 11
346.8206661513
 21
188.3926517702
  0
LINE
  5
22A
100
AcDbEntity
  8
0
100
AcDbLine
 62
7
  6
CONTINUOUS
 10
346.8206661513
 20
189.7998325153
 11
346.0471573359
 21
189.7998325153
  0
LINE
  5
22B
100
AcDbEntity
  8
0
100
AcDbLine
 62
9
  6
CONTINUOUS
 10
346.8206661513
 20
190.0998332489
 11
345.8182203235
 21
190.0998325153
  0
LINE
  5
22C
100
AcDbEntity
  8
0
100
AcDbLine
 62
7
  6
CONTINUOUS
 10
433.3206660876
 20
190.4044517702
 11
432.8206661513
 21
190.4044517702
  0
LINE
  5
22D
100
AcDbEntity
  8
0
100
AcDbLine
 62
7
  6
CONTINUOUS
 10
365.8206661513
 20
275.2044517702
 11
365.8206661513
 21
175.2044517702
  0
LINE
  5
22E
100
AcDbEntity
  8
0
100
AcDbLine
 62
7
  6
CONTINUOUS
 10
432.8206661513
 20
195.8649280011
 11
435.3206661513
 21
195.9522299248
  0
LINE
  5
22F
100
AcDbEntity
  8
0
100
AcDbLine
 62
9
  6
CONTINUOUS
 10
346.8206661513
 20
193.4090710252
 11
345.8182203235
 21
193.4090710252
  0
LINE
  5
230
100
AcDbEntity
  8
0
100
AcDbLine
 62
7
  6
CONTINUOUS
 10
346.0471573359
 20
193.7090710252
 11
346.8206661513
 21
193.7090710252
  0
LINE
  5
231
100
AcDbEntity
  8
0
100
AcDbLine
 62
7
  6
CONTINUOUS
 10
346.8206661513
 20
194.8442517702
 11
346.7265300461
 21
194.8442517702
  0
LINE
  5
232
100
AcDbEntity
  8
0
100
AcDbLine
 62
7
  6
CONTINUOUS
 10
346.7265300461
 20
198.8320517702
 11
346.8206661513
 21
198.8320517702
  0
LINE
  5
233
100
AcDbEntity
  8
0
100
AcDbLine
 62
7
  6
CONTINUOUS
 10
435.3206661513
 20
198.5566736157
 11
432.8206661513
 21
198.6439755394
  0
LINE
  5
234
100
AcDbEntity
  8
0
100
AcDbLine
 62
7
  6
CONTINUOUS
 10
346.8206661513
 20
203.8548517702
 11
346.7265300461
 21
203.8548517702
  0
LINE
  5
235
100
AcDbEntity
  8
0
100
AcDbLine
 62
7
  6
CONTINUOUS
 10
451.1040348183
 20
273.3544517702
 11
448.7040348183
 21
272.2044517702
  0
LINE
  5
236
100
AcDbEntity
  8
0
100
AcDbLine
 62
7
  6
CONTINUOUS
 10
346.7265300461
 20
207.8426517702
 11
346.8206661513
 21
207.8426517702
  0
LINE
  5
237
100
AcDbEntity
  8
0
100
AcDbLine
 62
7
  6
CONTINUOUS
 10
346.8206661513
 20
209.0998325153
 11
346.0471573359
 21
209.0998325153
  0
LINE
  5
238
100
AcDbEntity
  8
0
100
AcDbLine
 62
9
  6
CONTINUOUS
 10
346.8206661513
 20
209.3998332489
 11
345.8182203235
 21
209.3998325153
  0
LINE
  5
239
100
AcDbEntity
  8
0
100
AcDbLine
 62
9
  6
CONTINUOUS
 10
346.8206661513
 20
212.7090710252
 11
345.8182203235
 21
212.7090710252
  0
LINE
  5
23A
100
AcDbEntity
  8
0
100
AcDbLine
 62
7
  6
CONTINUOUS
 10
346.0471573359
 20
213.0090710252
 11
346.8206661513
 21
213.0090710252
  0
LINE
  5
23B
100
AcDbEntity
  8
0
100
AcDbLine
 62
7
  6
CONTINUOUS
 10
346.8206661513
 20
214.2942517702
 11
346.7265300461
 21
214.2942517702
  0
LINE
  5
23C
100
AcDbEntity
  8
0
100
AcDbLine
 62
7
  6
CONTINUOUS
 10
346.7265300461
 20
218.2820517702
 11
346.8206661513
 21
218.2820517702
  0
LINE
  5
23D
100
AcDbEntity
  8
0
100
AcDbLine
 62
7
  6
CONTINUOUS
 10
441.2440348183
 20
275.4444517702
 11
441.5040348183
 21
275.7044517702
  0
LINE
  5
23E
100
AcDbEntity
  8
0
100
AcDbLine
 62
7
  6
CONTINUOUS
 10
346.8206661513
 20
223.9768517702
 11
346.7265300461
 21
223.9768517702
  0
LINE
  5
23F
100
AcDbEntity
  8
0
100
AcDbLine
 62
7
  6
CONTINUOUS
 10
432.8206661513
 20
224.2044517702
 11
434.3206661513
 21
224.2044517702
  0
LINE
  5
240
100
AcDbEntity
  8
0
100
AcDbLine
 62
7
  6
CONTINUOUS
 10
346.8206661513
 20
227.9646517702
 11
346.7265300461
 21
227.9646517702
  0
LINE
  5
241
100
AcDbEntity
  8
0
100
AcDbLine
 62
7
  6
CONTINUOUS
 10
346.0471573359
 20
229.2498325153
 11
346.8206661513
 21
229.2498325153
  0
LINE
  5
242
100
AcDbEntity
  8
0
100
AcDbLine
 62
9
  6
CONTINUOUS
 10
346.8206661513
 20
229.250774951
 11
346.046732641
 21
229.250774951
  0
LINE
  5
243
100
AcDbEntity
  8
0
100
AcDbLine
 62
9
  6
CONTINUOUS
 10
346.8206661513
 20
230.4895499342
 11
345.9841228719
 21
230.4895499342
  0
LINE
  5
244
100
AcDbEntity
  8
0
100
AcDbLine
 62
9
  6
CONTINUOUS
 10
346.8206661513
 20
231.9193536032
 11
345.9841228727
 21
231.9193536032
  0
LINE
  5
245
100
AcDbEntity
  8
0
100
AcDbLine
 62
9
  6
CONTINUOUS
 10
346.0467326388
 20
233.1581285861
 11
346.8206661513
 21
233.1581285861
  0
LINE
  5
246
100
AcDbEntity
  8
0
100
AcDbLine
 62
7
  6
CONTINUOUS
 10
346.8206661513
 20
233.1590710252
 11
346.0471573359
 21
233.1590710252
  0
LINE
  5
247
100
AcDbEntity
  8
0
100
AcDbLine
 62
7
  6
CONTINUOUS
 10
346.7265300461
 20
234.4162517702
 11
346.8206661513
 21
234.4162517702
  0
LINE
  5
248
100
AcDbEntity
  8
0
100
AcDbLine
 62
7
  6
CONTINUOUS
 10
346.7265300461
 20
238.4040517702
 11
346.8206661513
 21
238.4040517702
  0
LINE
  5
249
100
AcDbEntity
  8
0
100
AcDbLine
 62
7
  6
CONTINUOUS
 10
435.7486066198
 20
177.6044517702
 11
435.0685631678
 21
179.4728557989
  0
LINE
  5
24A
100
AcDbEntity
  8
0
100
AcDbLine
 62
7
  6
CONTINUOUS
 10
426.2646269492
 20
277.656140574
 11
426.2646269492
 21
275.2044517702
  0
LINE
  5
24B
100
AcDbEntity
  8
0
100
AcDbLine
 62
7
  6
CONTINUOUS
 10
426.8040348183
 20
277.7044395893
 11
426.8040348183
 21
277.656140574
  0
LINE
  5
24C
100
AcDbEntity
  8
0
100
AcDbLine
 62
7
  6
CONTINUOUS
 10
427.8040348183
 20
275.2044517702
 11
427.8040348183
 21
277.7044465337
  0
LINE
  5
24D
100
AcDbEntity
  8
0
100
AcDbLine
 62
7
  6
CONTINUOUS
 10
427.8520828753
 20
278.8044517702
 11
427.8206661513
 21
275.2044517702
  0
LINE
  5
24E
100
AcDbEntity
  8
0
100
AcDbLine
 62
7
  6
CONTINUOUS
 10
432.8206661513
 20
190.4044517702
 11
432.8206661513
 21
262.8544517702
  0
LINE
  5
24F
100
AcDbEntity
  8
0
100
AcDbLine
 62
7
  6
CONTINUOUS
 10
432.8206661513
 20
275.2044517702
 11
432.8206661513
 21
278.8044517702
  0
LINE
  5
250
100
AcDbEntity
  8
0
100
AcDbLine
 62
7
  6
CONTINUOUS
 10
430.7892494273
 20
275.2044517702
 11
430.8206661513
 21
278.8044517702
  0
LINE
  5
251
100
AcDbEntity
  8
0
100
AcDbLine
 62
7
  6
CONTINUOUS
 10
348.2727495328
 20
259.5434639235
 11
346.8206661513
 21
259.5307567965
  0
LINE
  5
252
100
AcDbEntity
  8
0
100
AcDbLine
 62
7
  6
CONTINUOUS
 10
348.2785007102
 20
259.7491676277
 11
348.121934577
 21
259.7489726076
  0
LINE
  5
253
100
AcDbEntity
  8
0
100
AcDbLine
 62
7
  6
CONTINUOUS
 10
434.3206661513
 20
258.0044517702
 11
432.8206661513
 21
258.0044517702
  0
LINE
  5
254
100
AcDbEntity
  8
0
100
AcDbLine
 62
9
  6
CONTINUOUS
 10
433.5906661513
 20
258.3223125864
 11
432.8206661513
 21
258.3223125864
  0
LINE
  5
255
100
AcDbEntity
  8
0
100
AcDbLine
 62
7
  6
CONTINUOUS
 10
432.8206661513
 20
258.3836460991
 11
433.5906661513
 21
258.3836460991
  0
LINE
  5
256
100
AcDbEntity
  8
0
100
AcDbLine
 62
7
  6
CONTINUOUS
 10
348.1227447801
 20
259.8875046472
 11
347.0227213339
 21
259.8875049917
  0
LINE
  5
257
100
AcDbEntity
  8
0
100
AcDbLine
 62
7
  6
CONTINUOUS
 10
348.1223615291
 20
259.8261737076
 11
348.2806477584
 21
259.8259616905
  0
LINE
  5
258
100
AcDbEntity
  8
0
100
AcDbLine
 62
7
  6
CONTINUOUS
 10
438.1020406683
 20
188.8183786274
 11
438.8206661513
 21
180.6044517702
  0
LINE
  5
259
100
AcDbEntity
  8
0
100
AcDbLine
 62
7
  6
CONTINUOUS
 10
433.5906661513
 20
258.0044517702
 11
433.5906661513
 21
258.3836460991
  0
LINE
  5
25A
100
AcDbEntity
  8
0
100
AcDbLine
 62
7
  6
CONTINUOUS
 10
433.7779927208
 20
262.8544517702
 11
433.7779927208
 21
262.3044517702
  0
LINE
  5
25B
100
AcDbEntity
  8
0
100
AcDbLine
 62
7
  6
CONTINUOUS
 10
433.9772316604
 20
262.8544517702
 11
433.9772316604
 21
262.3044517702
  0
LINE
  5
25C
100
AcDbEntity
  8
0
100
AcDbLine
 62
7
  6
CONTINUOUS
 10
434.0985615609
 20
262.8544517702
 11
434.0985615609
 21
262.3044517702
  0
LINE
  5
25D
100
AcDbEntity
  8
0
100
AcDbLine
 62
7
  6
CONTINUOUS
 10
434.3206661513
 20
274.7044517702
 11
434.3206661513
 21
262.8544517702
  0
LINE
  5
25E
100
AcDbEntity
  8
0
100
AcDbLine
 62
7
  6
CONTINUOUS
 10
434.3206661513
 20
258.0044517702
 11
434.3206661513
 21
224.2044517702
  0
LINE
  5
25F
100
AcDbEntity
  8
0
100
AcDbLine
 62
7
  6
CONTINUOUS
 10
435.3206661513
 20
195.9522299248
 11
435.3206661513
 21
198.5566736157
  0
LINE
  5
260
100
AcDbEntity
  8
0
100
AcDbLine
 62
7
  6
CONTINUOUS
 10
432.8206661513
 20
262.3044517702
 11
434.0985615609
 21
262.3044517702
  0
LINE
  5
261
100
AcDbEntity
  8
0
100
AcDbLine
 62
7
  6
CONTINUOUS
 10
432.8206661513
 20
262.8544517702
 11
434.3206661513
 21
262.8544517702
  0
LINE
  5
262
100
AcDbEntity
  8
0
100
AcDbLine
 62
7
  6
CONTINUOUS
 10
438.8206661513
 20
177.6044517702
 11
438.8206661513
 21
180.6044517702
  0
LINE
  5
263
100
AcDbEntity
  8
0
100
AcDbLine
 62
7
  6
CONTINUOUS
 10
441.2440348183
 20
272.4644517702
 11
441.2440348183
 21
275.4444517702
  0
LINE
  5
264
100
AcDbEntity
  8
0
100
AcDbLine
 62
7
  6
CONTINUOUS
 10
441.5040348183
 20
275.7044517702
 11
441.5040348183
 21
272.2044517702
  0
LINE
  5
265
100
AcDbEntity
  8
0
100
AcDbLine
 62
7
  6
CONTINUOUS
 10
349.40565778
 20
272.6116957683
 11
347.725321155
 21
272.6410261532
  0
LINE
  5
266
100
AcDbEntity
  8
0
100
AcDbLine
 62
7
  6
CONTINUOUS
 10
441.5040348183
 20
272.2044517702
 11
448.7040348183
 21
272.2044517702
  0
LINE
  5
267
100
AcDbEntity
  8
0
100
AcDbLine
 62
7
  6
CONTINUOUS
 10
349.3306562403
 20
272.4544517702
 11
347.9183369868
 21
272.4544517702
  0
LINE
  5
268
100
AcDbEntity
  8
0
100
AcDbLine
 62
7
  6
CONTINUOUS
 10
434.3206661513
 20
272.4644517702
 11
441.2440348183
 21
272.4644517702
  0
LINE
  5
269
100
AcDbEntity
  8
0
100
AcDbLine
 62
7
  6
CONTINUOUS
 10
348.9206661513
 20
275.2044517702
 11
433.4546407475
 21
275.2044517702
  0
LINE
  5
26A
100
AcDbEntity
  8
0
100
AcDbLine
 62
7
  6
CONTINUOUS
 10
432.8206661513
 20
275.4444517702
 11
441.2440348183
 21
275.4444517702
  0
LINE
  5
26B
100
AcDbEntity
  8
0
100
AcDbLine
 62
7
  6
CONTINUOUS
 10
441.5040348183
 20
275.7044517702
 11
448.7040348183
 21
275.7044517702
  0
LINE
  5
26C
100
AcDbEntity
  8
0
100
AcDbLine
 62
7
  6
CONTINUOUS
 10
448.7040348183
 20
272.2044517702
 11
448.7040348183
 21
275.7044517702
  0
LINE
  5
26D
100
AcDbEntity
  8
0
100
AcDbLine
 62
7
  6
CONTINUOUS
 10
451.1040348183
 20
273.3544552087
 11
451.1040348183
 21
274.5544483318
  0
LINE
  5
26E
100
AcDbEntity
  8
0
100
AcDbLine
 62
7
  6
CONTINUOUS
 10
432.7629311244
 20
179.5044517703
 11
430.2803249669
 21
175.2044517702
  0
LINE
  5
26F
100
AcDbEntity
  8
0
100
AcDbLine
 62
7
  6
CONTINUOUS
 10
426.2646269492
 20
277.656140574
 11
426.8040348183
 21
277.656140574
  0
LINE
  5
270
100
AcDbEntity
  8
0
100
AcDbLine
 62
7
  6
CONTINUOUS
 10
426.8040348183
 20
277.7044517702
 11
427.8040348183
 21
277.7044517702
  0
LINE
  5
271
100
AcDbEntity
  8
0
100
AcDbLine
 62
7
  6
CONTINUOUS
 10
427.8520828753
 20
278.8044517702
 11
432.8206661513
 21
278.8044517702
  0
LINE
  5
272
100
AcDbEntity
  8
0
100
AcDbLine
 62
7
  6
CONTINUOUS
 10
433.4546407475
 20
275.2044517702
 11
434.3206661513
 21
274.7044517702
  0
LINE
  5
273
100
AcDbEntity
  8
0
100
AcDbLine
 62
7
  6
CONTINUOUS
 10
441.2440348183
 20
272.4644517702
 11
441.5040348183
 21
272.2044517702
  0
LINE
  5
274
100
AcDbEntity
  8
0
100
AcDbLine
 62
7
  6
CONTINUOUS
 10
451.1040348183
 20
274.5544517702
 11
448.7040348183
 21
275.7044517702
  0
ARC
  5
275
100
AcDbEntity
  8
0
100
AcDbCircle
 62
7
  6
CONTINUOUS
 10
446.2706661513
 20
258.9044517702
 40
98.0
100
AcDbArc
 50
172.2590813108
 51
179.6263983786
  0
ARC
  5
276
100
AcDbEntity
  8
0
100
AcDbCircle
 62
7
  6
CONTINUOUS
 10
444.5206661513
 20
259.2544517702
 40
97.5
100
AcDbArc
 50
172.2191390866
 51
179.8430426303
  0
ARC
  5
277
100
AcDbEntity
  8
0
100
AcDbCircle
 62
7
  6
CONTINUOUS
 10
444.5206661513
 20
259.2544517702
 40
96.4
100
AcDbArc
 50
179.7060796333
 51
179.835066681
  0
ARC
  5
278
100
AcDbEntity
  8
0
100
AcDbCircle
 62
7
  6
CONTINUOUS
 10
444.5206661513
 20
259.2544517702
 40
96.4
100
AcDbArc
 50
172.1297939196
 51
179.66019236
  0
ARC
  5
279
100
AcDbEntity
  8
0
100
AcDbCircle
 62
7
  6
CONTINUOUS
 10
433.3206661513
 20
182.4044517702
 40
8.0
100
AcDbArc
 50
53.2966650058
 51
90.0
  0
ARC
  5
27A
100
AcDbEntity
  8
0
100
AcDbCircle
 62
7
  6
CONTINUOUS
 10
433.1040348183
 20
273.9544517702
 40
7.7768888381
100
AcDbArc
 50
151.5764439643
 51
170.7541061043
  0
ARC
  5
27B
100
AcDbEntity
  8
0
100
AcDbCircle
 62
7
  6
CONTINUOUS
 10
350.1800661513
 20
225.9707517702
 40
3.9878
100
AcDbArc
 50
150.0
 51
210.0
  0
ARC
  5
27C
100
AcDbEntity
  8
0
100
AcDbCircle
 62
7
  6
CONTINUOUS
 10
350.1800661513
 20
236.4101517702
 40
3.9878
100
AcDbArc
 50
150.0
 51
210.0
  0
ARC
  5
27D
100
AcDbEntity
  8
0
100
AcDbCircle
 62
7
  6
CONTINUOUS
 10
350.1800661513
 20
196.8381517702
 40
3.9878
100
AcDbArc
 50
150.0
 51
210.0
  0
ARC
  5
27E
100
AcDbEntity
  8
0
100
AcDbCircle
 62
7
  6
CONTINUOUS
 10
350.1800661513
 20
186.3987517702
 40
3.9878
100
AcDbArc
 50
150.0
 51
210.0
  0
ARC
  5
27F
100
AcDbEntity
  8
0
100
AcDbCircle
 62
7
  6
CONTINUOUS
 10
350.1800661513
 20
216.2881517702
 40
3.9878
100
AcDbArc
 50
150.0
 51
210.0
  0
ARC
  5
280
100
AcDbEntity
  8
0
100
AcDbCircle
 62
7
  6
CONTINUOUS
 10
350.1800661513
 20
205.8487517702
 40
3.9878
100
AcDbArc
 50
150.0
 51
210.0
  0
ARC
  5
281
100
AcDbEntity
  8
0
100
AcDbCircle
 62
7
  6
CONTINUOUS
 10
348.3206661513
 20
231.2044517702
 40
3.0
100
AcDbArc
 50
146.5272893798
 51
213.4727106202
  0
ARC
  5
282
100
AcDbEntity
  8
0
100
AcDbCircle
 62
7
  6
CONTINUOUS
 10
348.3206661513
 20
191.7544517702
 40
3.0
100
AcDbArc
 50
146.5272893798
 51
213.4727106202
  0
ARC
  5
283
100
AcDbEntity
  8
0
100
AcDbCircle
 62
7
  6
CONTINUOUS
 10
348.3206661513
 20
211.0544517702
 40
3.0
100
AcDbArc
 50
146.5272893798
 51
213.4727106202
  0
ARC
  5
284
100
AcDbEntity
  8
0
100
AcDbCircle
 62
7
  6
CONTINUOUS
 10
434.8806246437
 20
179.4044517702
 40
0.2
100
AcDbArc
 50
20.0000000059
 51
90.0
  0
ARC
  5
285
100
AcDbEntity
  8
0
100
AcDbCircle
 62
7
  6
CONTINUOUS
 10
432.9361362051
 20
179.4044517702
 40
0.2
100
AcDbArc
 50
90.0
 51
149.9999999948
  0
SPLINE
  5
286
100
AcDbEntity
  8
0
100
AcDbSpline
 62
7
  6
CONTINUOUS
 70
0
 71
3
 72
26
 73
22
 74
0
 42
0.0000001
 43
0.0000001
 44
0.0000000001
 40
0.0
 40
0.0
 40
0.0
 40
0.0
 40
0.0006711394
 40
0.0021075655
 40
0.0043231809
 40
0.0073156505
 40
0.015598746
 40
0.0268593019
 40
0.040973149
 40
0.0577913663
 40
0.0771537724
 40
0.0988918612
 40
0.1488235488
 40
0.2062893621
 40
0.2701160174
 40
0.3392820426
 40
0.4129123075
 40
0.4902589607
 40
0.6535788881
 40
0.8248032728
 40
1.0
 40
1.0
 40
1.0
 40
1.0
 10
346.0471572148
 20
233.1590708937
 30
0.0
 10
346.0470727065
 20
233.1590711044
 30
0.0
 10
346.0468462543
 20
233.1588864084
 30
0.0
 10
346.046436028
 20
233.1585607009
 30
0.0
 10
346.0458271026
 20
233.1579703306
 30
0.0
 10
346.0446287854
 20
233.1567752997
 30
0.0
 10
346.0426786833
 20
233.154706742
 30
0.0
 10
346.0398152738
 20
233.1515853216
 30
0.0
 10
346.0362673579
 20
233.1476295077
 30
0.0
 10
346.032075118
 20
233.1428830968
 30
0.0
 10
346.0272825681
 20
233.1373856802
 30
0.0
 10
346.019799066
 20
233.1287030346
 30
0.0
 10
346.0092830098
 20
233.1163003403
 30
0.0
 10
345.9954974611
 20
233.0997228284
 30
0.0
 10
345.980340108
 20
233.0811374458
 30
0.0
 10
345.9640925598
 20
233.0608162452
 30
0.0
 10
345.9469975717
 20
233.0389945886
 30
0.0
 10
345.9229091724
 20
233.0075935673
 30
0.0
 10
345.8919940329
 20
232.9659447533
 30
0.0
 10
345.8548478198
 20
232.9135945161
 30
0.0
 10
345.8303872838
 20
232.8774723268
 30
0.0
 10
345.8182200854
 20
232.8590706584
 30
0.0
  0
SPLINE
  5
287
100
AcDbEntity
  8
0
100
AcDbSpline
 62
7
  6
CONTINUOUS
 70
0
 71
3
 72
26
 73
22
 74
0
 42
0.0000001
 43
0.0000001
 44
0.0000000001
 40
0.0
 40
0.0
 40
0.0
 40
0.0
 40
0.0006711402
 40
0.002107564
 40
0.0043231763
 40
0.0073156452
 40
0.0155987358
 40
0.0268592822
 40
0.0409731128
 40
0.0577913227
 40
0.0771537238
 40
0.0988918041
 40
0.1488234724
 40
0.2062892798
 40
0.2701159258
 40
0.3392819503
 40
0.4129122232
 40
0.490258875
 40
0.6535788189
 40
0.824803234
 40
1.0
 40
1.0
 40
1.0
 40
1.0
 10
346.0471572151
 20
229.2498326464
 30
0.0
 10
346.0470727068
 20
229.2498324359
 30
0.0
 10
346.0468462551
 20
229.2500171315
 30
0.0
 10
346.0464360295
 20
229.2503428382
 30
0.0
 10
346.0458271054
 20
229.2509332071
 30
0.0
 10
346.0446287902
 20
229.2521282358
 30
0.0
 10
346.0426786916
 20
229.2541967896
 30
0.0
 10
346.0398152878
 20
229.2573182034
 30
0.0
 10
346.0362673787
 20
229.2612740095
 30
0.0
 10
346.0320751458
 20
229.2660204119
 30
0.0
 10
346.027282603
 20
229.27151782
 30
0.0
 10
346.0197991119
 20
229.2802004521
 30
0.0
 10
346.0092830701
 20
229.2926031285
 30
0.0
 10
345.9954975393
 20
229.3091806172
 30
0.0
 10
345.980340204
 20
229.327765976
 30
0.0
 10
345.9640926735
 20
229.3480871518
 30
0.0
 10
345.9469977031
 20
229.3699087826
 30
0.0
 10
345.9229093273
 20
229.4013097678
 30
0.0
 10
345.8919942152
 20
229.4429585346
 30
0.0
 10
345.8548480378
 20
229.4953087192
 30
0.0
 10
345.8303875105
 20
229.5314308641
 30
0.0
 10
345.8182203235
 20
229.5498325153
 30
0.0
  0
SPLINE
  5
288
100
AcDbEntity
  8
0
100
AcDbSpline
 62
7
  6
CONTINUOUS
 70
0
 71
3
 72
15
 73
11
 74
0
 42
0.0000001
 43
0.0000001
 44
0.0000000001
 40
0.0
 40
0.0
 40
0.0
 40
0.0
 40
0.3747356426
 40
0.5296854674
 40
0.6640050721
 40
0.7781976872
 40
0.8724114078
 40
0.9464703674
 40
0.9758245016
 40
1.0
 40
1.0
 40
1.0
 40
1.0
 10
345.9841228727
 20
231.9193536032
 30
0.0
 10
345.9476292499
 20
232.0731063081
 30
0.0
 10
345.9124375394
 20
232.2953004708
 30
0.0
 10
345.9085323781
 20
232.575588317
 30
0.0
 10
345.9217978188
 20
232.7454607086
 30
0.0
 10
345.9462437083
 20
232.8881136655
 30
0.0
 10
345.9771391033
 20
233.0033169676
 30
0.0
 10
346.0064825521
 20
233.0815130085
 30
0.0
 10
346.0299336841
 20
233.1299683057
 30
0.0
 10
346.0411957029
 20
233.1495685522
 30
0.0
 10
346.0467326388
 20
233.1581285861
 30
0.0
  0
SPLINE
  5
289
100
AcDbEntity
  8
0
100
AcDbSpline
 62
7
  6
CONTINUOUS
 70
0
 71
3
 72
13
 73
9
 74
0
 42
0.0000001
 43
0.0000001
 44
0.0000000001
 40
0.0
 40
0.0
 40
0.0
 40
0.0
 40
0.079490977
 40
0.1758983834
 40
0.2877753299
 40
0.4131931829
 40
0.6949909281
 40
1.0
 40
1.0
 40
1.0
 40
1.0
 10
345.9841228719
 20
230.4895499342
 30
0.0
 10
345.9885057533
 20
230.5080156222
 30
0.0
 10
345.9953555155
 20
230.5495378343
 30
0.0
 10
346.0016889474
 20
230.6179705448
 30
0.0
 10
346.0055749856
 20
230.6975675737
 30
0.0
 10
346.0084066329
 20
230.821475322
 30
0.0
 10
346.0086857565
 20
230.9915309754
 30
0.0
 10
346.008493824
 20
231.1316299518
 30
0.0
 10
346.008493824
 20
231.2044517702
 30
0.0
  0
SPLINE
  5
28A
100
AcDbEntity
  8
0
100
AcDbSpline
 62
7
  6
CONTINUOUS
 70
0
 71
3
 72
13
 73
9
 74
0
 42
0.0000001
 43
0.0000001
 44
0.0000000001
 40
0.0
 40
0.0
 40
0.0
 40
0.0
 40
0.3050052613
 40
0.5868045618
 40
0.7122234774
 40
0.8241012034
 40
0.920508889
 40
1.0
 40
1.0
 40
1.0
 40
1.0
 10
346.008493824
 20
231.2044517702
 30
0.0
 10
346.008493824
 20
231.2772727036
 30
0.0
 10
346.0086834277
 20
231.4173711881
 30
0.0
 10
346.0084066814
 20
231.58742662
 30
0.0
 10
346.0055754055
 20
231.7113352325
 30
0.0
 10
346.0016912718
 20
231.7909328546
 30
0.0
 10
345.9953580711
 20
231.859366022
 30
0.0
 10
345.9885057627
 20
231.9008878777
 30
0.0
 10
345.9841228727
 20
231.9193536032
 30
0.0
  0
SPLINE
  5
28B
100
AcDbEntity
  8
0
100
AcDbSpline
 62
7
  6
CONTINUOUS
 70
0
 71
3
 72
15
 73
11
 74
0
 42
0.0000001
 43
0.0000001
 44
0.0000000001
 40
0.0
 40
0.0
 40
0.0
 40
0.0
 40
0.0241754962
 40
0.0535296359
 40
0.1275885651
 40
0.2218021804
 40
0.3359948356
 40
0.4703144571
 40
0.6252642863
 40
1.0
 40
1.0
 40
1.0
 40
1.0
 10
346.046732641
 20
229.250774951
 30
0.0
 10
346.0411957059
 20
229.2593349838
 30
0.0
 10
346.0299336905
 20
229.2789352326
 30
0.0
 10
346.0064825056
 20
229.3273904869
 30
0.0
 10
345.9771390439
 20
229.4055864838
 30
0.0
 10
345.9462444819
 20
229.5207899502
 30
0.0
 10
345.9217977798
 20
229.6634427056
 30
0.0
 10
345.9085321163
 20
229.8333151437
 30
0.0
 10
345.912437846
 20
230.1136030002
 30
0.0
 10
345.9476292434
 20
230.3357972055
 30
0.0
 10
345.9841228719
 20
230.4895499342
 30
0.0
  0
SPLINE
  5
28C
100
AcDbEntity
  8
0
100
AcDbSpline
 62
7
  6
CONTINUOUS
 70
0
 71
3
 72
26
 73
22
 74
0
 42
0.0000001
 43
0.0000001
 44
0.0000000001
 40
0.0
 40
0.0
 40
0.0
 40
0.0
 40
0.0006711394
 40
0.0021075655
 40
0.0043231809
 40
0.0073156505
 40
0.015598746
 40
0.0268593019
 40
0.040973149
 40
0.0577913663
 40
0.0771537724
 40
0.0988918612
 40
0.1488235488
 40
0.2062893621
 40
0.2701160174
 40
0.3392820426
 40
0.4129123075
 40
0.4902589607
 40
0.6535788881
 40
0.8248032728
 40
1.0
 40
1.0
 40
1.0
 40
1.0
 10
346.0471572148
 20
189.7998326468
 30
0.0
 10
346.0470727065
 20
189.7998324361
 30
0.0
 10
346.0468462543
 20
189.8000171321
 30
0.0
 10
346.046436028
 20
189.8003428396
 30
0.0
 10
346.0458271026
 20
189.8009332098
 30
0.0
 10
346.0446287854
 20
189.8021282408
 30
0.0
 10
346.0426786833
 20
189.8041967984
 30
0.0
 10
346.0398152738
 20
189.8073182189
 30
0.0
 10
346.0362673579
 20
189.8112740328
 30
0.0
 10
346.032075118
 20
189.8160204437
 30
0.0
 10
346.0272825681
 20
189.8215178603
 30
0.0
 10
346.019799066
 20
189.8302005058
 30
0.0
 10
346.0092830098
 20
189.8426032002
 30
0.0
 10
345.9954974611
 20
189.8591807121
 30
0.0
 10
345.980340108
 20
189.8777660947
 30
0.0
 10
345.9640925598
 20
189.8980872953
 30
0.0
 10
345.9469975717
 20
189.9199089519
 30
0.0
 10
345.9229091724
 20
189.9513099732
 30
0.0
 10
345.8919940329
 20
189.9929587872
 30
0.0
 10
345.8548478198
 20
190.0453090244
 30
0.0
 10
345.8303872838
 20
190.0814312137
 30
0.0
 10
345.8182200854
 20
190.0998328821
 30
0.0
  0
SPLINE
  5
28D
100
AcDbEntity
  8
0
100
AcDbSpline
 62
7
  6
CONTINUOUS
 70
0
 71
3
 72
26
 73
22
 74
0
 42
0.0000001
 43
0.0000001
 44
0.0000000001
 40
0.0
 40
0.0
 40
0.0
 40
0.0
 40
0.0006711402
 40
0.002107564
 40
0.0043231763
 40
0.0073156452
 40
0.0155987358
 40
0.0268592822
 40
0.0409731128
 40
0.0577913227
 40
0.0771537238
 40
0.0988918041
 40
0.1488234724
 40
0.2062892799
 40
0.2701159258
 40
0.3392819503
 40
0.4129122232
 40
0.490258875
 40
0.6535788189
 40
0.824803234
 40
1.0
 40
1.0
 40
1.0
 40
1.0
 10
346.0471572151
 20
193.709070894
 30
0.0
 10
346.0470727068
 20
193.7090711046
 30
0.0
 10
346.0468462551
 20
193.708886409
 30
0.0
 10
346.0464360295
 20
193.7085607023
 30
0.0
 10
346.0458271054
 20
193.7079703333
 30
0.0
 10
346.0446287902
 20
193.7067753047
 30
0.0
 10
346.0426786916
 20
193.7047067509
 30
0.0
 10
346.0398152878
 20
193.7015853371
 30
0.0
 10
346.0362673787
 20
193.697629531
 30
0.0
 10
346.0320751458
 20
193.6928831285
 30
0.0
 10
346.027282603
 20
193.6873857204
 30
0.0
 10
346.0197991119
 20
193.6787030884
 30
0.0
 10
346.0092830701
 20
193.666300412
 30
0.0
 10
345.9954975393
 20
193.6497229233
 30
0.0
 10
345.980340204
 20
193.6311375645
 30
0.0
 10
345.9640926735
 20
193.6108163887
 30
0.0
 10
345.9469977031
 20
193.5889947579
 30
0.0
 10
345.9229093273
 20
193.5575937727
 30
0.0
 10
345.8919942152
 20
193.5159450058
 30
0.0
 10
345.8548480378
 20
193.4635948212
 30
0.0
 10
345.8303875105
 20
193.4274726764
 30
0.0
 10
345.8182203235
 20
193.4090710252
 30
0.0
  0
SPLINE
  5
28E
100
AcDbEntity
  8
0
100
AcDbSpline
 62
7
  6
CONTINUOUS
 70
0
 71
3
 72
26
 73
22
 74
0
 42
0.0000001
 43
0.0000001
 44
0.0000000001
 40
0.0
 40
0.0
 40
0.0
 40
0.0
 40
0.0006711394
 40
0.0021075655
 40
0.0043231809
 40
0.0073156505
 40
0.015598746
 40
0.0268593019
 40
0.040973149
 40
0.0577913663
 40
0.0771537724
 40
0.0988918612
 40
0.1488235488
 40
0.2062893621
 40
0.2701160174
 40
0.3392820426
 40
0.4129123075
 40
0.4902589607
 40
0.6535788881
 40
0.8248032728
 40
1.0
 40
1.0
 40
1.0
 40
1.0
 10
346.0471572148
 20
209.0998326468
 30
0.0
 10
346.0470727065
 20
209.0998324361
 30
0.0
 10
346.0468462543
 20
209.1000171321
 30
0.0
 10
346.046436028
 20
209.1003428396
 30
0.0
 10
346.0458271026
 20
209.1009332098
 30
0.0
 10
346.0446287854
 20
209.1021282408
 30
0.0
 10
346.0426786833
 20
209.1041967984
 30
0.0
 10
346.0398152738
 20
209.1073182189
 30
0.0
 10
346.0362673579
 20
209.1112740328
 30
0.0
 10
346.032075118
 20
209.1160204437
 30
0.0
 10
346.0272825681
 20
209.1215178603
 30
0.0
 10
346.019799066
 20
209.1302005058
 30
0.0
 10
346.0092830098
 20
209.1426032002
 30
0.0
 10
345.9954974611
 20
209.1591807121
 30
0.0
 10
345.980340108
 20
209.1777660947
 30
0.0
 10
345.9640925598
 20
209.1980872953
 30
0.0
 10
345.9469975717
 20
209.2199089519
 30
0.0
 10
345.9229091724
 20
209.2513099732
 30
0.0
 10
345.8919940329
 20
209.2929587872
 30
0.0
 10
345.8548478198
 20
209.3453090244
 30
0.0
 10
345.8303872838
 20
209.3814312137
 30
0.0
 10
345.8182200854
 20
209.3998328821
 30
0.0
  0
SPLINE
  5
28F
100
AcDbEntity
  8
0
100
AcDbSpline
 62
7
  6
CONTINUOUS
 70
0
 71
3
 72
26
 73
22
 74
0
 42
0.0000001
 43
0.0000001
 44
0.0000000001
 40
0.0
 40
0.0
 40
0.0
 40
0.0
 40
0.0006711402
 40
0.002107564
 40
0.0043231763
 40
0.0073156452
 40
0.0155987358
 40
0.0268592822
 40
0.0409731128
 40
0.0577913227
 40
0.0771537238
 40
0.0988918041
 40
0.1488234724
 40
0.2062892799
 40
0.2701159258
 40
0.3392819503
 40
0.4129122232
 40
0.490258875
 40
0.6535788189
 40
0.824803234
 40
1.0
 40
1.0
 40
1.0
 40
1.0
 10
346.0471572151
 20
213.009070894
 30
0.0
 10
346.0470727068
 20
213.0090711046
 30
0.0
 10
346.0468462551
 20
213.008886409
 30
0.0
 10
346.0464360295
 20
213.0085607023
 30
0.0
 10
346.0458271054
 20
213.0079703333
 30
0.0
 10
346.0446287902
 20
213.0067753047
 30
0.0
 10
346.0426786916
 20
213.0047067509
 30
0.0
 10
346.0398152878
 20
213.0015853371
 30
0.0
 10
346.0362673787
 20
212.997629531
 30
0.0
 10
346.0320751458
 20
212.9928831285
 30
0.0
 10
346.027282603
 20
212.9873857204
 30
0.0
 10
346.0197991119
 20
212.9787030884
 30
0.0
 10
346.0092830701
 20
212.966300412
 30
0.0
 10
345.9954975393
 20
212.9497229233
 30
0.0
 10
345.980340204
 20
212.9311375645
 30
0.0
 10
345.9640926735
 20
212.9108163887
 30
0.0
 10
345.9469977031
 20
212.8889947579
 30
0.0
 10
345.9229093273
 20
212.8575937727
 30
0.0
 10
345.8919942152
 20
212.8159450058
 30
0.0
 10
345.8548480378
 20
212.7635948212
 30
0.0
 10
345.8303875105
 20
212.7274726764
 30
0.0
 10
345.8182203235
 20
212.7090710252
 30
0.0
  0
ENDSEC
  0
SECTION
  2
OBJECTS
  0
DICTIONARY
  5
C
100
AcDbDictionary
280
0
281
1
  3
ACAD_GROUP
350
D
  3
ACAD_MLINESTYLE
350
17
  3
ACAD_LAYOUT
350
1A
  3
ACAD_PLOTSETTINGS
350
19
  3
ACAD_PLOTSTYLENAME
350
E
  0
DICTIONARY
  5
D
102
{ACAD_REACTORS
330
C
102
}
100
AcDbDictionary
280
0
281
1
  0
ACDBDICTIONARYWDFLT
  5
E
102
{ACAD_REACTORS
330
C
102
}
100
AcDbDictionary
281
1
  3
Normal
350
F
100
AcDbDictionaryWithDefault
340
F
  0
DICTIONARY
  5
17
102
{ACAD_REACTORS
330
C
102
}
100
AcDbDictionary
280
0
281
1
  3
Standard
350
18
  0
DICTIONARY
  5
19
102
{ACAD_REACTORS
330
C
102
}
100
AcDbDictionary
281
1
  0
DICTIONARY
  5
1A
102
{ACAD_REACTORS
330
C
102
}
100
AcDbDictionary
281
1
  3
Model
350
290
  3
Layout1
350
291
  0
ACDBPLACEHOLDER
  5
F
102
{ACAD_REACTORS
330
E
102
}
  0
MLINESTYLE
  5
18
102
{ACAD_REACTORS
330
17
102
}
100
AcDbMlineStyle
  2
STANDARD
 70
0
  3

 62
256
 51
90.0
 52
90.0
 71
2
 49
0.5
 62
256
  6
BYLAYER
 49
-0.5
 62
256
  6
BYLAYER
  0
LAYOUT
  5
290
102
{ACAD_REACTORS
330
1A
102
}
100
AcDbPlotSettings
  1

  2
none_device
  4
ANSI_C_(22.00_x_17.00_Inches)
  6

 40
0.0
 41
0.0
 42
0.0
 43
0.0
 44
558.8
 45
431.8
 46
0.0
 47
0.0
 48
0.0
 49
0.0
140
0.0
141
0.0
142
1.0
143
1.0
 70
1024
 72
1
 73
0
 74
0
  7

 75
0
147
1.0
148
0.0
149
0.0
100
AcDbLayout
  1
Model
 70
0
 71
0
 10
0.0
 20
0.0
 11
558.8
 21
431.8
 12
0.0
 22
0.0
 32
0.0
 14
0.0
 24
0.0
 34
0.0
 15
0.0
 25
0.0
 35
0.0
146
0.0
 13
0.0
 23
0.0
 33
0.0
 16
1.0
 26
0.0
 36
0.0
 17
0.0
 27
1.0
 37
0.0
 76
0
330
216
345
0
346
0
  0
LAYOUT
  5
291
102
{ACAD_REACTORS
330
1A
102
}
100
AcDbPlotSettings
  1

  2
none_device
  4
ANSI_C_(22.00_x_17.00_Inches)
  6

 40
0.0
 41
0.0
 42
0.0
 43
0.0
 44
558.8
 45
431.8
 46
0.0
 47
0.0
 48
0.0
 49
0.0
140
0.0
141
0.0
142
1.0
143
1.0
 70
0
 72
1
 73
0
 74
0
  7

 75
0
147
1.0
148
0.0
149
0.0
100
AcDbLayout
  1
Layout1
 70
0
 71
1
 10
0.0
 20
0.0
 11
558.8
 21
431.8
 12
0.0
 22
0.0
 32
0.0
 14
0.0
 24
0.0
 34
0.0
 15
0.0
 25
0.0
 35
0.0
146
0.0
 13
0.0
 23
0.0
 33
0.0
 16
1.0
 26
0.0
 36
0.0
 17
0.0
 27
1.0
 37
0.0
 76
0
330
217
345
0
346
0
  0
ENDSEC
  0
EOF
