999
DXF file: C:\Users\sesa63760\Dev\_Creo\CAD\MCADID0000446_3D-CAD\drw0001_1.dxf
999
Pro/ENGINEER 2019471 by Parametric Technology Corporation
  0
SECTION
  2
HEADER
  9
$ACADVER
  1
AC1024
  9
$DWGCODEPAGE
  3
ANSI_1252
  9
$EXTMAX
 10
176.8878494153
 20
250.1699584588
 30
0.0
  9
$EXTMIN
 10
0.0
 20
0.0
 30
0.0
  9
$LIMMIN
 10
0.0
 20
0.0
  9
$LIMMAX
 10
176.8878494153
 20
250.1699584588
  9
$VIEWCTR
 10
88.4439247077
 20
125.0849792294
  9
$VIEWSIZE
 40
250.1699584588
  9
$CLAYER
  8
0
  9
$LTSCALE
 40
16.3073750699
  9
$CELTYPE
  6
BYLAYER
  9
$DIMSCALE
 40
1.0
  9
$DIMASZ
 40
2.1058077311
  9
$DIMEXO
 40
1.0
  9
$DIMDLI
 40
11.2669136847
  9
$DIMEXE
 40
1.0
  9
$DIMCEN
 40
2.6684795569
  9
$DIMLFAC
 40
1.0
  9
$DIMBLK
  1
_FILLED
  9
$DIMALT
 70
0
  9
$DIMALTF
 40
0.0393700787
  9
$DIMTXT
 40
2.9481308236
  9
$DIMTOL
 70
1
  9
$DIMLIM
 70
0
  9
$DIMTFAC
 40
1.0
  9
$DIMTP
 40
0.01
  9
$DIMTM
 40
0.01
  9
$DIMGAP
 40
0.625
  9
$DIMDSEP
 70
46
  9
$AUNITS
 70
0
  9
$PDMODE
 70
3
  9
$PDSIZE
 40
0.3125
  9
$HANDSEED
  5
298
  9
$TILEMODE
 70
1
  9
$MEASUREMENT
 70
1
  9
$INSUNITS
 70
4
  0
ENDSEC
  0
SECTION
  2
CLASSES
  0
CLASS
  1
ACDBDICTIONARYWDFLT
  2
AcDbDictionaryWithDefault
  3
AutoCAD 2000
 90
0
 91
1
280
0
281
0
  0
CLASS
  1
ACDBPLACEHOLDER
  2
AcDbPlaceHolder
  3
AutoCAD 2000
 90
0
 91
1
280
0
281
0
  0
CLASS
  1
LAYOUT
  2
AcDbLayout
  3
AutoCAD 2000
 90
0
 91
0
280
0
281
0
  0
ENDSEC
  0
SECTION
  2
TABLES
  0
TABLE
  2
VPORT
  5
8
100
AcDbSymbolTable
 70
2
  0
VPORT
  5
1F4
100
AcDbSymbolTableRecord
100
AcDbViewportTableRecord
  2
*ACTIVE
 70
0
 10
0.0
 20
0.0
 11
1.0
 21
1.0
 12
88.4439247077
 22
125.0849792294
 13
0.0
 23
0.0
 14
1.0
 24
1.0
 15
0.0
 25
0.0
 16
0.0
 26
0.0
 36
1.0
 17
0.0
 27
0.0
 37
0.0
 40
250.1699584588
 41
0.7070707071
 42
50.0
 43
0.0
 44
0.0
 50
0.0
 51
0.0
 71
0
 72
100
 73
1
 74
1
 75
0
 76
0
 77
0
 78
0
  0
ENDTAB
  0
TABLE
  2
LTYPE
  5
5
100
AcDbSymbolTable
 70
6
  0
LTYPE
  5
14
100
AcDbSymbolTableRecord
100
AcDbLinetypeTableRecord
  2
BYBLOCK
 70
0
  3

 72
65
 73
0
 40
0.0
  0
LTYPE
  5
15
100
AcDbSymbolTableRecord
100
AcDbLinetypeTableRecord
  2
BYLAYER
 70
0
  3

 72
65
 73
0
 40
0.0
  0
LTYPE
  5
16
100
AcDbSymbolTableRecord
100
AcDbLinetypeTableRecord
  2
CONTINUOUS
 70
64
  3
Solid line
 72
65
 73
0
 40
0.0
  0
LTYPE
  5
1F5
100
AcDbSymbolTableRecord
100
AcDbLinetypeTableRecord
  2
CENTER
 70
64
  3
____ _ ____ _ ____ _ ____ _ ____ _ ____ _ ____
 72
65
 73
4
 40
0.6
 49
0.375
 74
0
 49
-0.075
 74
0
 49
0.075
 74
0
 49
-0.075
 74
0
  0
LTYPE
  5
1F6
100
AcDbSymbolTableRecord
100
AcDbLinetypeTableRecord
  2
HIDDEN
 70
64
  3
- - - - - - - - - - - - - - - - - - - -
 72
65
 73
2
 40
0.2
 49
0.1
 74
0
 49
-0.1
 74
0
  0
LTYPE
  5
1F7
100
AcDbSymbolTableRecord
100
AcDbLinetypeTableRecord
  2
PHANTOM
 70
64
  3
_____ _ _ _____ _ _ _____ _ _ _____
 72
65
 73
6
 40
0.8
 49
0.45
 74
0
 49
-0.05
 74
0
 49
0.1
 74
0
 49
-0.05
 74
0
 49
0.1
 74
0
 49
-0.05
 74
0
  0
LTYPE
  5
1F8
100
AcDbSymbolTableRecord
100
AcDbLinetypeTableRecord
  2
DOT
 70
64
  3
. . . . . . . . . . . . . . . . . . . .
 72
65
 73
2
 40
0.2
 49
0.1
 74
0
 49
-0.1
 74
0
  0
LTYPE
  5
1F9
100
AcDbSymbolTableRecord
100
AcDbLinetypeTableRecord
  2
DASHED
 70
64
  3
- - - - - - - - - - - - - - - - - - - -
 72
65
 73
2
 40
0.2
 49
0.1
 74
0
 49
-0.1
 74
0
  0
ENDTAB
  0
TABLE
  2
LAYER
  5
2
100
AcDbSymbolTable
 70
36
  0
LAYER
  5
10
100
AcDbSymbolTableRecord
100
AcDbLayerTableRecord
  2
0
 70
0
 62
7
  6
CONTINUOUS
370
-3
390
F
  0
LAYER
  5
1FA
100
AcDbSymbolTableRecord
100
AcDbLayerTableRecord
  2
DEFAULT_1
 70
0
 62
7
  6
CENTER
370
-3
390
F
  0
LAYER
  5
1FB
100
AcDbSymbolTableRecord
100
AcDbLayerTableRecord
  2
DEFAULT_2
 70
0
 62
8
  6
HIDDEN
370
-3
390
F
  0
LAYER
  5
1FC
100
AcDbSymbolTableRecord
100
AcDbLayerTableRecord
  2
DEFAULT_3
 70
0
 62
7
  6
PHANTOM
370
-3
390
F
  0
LAYER
  5
1FD
100
AcDbSymbolTableRecord
100
AcDbLayerTableRecord
  2
00_COMPONENTS
 70
0
 62
7
  6
CONTINUOUS
370
-3
390
F
  0
LAYER
  5
1FE
100
AcDbSymbolTableRecord
100
AcDbLayerTableRecord
  2
01_1_DEFAULT_DATUMS
 70
0
 62
7
  6
CONTINUOUS
370
-3
390
F
  0
LAYER
  5
1FF
100
AcDbSymbolTableRecord
100
AcDbLayerTableRecord
  2
01_PLANES
 70
0
 62
7
  6
CONTINUOUS
370
-3
390
F
  0
LAYER
  5
200
100
AcDbSymbolTableRecord
100
AcDbLayerTableRecord
  2
02_COORD_SYS
 70
0
 62
7
  6
CONTINUOUS
370
-3
390
F
  0
LAYER
  5
201
100
AcDbSymbolTableRecord
100
AcDbLayerTableRecord
  2
03_AXES
 70
0
 62
7
  6
CONTINUOUS
370
-3
390
F
  0
LAYER
  5
202
100
AcDbSymbolTableRecord
100
AcDbLayerTableRecord
  2
04_POINTS
 70
0
 62
7
  6
CONTINUOUS
370
-3
390
F
  0
LAYER
  5
203
100
AcDbSymbolTableRecord
100
AcDbLayerTableRecord
  2
05_CURVES
 70
0
 62
7
  6
CONTINUOUS
370
-3
390
F
  0
LAYER
  5
204
100
AcDbSymbolTableRecord
100
AcDbLayerTableRecord
  2
06_SURFS
 70
0
 62
7
  6
CONTINUOUS
370
-3
390
F
  0
LAYER
  5
205
100
AcDbSymbolTableRecord
100
AcDbLayerTableRecord
  2
07_COSMETICS
 70
0
 62
7
  6
CONTINUOUS
370
-3
390
F
  0
LAYER
  5
206
100
AcDbSymbolTableRecord
100
AcDbLayerTableRecord
  2
10_NOTES
 70
0
 62
7
  6
CONTINUOUS
370
-3
390
F
  0
LAYER
  5
207
100
AcDbSymbolTableRecord
100
AcDbLayerTableRecord
  2
11_NOTES_PUB
 70
0
 62
7
  6
CONTINUOUS
370
-3
390
F
  0
LAYER
  5
208
100
AcDbSymbolTableRecord
100
AcDbLayerTableRecord
  2
13_REF_GTOL
 70
0
 62
7
  6
CONTINUOUS
370
-3
390
F
  0
LAYER
  5
209
100
AcDbSymbolTableRecord
100
AcDbLayerTableRecord
  2
16_MISC
 70
0
 62
7
  6
CONTINUOUS
370
-3
390
F
  0
LAYER
  5
20A
100
AcDbSymbolTableRecord
100
AcDbLayerTableRecord
  2
17_NO_PRINT
 70
0
 62
7
  6
CONTINUOUS
370
-3
390
F
  0
LAYER
  5
20B
100
AcDbSymbolTableRecord
100
AcDbLayerTableRecord
  2
18_DATUM_CAMS_JOINTS
 70
0
 62
7
  6
CONTINUOUS
370
-3
390
F
  0
LAYER
  5
20C
100
AcDbSymbolTableRecord
100
AcDbLayerTableRecord
  2
19_DATUM_FUNCTIONAL
 70
0
 62
7
  6
CONTINUOUS
370
-3
390
F
  0
LAYER
  5
20D
100
AcDbSymbolTableRecord
100
AcDbLayerTableRecord
  2
20_DATUM_KINEMATIC_SCHEME
 70
0
 62
7
  6
CONTINUOUS
370
-3
390
F
  0
LAYER
  5
20E
100
AcDbSymbolTableRecord
100
AcDbLayerTableRecord
  2
INTFCLR_4985
 70
0
 62
7
  6
CONTINUOUS
370
-3
390
F
  0
ENDTAB
  0
TABLE
  2
STYLE
  5
3
100
AcDbSymbolTable
 70
1
  0
STYLE
  5
11
100
AcDbSymbolTableRecord
100
AcDbTextStyleTableRecord
  2
STANDARD
 70
0
 40
0.0
 41
0.8
 50
0.0
 71
0
 42
0.2
  3
txt
  4

  0
STYLE
  5
20F
100
AcDbSymbolTableRecord
100
AcDbTextStyleTableRecord
  2
TEXTSTYLE_1
 70
0
 40
0.0
 41
0.8
 50
0.0
 71
0
 42
0.2
  3
gdt
  4

  0
ENDTAB
  0
TABLE
  2
VIEW
  5
6
100
AcDbSymbolTable
 70
0
  0
ENDTAB
  0
TABLE
  2
UCS
  5
7
100
AcDbSymbolTable
 70
0
  0
ENDTAB
  0
TABLE
  2
APPID
  5
9
100
AcDbSymbolTable
 70
1
  0
APPID
  5
210
100
AcDbSymbolTableRecord
100
AcDbRegAppTableRecord
  2
ACAD
 70
0
  0
ENDTAB
  0
TABLE
  2
BLOCK_RECORD
  5
1
100
AcDbSymbolTable
 70
0
  0
BLOCK_RECORD
  5
211
100
AcDbSymbolTableRecord
100
AcDbBlockTableRecord
  2
*Model_Space
  0
BLOCK_RECORD
  5
212
100
AcDbSymbolTableRecord
100
AcDbBlockTableRecord
  2
*Paper_Space
  0
BLOCK_RECORD
  5
213
100
AcDbSymbolTableRecord
100
AcDbBlockTableRecord
  2
_FILLED
  0
ENDTAB
  0
TABLE
  2
DIMSTYLE
  5
A
100
AcDbSymbolTable
 70
1
100
AcDbDimStyleTable
 71
0
  0
DIMSTYLE
105
214
100
AcDbSymbolTableRecord
100
AcDbDimStyleTableRecord
  2
STANDARD
 70
0
  3

  4

 40
1.0
 41
2.1058077311
 42
1.0
 43
0.38
 44
1.0
 45
0.0
 46
0.0
 47
0.01
 48
0.01
140
2.9481308236
141
0.09
142
0.0
143
25.4
144
1.0
145
0.0
146
1.0
147
0.625
 71
1
 72
0
 73
0
 74
0
 75
0
 76
0
 77
1
 78
8
 79
2
170
0
171
1
172
0
173
0
174
0
175
0
176
0
177
0
178
0
270
2
179
2
271
2
272
2
273
2
274
2
275
0
280
0
281
0
282
0
283
1
284
8
285
0
286
0
287
3
288
0
340
11
278
46
341
213
342
213
343
213
344
213
  0
ENDTAB
  0
ENDSEC
  0
SECTION
  2
BLOCKS
  0
BLOCK
  5
20
100
AcDbEntity
  8
0
100
AcDbBlockBegin
  2
*Model_Space
 70
0
 10
0.0
 20
0.0
 30
0.0
  3
*Model_Space
  1

  0
ENDBLK
  5
21
100
AcDbEntity
  8
0
100
AcDbBlockEnd
  0
BLOCK
  5
1C
100
AcDbEntity
  8
0
100
AcDbBlockBegin
  2
*Paper_Space
 70
0
 10
0.0
 20
0.0
 30
0.0
  3
*Paper_Space
  1

  0
ENDBLK
  5
1D
100
AcDbEntity
  8
0
100
AcDbBlockEnd
  0
BLOCK
  5
215
100
AcDbEntity
  8
0
100
AcDbBlockBegin
  2
_FILLED
 70
64
 10
0.0
 20
0.0
  3
_FILLED
  1

  0
SOLID
  5
216
100
AcDbEntity
  8
0
  6
BYBLOCK
 62
0
100
AcDbTrace
 10
0.0
 20
0.0
 11
-1.0
 21
0.25
 12
-1.0
 22
-0.25
 13
-1.0
 23
-0.25
  0
ENDBLK
  5
217
100
AcDbEntity
  8
0
  6
BYBLOCK
 62
0
100
AcDbBlockEnd
  0
ENDSEC
  0
SECTION
  2
ENTITIES
  0
LINE
  5
218
100
AcDbEntity
  8
0
100
AcDbLine
 62
7
  6
CONTINUOUS
 10
20.521049227
 20
130.9017746671
 11
21.9034592743
 21
141.7856111106
  0
LWPOLYLINE
  5
219
100
AcDbEntity
  8
0
100
AcDbPolyline
 62
7
  6
CONTINUOUS
 90
6
 70
0
 10
22.3121492572
 20
145.5195490865
 10
25.367652679
 20
154.2194515327
 10
31.033875914
 20
164.0340125919
 10
38.1638833628
 20
172.3291269443
 10
46.0330533409
 20
178.2909939921
 10
47.4341478012
 20
178.8406503644
  0
LINE
  5
21A
100
AcDbEntity
  8
0
100
AcDbLine
 62
7
  6
CONTINUOUS
 10
21.9034592743
 20
141.7856111106
 11
25.9074586411
 21
153.1842346499
  0
LWPOLYLINE
  5
21B
100
AcDbEntity
  8
0
100
AcDbPolyline
 62
7
  6
CONTINUOUS
 90
7
 70
0
 10
25.9074586411
 20
153.1842346499
 10
32.2098766285
 20
164.097698773
 10
40.1317055769
 20
173.3104478622
 10
48.8749397231
 20
179.931774518
 10
57.5896611194
 20
183.3481731254
 10
65.4453444427
 20
183.2485197799
 10
68.804855982
 20
181.8727400864
  0
LINE
  5
21C
100
AcDbEntity
  8
0
100
AcDbLine
 62
7
  6
CONTINUOUS
 10
29.0417211206
 20
126.0232978206
 11
30.422386935
 21
136.8934624203
  0
LWPOLYLINE
  5
21D
100
AcDbEntity
  8
0
100
AcDbPolyline
 62
7
  6
CONTINUOUS
 90
8
 70
0
 10
30.422386935
 20
136.8934624203
 10
34.4213827919
 20
148.2778727669
 10
40.7158597751
 20
159.177617138
 10
48.6277953313
 20
168.3788948406
 10
57.3600841646
 20
174.9919612874
 10
66.0639091833
 20
178.4041206603
 10
73.9098226539
 20
178.3046195676
 10
77.2651731011
 20
176.9305495053
  0
LWPOLYLINE
  5
21E
100
AcDbEntity
  8
0
100
AcDbPolyline
 62
7
  6
CONTINUOUS
 90
3
 70
0
 10
34.3981658829
 20
148.2970383357
 10
30.4004405041
 20
136.9348439572
 10
29.0063659287
 20
126.0028856129
  0
LINE
  5
21F
100
AcDbEntity
  8
0
100
AcDbLine
 62
7
  6
CONTINUOUS
 10
33.0609118911
 20
122.8863565712
 11
32.4485369058
 21
124.4646570612
  0
LINE
  5
220
100
AcDbEntity
  8
0
100
AcDbLine
 62
7
  6
CONTINUOUS
 10
34.2856618616
 20
124.6287700941
 11
34.8980368468
 21
123.0504696041
  0
LINE
  5
221
100
AcDbEntity
  8
0
100
AcDbLine
 62
7
  6
CONTINUOUS
 10
59.8955025133
 20
171.8149961921
 11
60.3437832839
 21
172.7809092872
  0
LINE
  5
222
100
AcDbEntity
  8
0
100
AcDbLine
 62
7
  6
CONTINUOUS
 10
63.2415639955
 20
172.3326349252
 11
62.7932832249
 21
171.3667218301
  0
LINE
  5
223
100
AcDbEntity
  8
0
100
AcDbLine
 62
7
  6
CONTINUOUS
 10
32.4485369058
 20
124.4646570612
 11
33.0609118911
 21
125.3358638226
  0
LINE
  5
224
100
AcDbEntity
  8
0
100
AcDbLine
 62
7
  6
CONTINUOUS
 10
34.8980368468
 20
123.0504696041
 11
34.2856618616
 21
122.1792628427
  0
LWPOLYLINE
  5
225
100
AcDbEntity
  8
0
100
AcDbPolyline
 62
7
  6
CONTINUOUS
 90
6
 70
0
 10
104.4662922278
 20
68.9085846143
 10
107.8706172192
 20
67.5211045549
 10
115.7924461676
 20
67.4556410153
 10
124.5356803138
 20
70.9300712717
 10
133.2504017101
 20
77.5765060855
 10
138.6121553057
 20
83.8357054689
  0
LINE
  5
226
100
AcDbEntity
  8
0
100
AcDbLine
 62
7
  6
CONTINUOUS
 10
104.4662826468
 20
68.9085680208
 11
93.8596367696
 21
75.0321793386
  0
LINE
  5
227
100
AcDbEntity
  8
0
100
AcDbLine
 62
7
  6
CONTINUOUS
 10
37.2908587578
 20
107.6914397002
 11
28.8055420561
 21
112.5903287545
  0
LINE
  5
228
100
AcDbEntity
  8
0
100
AcDbLine
 62
7
  6
CONTINUOUS
 10
37.3158583336
 20
107.7347412153
 11
93.5683136122
 21
75.2581057373
  0
LINE
  5
229
100
AcDbEntity
  8
0
100
AcDbLine
 62
7
  6
CONTINUOUS
 10
60.3437832839
 20
171.5561870236
 11
60.3437832839
 21
172.7809092872
  0
LINE
  5
22A
100
AcDbEntity
  8
0
100
AcDbLine
 62
7
  6
CONTINUOUS
 10
111.5875269871
 20
76.3441487741
 11
109.4661978116
 21
77.5688710377
  0
LINE
  5
22B
100
AcDbEntity
  8
0
100
AcDbLine
 62
7
  6
CONTINUOUS
 10
34.2856618616
 20
122.1792628427
 11
33.0609118911
 21
122.8863565712
  0
LINE
  5
22C
100
AcDbEntity
  8
0
100
AcDbLine
 62
7
  6
CONTINUOUS
 10
62.016814025
 20
171.2466013436
 11
62.016814025
 21
173.0397286537
  0
LINE
  5
22D
100
AcDbEntity
  8
0
100
AcDbLine
 62
7
  6
CONTINUOUS
 10
33.5092198224
 20
125.0770389732
 11
32.4485369058
 21
124.4646570612
  0
LINE
  5
22E
100
AcDbEntity
  8
0
100
AcDbLine
 62
7
  6
CONTINUOUS
 10
34.6138424494
 20
123.7829360953
 11
33.0609118911
 21
122.8863565712
  0
LINE
  5
22F
100
AcDbEntity
  8
0
100
AcDbLine
 62
7
  6
CONTINUOUS
 10
33.0609118911
 20
125.3358638226
 11
34.2856618616
 21
124.6287700941
  0
LINE
  5
230
100
AcDbEntity
  8
0
100
AcDbLine
 62
7
  6
CONTINUOUS
 10
121.0444882507
 20
91.0914382991
 11
120.3373785256
 21
91.4996790536
  0
LINE
  5
231
100
AcDbEntity
  8
0
100
AcDbLine
 62
7
  6
CONTINUOUS
 10
147.0433074221
 20
78.9680876451
 11
122.294467042
 21
93.2565140533
  0
LINE
  5
232
100
AcDbEntity
  8
0
100
AcDbLine
 62
7
  6
CONTINUOUS
 10
157.0431377518
 20
96.2886936789
 11
132.2942973717
 21
110.5771200871
  0
LINE
  5
233
100
AcDbEntity
  8
0
100
AcDbLine
 62
7
  6
CONTINUOUS
 10
156.6393622013
 20
97.6303943639
 11
141.082948248
 21
106.6116909634
  0
LINE
  5
234
100
AcDbEntity
  8
0
100
AcDbLine
 62
7
  6
CONTINUOUS
 10
133.5442761629
 20
112.7421958413
 11
132.8371664378
 21
113.1504365958
  0
LINE
  5
235
100
AcDbEntity
  8
0
100
AcDbLine
 62
7
  6
CONTINUOUS
 10
61.1202524838
 20
171.1079024636
 11
59.8955025133
 21
171.8149961921
  0
LINE
  5
236
100
AcDbEntity
  8
0
100
AcDbLine
 62
7
  6
CONTINUOUS
 10
62.016814025
 20
173.0397286537
 11
63.2415639955
 21
172.3326349252
  0
LINE
  5
237
100
AcDbEntity
  8
0
100
AcDbLine
 62
7
  6
CONTINUOUS
 10
141.5870179763
 20
128.3059668754
 11
139.4656888008
 21
129.5306891389
  0
LINE
  5
238
100
AcDbEntity
  8
0
100
AcDbLine
 62
7
  6
CONTINUOUS
 10
139.5829549633
 20
106.7602638004
 11
139.2441982754
 21
106.5646837029
  0
LINE
  5
239
100
AcDbEntity
  8
0
100
AcDbLine
 62
7
  6
CONTINUOUS
 10
140.1228708535
 20
106.0573933299
 11
141.082948248
 21
106.6116909634
  0
LWPOLYLINE
  5
23A
100
AcDbEntity
  8
0
100
AcDbPolyline
 62
7
  6
CONTINUOUS
 90
7
 70
0
 10
77.2901704957
 20
176.9738472417
 10
73.8858455043
 20
178.3613273011
 10
65.9640165559
 20
178.4267908407
 10
57.2207824097
 20
174.9523605843
 10
48.5060610134
 20
168.3059257705
 10
40.6503776901
 20
159.1353648083
 10
34.3981658829
 20
148.2970383357
  0
LINE
  5
23B
100
AcDbEntity
  8
0
100
AcDbLine
 62
7
  6
CONTINUOUS
 10
77.2651805009
 20
176.9305623202
 11
133.515023724
 21
144.455434879
  0
LINE
  5
23C
100
AcDbEntity
  8
0
100
AcDbLine
 62
7
  6
CONTINUOUS
 10
144.4656039657
 20
138.1909921558
 11
133.8589580885
 21
144.3146034736
  0
LINE
  5
23D
100
AcDbEntity
  8
0
100
AcDbLine
 62
7
  6
CONTINUOUS
 10
77.2901800767
 20
176.9738638352
 11
68.804863375
 21
181.8727528895
  0
LINE
  5
23E
100
AcDbEntity
  8
0
100
AcDbLine
 62
7
  6
CONTINUOUS
 10
62.7932832249
 20
171.3667218301
 11
61.1202524838
 21
171.1079024636
  0
LINE
  5
23F
100
AcDbEntity
  8
0
100
AcDbLine
 62
7
  6
CONTINUOUS
 10
60.3437832839
 20
172.7809092872
 11
62.016814025
 21
173.0397286537
  0
LINE
  5
240
100
AcDbEntity
  8
0
100
AcDbLine
 62
7
  6
CONTINUOUS
 10
156.6393622013
 20
97.6303943639
 11
155.6792848067
 21
97.0760967304
  0
LINE
  5
241
100
AcDbEntity
  8
0
100
AcDbLine
 62
7
  6
CONTINUOUS
 10
152.7503323121
 20
91.1393615097
 11
153.1332011029
 21
91.3348437118
  0
LWPOLYLINE
  5
242
100
AcDbEntity
  8
0
100
AcDbPolyline
 62
7
  6
CONTINUOUS
 90
3
 70
0
 10
148.9384407281
 20
102.0764228668
 10
151.3560222194
 20
108.9475878988
 10
152.7500967948
 20
119.8795462432
  0
LINE
  5
243
100
AcDbEntity
  8
0
100
AcDbLine
 62
7
  6
CONTINUOUS
 10
159.1142609591
 20
91.7108322007
 11
159.114266847
 21
90.8943472923
  0
LINE
  5
244
100
AcDbEntity
  8
0
100
AcDbLine
 62
7
  6
CONTINUOUS
 10
152.7504422808
 20
79.8716921317
 11
152.0433447763
 21
79.4634370375
  0
ARC
  5
245
100
AcDbEntity
  8
0
100
AcDbCircle
 62
7
  6
CONTINUOUS
 10
52.7994975041
 20
134.1516739279
 40
32.2784758144
100
AcDbArc
 50
179.9715275992
 51
182.8458058461
  0
ARC
  5
246
100
AcDbEntity
  8
0
100
AcDbCircle
 62
7
  6
CONTINUOUS
 10
160.9675383973
 20
82.581506325
 40
14.6269469095
100
AcDbArc
 50
139.8805615509
 51
143.6863535412
  0
ARC
  5
247
100
AcDbEntity
  8
0
100
AcDbCircle
 62
7
  6
CONTINUOUS
 10
160.3924564502
 20
82.6004098047
 40
14.1118052001
100
AcDbArc
 50
159.844698179
 51
161.3202081183
  0
ARC
  5
248
100
AcDbEntity
  8
0
100
AcDbCircle
 62
7
  6
CONTINUOUS
 10
70.6316228481
 20
165.4408564579
 40
13.317137478
100
AcDbArc
 50
58.4300208501
 51
60.0001031577
  0
ARC
  5
249
100
AcDbEntity
  8
0
100
AcDbCircle
 62
7
  6
CONTINUOUS
 10
43.948975218
 20
119.2239471064
 40
13.3164841069
100
AcDbArc
 50
240.000669952
 51
241.5673637706
  0
ARC
  5
24A
100
AcDbEntity
  8
0
100
AcDbCircle
 62
7
  6
CONTINUOUS
 10
58.2967407422
 20
172.3280295788
 40
2.2281927764
100
AcDbArc
 50
180.0230202595
 51
189.943787454
  0
ARC
  5
24B
100
AcDbEntity
  8
0
100
AcDbCircle
 62
7
  6
CONTINUOUS
 10
31.8138455375
 20
126.4703576669
 40
2.2209112468
100
AcDbArc
 50
113.5334409404
 51
119.9830694945
  0
ARC
  5
24C
100
AcDbEntity
  8
0
100
AcDbCircle
 62
7
  6
CONTINUOUS
 10
35.4501426928
 20
120.172499211
 40
1.5067948694
100
AcDbArc
 50
300.0165157045
 51
308.9948954095
  0
ARC
  5
24D
100
AcDbEntity
  8
0
100
AcDbCircle
 62
7
  6
CONTINUOUS
 10
65.561793473
 20
172.3275511169
 40
1.5067208254
100
AcDbArc
 50
351.009261396
 51
359.9829788043
  0
ARC
  5
24E
100
AcDbEntity
  8
0
100
AcDbCircle
 62
7
  6
CONTINUOUS
 10
151.8129376467
 20
90.179423202
 40
1.1062611315
100
AcDbArc
 50
47.1549240619
 51
50.4507898147
  0
SPLINE
  5
24F
100
AcDbEntity
  8
0
100
AcDbSpline
 62
7
  6
CONTINUOUS
 70
0
 71
3
 72
9
 73
5
 74
0
 42
0.0000001
 43
0.0000001
 44
0.0000000001
 40
0.0
 40
0.0
 40
0.0
 40
0.0
 40
0.4821032591
 40
1.0
 40
1.0
 40
1.0
 40
1.0
 10
20.5210256752
 20
134.1677143007
 30
0.0
 10
20.5210256752
 20
136.0116431903
 30
0.0
 10
20.830058668
 20
139.8392247668
 30
0.0
 10
21.6367494225
 20
143.5884669534
 30
0.0
 10
22.1621344517
 20
145.4983516111
 30
0.0
  0
SPLINE
  5
250
100
AcDbEntity
  8
0
100
AcDbSpline
 62
7
  6
CONTINUOUS
 70
0
 71
3
 72
16
 73
12
 74
0
 42
0.0000001
 43
0.0000001
 44
0.0000000001
 40
0.0
 40
0.0
 40
0.0
 40
0.0
 40
0.1268832867
 40
0.2665393643
 40
0.4109552927
 40
0.5522130244
 40
0.6838110929
 40
0.8017519184
 40
0.9056394056
 40
0.9536515662
 40
1.0
 40
1.0
 40
1.0
 40
1.0
 10
37.208838446
 20
121.3081171059
 30
0.0
 10
37.208838446
 20
121.7669767653
 30
0.0
 10
37.1024281604
 20
122.731683892
 30
0.0
 10
36.7005117151
 20
124.1679255157
 30
0.0
 10
36.0634902911
 20
125.5750879708
 30
0.0
 10
35.2192760738
 20
126.8353864746
 30
0.0
 10
34.2118231516
 20
127.8425130416
 30
0.0
 10
33.1038922715
 20
128.5100357974
 30
0.0
 10
32.129479114
 20
128.7329876672
 30
0.0
 10
31.4101963951
 20
128.6743982125
 30
0.0
 10
31.0807401688
 20
128.5734835163
 30
0.0
 10
30.9270706621
 20
128.5065494768
 30
0.0
  0
SPLINE
  5
251
100
AcDbEntity
  8
0
100
AcDbSpline
 62
7
  6
CONTINUOUS
 70
0
 71
3
 72
11
 73
7
 74
0
 42
0.0000001
 43
0.0000001
 44
0.0000000001
 40
0.0
 40
0.0
 40
0.0
 40
0.0
 40
0.2274507038
 40
0.466749761
 40
0.7233752858
 40
1.0
 40
1.0
 40
1.0
 40
1.0
 10
56.1020206705
 20
171.9432610049
 30
0.0
 10
56.1365582672
 20
171.7461740984
 30
0.0
 10
56.262402633
 20
171.3497114367
 30
0.0
 10
56.6009903152
 20
170.8043308305
 30
0.0
 10
57.0802693594
 20
170.3158820698
 30
0.0
 10
57.468714552
 20
170.0477911534
 30
0.0
 10
57.6794621497
 20
169.9261187237
 30
0.0
  0
SPLINE
  5
252
100
AcDbEntity
  8
0
100
AcDbSpline
 62
7
  6
CONTINUOUS
 70
0
 71
3
 72
24
 73
20
 74
0
 42
0.0000001
 43
0.0000001
 44
0.0000000001
 40
0.0
 40
0.0
 40
0.0
 40
0.0
 40
0.0623870772
 40
0.1287326242
 40
0.1983297688
 40
0.2703114111
 40
0.3436946047
 40
0.4174328767
 40
0.4904633126
 40
0.5617555333
 40
0.6303579885
 40
0.6954503501
 40
0.7564023601
 40
0.8128437601
 40
0.8647481328
 40
0.9125265238
 40
0.9571043516
 40
0.9786662884
 40
1.0
 40
1.0
 40
1.0
 40
1.0
 10
85.5751439405
 20
93.3436252512
 30
0.0
 10
85.5751439405
 20
95.0030432377
 30
0.0
 10
85.799974986
 20
98.4294529708
 30
0.0
 10
86.7250079261
 20
103.6319737473
 30
0.0
 10
88.2290562175
 20
108.9628791028
 30
0.0
 10
90.2797629374
 20
114.3081635207
 30
0.0
 10
92.8336479793
 20
119.5545502715
 30
0.0
 10
95.8361417153
 20
124.5901086373
 30
0.0
 10
99.2232393337
 20
129.3073896982
 30
0.0
 10
102.9227429775
 20
133.6058564797
 30
0.0
 10
106.8561815244
 20
137.3941283706
 30
0.0
 10
110.9407516737
 20
140.5919241161
 30
0.0
 10
115.0917110036
 20
143.1314495038
 30
0.0
 10
119.2245308381
 20
144.9581468947
 30
0.0
 10
123.2576690225
 20
146.0293843902
 30
0.0
 10
127.1095529202
 20
146.3139366152
 30
0.0
 10
130.1378240055
 20
145.8682789482
 30
0.0
 10
132.3414834295
 20
145.1058743606
 30
0.0
 10
133.3675206785
 20
144.5983088433
 30
0.0
 10
133.8589493178
 20
144.3145882844
 30
0.0
  0
SPLINE
  5
253
100
AcDbEntity
  8
0
100
AcDbSpline
 62
7
  6
CONTINUOUS
 70
0
 71
3
 72
11
 73
7
 74
0
 42
0.0000001
 43
0.0000001
 44
0.0000000001
 40
0.0
 40
0.0
 40
0.0
 40
0.0
 40
0.2177231375
 40
0.4508717887
 40
0.7104673698
 40
1.0
 40
1.0
 40
1.0
 40
1.0
 10
105.7160918343
 20
111.4886755495
 30
0.0
 10
105.6336471951
 20
111.5362696795
 30
0.0
 10
105.4792598476
 20
111.6658267854
 30
0.0
 10
105.3149682942
 20
111.934512104
 30
0.0
 10
105.2175890424
 20
112.265556889
 30
0.0
 10
105.1982565728
 20
112.5064523744
 30
0.0
 10
105.1982565728
 20
112.6330462285
 30
0.0
  0
SPLINE
  5
254
100
AcDbEntity
  8
0
100
AcDbSpline
 62
7
  6
CONTINUOUS
 70
0
 71
3
 72
14
 73
10
 74
0
 42
0.0000001
 43
0.0000001
 44
0.0000000001
 40
0.0
 40
0.0
 40
0.0
 40
0.0
 40
0.2892803162
 40
0.4225396222
 40
0.5484941877
 40
0.66789379
 40
0.7818666586
 40
0.8919505049
 40
1.0
 40
1.0
 40
1.0
 40
1.0
 10
152.7500967948
 20
119.8795462432
 30
0.0
 10
152.7500967948
 20
121.9070429385
 30
0.0
 10
152.5133779196
 20
124.8830747323
 30
0.0
 10
151.5985090495
 20
128.6236581645
 30
0.0
 10
150.6675720823
 20
131.1161525717
 30
0.0
 10
149.4813514024
 20
133.3467497876
 30
0.0
 10
148.0484126452
 20
135.2928087625
 30
0.0
 10
146.3823006934
 20
136.932401602
 30
0.0
 10
145.1214323624
 20
137.8123340138
 30
0.0
 10
144.4655947115
 20
138.1909761285
 30
0.0
  0
SPLINE
  5
255
100
AcDbEntity
  8
0
100
AcDbSpline
 62
7
  6
CONTINUOUS
 70
0
 71
3
 72
11
 73
7
 74
0
 42
0.0000001
 43
0.0000001
 44
0.0000000001
 40
0.0
 40
0.0
 40
0.0
 40
0.0
 40
0.2895448512
 40
0.5491358493
 40
0.7822770651
 40
1.0
 40
1.0
 40
1.0
 40
1.0
 10
141.9658704466
 20
135.9019673268
 30
0.0
 10
142.0755046388
 20
135.9652642793
 30
0.0
 10
142.2937871804
 20
136.0689686249
 30
0.0
 10
142.6291585741
 20
136.1501488682
 30
0.0
 10
142.9439760057
 20
136.1422137942
 30
0.0
 10
143.1333572652
 20
136.0732920209
 30
0.0
 10
143.2157977835
 20
136.0256980375
 30
0.0
  0
SPLINE
  5
256
100
AcDbEntity
  8
0
100
AcDbSpline
 62
7
  6
CONTINUOUS
 70
0
 71
3
 72
11
 73
7
 74
0
 42
0.0000001
 43
0.0000001
 44
0.0000000001
 40
0.0
 40
0.0
 40
0.0
 40
0.0
 40
0.2895448512
 40
0.5491358493
 40
0.7822770651
 40
1.0
 40
1.0
 40
1.0
 40
1.0
 10
106.9660161658
 20
75.2801049355
 30
0.0
 10
107.075650358
 20
75.343401888
 30
0.0
 10
107.2939328996
 20
75.4471062336
 30
0.0
 10
107.6293042933
 20
75.5282864769
 30
0.0
 10
107.9441217249
 20
75.5203514029
 30
0.0
 10
108.1335029844
 20
75.4514296296
 30
0.0
 10
108.2159435027
 20
75.4038356462
 30
0.0
  0
SPLINE
  5
257
100
AcDbEntity
  8
0
100
AcDbSpline
 62
7
  6
CONTINUOUS
 70
0
 71
3
 72
16
 73
12
 74
0
 42
0.0000001
 43
0.0000001
 44
0.0000000001
 40
0.0
 40
0.0
 40
0.0
 40
0.0
 40
0.1287410646
 40
0.2704217334
 40
0.4176260079
 40
0.5620272452
 40
0.6957527047
 40
0.8130676178
 40
0.9124709781
 40
0.9571206991
 40
1.0
 40
1.0
 40
1.0
 40
1.0
 10
105.1982565728
 20
112.6330462285
 30
0.0
 10
105.1982565728
 20
112.8467246685
 30
0.0
 10
105.2580835965
 20
113.2960627347
 30
0.0
 10
105.4811319947
 20
113.9558044603
 30
0.0
 10
105.8250913723
 20
114.591299221
 30
0.0
 10
106.2616834168
 20
115.1504436863
 30
0.0
 10
106.7566899487
 20
115.5882532176
 30
0.0
 10
107.2716590684
 20
115.8707566175
 30
0.0
 10
107.708788796
 20
115.9560389426
 30
0.0
 10
108.0184893904
 20
115.9108111022
 30
0.0
 10
108.1543045557
 20
115.8542192385
 30
0.0
 10
108.2159404974
 20
115.8186376768
 30
0.0
  0
SPLINE
  5
258
100
AcDbEntity
  8
0
100
AcDbSpline
 62
7
  6
CONTINUOUS
 70
0
 71
3
 72
9
 73
5
 74
0
 42
0.0000001
 43
0.0000001
 44
0.0000000001
 40
0.0
 40
0.0
 40
0.0
 40
0.0
 40
0.4794643426
 40
1.0
 40
1.0
 40
1.0
 40
1.0
 10
126.5872724817
 20
77.8299853109
 30
0.0
 10
128.2337214822
 20
78.7805574104
 30
0.0
 10
131.4733071443
 20
81.1067445425
 30
0.0
 10
134.3077880155
 20
83.9002442162
 30
0.0
 10
135.6790052615
 20
85.442932876
 30
0.0
  0
SPLINE
  5
259
100
AcDbEntity
  8
0
100
AcDbSpline
 62
7
  6
CONTINUOUS
 70
0
 71
3
 72
15
 73
11
 74
0
 42
0.0000001
 43
0.0000001
 44
0.0000000001
 40
0.0
 40
0.0
 40
0.0
 40
0.0
 40
0.1567146171
 40
0.3055183644
 40
0.4448808037
 40
0.5738738292
 40
0.6923714857
 40
0.8012757004
 40
0.9027070073
 40
1.0
 40
1.0
 40
1.0
 40
1.0
 10
146.0305137578
 20
103.7554885032
 30
0.0
 10
146.4445660826
 20
105.090427238
 30
0.0
 10
147.1321328723
 20
107.7323590708
 30
0.0
 10
147.7331472001
 20
111.6618785553
 30
0.0
 10
147.8683751666
 20
115.3894323472
 30
0.0
 10
147.532792237
 20
118.8352717548
 30
0.0
 10
146.7294127044
 20
121.9265625417
 30
0.0
 10
145.4664930476
 20
124.5963439723
 30
0.0
 10
143.7620564911
 20
126.7775962649
 30
0.0
 10
142.338489683
 20
127.8721166497
 30
0.0
 10
141.5869913286
 20
128.305920279
 30
0.0
  0
SPLINE
  5
25A
100
AcDbEntity
  8
0
100
AcDbSpline
 62
7
  6
CONTINUOUS
 70
0
 71
3
 72
11
 73
7
 74
0
 42
0.0000001
 43
0.0000001
 44
0.0000000001
 40
0.0
 40
0.0
 40
0.0
 40
0.0
 40
0.2802190019
 40
0.5363733875
 40
0.7735085879
 40
1.0
 40
1.0
 40
1.0
 40
1.0
 10
136.0275056509
 20
108.5320216204
 30
0.0
 10
135.9590890632
 20
108.998695926
 30
0.0
 10
135.759601129
 20
109.8846346653
 30
0.0
 10
135.2323040571
 20
111.0854010322
 30
0.0
 10
134.4984909128
 20
112.0642968696
 30
0.0
 10
133.8744259344
 20
112.5515743813
 30
0.0
 10
133.5442512244
 20
112.7421526422
 30
0.0
  0
SPLINE
  5
25B
100
AcDbEntity
  8
0
100
AcDbSpline
 62
7
  6
CONTINUOUS
 70
0
 71
3
 72
16
 73
12
 74
0
 42
0.0000001
 43
0.0000001
 44
0.0000000001
 40
0.0
 40
0.0
 40
0.0
 40
0.0
 40
0.0428754974
 40
0.0875229036
 40
0.1869229067
 40
0.3042341567
 40
0.43795482
 40
0.5823566599
 40
0.7295682564
 40
0.8712589284
 40
1.0
 40
1.0
 40
1.0
 40
1.0
 10
105.7160888289
 20
71.0738621391
 30
0.0
 10
105.6544584485
 20
71.1094421592
 30
0.0
 10
105.537547036
 20
71.1987605429
 30
0.0
 10
105.3435318768
 20
71.4443405602
 30
0.0
 10
105.1988082958
 20
71.8655293472
 30
0.0
 10
105.1859573042
 20
72.4527436745
 30
0.0
 10
105.3175830525
 20
73.100335321
 30
0.0
 10
105.5835063041
 20
73.7580263304
 30
0.0
 10
105.9618772808
 20
74.3736978289
 30
0.0
 10
106.4217237894
 20
74.8967678393
 30
0.0
 10
106.7809630351
 20
75.1732650984
 30
0.0
 10
106.9660161658
 20
75.2801049355
 30
0.0
  0
SPLINE
  5
25C
100
AcDbEntity
  8
0
100
AcDbSpline
 62
7
  6
CONTINUOUS
 70
0
 71
3
 72
16
 73
12
 74
0
 42
0.0000001
 43
0.0000001
 44
0.0000000001
 40
0.0
 40
0.0
 40
0.0
 40
0.0
 40
0.0428754974
 40
0.0875229036
 40
0.1869229067
 40
0.3042341567
 40
0.43795482
 40
0.5823566599
 40
0.7295682564
 40
0.8712589284
 40
1.0
 40
1.0
 40
1.0
 40
1.0
 10
140.7159431097
 20
131.6957245304
 30
0.0
 10
140.6543127293
 20
131.7313045505
 30
0.0
 10
140.5374013168
 20
131.8206229342
 30
0.0
 10
140.3433861576
 20
132.0662029515
 30
0.0
 10
140.1986625766
 20
132.4873917384
 30
0.0
 10
140.185811585
 20
133.0746060658
 30
0.0
 10
140.3174373333
 20
133.7221977122
 30
0.0
 10
140.5833605849
 20
134.3798887217
 30
0.0
 10
140.9617315616
 20
134.9955602202
 30
0.0
 10
141.4215780702
 20
135.5186302306
 30
0.0
 10
141.7808173159
 20
135.7951274897
 30
0.0
 10
141.9658704466
 20
135.9019673268
 30
0.0
  0
SPLINE
  5
25D
100
AcDbEntity
  8
0
100
AcDbSpline
 62
7
  6
CONTINUOUS
 70
0
 71
3
 72
12
 73
8
 74
0
 42
0.0000001
 43
0.0000001
 44
0.0000000001
 40
0.0
 40
0.0
 40
0.0
 40
0.0
 40
0.2895528211
 40
0.548648261
 40
0.7816299128
 40
0.8918378759
 40
1.0
 40
1.0
 40
1.0
 40
1.0
 10
159.1142609591
 20
91.7108322007
 30
0.0
 10
159.1142609591
 20
92.2176411045
 30
0.0
 10
159.0373811031
 20
93.1813611217
 30
0.0
 10
158.6478932022
 20
94.5047795089
 30
0.0
 10
158.0876819236
 20
95.4177101846
 30
0.0
 10
157.5223648506
 20
95.9740571638
 30
0.0
 10
157.2070694147
 20
96.1939958779
 30
0.0
 10
157.0431143938
 20
96.2886532206
 30
0.0
  0
SPLINE
  5
25E
100
AcDbEntity
  8
0
100
AcDbSpline
 62
7
  6
CONTINUOUS
 70
0
 71
3
 72
11
 73
7
 74
0
 42
0.0000001
 43
0.0000001
 44
0.0000000001
 40
0.0
 40
0.0
 40
0.0
 40
0.0
 40
0.2177843137
 40
0.4509117637
 40
0.7102976701
 40
1.0
 40
1.0
 40
1.0
 40
1.0
 10
139.5829624481
 20
106.7602508363
 30
0.0
 10
139.6819200398
 20
106.8173836438
 30
0.0
 10
139.9092904915
 20
106.8998982428
 30
0.0
 10
140.2869489371
 20
106.9094604819
 30
0.0
 10
140.6894443317
 20
106.8122650194
 30
0.0
 10
140.9513117758
 20
106.6876895967
 30
0.0
 10
141.082948248
 20
106.6116909634
 30
0.0
  0
SPLINE
  5
25F
100
AcDbEntity
  8
0
100
AcDbSpline
 62
7
  6
CONTINUOUS
 70
0
 71
3
 72
11
 73
7
 74
0
 42
0.0000001
 43
0.0000001
 44
0.0000000001
 40
0.0
 40
0.0
 40
0.0
 40
0.0
 40
0.237239768
 40
0.4999988393
 40
0.7627585384
 40
1.0
 40
1.0
 40
1.0
 40
1.0
 10
156.6393622013
 20
97.6303943639
 30
0.0
 10
156.9405311818
 20
97.4565183055
 30
0.0
 10
157.5104525026
 20
96.9768574764
 30
0.0
 10
158.175628139
 20
96.0678748245
 30
0.0
 10
158.6302481636
 20
95.0373243224
 30
0.0
 10
158.7606913767
 20
94.3039253486
 30
0.0
 10
158.7606913767
 20
93.956164849
 30
0.0
  0
SPLINE
  5
260
100
AcDbEntity
  8
0
100
AcDbSpline
 62
7
  6
CONTINUOUS
 70
0
 71
3
 72
13
 73
9
 74
0
 42
0.0000001
 43
0.0000001
 44
0.0000000001
 40
0.0
 40
0.0
 40
0.0
 40
0.0
 40
0.1097574763
 40
0.2303207133
 40
0.4924413666
 40
0.7587568605
 40
0.8842124564
 40
1.0
 40
1.0
 40
1.0
 40
1.0
 10
149.3779709316
 20
84.8308707256
 30
0.0
 10
149.3496038813
 20
85.1027686452
 30
0.0
 10
149.3511410855
 20
85.6803627245
 30
0.0
 10
149.5550050851
 20
86.8937230316
 30
0.0
 10
150.1559879625
 20
88.4143537526
 30
0.0
 10
151.0954175902
 20
89.7655539924
 30
0.0
 10
152.0080876342
 20
90.6451617436
 30
0.0
 10
152.5005764418
 20
90.9951657515
 30
0.0
 10
152.7503323121
 20
91.1393615097
 30
0.0
  0
SPLINE
  5
261
100
AcDbEntity
  8
0
100
AcDbSpline
 62
7
  6
CONTINUOUS
 70
0
 71
3
 72
15
 73
11
 74
0
 42
0.0000001
 43
0.0000001
 44
0.0000000001
 40
0.0
 40
0.0
 40
0.0
 40
0.0
 40
0.11414697
 40
0.237335819
 40
0.3669762823
 40
0.499999491
 40
0.6330227724
 40
0.762663444
 40
0.8858526343
 40
1.0
 40
1.0
 40
1.0
 40
1.0
 10
152.7504422809
 20
79.8716916445
 30
0.0
 10
153.1860679304
 20
80.1232074962
 30
0.0
 10
154.0465637416
 20
80.7264941406
 30
0.0
 10
155.2306286095
 20
81.83417269
 30
0.0
 10
156.3216698514
 20
83.1437110251
 30
0.0
 10
157.2788518262
 20
84.6056242949
 30
0.0
 10
158.0662921211
 20
86.1655373369
 30
0.0
 10
158.654842601
 20
87.7651870715
 30
0.0
 10
159.0220665595
 20
89.3444658063
 30
0.0
 10
159.114266847
 20
90.3913247435
 30
0.0
 10
159.114266847
 20
90.8943472923
 30
0.0
  0
SPLINE
  5
262
100
AcDbEntity
  8
0
100
AcDbSpline
 62
7
  6
CONTINUOUS
 70
0
 71
3
 72
12
 73
8
 74
0
 42
0.0000001
 43
0.0000001
 44
0.0000000001
 40
0.0
 40
0.0
 40
0.0
 40
0.0
 40
0.1081628731
 40
0.2183714708
 40
0.4513537212
 40
0.7104486401
 40
1.0
 40
1.0
 40
1.0
 40
1.0
 10
147.0433307802
 20
78.9681281034
 30
0.0
 10
147.2072804344
 20
78.8734738591
 30
0.0
 10
147.5553916769
 20
78.7104006894
 30
0.0
 10
148.3198360901
 20
78.4990115086
 30
0.0
 10
149.3905210033
 20
78.4703253836
 30
0.0
 10
150.7313231903
 20
78.7947143008
 30
0.0
 10
151.6043321672
 20
79.2099745013
 30
0.0
 10
152.043222587
 20
79.4633664907
 30
0.0
  0
SPLINE
  5
263
100
AcDbEntity
  8
0
100
AcDbSpline
 62
7
  6
CONTINUOUS
 70
0
 71
3
 72
11
 73
7
 74
0
 42
0.0000001
 43
0.0000001
 44
0.0000000001
 40
0.0
 40
0.0
 40
0.0
 40
0.0
 40
0.2260954498
 40
0.4630398184
 40
0.719264623
 40
1.0
 40
1.0
 40
1.0
 40
1.0
 10
121.0445131892
 20
91.0914814982
 30
0.0
 10
121.378167576
 20
90.898894753
 30
0.0
 10
122.1208668442
 20
90.5996240074
 30
0.0
 10
123.3504476663
 20
90.4571206467
 30
0.0
 10
124.6699434111
 20
90.6101200572
 30
0.0
 10
125.5468140587
 20
90.8897167873
 30
0.0
 10
125.9901473614
 20
91.0693623143
 30
0.0
  0
SPLINE
  5
264
100
AcDbEntity
  8
0
100
AcDbSpline
 62
7
  6
CONTINUOUS
 70
0
 71
3
 72
13
 73
9
 74
0
 42
0.0000001
 43
0.0000001
 44
0.0000000001
 40
0.0
 40
0.0
 40
0.0
 40
0.0
 40
0.2350371855
 40
0.3637462851
 40
0.4964496298
 40
0.7604500727
 40
0.8850360669
 40
1.0
 40
1.0
 40
1.0
 40
1.0
 10
57.6794621497
 20
169.9261187237
 30
0.0
 10
58.22743494
 20
169.6097536429
 30
0.0
 10
59.1784649109
 20
169.2931493094
 30
0.0
 10
60.505973429
 20
169.1310651923
 30
0.0
 10
61.9236296244
 20
169.132411546
 30
0.0
 10
63.3208133086
 20
169.3649532186
 30
0.0
 10
64.6063680941
 20
169.8013165115
 30
0.0
 10
65.1896074741
 20
170.0819967707
 30
0.0
 10
65.4576367427
 20
170.2367426173
 30
0.0
  0
SPLINE
  5
265
100
AcDbEntity
  8
0
100
AcDbSpline
 62
7
  6
CONTINUOUS
 70
0
 71
3
 72
11
 73
7
 74
0
 42
0.0000001
 43
0.0000001
 44
0.0000000001
 40
0.0
 40
0.0
 40
0.0
 40
0.0
 40
0.2970352156
 40
0.5605084131
 40
0.7920294025
 40
1.0
 40
1.0
 40
1.0
 40
1.0
 10
65.4576367427
 20
170.2367426173
 30
0.0
 10
65.673632279
 20
170.361446954
 30
0.0
 10
66.0677574713
 20
170.6220306469
 30
0.0
 10
66.5586741519
 20
171.0761906305
 30
0.0
 10
66.9009890161
 20
171.563780317
 30
0.0
 10
67.022752339
 20
171.9196024026
 30
0.0
 10
67.0500021449
 20
172.0920886043
 30
0.0
  0
SPLINE
  5
266
100
AcDbEntity
  8
0
100
AcDbSpline
 62
7
  6
CONTINUOUS
 70
0
 71
3
 72
14
 73
10
 74
0
 42
0.0000001
 43
0.0000001
 44
0.0000000001
 40
0.0
 40
0.0
 40
0.0
 40
0.0
 40
0.108048084
 40
0.2181308448
 40
0.3321035562
 40
0.4515038327
 40
0.5774548591
 40
0.7107172323
 40
1.0
 40
1.0
 40
1.0
 40
1.0
 10
111.5875536348
 20
76.3441953704
 30
0.0
 10
112.0794248637
 20
76.0602619153
 30
0.0
 10
113.1236641648
 20
75.5711662042
 30
0.0
 10
114.8133780916
 20
75.1040319636
 30
0.0
 10
116.614638064
 20
74.9030088377
 30
0.0
 10
118.5081994548
 20
74.9690413818
 30
0.0
 10
120.4761465611
 20
75.2990237993
 30
0.0
 10
123.2487100827
 20
76.1074688237
 30
0.0
 10
125.2704142955
 20
77.0697014208
 30
0.0
 10
126.5872724817
 20
77.8299853109
 30
0.0
  0
SPLINE
  5
267
100
AcDbEntity
  8
0
100
AcDbSpline
 62
7
  6
CONTINUOUS
 70
0
 71
3
 72
14
 73
10
 74
0
 42
0.0000001
 43
0.0000001
 44
0.0000000001
 40
0.0
 40
0.0
 40
0.0
 40
0.0
 40
0.10804811
 40
0.2181307731
 40
0.3321026896
 40
0.4515017241
 40
0.5774558595
 40
0.7107157779
 40
1.0
 40
1.0
 40
1.0
 40
1.0
 10
93.8596455402
 20
75.0321945279
 30
0.0
 10
93.2038154599
 20
75.4108303298
 30
0.0
 10
91.942961148
 20
76.2907514463
 30
0.0
 10
90.2768648698
 20
77.9303242663
 30
0.0
 10
88.843927661
 20
79.8763605663
 30
0.0
 10
87.6577054912
 20
82.1069415984
 30
0.0
 10
86.7267582655
 20
84.599429092
 30
0.0
 10
85.8118667335
 20
88.3400367646
 30
0.0
 10
85.5751439405
 20
91.3161011939
 30
0.0
 10
85.5751439405
 20
93.3436252512
 30
0.0
  0
SPLINE
  5
268
100
AcDbEntity
  8
0
100
AcDbSpline
 62
7
  6
CONTINUOUS
 70
0
 71
3
 72
11
 73
7
 74
0
 42
0.0000001
 43
0.0000001
 44
0.0000000001
 40
0.0
 40
0.0
 40
0.0
 40
0.0
 40
0.2079703608
 40
0.4394836683
 40
0.7029611404
 40
1.0
 40
1.0
 40
1.0
 40
1.0
 10
36.3982950989
 20
119.0014151861
 30
0.0
 10
36.5340379301
 20
119.1112656357
 30
0.0
 10
36.781282594
 20
119.3946304916
 30
0.0
 10
37.0323825635
 20
119.9348704525
 30
0.0
 10
37.1802142215
 20
120.5870939157
 30
0.0
 10
37.208838446
 20
121.0587072613
 30
0.0
 10
37.208838446
 20
121.3081171059
 30
0.0
  0
SPLINE
  5
269
100
AcDbEntity
  8
0
100
AcDbSpline
 62
7
  6
CONTINUOUS
 70
0
 71
3
 72
14
 73
10
 74
0
 42
0.0000001
 43
0.0000001
 44
0.0000000001
 40
0.0
 40
0.0
 40
0.0
 40
0.0
 40
0.10804811
 40
0.2181307731
 40
0.3321026896
 40
0.4515017241
 40
0.5774558595
 40
0.7107157779
 40
1.0
 40
1.0
 40
1.0
 40
1.0
 10
28.8055508267
 20
112.5903439437
 30
0.0
 10
28.1497207463
 20
112.9689797457
 30
0.0
 10
26.8888664345
 20
113.8489008621
 30
0.0
 10
25.2227701563
 20
115.4884736822
 30
0.0
 10
23.7898329475
 20
117.4345099822
 30
0.0
 10
22.6036107776
 20
119.6650910142
 30
0.0
 10
21.6726635519
 20
122.1575785078
 30
0.0
 10
20.75777202
 20
125.8981861804
 30
0.0
 10
20.521049227
 20
128.8742506097
 30
0.0
 10
20.521049227
 20
130.9017746671
 30
0.0
  0
SPLINE
  5
26A
100
AcDbEntity
  8
0
100
AcDbSpline
 62
7
  6
CONTINUOUS
 70
0
 71
3
 72
15
 73
11
 74
0
 42
0.0000001
 43
0.0000001
 44
0.0000000001
 40
0.0
 40
0.0
 40
0.0
 40
0.0
 40
0.1151719462
 40
0.2385999634
 40
0.3679053433
 40
0.5002396153
 40
0.6325439324
 40
0.761752415
 40
0.885027776
 40
1.0
 40
1.0
 40
1.0
 40
1.0
 10
22.6522077897
 20
146.6248703374
 30
0.0
 10
22.686740347
 20
147.7073987044
 30
0.0
 10
22.9396601569
 20
149.9462199964
 30
0.0
 10
23.778053912
 20
153.311188217
 30
0.0
 10
25.0615905413
 20
156.7057075875
 30
0.0
 10
26.746467112
 20
160.0130786922
 30
0.0
 10
28.7749383493
 20
163.1205011968
 30
0.0
 10
31.0779809569
 20
165.9218064124
 30
0.0
 10
33.5762718591
 20
168.3208313858
 30
0.0
 10
35.3900603899
 20
169.6519176032
 30
0.0
 10
36.3106248532
 20
170.218976949
 30
0.0
  0
SPLINE
  5
26B
100
AcDbEntity
  8
0
100
AcDbSpline
 62
7
  6
CONTINUOUS
 70
0
 71
3
 72
12
 73
8
 74
0
 42
0.0000001
 43
0.0000001
 44
0.0000000001
 40
0.0
 40
0.0
 40
0.0
 40
0.0
 40
0.2895528211
 40
0.548648261
 40
0.7816299128
 40
0.8918378759
 40
1.0
 40
1.0
 40
1.0
 40
1.0
 10
144.9721842148
 20
83.5459491233
 30
0.0
 10
144.9721842148
 20
83.0391402196
 30
0.0
 10
145.0490640708
 20
82.0754202023
 30
0.0
 10
145.4385519718
 20
80.7520018151
 30
0.0
 10
145.9987632503
 20
79.8390711394
 30
0.0
 10
146.5640803234
 20
79.2827241602
 30
0.0
 10
146.8793757592
 20
79.0627854461
 30
0.0
 10
147.0433307802
 20
78.9681281034
 30
0.0
  0
SPLINE
  5
26C
100
AcDbEntity
  8
0
100
AcDbSpline
 62
7
  6
CONTINUOUS
 70
0
 71
3
 72
15
 73
11
 74
0
 42
0.0000001
 43
0.0000001
 44
0.0000000001
 40
0.0
 40
0.0
 40
0.0
 40
0.0
 40
0.1476166408
 40
0.280887999
 40
0.401350953
 40
0.5132166837
 40
0.6227845729
 40
0.7370589249
 40
0.8616776252
 40
1.0
 40
1.0
 40
1.0
 40
1.0
 10
146.3863977772
 20
83.5459525226
 30
0.0
 10
146.3863977772
 20
83.1222203597
 30
0.0
 10
146.4463664739
 20
82.3136205221
 30
0.0
 10
146.7477985291
 20
81.193179927
 30
0.0
 10
147.2543805591
 20
80.2605579801
 30
0.0
 10
147.9578727824
 20
79.5542623004
 30
0.0
 10
148.8335997494
 20
79.1135690879
 30
0.0
 10
149.8363031772
 20
78.958526658
 30
0.0
 10
150.9221745757
 20
79.0834070427
 30
0.0
 10
151.6409079331
 20
79.3314356883
 30
0.0
 10
152.0042019631
 20
79.4916498602
 30
0.0
  0
SPLINE
  5
26D
100
AcDbEntity
  8
0
100
AcDbSpline
 62
7
  6
CONTINUOUS
 70
0
 71
3
 72
9
 73
5
 74
0
 42
0.0000001
 43
0.0000001
 44
0.0000000001
 40
0.0
 40
0.0
 40
0.0
 40
0.0
 40
0.244446713
 40
1.0
 40
1.0
 40
1.0
 40
1.0
 10
152.0042019631
 20
79.4916498602
 30
0.0
 10
152.0666446326
 20
79.5191873361
 30
0.0
 10
152.3204522306
 20
79.6355317037
 30
0.0
 10
152.5676552889
 20
79.7661601543
 30
0.0
 10
152.7503323121
 20
79.8716281533
 30
0.0
  0
SPLINE
  5
26E
100
AcDbEntity
  8
0
100
AcDbSpline
 62
7
  6
CONTINUOUS
 70
0
 71
3
 72
9
 73
5
 74
0
 42
0.0000001
 43
0.0000001
 44
0.0000000001
 40
0.0
 40
0.0
 40
0.0
 40
0.0
 40
0.2558169225
 40
1.0
 40
1.0
 40
1.0
 40
1.0
 10
159.114266847
 20
90.8943472923
 30
0.0
 10
159.114266847
 20
90.9685285823
 30
0.0
 10
159.1104312668
 20
91.2584858133
 30
0.0
 10
159.0910021067
 20
91.5483002492
 30
0.0
 10
159.066704011
 20
91.7627246884
 30
0.0
  0
SPLINE
  5
26F
100
AcDbEntity
  8
0
100
AcDbSpline
 62
7
  6
CONTINUOUS
 70
0
 71
3
 72
18
 73
14
 74
0
 42
0.0000001
 43
0.0000001
 44
0.0000000001
 40
0.0
 40
0.0
 40
0.0
 40
0.0
 40
0.123996017
 40
0.2325244403
 40
0.2833803819
 40
0.3335293104
 40
0.3844210216
 40
0.4374017517
 40
0.493555723
 40
0.5536247218
 40
0.686598604
 40
0.8365334562
 40
1.0
 40
1.0
 40
1.0
 40
1.0
 10
159.066704011
 20
91.7627246884
 30
0.0
 10
159.0084625857
 20
92.276690274
 30
0.0
 10
158.7945703596
 20
93.2359450357
 30
0.0
 10
158.1778651057
 20
94.2769282797
 30
0.0
 10
157.522557385
 20
94.864367111
 30
0.0
 10
156.9688199109
 20
95.182091935
 30
0.0
 10
156.3527327734
 20
95.3797549027
 30
0.0
 10
155.6855016868
 20
95.4553513326
 30
0.0
 10
154.9778721366
 20
95.4089657255
 30
0.0
 10
153.9603129779
 20
95.1799041877
 30
0.0
 10
152.6455676612
 20
94.5776721915
 30
0.0
 10
151.137639887
 20
93.4700616928
 30
0.0
 10
150.2217717974
 20
92.5282440249
 30
0.0
 10
149.7822707256
 20
92.0068637722
 30
0.0
  0
SPLINE
  5
270
100
AcDbEntity
  8
0
100
AcDbSpline
 62
7
  6
CONTINUOUS
 70
0
 71
3
 72
9
 73
5
 74
0
 42
0.0000001
 43
0.0000001
 44
0.0000000001
 40
0.0
 40
0.0
 40
0.0
 40
0.0
 40
0.5020389381
 40
1.0
 40
1.0
 40
1.0
 40
1.0
 10
149.1813309794
 20
91.2436590942
 30
0.0
 10
148.75444156
 20
90.6633487376
 30
0.0
 10
147.9857268296
 20
89.4455273678
 30
0.0
 10
147.3909989781
 20
88.133676045
 30
0.0
 10
147.1448283573
 20
87.4628573284
 30
0.0
  0
SPLINE
  5
271
100
AcDbEntity
  8
0
100
AcDbSpline
 62
7
  6
CONTINUOUS
 70
0
 71
3
 72
9
 73
5
 74
0
 42
0.0000001
 43
0.0000001
 44
0.0000000001
 40
0.0
 40
0.0
 40
0.0
 40
0.0
 40
0.5207981307
 40
1.0
 40
1.0
 40
1.0
 40
1.0
 10
147.0240146008
 20
87.1201231284
 30
0.0
 10
146.8215358956
 20
86.5211019112
 30
0.0
 10
146.5096676087
 20
85.3429700307
 30
0.0
 10
146.3863977772
 20
84.1277656834
 30
0.0
 10
146.3863977772
 20
83.5459525226
 30
0.0
  0
SPLINE
  5
272
100
AcDbEntity
  8
0
100
AcDbSpline
 62
7
  6
CONTINUOUS
 70
0
 71
3
 72
15
 73
11
 74
0
 42
0.0000001
 43
0.0000001
 44
0.0000000001
 40
0.0
 40
0.0
 40
0.0
 40
0.0
 40
0.1474851525
 40
0.2806851882
 40
0.4010031393
 40
0.5127548083
 40
0.6222931777
 40
0.73664606
 40
0.8614806624
 40
1.0
 40
1.0
 40
1.0
 40
1.0
 10
152.7503323121
 20
83.3009383053
 30
0.0
 10
152.5541030281
 20
83.1876459516
 30
0.0
 10
152.1634544229
 20
82.9993509301
 30
0.0
 10
151.5638333617
 20
82.8397840046
 30
0.0
 10
150.9963994735
 20
82.8261048271
 30
0.0
 10
150.481612574
 20
82.9648950409
 30
0.0
 10
150.0443822391
 20
83.2548552521
 30
0.0
 10
149.7060432097
 20
83.6801526354
 30
0.0
 10
149.4757598405
 20
84.2187446865
 30
0.0
 10
149.4000536292
 20
84.6192082693
 30
0.0
 10
149.3779709316
 20
84.8308707256
 30
0.0
  0
SPLINE
  5
273
100
AcDbEntity
  8
0
100
AcDbSpline
 62
7
  6
CONTINUOUS
 70
0
 71
3
 72
11
 73
7
 74
0
 42
0.0000001
 43
0.0000001
 44
0.0000000001
 40
0.0
 40
0.0
 40
0.0
 40
0.0
 40
0.2844897972
 40
0.5444125758
 40
0.7809784156
 40
1.0
 40
1.0
 40
1.0
 40
1.0
 10
150.7704250817
 20
85.7504162853
 30
0.0
 10
150.6518681005
 20
85.6819677889
 30
0.0
 10
150.4155673605
 20
85.5661771948
 30
0.0
 10
150.0532897512
 20
85.4585645585
 30
0.0
 10
149.7074886733
 20
85.4293324036
 30
0.0
 10
149.4881519231
 20
85.4651730697
 30
0.0
 10
149.387614837
 20
85.4967989936
 30
0.0
  0
SPLINE
  5
274
100
AcDbEntity
  8
0
100
AcDbSpline
 62
7
  6
CONTINUOUS
 70
0
 71
3
 72
16
 73
12
 74
0
 42
0.0000001
 43
0.0000001
 44
0.0000000001
 40
0.0
 40
0.0
 40
0.0
 40
0.0
 40
0.0428754974
 40
0.0875229036
 40
0.1869229067
 40
0.3042341567
 40
0.43795482
 40
0.5823566599
 40
0.7295682564
 40
0.8712589284
 40
1.0
 40
1.0
 40
1.0
 40
1.0
 10
143.2157977835
 20
136.0256980375
 30
0.0
 10
143.277428164
 20
135.9901180174
 30
0.0
 10
143.3943395765
 20
135.9007996337
 30
0.0
 10
143.5883547356
 20
135.6552196164
 30
0.0
 10
143.7330783167
 20
135.2340308294
 30
0.0
 10
143.7459293083
 20
134.6468165021
 30
0.0
 10
143.61430356
 20
133.9992248556
 30
0.0
 10
143.3483803083
 20
133.3415338462
 30
0.0
 10
142.9700093317
 20
132.7258623477
 30
0.0
 10
142.5101628231
 20
132.2027923373
 30
0.0
 10
142.1509235774
 20
131.9262950782
 30
0.0
 10
141.9658704466
 20
131.8194552411
 30
0.0
  0
SPLINE
  5
275
100
AcDbEntity
  8
0
100
AcDbSpline
 62
7
  6
CONTINUOUS
 70
0
 71
3
 72
18
 73
14
 74
0
 42
0.0000001
 43
0.0000001
 44
0.0000000001
 40
0.0
 40
0.0
 40
0.0
 40
0.0
 40
0.129361258
 40
0.2714033199
 40
0.4200795716
 40
0.5672300863
 40
0.7038654834
 40
0.7657619362
 40
0.8223688651
 40
0.8734280602
 40
0.9192287057
 40
0.9608126204
 40
1.0
 40
1.0
 40
1.0
 40
1.0
 10
29.4306314694
 20
125.7987654056
 30
0.0
 10
29.4306314694
 20
125.3315658949
 30
0.0
 10
29.5806400921
 20
124.3498229798
 30
0.0
 10
30.1374446755
 20
122.9290667701
 30
0.0
 10
30.9748730517
 20
121.578187099
 30
0.0
 10
32.0033796865
 20
120.3949034217
 30
0.0
 10
32.9674289059
 20
119.5901915049
 30
0.0
 10
33.756168137
 20
119.110727646
 30
0.0
 10
34.3140788606
 20
118.85426627
 30
0.0
 10
34.8472138159
 20
118.6947355236
 30
0.0
 10
35.3472648385
 20
118.6375264927
 30
0.0
 10
35.8061086173
 20
118.6874735657
 30
0.0
 10
36.0813358168
 20
118.7970520277
 30
0.0
 10
36.2039162447
 20
118.8677937994
 30
0.0
  0
SPLINE
  5
276
100
AcDbEntity
  8
0
100
AcDbSpline
 62
7
  6
CONTINUOUS
 70
0
 71
3
 72
11
 73
7
 74
0
 42
0.0000001
 43
0.0000001
 44
0.0000000001
 40
0.0
 40
0.0
 40
0.0
 40
0.0
 40
0.2432202796
 40
0.4994797768
 40
0.7560456811
 40
1.0
 40
1.0
 40
1.0
 40
1.0
 10
149.7159529239
 20
87.0028521543
 30
0.0
 10
149.9293526624
 20
87.1819253921
 30
0.0
 10
150.3305965716
 20
87.5949253954
 30
0.0
 10
150.8253489839
 20
88.3098149432
 30
0.0
 10
151.2027646635
 20
89.0939665615
 30
0.0
 10
151.3641715814
 20
89.6478735382
 30
0.0
 10
151.4151368631
 20
89.9226067796
 30
0.0
  0
SPLINE
  5
277
100
AcDbEntity
  8
0
100
AcDbSpline
 62
7
  6
CONTINUOUS
 70
0
 71
3
 72
17
 73
13
 74
0
 42
0.0000001
 43
0.0000001
 44
0.0000000001
 40
0.0
 40
0.0
 40
0.0
 40
0.0
 40
0.1270535695
 40
0.2666411775
 40
0.4120730439
 40
0.5556106567
 40
0.6898564187
 40
0.809091959
 40
0.8623302906
 40
0.9113911487
 40
0.9569123134
 40
1.0
 40
1.0
 40
1.0
 40
1.0
 10
29.784183388
 20
126.0028874825
 30
0.0
 10
29.784183388
 20
125.5491778461
 30
0.0
 10
29.9067330161
 20
124.5959040696
 30
0.0
 10
30.3673026901
 20
123.1913439089
 30
0.0
 10
31.0800326276
 20
121.8293279713
 30
0.0
 10
31.9911611716
 20
120.6146411144
 30
0.0
 10
33.0306911418
 20
119.6396284987
 30
0.0
 10
33.9781221731
 20
119.0654614428
 30
0.0
 10
34.7299407533
 20
118.8099083847
 30
0.0
 10
35.2539700632
 20
118.7251941205
 30
0.0
 10
35.7487449726
 20
118.7431693774
 30
0.0
 10
36.0576190129
 20
118.8266719839
 30
0.0
 10
36.2000062562
 20
118.8849883481
 30
0.0
  0
SPLINE
  5
278
100
AcDbEntity
  8
0
100
AcDbSpline
 62
7
  6
CONTINUOUS
 70
0
 71
3
 72
15
 73
11
 74
0
 42
0.0000001
 43
0.0000001
 44
0.0000000001
 40
0.0
 40
0.0
 40
0.0
 40
0.0
 40
0.0892976453
 40
0.1930857234
 40
0.3136388175
 40
0.4482589425
 40
0.5912911501
 40
0.7356309641
 40
0.8739783901
 40
1.0
 40
1.0
 40
1.0
 40
1.0
 10
152.5652155011
 20
90.9905284485
 30
0.0
 10
152.6990346266
 20
90.86644442
 30
0.0
 10
152.9212509042
 20
90.5235549751
 30
0.0
 10
153.0546174164
 20
89.887284935
 30
0.0
 10
153.0182705435
 20
89.1484581804
 30
0.0
 10
152.8169004612
 20
88.3553846401
 30
0.0
 10
152.4662868063
 20
87.5634166102
 30
0.0
 10
151.9915654718
 20
86.8298129114
 30
0.0
 10
151.4279368898
 20
86.2084664543
 30
0.0
 10
150.993467329
 20
85.8791890182
 30
0.0
 10
150.7704250817
 20
85.7504162853
 30
0.0
  0
SPLINE
  5
279
100
AcDbEntity
  8
0
100
AcDbSpline
 62
7
  6
CONTINUOUS
 70
0
 71
3
 72
20
 73
16
 74
0
 42
0.0000001
 43
0.0000001
 44
0.0000000001
 40
0.0
 40
0.0
 40
0.0
 40
0.0
 40
0.0568499892
 40
0.1078423094
 40
0.1545186869
 40
0.1994799664
 40
0.2458458256
 40
0.2963087702
 40
0.3524748505
 40
0.4148299018
 40
0.4829761303
 40
0.5558780038
 40
0.7095817987
 40
0.8621916992
 40
1.0
 40
1.0
 40
1.0
 40
1.0
 10
153.1332444997
 20
91.3353095033
 30
0.0
 10
153.334862395
 20
91.4252428183
 30
0.0
 10
153.7336328472
 20
91.5636541894
 30
0.0
 10
154.3365482633
 20
91.627960758
 30
0.0
 10
154.8905361355
 20
91.5290441273
 30
0.0
 10
155.3681871741
 20
91.2644136137
 30
0.0
 10
155.7424315127
 20
90.8482258808
 30
0.0
 10
156.0002602424
 20
90.3055681014
 30
0.0
 10
156.138795142
 20
89.6593703846
 30
0.0
 10
156.1572379323
 20
88.9313552674
 30
0.0
 10
156.056469242
 20
88.1452372481
 30
0.0
 10
155.7630801896
 20
87.0362710496
 30
0.0
 10
155.1370501414
 20
85.6883044789
 30
0.0
 10
154.0945653342
 20
84.3006116812
 30
0.0
 10
153.2137889736
 20
83.5685135364
 30
0.0
 10
152.7503323121
 20
83.3009383053
 30
0.0
  0
SPLINE
  5
27A
100
AcDbEntity
  8
0
100
AcDbSpline
 62
7
  6
CONTINUOUS
 70
0
 71
3
 72
18
 73
14
 74
0
 42
0.0000001
 43
0.0000001
 44
0.0000000001
 40
0.0
 40
0.0
 40
0.0
 40
0.0
 40
0.0428470069
 40
0.0874650493
 40
0.1352870157
 40
0.1872368368
 40
0.2437293977
 40
0.3047359391
 40
0.4383694723
 40
0.5826762945
 40
0.7297930929
 40
0.8713425275
 40
1.0
 40
1.0
 40
1.0
 40
1.0
 10
122.2945017875
 20
93.2565742366
 30
0.0
 10
122.047971973
 20
93.3989078367
 30
0.0
 10
121.5806076159
 20
93.7565703896
 30
0.0
 10
121.0181910115
 20
94.4677402513
 30
0.0
 10
120.597993923
 20
95.3374979201
 30
0.0
 10
120.325796833
 20
96.3445155678
 30
0.0
 10
120.2046132794
 20
97.4677218392
 30
0.0
 10
120.247543674
 20
99.1395885665
 30
0.0
 10
120.7011930503
 20
101.3636883482
 30
0.0
 10
121.7642082129
 20
103.9938852049
 30
0.0
 10
123.2781911191
 20
106.4564140726
 30
0.0
 10
125.1172115348
 20
108.5487080025
 30
0.0
 10
126.5541222177
 20
109.6544544887
 30
0.0
 10
127.2943822068
 20
110.0818412415
 30
0.0
  0
SPLINE
  5
27B
100
AcDbEntity
  8
0
100
AcDbSpline
 62
7
  6
CONTINUOUS
 70
0
 71
3
 72
18
 73
14
 74
0
 42
0.0000001
 43
0.0000001
 44
0.0000000001
 40
0.0
 40
0.0
 40
0.0
 40
0.0
 40
0.0391853583
 40
0.0807677118
 40
0.1265679028
 40
0.1776276357
 40
0.2342349555
 40
0.2961310941
 40
0.432765112
 40
0.5799175446
 40
0.728595573
 40
0.8706346217
 40
1.0
 40
1.0
 40
1.0
 40
1.0
 10
67.068514232
 20
172.3271035064
 30
0.0
 10
67.0684895712
 20
172.4686247401
 30
0.0
 10
67.0257754299
 20
172.7617549951
 30
0.0
 10
66.8396098579
 20
173.1840828019
 30
0.0
 10
66.5400409861
 20
173.5885285148
 30
0.0
 10
66.1353128483
 20
173.9704704703
 30
0.0
 10
65.6342490728
 20
174.325399118
 30
0.0
 10
64.8246485911
 20
174.7687179317
 30
0.0
 10
63.6457250509
 20
175.2012552186
 30
0.0
 10
62.1067079524
 20
175.5003167712
 30
0.0
 10
60.518097936
 20
175.5501089477
 30
0.0
 10
59.0092728411
 20
175.32195725
 30
0.0
 10
58.0840495672
 20
174.9609968737
 30
0.0
 10
57.6794297661
 20
174.7273909171
 30
0.0
  0
SPLINE
  5
27C
100
AcDbEntity
  8
0
100
AcDbSpline
 62
7
  6
CONTINUOUS
 70
0
 71
3
 72
12
 73
8
 74
0
 42
0.0000001
 43
0.0000001
 44
0.0000000001
 40
0.0
 40
0.0
 40
0.0
 40
0.0
 40
0.1081628731
 40
0.2183714708
 40
0.4513537212
 40
0.7104486401
 40
1.0
 40
1.0
 40
1.0
 40
1.0
 10
157.0431143938
 20
96.2886532206
 30
0.0
 10
156.8791647396
 20
96.3833074649
 30
0.0
 10
156.531053497
 20
96.5463806346
 30
0.0
 10
155.7666090838
 20
96.7577698154
 30
0.0
 10
154.6959241706
 20
96.7864559404
 30
0.0
 10
153.3551219836
 20
96.4620670232
 30
0.0
 10
152.4821130067
 20
96.0468068227
 30
0.0
 10
152.043222587
 20
95.7934148333
 30
0.0
  0
SPLINE
  5
27D
100
AcDbEntity
  8
0
100
AcDbSpline
 62
7
  6
CONTINUOUS
 70
0
 71
3
 72
17
 73
13
 74
0
 42
0.0000001
 43
0.0000001
 44
0.0000000001
 40
0.0
 40
0.0
 40
0.0
 40
0.0
 40
0.0430857563
 40
0.0886064863
 40
0.1376686149
 40
0.1909078353
 40
0.3101444835
 40
0.4443884595
 40
0.5879258007
 40
0.7333603293
 40
0.8729493548
 40
1.0
 40
1.0
 40
1.0
 40
1.0
 10
67.0516122891
 20
172.3223317463
 30
0.0
 10
67.0308902149
 20
172.4747830981
 30
0.0
 10
66.9486828008
 20
172.7839801292
 30
0.0
 10
66.7168165378
 20
173.2214002347
 30
0.0
 10
66.3813659276
 20
173.6327877781
 30
0.0
 10
65.7841111664
 20
174.1560332023
 30
0.0
 10
64.8131421435
 20
174.6893346329
 30
0.0
 10
63.4490384511
 20
175.1020082986
 30
0.0
 10
61.941580925
 20
175.283676688
 30
0.0
 10
60.4057281188
 20
175.219888812
 30
0.0
 10
58.9591187549
 20
174.9164693544
 30
0.0
 10
58.0723289046
 20
174.5459787778
 30
0.0
 10
57.6794297661
 20
174.3191397085
 30
0.0
  0
SPLINE
  5
27E
100
AcDbEntity
  8
0
100
AcDbSpline
 62
7
  6
CONTINUOUS
 70
0
 71
3
 72
19
 73
15
 74
0
 42
0.0000001
 43
0.0000001
 44
0.0000000001
 40
0.0
 40
0.0
 40
0.0
 40
0.0
 40
0.0428405773
 40
0.0874502265
 40
0.135263424
 40
0.1872058028
 40
0.2436867122
 40
0.3046812563
 40
0.3698200271
 40
0.4384701057
 40
0.5827521311
 40
0.7298414473
 40
0.8713670817
 40
1.0
 40
1.0
 40
1.0
 40
1.0
 10
120.3374004906
 20
91.4997171001
 30
0.0
 10
120.0292096035
 20
91.6776054564
 30
0.0
 10
119.4451052868
 20
92.1248385549
 30
0.0
 10
118.7419994377
 20
93.013705041
 30
0.0
 10
118.2166811111
 20
94.1008995238
 30
0.0
 10
117.8765939323
 20
95.3597325828
 30
0.0
 10
117.725110582
 20
96.7636580827
 30
0.0
 10
117.7637605424
 20
98.2838244282
 30
0.0
 10
117.9909801965
 20
99.8889775367
 30
0.0
 10
118.5477412498
 20
102.1339542021
 30
0.0
 10
119.6750007255
 20
104.9221722885
 30
0.0
 10
121.5668741551
 20
107.9994144204
 30
0.0
 10
123.8658660968
 20
110.6149614332
 30
0.0
 10
125.6619580331
 20
111.9971106818
 30
0.0
 10
126.5872724817
 20
112.5313380389
 30
0.0
  0
SPLINE
  5
27F
100
AcDbEntity
  8
0
100
AcDbSpline
 62
7
  6
CONTINUOUS
 70
0
 71
3
 72
12
 73
8
 74
0
 42
0.0000001
 43
0.0000001
 44
0.0000000001
 40
0.0
 40
0.0
 40
0.0
 40
0.0
 40
0.1081599992
 40
0.2183625935
 40
0.4513578019
 40
0.7104312243
 40
1.0
 40
1.0
 40
1.0
 40
1.0
 10
133.5442512244
 20
112.7421526422
 30
0.0
 10
133.3393075216
 20
112.8604470278
 30
0.0
 10
132.9041615933
 20
113.064207674
 30
0.0
 10
131.9486614342
 20
113.3286834496
 30
0.0
 10
130.6103003044
 20
113.3643264959
 30
0.0
 10
128.9342711528
 20
112.9589941568
 30
0.0
 10
127.8430289831
 20
112.4398567575
 30
0.0
 10
127.2943822068
 20
112.1230972843
 30
0.0
  0
SPLINE
  5
280
100
AcDbEntity
  8
0
100
AcDbSpline
 62
7
  6
CONTINUOUS
 70
0
 71
3
 72
14
 73
10
 74
0
 42
0.0000001
 43
0.0000001
 44
0.0000000001
 40
0.0
 40
0.0
 40
0.0
 40
0.0
 40
0.108048084
 40
0.2181308448
 40
0.3321035562
 40
0.4515038327
 40
0.5774548591
 40
0.7107172323
 40
1.0
 40
1.0
 40
1.0
 40
1.0
 10
141.5869913286
 20
128.305920279
 30
0.0
 10
141.0951200997
 20
128.5898537341
 30
0.0
 10
140.0508807985
 20
129.0789494453
 30
0.0
 10
138.3611668717
 20
129.5460836859
 30
0.0
 10
136.5599068994
 20
129.7471068118
 30
0.0
 10
134.6663455086
 20
129.6810742677
 30
0.0
 10
132.6983984023
 20
129.3510918502
 30
0.0
 10
129.9258348806
 20
128.5426468258
 30
0.0
 10
127.9041306679
 20
127.5804142286
 30
0.0
 10
126.5872724817
 20
126.8201303386
 30
0.0
  0
SPLINE
  5
281
100
AcDbEntity
  8
0
100
AcDbSpline
 62
7
  6
CONTINUOUS
 70
0
 71
3
 72
11
 73
7
 74
0
 42
0.0000001
 43
0.0000001
 44
0.0000000001
 40
0.0
 40
0.0
 40
0.0
 40
0.0
 40
0.2794138812
 40
0.5354146027
 40
0.7728407641
 40
1.0
 40
1.0
 40
1.0
 40
1.0
 10
57.6794297661
 20
174.7273909171
 30
0.0
 10
57.4357636011
 20
174.5867110308
 30
0.0
 10
56.9920414516
 20
174.272530623
 30
0.0
 10
56.4693233057
 20
173.6854637741
 30
0.0
 10
56.1432709405
 20
173.0265865702
 30
0.0
 10
56.0685474078
 20
172.555876577
 30
0.0
 10
56.0685481457
 20
172.3271343371
 30
0.0
  0
SPLINE
  5
282
100
AcDbEntity
  8
0
100
AcDbSpline
 62
7
  6
CONTINUOUS
 70
0
 71
3
 72
23
 73
19
 74
0
 42
0.0000001
 43
0.0000001
 44
0.0000000001
 40
0.0
 40
0.0
 40
0.0
 40
0.0
 40
0.042814969
 40
0.0873973813
 40
0.1351806127
 40
0.1870900395
 40
0.2435366896
 40
0.3044941514
 40
0.3695921252
 40
0.4382002274
 40
0.5094979807
 40
0.5825338342
 40
0.6562774059
 40
0.7296652568
 40
0.801653082
 40
0.8712549506
 40
0.9376088041
 40
1.0
 40
1.0
 40
1.0
 40
1.0
 10
109.4662245248
 20
77.5689177808
 30
0.0
 10
108.7265600651
 20
77.9958894314
 30
0.0
 10
107.3245447581
 20
79.0691075072
 30
0.0
 10
105.6372819361
 20
81.2026245201
 30
0.0
 10
104.3765043485
 20
83.8118563793
 30
0.0
 10
103.5601447583
 20
86.8330461869
 30
0.0
 10
103.1966693866
 20
90.2025137371
 30
0.0
 10
103.2895234041
 20
93.8509990419
 30
0.0
 10
103.8348032733
 20
97.7032290728
 30
0.0
 10
104.8203035571
 20
101.6787054293
 30
0.0
 10
106.2249051124
 20
105.6935476922
 30
0.0
 10
108.0186787385
 20
109.6625220233
 30
0.0
 10
110.1633992341
 20
113.5010246653
 30
0.0
 10
112.6132699403
 20
117.1272432804
 30
0.0
 10
115.316102459
 20
120.463693658
 30
0.0
 10
118.2145917429
 20
123.4398085163
 30
0.0
 10
121.2468935717
 20
125.9915881711
 30
0.0
 10
123.388128097
 20
127.4225794155
 30
0.0
 10
124.4659433062
 20
128.0448526022
 30
0.0
  0
SPLINE
  5
283
100
AcDbEntity
  8
0
100
AcDbSpline
 62
7
  6
CONTINUOUS
 70
0
 71
3
 72
11
 73
7
 74
0
 42
0.0000001
 43
0.0000001
 44
0.0000000001
 40
0.0
 40
0.0
 40
0.0
 40
0.0
 40
0.2869203905
 40
0.5466958109
 40
0.7818472769
 40
1.0
 40
1.0
 40
1.0
 40
1.0
 10
57.6794297661
 20
174.3191397085
 30
0.0
 10
57.4600747244
 20
174.1924957721
 30
0.0
 10
57.0585804183
 20
173.9201020592
 30
0.0
 10
56.5644432866
 20
173.4314826372
 30
0.0
 10
56.2244818286
 20
172.8942256858
 30
0.0
 10
56.1091849877
 20
172.5038987087
 30
0.0
 10
56.0841720621
 20
172.3129480379
 30
0.0
  0
SPLINE
  5
284
100
AcDbEntity
  8
0
100
AcDbSpline
 62
7
  6
CONTINUOUS
 70
0
 71
3
 72
14
 73
10
 74
0
 42
0.0000001
 43
0.0000001
 44
0.0000000001
 40
0.0
 40
0.0
 40
0.0
 40
0.0
 40
0.2892803162
 40
0.4225396222
 40
0.5484941877
 40
0.66789379
 40
0.7818666586
 40
0.8919505049
 40
1.0
 40
1.0
 40
1.0
 40
1.0
 10
96.1817898177
 20
87.2200139334
 30
0.0
 10
96.1817898177
 20
85.1925172381
 30
0.0
 10
96.4185086928
 20
82.2164854442
 30
0.0
 10
97.333377563
 20
78.4759020121
 30
0.0
 10
98.2643145302
 20
75.9834076049
 30
0.0
 10
99.4505352101
 20
73.752810389
 30
0.0
 10
100.8834739673
 20
71.8067514141
 30
0.0
 10
102.5495859191
 20
70.1671585746
 30
0.0
 10
103.81045425
 20
69.2872261628
 30
0.0
 10
104.4662919009
 20
68.9085840481
 30
0.0
  0
SPLINE
  5
285
100
AcDbEntity
  8
0
100
AcDbSpline
 62
7
  6
CONTINUOUS
 70
0
 71
3
 72
14
 73
10
 74
0
 42
0.0000001
 43
0.0000001
 44
0.0000000001
 40
0.0
 40
0.0
 40
0.0
 40
0.0
 40
0.289279395
 40
0.4225409373
 40
0.5484923015
 40
0.6678931079
 40
0.781866592
 40
0.8919504863
 40
1.0
 40
1.0
 40
1.0
 40
1.0
 10
124.4659433062
 20
128.0448526022
 30
0.0
 10
125.782786199
 20
128.8051276626
 30
0.0
 10
127.804469457
 20
129.7673508722
 30
0.0
 10
130.5770101507
 20
130.5758020575
 30
0.0
 10
132.5449564874
 20
130.9057898736
 30
0.0
 10
134.4385261956
 20
130.9718349917
 30
0.0
 10
136.2397997626
 20
130.7708145647
 30
0.0
 10
137.9295317863
 20
130.3036794747
 30
0.0
 10
138.9737840851
 20
129.8145791997
 30
0.0
 10
139.4656620877
 20
129.5306423958
 30
0.0
  0
SPLINE
  5
286
100
AcDbEntity
  8
0
100
AcDbSpline
 62
7
  6
CONTINUOUS
 70
0
 71
3
 72
24
 73
20
 74
0
 42
0.0000001
 43
0.0000001
 44
0.0000000001
 40
0.0
 40
0.0
 40
0.0
 40
0.0
 40
0.0213340653
 40
0.042896379
 40
0.0874750111
 40
0.1352542296
 40
0.1871593302
 40
0.2436012548
 40
0.3045535015
 40
0.3696457384
 40
0.4382476587
 40
0.5095389899
 40
0.582568342
 40
0.6563055189
 40
0.7296878156
 40
0.8016689504
 40
0.8712659442
 40
0.937612143
 40
1.0
 40
1.0
 40
1.0
 40
1.0
 10
144.4655947115
 20
138.1909761285
 30
0.0
 10
143.9741585892
 20
138.4747024628
 30
0.0
 10
142.948100873
 20
138.982270905
 30
0.0
 10
140.7444015593
 20
139.744684455
 30
0.0
 10
137.7160724066
 20
140.1903266275
 30
0.0
 10
133.8641284089
 20
139.9057365858
 30
0.0
 10
129.830946342
 20
138.8344485418
 30
0.0
 10
125.6981056921
 20
137.0077013525
 30
0.0
 10
121.5471503844
 20
134.4681379062
 30
0.0
 10
117.4626083663
 20
131.2703254665
 30
0.0
 10
113.529217343
 20
127.4820645728
 30
0.0
 10
109.8297722313
 20
123.1836363355
 30
0.0
 10
106.4427330507
 20
118.4664146334
 30
0.0
 10
103.4402868518
 20
113.4309240108
 30
0.0
 10
100.8864305098
 20
108.1845978535
 30
0.0
 10
98.835735179
 20
102.8393541701
 30
0.0
 10
97.3316733084
 20
97.5084531516
 30
0.0
 10
96.4066304674
 20
92.3058998214
 30
0.0
 10
96.1817898177
 20
88.8794525491
 30
0.0
 10
96.1817898177
 20
87.2200139334
 30
0.0
  0
SPLINE
  5
287
100
AcDbEntity
  8
0
100
AcDbSpline
 62
7
  6
CONTINUOUS
 70
0
 71
3
 72
11
 73
7
 74
0
 42
0.0000001
 43
0.0000001
 44
0.0000000001
 40
0.0
 40
0.0
 40
0.0
 40
0.0
 40
0.2895448512
 40
0.5491358493
 40
0.7822770651
 40
1.0
 40
1.0
 40
1.0
 40
1.0
 10
141.9658704466
 20
131.8194552411
 30
0.0
 10
141.8562362545
 20
131.7561582886
 30
0.0
 10
141.6379537128
 20
131.652453943
 30
0.0
 10
141.3025823191
 20
131.5712736997
 30
0.0
 10
140.9877648875
 20
131.5792087737
 30
0.0
 10
140.7983836281
 20
131.648130547
 30
0.0
 10
140.7159431097
 20
131.6957245304
 30
0.0
  0
SPLINE
  5
288
100
AcDbEntity
  8
0
100
AcDbSpline
 62
7
  6
CONTINUOUS
 70
0
 71
3
 72
11
 73
7
 74
0
 42
0.0000001
 43
0.0000001
 44
0.0000000001
 40
0.0
 40
0.0
 40
0.0
 40
0.0
 40
0.2895448512
 40
0.5491358493
 40
0.7822770651
 40
1.0
 40
1.0
 40
1.0
 40
1.0
 10
106.9660161658
 20
71.1975928498
 30
0.0
 10
106.8563819737
 20
71.1342958973
 30
0.0
 10
106.638099432
 20
71.0305915517
 30
0.0
 10
106.3027280383
 20
70.9494113084
 30
0.0
 10
105.9879106067
 20
70.9573463824
 30
0.0
 10
105.7985293473
 20
71.0262681557
 30
0.0
 10
105.7160888289
 20
71.0738621391
 30
0.0
  0
SPLINE
  5
289
100
AcDbEntity
  8
0
100
AcDbSpline
 62
7
  6
CONTINUOUS
 70
0
 71
3
 72
11
 73
7
 74
0
 42
0.0000001
 43
0.0000001
 44
0.0000000001
 40
0.0
 40
0.0
 40
0.0
 40
0.0
 40
0.2271810777
 40
0.4645694674
 40
0.720625912
 40
1.0
 40
1.0
 40
1.0
 40
1.0
 10
30.7039583037
 20
128.3940512741
 30
0.0
 10
30.5058177822
 20
128.2796948667
 30
0.0
 10
30.1355407199
 20
127.9795902819
 30
0.0
 10
29.7279836241
 20
127.3677063957
 30
0.0
 10
29.4808411914
 20
126.621504049
 30
0.0
 10
29.4306314694
 20
126.0800970629
 30
0.0
 10
29.4306314694
 20
125.7987654056
 30
0.0
  0
SPLINE
  5
28A
100
AcDbEntity
  8
0
100
AcDbSpline
 62
7
  6
CONTINUOUS
 70
0
 71
3
 72
11
 73
7
 74
0
 42
0.0000001
 43
0.0000001
 44
0.0000000001
 40
0.0
 40
0.0
 40
0.0
 40
0.0
 40
0.2181573255
 40
0.4533149777
 40
0.7130923689
 40
1.0
 40
1.0
 40
1.0
 40
1.0
 10
30.7236525462
 20
128.3873099995
 30
0.0
 10
30.5708411099
 20
128.270144249
 30
0.0
 10
30.2905404434
 20
127.9751225718
 30
0.0
 10
29.995351063
 20
127.4121094124
 30
0.0
 10
29.8193278424
 20
126.7399544833
 30
0.0
 10
29.784183388
 20
126.2561303212
 30
0.0
 10
29.784183388
 20
126.0028874825
 30
0.0
  0
SPLINE
  5
28B
100
AcDbEntity
  8
0
100
AcDbSpline
 62
7
  6
CONTINUOUS
 70
0
 71
3
 72
14
 73
10
 74
0
 42
0.0000001
 43
0.0000001
 44
0.0000000001
 40
0.0
 40
0.0
 40
0.0
 40
0.0
 40
0.2892803162
 40
0.4225396222
 40
0.5484941877
 40
0.66789379
 40
0.7818666586
 40
0.8919505049
 40
1.0
 40
1.0
 40
1.0
 40
1.0
 10
29.0063659287
 20
126.0028856129
 30
0.0
 10
29.0063659287
 20
123.9753889176
 30
0.0
 10
29.2430848039
 20
120.9993571237
 30
0.0
 10
30.157953674
 20
117.2587736915
 30
0.0
 10
31.0888906413
 20
114.7662792844
 30
0.0
 10
32.2751113211
 20
112.5356820685
 30
0.0
 10
33.7080500783
 20
110.5896230935
 30
0.0
 10
35.3741620301
 20
108.9500302541
 30
0.0
 10
36.6350303611
 20
108.0700978423
 30
0.0
 10
37.290868012
 20
107.6914557276
 30
0.0
  0
SPLINE
  5
28C
100
AcDbEntity
  8
0
100
AcDbSpline
 62
7
  6
CONTINUOUS
 70
0
 71
3
 72
16
 73
12
 74
0
 42
0.0000001
 43
0.0000001
 44
0.0000000001
 40
0.0
 40
0.0
 40
0.0
 40
0.0
 40
0.1287410646
 40
0.2704217334
 40
0.4176260079
 40
0.5620272452
 40
0.6957527047
 40
0.8130676178
 40
0.9124709781
 40
0.9571206991
 40
1.0
 40
1.0
 40
1.0
 40
1.0
 10
108.7337757589
 20
114.6742669979
 30
0.0
 10
108.7337757589
 20
114.4605885579
 30
0.0
 10
108.6739487352
 20
114.0112504917
 30
0.0
 10
108.450900337
 20
113.3515087661
 30
0.0
 10
108.1069409594
 20
112.7160140054
 30
0.0
 10
107.6703489149
 20
112.1568695401
 30
0.0
 10
107.1753423829
 20
111.7190600087
 30
0.0
 10
106.6603732633
 20
111.4365566088
 30
0.0
 10
106.2232435357
 20
111.3512742838
 30
0.0
 10
105.9135429413
 20
111.3965021242
 30
0.0
 10
105.7777277759
 20
111.4530939879
 30
0.0
 10
105.7160918343
 20
111.4886755495
 30
0.0
  0
SPLINE
  5
28D
100
AcDbEntity
  8
0
100
AcDbSpline
 62
7
  6
CONTINUOUS
 70
0
 71
3
 72
14
 73
10
 74
0
 42
0.0000001
 43
0.0000001
 44
0.0000000001
 40
0.0
 40
0.0
 40
0.0
 40
0.0
 40
0.1080481072
 40
0.2181307691
 40
0.3321026883
 40
0.4515017262
 40
0.5774558639
 40
0.7107157826
 40
1.0
 40
1.0
 40
1.0
 40
1.0
 10
37.3158670937
 20
107.7347563863
 30
0.0
 10
36.6608568155
 20
108.112918879
 30
0.0
 10
35.4015785804
 20
108.9917400604
 30
0.0
 10
33.7375649542
 20
110.6292634326
 30
0.0
 10
32.3064188687
 20
112.5728671922
 30
0.0
 10
31.1216794554
 20
114.8006600563
 30
0.0
 10
30.191895901
 20
117.2900319805
 30
0.0
 10
29.2781480072
 20
121.0259638852
 30
0.0
 10
29.0417211206
 20
123.9983082011
 30
0.0
 10
29.0417211206
 20
126.0232978206
 30
0.0
  0
SPLINE
  5
28E
100
AcDbEntity
  8
0
100
AcDbSpline
 62
7
  6
CONTINUOUS
 70
0
 71
3
 72
23
 73
19
 74
0
 42
0.0000001
 43
0.0000001
 44
0.0000000001
 40
0.0
 40
0.0
 40
0.0
 40
0.0
 40
0.0623904687
 40
0.1287434848
 40
0.1983453426
 40
0.2703334525
 40
0.3437220465
 40
0.4174666609
 40
0.4905036614
 40
0.5618024204
 40
0.6304111719
 40
0.6955093373
 40
0.7564666089
 40
0.8129127816
 40
0.8648215281
 40
0.9126039902
 40
0.9571856626
 40
1.0
 40
1.0
 40
1.0
 40
1.0
 10
126.5872724817
 20
126.8201303386
 30
0.0
 10
125.5094698054
 20
126.1978643877
 30
0.0
 10
123.3682577512
 20
124.7668958395
 30
0.0
 10
120.3359786141
 20
122.2151379877
 30
0.0
 10
117.4374878479
 20
119.2390402668
 30
0.0
 10
114.7346389663
 20
115.9025765489
 30
0.0
 10
112.2847416972
 20
112.2763258251
 30
0.0
 10
110.1399927997
 20
108.4377716436
 30
0.0
 10
108.3461970683
 20
104.4687369831
 30
0.0
 10
106.9415869616
 20
100.4538380637
 30
0.0
 10
105.9560950997
 20
96.4783212056
 30
0.0
 10
105.4108373981
 20
92.6260746211
 30
0.0
 10
105.3180090134
 20
88.9775979946
 30
0.0
 10
105.6815067937
 20
85.6081598837
 30
0.0
 10
106.4978787919
 20
82.5870133346
 30
0.0
 10
107.7586555677
 20
79.9778302165
 30
0.0
 10
109.445903068
 20
77.8443559367
 30
0.0
 10
110.8479004312
 20
76.7711613675
 30
0.0
 10
111.5875536348
 20
76.3441953704
 30
0.0
  0
SPLINE
  5
28F
100
AcDbEntity
  8
0
100
AcDbSpline
 62
7
  6
CONTINUOUS
 70
0
 71
3
 72
12
 73
8
 74
0
 42
0.0000001
 43
0.0000001
 44
0.0000000001
 40
0.0
 40
0.0
 40
0.0
 40
0.0
 40
0.2895692984
 40
0.548640267
 40
0.7816362077
 40
0.8918389912
 40
1.0
 40
1.0
 40
1.0
 40
1.0
 10
126.5872724817
 20
112.5313380389
 30
0.0
 10
127.1359205055
 20
112.8480982323
 30
0.0
 10
128.2271585481
 20
113.3672383493
 30
0.0
 10
129.903184916
 20
113.7725625415
 30
0.0
 10
131.2415462923
 20
113.7369392942
 30
0.0
 10
132.1970463101
 20
113.4724466794
 30
0.0
 10
132.6321985456
 20
113.2686937217
 30
0.0
 10
132.8371444727
 20
113.1503985493
 30
0.0
  0
SPLINE
  5
290
100
AcDbEntity
  8
0
100
AcDbSpline
 62
7
  6
CONTINUOUS
 70
0
 71
3
 72
11
 73
7
 74
0
 42
0.0000001
 43
0.0000001
 44
0.0000000001
 40
0.0
 40
0.0
 40
0.0
 40
0.0
 40
0.2177231375
 40
0.4508717887
 40
0.7104673698
 40
1.0
 40
1.0
 40
1.0
 40
1.0
 10
108.2159404974
 20
115.8186376768
 30
0.0
 10
108.2983851366
 20
115.7710435469
 30
0.0
 10
108.4527724841
 20
115.6414864409
 30
0.0
 10
108.6170640375
 20
115.3728011224
 30
0.0
 10
108.7144432893
 20
115.0417563373
 30
0.0
 10
108.7337757589
 20
114.800860852
 30
0.0
 10
108.7337757589
 20
114.6742669979
 30
0.0
  0
SPLINE
  5
291
100
AcDbEntity
  8
0
100
AcDbSpline
 62
7
  6
CONTINUOUS
 70
0
 71
3
 72
19
 73
15
 74
0
 42
0.0000001
 43
0.0000001
 44
0.0000000001
 40
0.0
 40
0.0
 40
0.0
 40
0.0
 40
0.1286310014
 40
0.2701547925
 40
0.417243946
 40
0.5615284177
 40
0.6301797232
 40
0.6953193321
 40
0.7563142569
 40
0.8127950724
 40
0.8647370518
 40
0.9125498841
 40
0.9571593272
 40
1.0
 40
1.0
 40
1.0
 40
1.0
 10
127.2943822068
 20
112.1230972843
 30
0.0
 10
126.3690815555
 20
111.5888778931
 30
0.0
 10
124.5730133632
 20
110.2067511921
 30
0.0
 10
122.2740269116
 20
107.5912425874
 30
0.0
 10
120.382147695
 20
104.5139999009
 30
0.0
 10
119.2548613757
 20
101.7257606468
 30
0.0
 10
118.6980926899
 20
99.4807470046
 30
0.0
 10
118.470869032
 20
97.875573987
 30
0.0
 10
118.4322193897
 20
96.3553981819
 30
0.0
 10
118.5837068333
 20
94.9514737102
 30
0.0
 10
118.9237991172
 20
93.6926499175
 30
0.0
 10
119.4491092813
 20
92.6054609553
 30
0.0
 10
120.1522145815
 20
91.7165977246
 30
0.0
 10
120.7363219411
 20
91.2693708105
 30
0.0
 10
121.0445131892
 20
91.0914814982
 30
0.0
  0
SPLINE
  5
292
100
AcDbEntity
  8
0
100
AcDbSpline
 62
7
  6
CONTINUOUS
 70
0
 71
3
 72
12
 73
8
 74
0
 42
0.0000001
 43
0.0000001
 44
0.0000000001
 40
0.0
 40
0.0
 40
0.0
 40
0.0
 40
0.289552914
 40
0.5486494291
 40
0.7816317286
 40
0.8918391871
 40
1.0
 40
1.0
 40
1.0
 40
1.0
 10
127.2943822068
 20
110.0818412415
 30
0.0
 10
127.7332742443
 20
110.3352341649
 30
0.0
 10
128.606287472
 20
110.7504956908
 30
0.0
 10
129.9470947988
 20
111.0748766425
 30
0.0
 10
131.0177791825
 20
111.0461876178
 30
0.0
 10
131.7822146949
 20
110.8347902248
 30
0.0
 10
132.1303171628
 20
110.6717135589
 30
0.0
 10
132.2942626261
 20
110.5770599039
 30
0.0
  0
SPLINE
  5
293
100
AcDbEntity
  8
0
100
AcDbSpline
 62
7
  6
CONTINUOUS
 70
0
 71
3
 72
16
 73
12
 74
0
 42
0.0000001
 43
0.0000001
 44
0.0000000001
 40
0.0
 40
0.0
 40
0.0
 40
0.0
 40
0.0428754974
 40
0.0875229036
 40
0.1869229067
 40
0.3042341567
 40
0.43795482
 40
0.5823566599
 40
0.7295682564
 40
0.8712589284
 40
1.0
 40
1.0
 40
1.0
 40
1.0
 10
108.2159435027
 20
75.4038356462
 30
0.0
 10
108.2775738832
 20
75.3682556261
 30
0.0
 10
108.3944852957
 20
75.2789372424
 30
0.0
 10
108.5885004549
 20
75.0333572251
 30
0.0
 10
108.7332240359
 20
74.6121684381
 30
0.0
 10
108.7460750275
 20
74.0249541108
 30
0.0
 10
108.6144492792
 20
73.3773624644
 30
0.0
 10
108.3485260276
 20
72.7196714549
 30
0.0
 10
107.9701550509
 20
72.1039999564
 30
0.0
 10
107.5103085423
 20
71.580929946
 30
0.0
 10
107.1510692966
 20
71.3044326869
 30
0.0
 10
106.9660161658
 20
71.1975928498
 30
0.0
  0
SPLINE
  5
294
100
AcDbEntity
  8
0
100
AcDbSpline
 62
7
  6
CONTINUOUS
 70
0
 71
3
 72
9
 73
5
 74
0
 42
0.0000001
 43
0.0000001
 44
0.0000000001
 40
0.0
 40
0.0
 40
0.0
 40
0.0
 40
0.4997590987
 40
1.0
 40
1.0
 40
1.0
 40
1.0
 10
29.2221913633
 20
161.1622967005
 30
0.0
 10
28.6456571115
 20
160.5944381996
 30
0.0
 10
27.6828065414
 20
159.256588243
 30
0.0
 10
27.1067886975
 20
157.7275881131
 30
0.0
 10
26.8994573717
 20
156.9445606538
 30
0.0
  0
SPLINE
  5
295
100
AcDbEntity
  8
0
100
AcDbSpline
 62
7
  6
CONTINUOUS
 70
0
 71
3
 72
15
 73
11
 74
0
 42
0.0000001
 43
0.0000001
 44
0.0000000001
 40
0.0
 40
0.0
 40
0.0
 40
0.0
 40
0.1141441531
 40
0.2373312038
 40
0.3669729364
 40
0.4999983967
 40
0.63302408
 40
0.7626664638
 40
0.8858545409
 40
1.0
 40
1.0
 40
1.0
 40
1.0
 10
152.043222587
 20
95.7934148333
 30
0.0
 10
151.5591968663
 20
95.5139641213
 30
0.0
 10
150.603085253
 20
94.8436717941
 30
0.0
 10
149.2874401643
 20
93.6129329869
 30
0.0
 10
148.0751346397
 20
92.1578851644
 30
0.0
 10
147.0115624035
 20
90.5335021902
 30
0.0
 10
146.136598671
 20
88.8002230059
 30
0.0
 10
145.4826472381
 20
87.0228003335
 30
0.0
 10
145.0746198555
 20
85.2680337022
 30
0.0
 10
144.9721842148
 20
84.1048594441
 30
0.0
 10
144.9721842148
 20
83.5459491233
 30
0.0
  0
ENDSEC
  0
SECTION
  2
OBJECTS
  0
DICTIONARY
  5
C
100
AcDbDictionary
280
0
281
1
  3
ACAD_GROUP
350
D
  3
ACAD_MLINESTYLE
350
17
  3
ACAD_LAYOUT
350
1A
  3
ACAD_PLOTSETTINGS
350
19
  3
ACAD_PLOTSTYLENAME
350
E
  0
DICTIONARY
  5
D
102
{ACAD_REACTORS
330
C
102
}
100
AcDbDictionary
280
0
281
1
  0
ACDBDICTIONARYWDFLT
  5
E
102
{ACAD_REACTORS
330
C
102
}
100
AcDbDictionary
281
1
  3
Normal
350
F
100
AcDbDictionaryWithDefault
340
F
  0
DICTIONARY
  5
17
102
{ACAD_REACTORS
330
C
102
}
100
AcDbDictionary
280
0
281
1
  3
Standard
350
18
  0
DICTIONARY
  5
19
102
{ACAD_REACTORS
330
C
102
}
100
AcDbDictionary
281
1
  0
DICTIONARY
  5
1A
102
{ACAD_REACTORS
330
C
102
}
100
AcDbDictionary
281
1
  3
Model
350
296
  3
Layout1
350
297
  0
ACDBPLACEHOLDER
  5
F
102
{ACAD_REACTORS
330
E
102
}
  0
MLINESTYLE
  5
18
102
{ACAD_REACTORS
330
17
102
}
100
AcDbMlineStyle
  2
STANDARD
 70
0
  3

 62
256
 51
90.0
 52
90.0
 71
2
 49
0.5
 62
256
  6
BYLAYER
 49
-0.5
 62
256
  6
BYLAYER
  0
LAYOUT
  5
296
102
{ACAD_REACTORS
330
1A
102
}
100
AcDbPlotSettings
  1

  2
none_device
  4

  6

 40
0.0
 41
0.0
 42
0.0
 43
0.0
 44
210.0
 45
297.0
 46
0.0
 47
0.0
 48
0.0
 49
0.0
140
0.0
141
0.0
142
1.0
143
1.0
 70
1024
 72
1
 73
0
 74
0
  7

 75
0
147
1.0
148
0.0
149
0.0
100
AcDbLayout
  1
Model
 70
0
 71
0
 10
0.0
 20
0.0
 11
210.0
 21
297.0
 12
0.0
 22
0.0
 32
0.0
 14
0.0
 24
0.0
 34
0.0
 15
0.0
 25
0.0
 35
0.0
146
0.0
 13
0.0
 23
0.0
 33
0.0
 16
1.0
 26
0.0
 36
0.0
 17
0.0
 27
1.0
 37
0.0
 76
0
330
211
345
0
346
0
  0
LAYOUT
  5
297
102
{ACAD_REACTORS
330
1A
102
}
100
AcDbPlotSettings
  1

  2
none_device
  4

  6

 40
0.0
 41
0.0
 42
0.0
 43
0.0
 44
210.0
 45
297.0
 46
0.0
 47
0.0
 48
0.0
 49
0.0
140
0.0
141
0.0
142
1.0
143
1.0
 70
0
 72
1
 73
0
 74
0
  7

 75
0
147
1.0
148
0.0
149
0.0
100
AcDbLayout
  1
Layout1
 70
0
 71
1
 10
0.0
 20
0.0
 11
210.0
 21
297.0
 12
0.0
 22
0.0
 32
0.0
 14
0.0
 24
0.0
 34
0.0
 15
0.0
 25
0.0
 35
0.0
146
0.0
 13
0.0
 23
0.0
 33
0.0
 16
1.0
 26
0.0
 36
0.0
 17
0.0
 27
1.0
 37
0.0
 76
0
330
212
345
0
346
0
  0
ENDSEC
  0
EOF
