999
DXF file: C:\Users\sesa63760\Dev\_Creo\CAD\MCADID0000265_3D-CAD\drw0001_1.dxf
999
Pro/ENGINEER 2019471 by Parametric Technology Corporation
  0
SECTION
  2
HEADER
  9
$ACADVER
  1
AC1024
  9
$DWGCODEPAGE
  3
ANSI_1252
  9
$EXTMAX
 10
112.6589772418
 20
159.3319820991
 30
0.0
  9
$EXTMIN
 10
0.0
 20
0.0
 30
0.0
  9
$LIMMIN
 10
0.0
 20
0.0
  9
$LIMMAX
 10
112.6589772418
 20
159.3319820991
  9
$VIEWCTR
 10
56.3294886209
 20
79.6659910496
  9
$VIEWSIZE
 40
159.3319820991
  9
$CLAYER
  8
0
  9
$LTSCALE
 40
10.3860847591
  9
$CELTYPE
  6
BYLAYER
  9
$DIMSCALE
 40
1.0
  9
$DIMASZ
 40
1.3411783005
  9
$DIMEXO
 40
1.0
  9
$DIMDLI
 40
7.175840379
  9
$DIMEXE
 40
1.0
  9
$DIMCEN
 40
1.6995411424
  9
$DIMLFAC
 40
1.0
  9
$DIMBLK
  1
_FILLED
  9
$DIMALT
 70
0
  9
$DIMALTF
 40
0.0393700787
  9
$DIMTXT
 40
1.8776496207
  9
$DIMTOL
 70
1
  9
$DIMLIM
 70
0
  9
$DIMTFAC
 40
1.0
  9
$DIMTP
 40
0.01
  9
$DIMTM
 40
0.01
  9
$DIMGAP
 40
0.625
  9
$DIMDSEP
 70
46
  9
$AUNITS
 70
0
  9
$PDMODE
 70
3
  9
$PDSIZE
 40
0.3125
  9
$HANDSEED
  5
580
  9
$TILEMODE
 70
1
  9
$MEASUREMENT
 70
1
  9
$INSUNITS
 70
4
  0
ENDSEC
  0
SECTION
  2
CLASSES
  0
CLASS
  1
ACDBDICTIONARYWDFLT
  2
AcDbDictionaryWithDefault
  3
AutoCAD 2000
 90
0
 91
1
280
0
281
0
  0
CLASS
  1
ACDBPLACEHOLDER
  2
AcDbPlaceHolder
  3
AutoCAD 2000
 90
0
 91
1
280
0
281
0
  0
CLASS
  1
LAYOUT
  2
AcDbLayout
  3
AutoCAD 2000
 90
0
 91
0
280
0
281
0
  0
ENDSEC
  0
SECTION
  2
TABLES
  0
TABLE
  2
VPORT
  5
8
100
AcDbSymbolTable
 70
2
  0
VPORT
  5
1F4
100
AcDbSymbolTableRecord
100
AcDbViewportTableRecord
  2
*ACTIVE
 70
0
 10
0.0
 20
0.0
 11
1.0
 21
1.0
 12
56.3294886209
 22
79.6659910496
 13
0.0
 23
0.0
 14
1.0
 24
1.0
 15
0.0
 25
0.0
 16
0.0
 26
0.0
 36
1.0
 17
0.0
 27
0.0
 37
0.0
 40
159.3319820991
 41
0.7070707071
 42
50.0
 43
0.0
 44
0.0
 50
0.0
 51
0.0
 71
0
 72
100
 73
1
 74
1
 75
0
 76
0
 77
0
 78
0
  0
ENDTAB
  0
TABLE
  2
LTYPE
  5
5
100
AcDbSymbolTable
 70
6
  0
LTYPE
  5
14
100
AcDbSymbolTableRecord
100
AcDbLinetypeTableRecord
  2
BYBLOCK
 70
0
  3

 72
65
 73
0
 40
0.0
  0
LTYPE
  5
15
100
AcDbSymbolTableRecord
100
AcDbLinetypeTableRecord
  2
BYLAYER
 70
0
  3

 72
65
 73
0
 40
0.0
  0
LTYPE
  5
16
100
AcDbSymbolTableRecord
100
AcDbLinetypeTableRecord
  2
CONTINUOUS
 70
64
  3
Solid line
 72
65
 73
0
 40
0.0
  0
LTYPE
  5
1F5
100
AcDbSymbolTableRecord
100
AcDbLinetypeTableRecord
  2
CENTER
 70
64
  3
____ _ ____ _ ____ _ ____ _ ____ _ ____ _ ____
 72
65
 73
4
 40
0.6
 49
0.375
 74
0
 49
-0.075
 74
0
 49
0.075
 74
0
 49
-0.075
 74
0
  0
LTYPE
  5
1F6
100
AcDbSymbolTableRecord
100
AcDbLinetypeTableRecord
  2
HIDDEN
 70
64
  3
- - - - - - - - - - - - - - - - - - - -
 72
65
 73
2
 40
0.2
 49
0.1
 74
0
 49
-0.1
 74
0
  0
LTYPE
  5
1F7
100
AcDbSymbolTableRecord
100
AcDbLinetypeTableRecord
  2
PHANTOM
 70
64
  3
_____ _ _ _____ _ _ _____ _ _ _____
 72
65
 73
6
 40
0.8
 49
0.45
 74
0
 49
-0.05
 74
0
 49
0.1
 74
0
 49
-0.05
 74
0
 49
0.1
 74
0
 49
-0.05
 74
0
  0
LTYPE
  5
1F8
100
AcDbSymbolTableRecord
100
AcDbLinetypeTableRecord
  2
DOT
 70
64
  3
. . . . . . . . . . . . . . . . . . . .
 72
65
 73
2
 40
0.2
 49
0.1
 74
0
 49
-0.1
 74
0
  0
LTYPE
  5
1F9
100
AcDbSymbolTableRecord
100
AcDbLinetypeTableRecord
  2
DASHED
 70
64
  3
- - - - - - - - - - - - - - - - - - - -
 72
65
 73
2
 40
0.2
 49
0.1
 74
0
 49
-0.1
 74
0
  0
ENDTAB
  0
TABLE
  2
LAYER
  5
2
100
AcDbSymbolTable
 70
36
  0
LAYER
  5
10
100
AcDbSymbolTableRecord
100
AcDbLayerTableRecord
  2
0
 70
0
 62
7
  6
CONTINUOUS
370
-3
390
F
  0
LAYER
  5
1FA
100
AcDbSymbolTableRecord
100
AcDbLayerTableRecord
  2
DEFAULT_1
 70
0
 62
7
  6
CENTER
370
-3
390
F
  0
LAYER
  5
1FB
100
AcDbSymbolTableRecord
100
AcDbLayerTableRecord
  2
DEFAULT_2
 70
0
 62
8
  6
HIDDEN
370
-3
390
F
  0
LAYER
  5
1FC
100
AcDbSymbolTableRecord
100
AcDbLayerTableRecord
  2
DEFAULT_3
 70
0
 62
7
  6
PHANTOM
370
-3
390
F
  0
LAYER
  5
1FD
100
AcDbSymbolTableRecord
100
AcDbLayerTableRecord
  2
00_COMPONENTS
 70
0
 62
7
  6
CONTINUOUS
370
-3
390
F
  0
LAYER
  5
1FE
100
AcDbSymbolTableRecord
100
AcDbLayerTableRecord
  2
01_1_DEFAULT_DATUMS
 70
0
 62
7
  6
CONTINUOUS
370
-3
390
F
  0
LAYER
  5
1FF
100
AcDbSymbolTableRecord
100
AcDbLayerTableRecord
  2
01_PLANES
 70
0
 62
7
  6
CONTINUOUS
370
-3
390
F
  0
LAYER
  5
200
100
AcDbSymbolTableRecord
100
AcDbLayerTableRecord
  2
02_COORD_SYS
 70
0
 62
7
  6
CONTINUOUS
370
-3
390
F
  0
LAYER
  5
201
100
AcDbSymbolTableRecord
100
AcDbLayerTableRecord
  2
03_AXES
 70
0
 62
7
  6
CONTINUOUS
370
-3
390
F
  0
LAYER
  5
202
100
AcDbSymbolTableRecord
100
AcDbLayerTableRecord
  2
04_POINTS
 70
0
 62
7
  6
CONTINUOUS
370
-3
390
F
  0
LAYER
  5
203
100
AcDbSymbolTableRecord
100
AcDbLayerTableRecord
  2
05_CURVES
 70
0
 62
7
  6
CONTINUOUS
370
-3
390
F
  0
LAYER
  5
204
100
AcDbSymbolTableRecord
100
AcDbLayerTableRecord
  2
06_SURFS
 70
0
 62
7
  6
CONTINUOUS
370
-3
390
F
  0
LAYER
  5
205
100
AcDbSymbolTableRecord
100
AcDbLayerTableRecord
  2
07_COSMETICS
 70
0
 62
7
  6
CONTINUOUS
370
-3
390
F
  0
LAYER
  5
206
100
AcDbSymbolTableRecord
100
AcDbLayerTableRecord
  2
10_NOTES
 70
0
 62
7
  6
CONTINUOUS
370
-3
390
F
  0
LAYER
  5
207
100
AcDbSymbolTableRecord
100
AcDbLayerTableRecord
  2
11_NOTES_PUB
 70
0
 62
7
  6
CONTINUOUS
370
-3
390
F
  0
LAYER
  5
208
100
AcDbSymbolTableRecord
100
AcDbLayerTableRecord
  2
13_REF_GTOL
 70
0
 62
7
  6
CONTINUOUS
370
-3
390
F
  0
LAYER
  5
209
100
AcDbSymbolTableRecord
100
AcDbLayerTableRecord
  2
16_MISC
 70
0
 62
7
  6
CONTINUOUS
370
-3
390
F
  0
LAYER
  5
20A
100
AcDbSymbolTableRecord
100
AcDbLayerTableRecord
  2
17_NO_PRINT
 70
0
 62
7
  6
CONTINUOUS
370
-3
390
F
  0
LAYER
  5
20B
100
AcDbSymbolTableRecord
100
AcDbLayerTableRecord
  2
18_DATUM_CAMS_JOINTS
 70
0
 62
7
  6
CONTINUOUS
370
-3
390
F
  0
LAYER
  5
20C
100
AcDbSymbolTableRecord
100
AcDbLayerTableRecord
  2
19_DATUM_FUNCTIONAL
 70
0
 62
7
  6
CONTINUOUS
370
-3
390
F
  0
LAYER
  5
20D
100
AcDbSymbolTableRecord
100
AcDbLayerTableRecord
  2
20_DATUM_KINEMATIC_SCHEME
 70
0
 62
7
  6
CONTINUOUS
370
-3
390
F
  0
ENDTAB
  0
TABLE
  2
STYLE
  5
3
100
AcDbSymbolTable
 70
1
  0
STYLE
  5
11
100
AcDbSymbolTableRecord
100
AcDbTextStyleTableRecord
  2
STANDARD
 70
0
 40
0.0
 41
0.8
 50
0.0
 71
0
 42
0.2
  3
txt
  4

  0
STYLE
  5
20E
100
AcDbSymbolTableRecord
100
AcDbTextStyleTableRecord
  2
TEXTSTYLE_1
 70
0
 40
0.0
 41
0.8
 50
0.0
 71
0
 42
0.2
  3
gdt
  4

  0
ENDTAB
  0
TABLE
  2
VIEW
  5
6
100
AcDbSymbolTable
 70
0
  0
ENDTAB
  0
TABLE
  2
UCS
  5
7
100
AcDbSymbolTable
 70
0
  0
ENDTAB
  0
TABLE
  2
APPID
  5
9
100
AcDbSymbolTable
 70
1
  0
APPID
  5
20F
100
AcDbSymbolTableRecord
100
AcDbRegAppTableRecord
  2
ACAD
 70
0
  0
ENDTAB
  0
TABLE
  2
BLOCK_RECORD
  5
1
100
AcDbSymbolTable
 70
0
  0
BLOCK_RECORD
  5
210
100
AcDbSymbolTableRecord
100
AcDbBlockTableRecord
  2
*Model_Space
  0
BLOCK_RECORD
  5
211
100
AcDbSymbolTableRecord
100
AcDbBlockTableRecord
  2
*Paper_Space
  0
BLOCK_RECORD
  5
212
100
AcDbSymbolTableRecord
100
AcDbBlockTableRecord
  2
_FILLED
  0
ENDTAB
  0
TABLE
  2
DIMSTYLE
  5
A
100
AcDbSymbolTable
 70
1
100
AcDbDimStyleTable
 71
0
  0
DIMSTYLE
105
213
100
AcDbSymbolTableRecord
100
AcDbDimStyleTableRecord
  2
STANDARD
 70
0
  3

  4

 40
1.0
 41
1.3411783005
 42
1.0
 43
0.38
 44
1.0
 45
0.0
 46
0.0
 47
0.01
 48
0.01
140
1.8776496207
141
0.09
142
0.0
143
25.4
144
1.0
145
0.0
146
1.0
147
0.625
 71
1
 72
0
 73
0
 74
0
 75
0
 76
0
 77
1
 78
8
 79
2
170
0
171
1
172
0
173
0
174
0
175
0
176
0
177
0
178
0
270
2
179
2
271
2
272
2
273
2
274
2
275
0
280
0
281
0
282
0
283
1
284
8
285
0
286
0
287
3
288
0
340
11
278
46
341
212
342
212
343
212
344
212
  0
ENDTAB
  0
ENDSEC
  0
SECTION
  2
BLOCKS
  0
BLOCK
  5
20
100
AcDbEntity
  8
0
100
AcDbBlockBegin
  2
*Model_Space
 70
0
 10
0.0
 20
0.0
 30
0.0
  3
*Model_Space
  1

  0
ENDBLK
  5
21
100
AcDbEntity
  8
0
100
AcDbBlockEnd
  0
BLOCK
  5
1C
100
AcDbEntity
  8
0
100
AcDbBlockBegin
  2
*Paper_Space
 70
0
 10
0.0
 20
0.0
 30
0.0
  3
*Paper_Space
  1

  0
ENDBLK
  5
1D
100
AcDbEntity
  8
0
100
AcDbBlockEnd
  0
BLOCK
  5
214
100
AcDbEntity
  8
0
100
AcDbBlockBegin
  2
_FILLED
 70
64
 10
0.0
 20
0.0
  3
_FILLED
  1

  0
SOLID
  5
215
100
AcDbEntity
  8
0
  6
BYBLOCK
 62
0
100
AcDbTrace
 10
0.0
 20
0.0
 11
-1.0
 21
0.25
 12
-1.0
 22
-0.25
 13
-1.0
 23
-0.25
  0
ENDBLK
  5
216
100
AcDbEntity
  8
0
  6
BYBLOCK
 62
0
100
AcDbBlockEnd
  0
ENDSEC
  0
SECTION
  2
ENTITIES
  0
LINE
  5
217
100
AcDbEntity
  8
0
100
AcDbLine
 62
7
  6
CONTINUOUS
 10
15.1429261673
 20
28.1928274915
 11
27.1173276264
 21
21.2795599847
  0
LINE
  5
218
100
AcDbEntity
  8
0
100
AcDbLine
 62
7
  6
CONTINUOUS
 10
27.6710617993
 20
20.9740637478
 11
37.7827308689
 21
15.1362209582
  0
LINE
  5
219
100
AcDbEntity
  8
0
100
AcDbLine
 62
7
  6
CONTINUOUS
 10
38.2540960941
 20
15.5847225291
 11
38.4068308257
 21
15.4965430856
  0
LINE
  5
21A
100
AcDbEntity
  8
0
100
AcDbLine
 62
7
  6
CONTINUOUS
 10
14.2976931334
 20
29.7978780972
 11
26.2573408727
 21
22.8931284618
  0
LINE
  5
21B
100
AcDbEntity
  8
0
100
AcDbLine
 62
7
  6
CONTINUOUS
 10
14.2814406378
 20
29.8591829635
 11
36.908951842
 21
16.795478819
  0
LINE
  5
21C
100
AcDbEntity
  8
0
100
AcDbLine
 62
7
  6
CONTINUOUS
 10
37.6865906628
 20
17.3189310823
 11
38.4068308257
 21
16.9031096375
  0
LINE
  5
21D
100
AcDbEntity
  8
0
100
AcDbLine
 62
7
  6
CONTINUOUS
 10
37.6605117816
 20
17.5633279189
 11
37.9923068421
 21
17.3717702851
  0
LINE
  5
21E
100
AcDbEntity
  8
0
100
AcDbLine
 62
7
  6
CONTINUOUS
 10
15.1429261673
 20
28.1928274915
 11
14.297693134
 21
29.7978780977
  0
LINE
  5
21F
100
AcDbEntity
  8
0
100
AcDbLine
 62
7
  6
CONTINUOUS
 10
29.6926622824
 20
31.1634369648
 11
30.4151396101
 21
30.7535411192
  0
LINE
  5
220
100
AcDbEntity
  8
0
100
AcDbLine
 62
7
  6
CONTINUOUS
 10
32.4122379538
 20
34.3516559248
 11
30.4151285249
 21
35.4847113531
  0
LINE
  5
221
100
AcDbEntity
  8
0
100
AcDbLine
 62
7
  6
CONTINUOUS
 10
36.2756585771
 20
26.6907913852
 11
30.0213589785
 21
30.3016312539
  0
LINE
  5
222
100
AcDbEntity
  8
0
100
AcDbLine
 62
7
  6
CONTINUOUS
 10
24.5513896748
 20
33.4596480599
 11
13.6481473723
 21
39.7544955298
  0
LINE
  5
223
100
AcDbEntity
  8
0
100
AcDbLine
 62
7
  6
CONTINUOUS
 10
13.6580081094
 20
40.1331243991
 11
24.6011107965
 21
33.815264046
  0
LINE
  5
224
100
AcDbEntity
  8
0
100
AcDbLine
 62
7
  6
CONTINUOUS
 10
30.3373983971
 20
30.5034917779
 11
36.2855193141
 21
27.0694202544
  0
LINE
  5
225
100
AcDbEntity
  8
0
100
AcDbLine
 62
7
  6
CONTINUOUS
 10
36.7344436709
 20
27.3240664882
 11
37.0534893811
 21
27.1398695287
  0
LINE
  5
226
100
AcDbEntity
  8
0
100
AcDbLine
 62
7
  6
CONTINUOUS
 10
49.7204922211
 20
22.0284495474
 11
38.4121832958
 21
28.5571570504
  0
LINE
  5
227
100
AcDbEntity
  8
0
100
AcDbLine
 62
7
  6
CONTINUOUS
 10
38.4013881404
 20
28.5633894953
 11
27.0929810164
 21
35.092153692
  0
LINE
  5
228
100
AcDbEntity
  8
0
100
AcDbLine
 62
7
  6
CONTINUOUS
 10
32.8914208955
 20
31.9899469377
 11
31.1532666774
 21
32.9934480412
  0
LINE
  5
229
100
AcDbEntity
  8
0
100
AcDbLine
 62
7
  6
CONTINUOUS
 10
31.1532666773
 20
33.9732509427
 11
32.8914208955
 21
32.9697498392
  0
LINE
  5
22A
100
AcDbEntity
  8
0
100
AcDbLine
 62
7
  6
CONTINUOUS
 10
31.1532666773
 20
34.953052656
 11
32.8914208955
 21
33.9495515525
  0
LINE
  5
22B
100
AcDbEntity
  8
0
100
AcDbLine
 62
7
  6
CONTINUOUS
 10
34.0227653064
 20
33.6229279399
 11
34.8713116397
 21
33.1330305689
  0
LINE
  5
22C
100
AcDbEntity
  8
0
100
AcDbLine
 62
7
  6
CONTINUOUS
 10
26.2573408729
 20
22.8931284619
 11
27.117327627
 21
21.2795599843
  0
LINE
  5
22D
100
AcDbEntity
  8
0
100
AcDbLine
 62
7
  6
CONTINUOUS
 10
27.6710617993
 20
20.9740637478
 11
26.7972827726
 21
22.6333216083
  0
LINE
  5
22E
100
AcDbEntity
  8
0
100
AcDbLine
 62
7
  6
CONTINUOUS
 10
27.0929810164
 20
116.7423690323
 11
72.6726662966
 21
143.0576555173
  0
LINE
  5
22F
100
AcDbEntity
  8
0
100
AcDbLine
 62
7
  6
CONTINUOUS
 10
13.6580081094
 20
109.1211411454
 11
27.0859099782
 21
116.7383842183
  0
LINE
  5
230
100
AcDbEntity
  8
0
100
AcDbLine
 62
7
  6
CONTINUOUS
 10
33.9130590559
 20
34.8391069828
 11
33.5716324647
 21
35.0328145718
  0
LINE
  5
231
100
AcDbEntity
  8
0
100
AcDbLine
 62
7
  6
CONTINUOUS
 10
34.4470439053
 20
33.867877569
 11
34.8713116397
 21
33.6229320197
  0
LINE
  5
232
100
AcDbEntity
  8
0
100
AcDbLine
 62
7
  6
CONTINUOUS
 10
33.6760328754
 20
34.7778305419
 11
33.4044780204
 21
34.9346092637
  0
LINE
  5
233
100
AcDbEntity
  8
0
100
AcDbLine
 62
7
  6
CONTINUOUS
 10
34.365707891
 20
34.9762994721
 11
34.517759721
 21
34.8885142931
  0
LINE
  5
234
100
AcDbEntity
  8
0
100
AcDbLine
 62
7
  6
CONTINUOUS
 10
34.8713116397
 20
35.5008875782
 11
34.6963022873
 21
35.601926989
  0
LINE
  5
235
100
AcDbEntity
  8
0
100
AcDbLine
 62
7
  6
CONTINUOUS
 10
38.1133768137
 20
17.444109886
 11
38.4068308257
 21
16.9031096375
  0
LINE
  5
236
100
AcDbEntity
  8
0
100
AcDbLine
 62
7
  6
CONTINUOUS
 10
36.908951842
 20
16.7954788191
 11
37.7827308689
 21
15.1362209582
  0
LINE
  5
237
100
AcDbEntity
  8
0
100
AcDbLine
 62
7
  6
CONTINUOUS
 10
38.2540960941
 20
16.1853243949
 11
37.6940774964
 21
17.2487686231
  0
LINE
  5
238
100
AcDbEntity
  8
0
100
AcDbLine
 62
7
  6
CONTINUOUS
 10
13.6580081094
 20
40.1331243991
 11
13.6580081094
 21
62.7911130352
  0
LINE
  5
239
100
AcDbEntity
  8
0
100
AcDbLine
 62
7
  6
CONTINUOUS
 10
13.6580081094
 20
65.9388423676
 11
13.6580081094
 21
109.1211411454
  0
LINE
  5
23A
100
AcDbEntity
  8
0
100
AcDbLine
 62
7
  6
CONTINUOUS
 10
76.5392960507
 20
143.3304624924
 11
78.711561133
 21
144.5846128362
  0
LINE
  5
23B
100
AcDbEntity
  8
0
100
AcDbLine
 62
7
  6
CONTINUOUS
 10
74.4689381099
 20
140.5021430788
 11
76.0245665511
 21
141.4002802169
  0
LINE
  5
23C
100
AcDbEntity
  8
0
100
AcDbLine
 62
7
  6
CONTINUOUS
 10
79.8804375983
 20
141.4014971593
 11
82.0527026811
 21
142.6556475033
  0
LINE
  5
23D
100
AcDbEntity
  8
0
100
AcDbLine
 62
7
  6
CONTINUOUS
 10
80.0091881653
 20
141.0853226564
 11
75.7875093372
 21
138.6479497977
  0
LINE
  5
23E
100
AcDbEntity
  8
0
100
AcDbLine
 62
7
  6
CONTINUOUS
 10
13.7190339953
 20
62.7718323549
 11
13.7826289084
 21
62.7138352123
  0
LINE
  5
23F
100
AcDbEntity
  8
0
100
AcDbLine
 62
7
  6
CONTINUOUS
 10
28.0206340357
 20
38.1565356112
 11
28.1072760835
 21
37.9492229799
  0
LINE
  5
240
100
AcDbEntity
  8
0
100
AcDbLine
 62
7
  6
CONTINUOUS
 10
18.6077761854
 20
54.7700691619
 11
18.6077761854
 21
69.4671126703
  0
LINE
  5
241
100
AcDbEntity
  8
0
100
AcDbLine
 62
7
  6
CONTINUOUS
 10
18.961331048
 20
54.9741999936
 11
18.961331048
 21
68.8547410848
  0
LINE
  5
242
100
AcDbEntity
  8
0
100
AcDbLine
 62
7
  6
CONTINUOUS
 10
20.3755504983
 20
55.7907233184
 11
20.3755504983
 21
66.4052547411
  0
LINE
  5
243
100
AcDbEntity
  8
0
100
AcDbLine
 62
7
  6
CONTINUOUS
 10
30.4163690513
 20
111.312621174
 11
29.7092652137
 21
110.9043770199
  0
LINE
  5
244
100
AcDbEntity
  8
0
100
AcDbLine
 62
7
  6
CONTINUOUS
 10
30.2532959373
 20
111.161815489
 11
29.5461921001
 21
110.7535713352
  0
LINE
  5
245
100
AcDbEntity
  8
0
100
AcDbLine
 62
7
  6
CONTINUOUS
 10
79.3657080992
 20
139.4713148844
 11
77.8100796578
 21
138.5731777462
  0
LINE
  5
246
100
AcDbEntity
  8
0
100
AcDbLine
 62
7
  6
CONTINUOUS
 10
31.1371839772
 20
110.8964678972
 11
30.43008014
 21
110.4882237433
  0
LINE
  5
247
100
AcDbEntity
  8
0
100
AcDbLine
 62
7
  6
CONTINUOUS
 10
82.0317584859
 20
139.917617555
 11
77.8100796578
 21
137.4802446963
  0
LINE
  5
248
100
AcDbEntity
  8
0
100
AcDbLine
 62
7
  6
CONTINUOUS
 10
31.2432495533
 20
110.5902784334
 11
30.536145715
 21
110.1820342789
  0
LINE
  5
249
100
AcDbEntity
  8
0
100
AcDbLine
 62
7
  6
CONTINUOUS
 10
29.5461921001
 20
106.5894090078
 11
30.2532959373
 21
106.9976531617
  0
LINE
  5
24A
100
AcDbEntity
  8
0
100
AcDbLine
 62
7
  6
CONTINUOUS
 10
29.7092652137
 20
106.0053625171
 11
30.4163690513
 21
106.4136066712
  0
LINE
  5
24B
100
AcDbEntity
  8
0
100
AcDbLine
 62
7
  6
CONTINUOUS
 10
30.536145715
 20
106.0178719504
 11
31.2432495533
 21
106.4261161049
  0
LINE
  5
24C
100
AcDbEntity
  8
0
100
AcDbLine
 62
7
  6
CONTINUOUS
 10
13.7923435615
 20
62.7314948587
 11
13.8058470131
 21
62.7240665474
  0
LINE
  5
24D
100
AcDbEntity
  8
0
100
AcDbLine
 62
7
  6
CONTINUOUS
 10
13.7190339953
 20
62.7718323549
 11
13.5455709932
 21
62.8689742571
  0
LINE
  5
24E
100
AcDbEntity
  8
0
100
AcDbLine
 62
7
  6
CONTINUOUS
 10
24.9585223792
 20
51.1035470852
 11
18.6077761854
 21
54.7700691619
  0
LINE
  5
24F
100
AcDbEntity
  8
0
100
AcDbLine
 62
7
  6
CONTINUOUS
 10
24.9585223792
 20
51.5117982942
 11
18.961331048
 21
54.9741999936
  0
LINE
  5
250
100
AcDbEntity
  8
0
100
AcDbLine
 62
7
  6
CONTINUOUS
 10
24.9585223792
 20
53.144803128
 11
20.3755504983
 21
55.7907233184
  0
LINE
  5
251
100
AcDbEntity
  8
0
100
AcDbLine
 62
7
  6
CONTINUOUS
 10
29.4592694559
 20
52.0914390445
 11
30.1800843817
 21
51.6752857677
  0
LINE
  5
252
100
AcDbEntity
  8
0
100
AcDbLine
 62
7
  6
CONTINUOUS
 10
52.0867812681
 20
39.0277359521
 11
51.3659663422
 21
39.4438892289
  0
LINE
  5
253
100
AcDbEntity
  8
0
100
AcDbLine
 62
7
  6
CONTINUOUS
 10
29.3557132955
 20
52.3203321184
 11
30.43008014
 21
51.70004971
  0
LINE
  5
254
100
AcDbEntity
  8
0
100
AcDbLine
 62
7
  6
CONTINUOUS
 10
51.2624095744
 20
39.6727812506
 11
52.3367764188
 21
39.0524988422
  0
LINE
  5
255
100
AcDbEntity
  8
0
100
AcDbLine
 62
7
  6
CONTINUOUS
 10
29.2961963426
 20
52.6754855345
 11
30.2861499573
 21
52.1039484785
  0
LINE
  5
256
100
AcDbEntity
  8
0
100
AcDbLine
 62
7
  6
CONTINUOUS
 10
51.4720319178
 20
39.8725519397
 11
52.3342687887
 21
39.374750512
  0
LINE
  5
257
100
AcDbEntity
  8
0
100
AcDbLine
 62
7
  6
CONTINUOUS
 10
52.5842639394
 20
39.3995134021
 11
51.36847515
 21
40.1014439617
  0
LINE
  5
258
100
AcDbEntity
  8
0
100
AcDbLine
 62
7
  6
CONTINUOUS
 10
30.5361457156
 20
52.1287124208
 11
29.1926401822
 21
52.9043786088
  0
LINE
  5
259
100
AcDbEntity
  8
0
100
AcDbLine
 62
7
  6
CONTINUOUS
 10
30.4163690513
 20
52.5244471407
 11
31.1371839772
 21
52.1082938639
  0
LINE
  5
25A
100
AcDbEntity
  8
0
100
AcDbLine
 62
7
  6
CONTINUOUS
 10
52.3230653302
 20
39.8768962729
 11
53.043880256
 21
39.4607429961
  0
LINE
  5
25B
100
AcDbEntity
  8
0
100
AcDbLine
 62
7
  6
CONTINUOUS
 10
31.2360696135
 20
52.1816785652
 11
30.5152546877
 21
52.597831842
  0
LINE
  5
25C
100
AcDbEntity
  8
0
100
AcDbLine
 62
7
  6
CONTINUOUS
 10
52.4219509666
 20
39.9502809742
 11
53.1427658924
 21
39.5341276974
  0
LINE
  5
25D
100
AcDbEntity
  8
0
100
AcDbLine
 62
7
  6
CONTINUOUS
 10
53.2913677767
 20
39.8077575559
 11
52.4291309058
 21
40.3055589837
  0
LINE
  5
25E
100
AcDbEntity
  8
0
100
AcDbLine
 62
7
  6
CONTINUOUS
 10
31.2432495528
 20
52.5369565746
 11
30.2532959381
 21
53.1084936307
  0
LINE
  5
25F
100
AcDbEntity
  8
0
100
AcDbLine
 62
7
  6
CONTINUOUS
 10
53.4100197062
 20
39.8999375295
 11
52.5477828353
 21
40.3977389572
  0
LINE
  5
260
100
AcDbEntity
  8
0
100
AcDbLine
 62
7
  6
CONTINUOUS
 10
30.3719478676
 20
53.2006736043
 11
31.3619014823
 21
52.6291365482
  0
LINE
  5
261
100
AcDbEntity
  8
0
100
AcDbLine
 62
7
  6
CONTINUOUS
 10
24.9585223792
 20
60.3367679211
 11
24.9585334636
 21
35.5791142907
  0
LINE
  5
262
100
AcDbEntity
  8
0
100
AcDbLine
 62
7
  6
CONTINUOUS
 10
13.7826287427
 20
65.9056829997
 11
13.7190320916
 21
65.7740444876
  0
LINE
  5
263
100
AcDbEntity
  8
0
100
AcDbLine
 62
7
  6
CONTINUOUS
 10
30.43008014
 20
105.5892092405
 11
31.1371839772
 21
105.9974533944
  0
LINE
  5
264
100
AcDbEntity
  8
0
100
AcDbLine
 62
7
  6
CONTINUOUS
 10
93.0202325061
 20
51.7341594884
 11
88.6111326127
 21
51.3402882098
  0
LINE
  5
265
100
AcDbEntity
  8
0
100
AcDbLine
 62
7
  6
CONTINUOUS
 10
91.5838099458
 20
50.9048454866
 11
87.1969249382
 21
50.5237999016
  0
LINE
  5
266
100
AcDbEntity
  8
0
100
AcDbLine
 62
7
  6
CONTINUOUS
 10
13.7190320916
 20
65.7740444876
 11
13.5455671473
 21
65.8711874775
  0
LINE
  5
267
100
AcDbEntity
  8
0
100
AcDbLine
 62
7
  6
CONTINUOUS
 10
24.9585223786
 20
60.3367679208
 11
32.4122379533
 21
56.107919581
  0
LINE
  5
268
100
AcDbEntity
  8
0
100
AcDbLine
 62
7
  6
CONTINUOUS
 10
24.5119183274
 20
60.9214439668
 11
29.0412950964
 21
58.3517125036
  0
LINE
  5
269
100
AcDbEntity
  8
0
100
AcDbLine
 62
7
  6
CONTINUOUS
 10
33.3539255648
 20
56.6611727259
 11
32.1309865289
 21
57.3550043672
  0
LINE
  5
26A
100
AcDbEntity
  8
0
100
AcDbLine
 62
7
  6
CONTINUOUS
 10
33.514541153
 20
57.2314150515
 11
34.7252287266
 21
56.5445342488
  0
LINE
  5
26B
100
AcDbEntity
  8
0
100
AcDbLine
 62
7
  6
CONTINUOUS
 10
29.1926401822
 20
56.2520385187
 11
30.1825937969
 21
55.6805014626
  0
LINE
  5
26C
100
AcDbEntity
  8
0
100
AcDbLine
 62
7
  6
CONTINUOUS
 10
51.36847515
 20
43.4491038716
 11
52.2307120208
 21
42.9513024439
  0
LINE
  5
26D
100
AcDbEntity
  8
0
100
AcDbLine
 62
7
  6
CONTINUOUS
 10
51.9832245002
 20
43.3391400594
 11
51.2624095744
 21
43.7552933363
  0
LINE
  5
26E
100
AcDbEntity
  8
0
100
AcDbLine
 62
7
  6
CONTINUOUS
 10
30.0765282214
 20
55.9866909273
 11
29.3557132955
 21
56.4028442041
  0
LINE
  5
26F
100
AcDbEntity
  8
0
100
AcDbLine
 62
7
  6
CONTINUOUS
 10
52.5842639394
 20
43.5636757294
 11
51.7220270686
 21
44.0614771571
  0
LINE
  5
270
100
AcDbEntity
  8
0
100
AcDbLine
 62
7
  6
CONTINUOUS
 10
30.5361457156
 20
56.2928747481
 11
29.5461921008
 21
56.8644118042
  0
LINE
  5
271
100
AcDbEntity
  8
0
100
AcDbLine
 62
7
  6
CONTINUOUS
 10
29.7092652141
 20
57.0152174896
 11
30.43008014
 21
56.5990642128
  0
LINE
  5
272
100
AcDbEntity
  8
0
100
AcDbLine
 62
7
  6
CONTINUOUS
 10
51.615961493
 20
44.3676666217
 11
52.3367764188
 21
43.9515133449
  0
LINE
  5
273
100
AcDbEntity
  8
0
100
AcDbLine
 62
7
  6
CONTINUOUS
 10
30.2532959381
 20
57.272655958
 11
31.2432495528
 21
56.701118902
  0
LINE
  5
274
100
AcDbEntity
  8
0
100
AcDbLine
 62
7
  6
CONTINUOUS
 10
52.4291309058
 20
44.469721311
 11
53.2913677767
 21
43.9719198833
  0
LINE
  5
275
100
AcDbEntity
  8
0
100
AcDbLine
 62
7
  6
CONTINUOUS
 10
55.7461383834
 20
42.637117124
 11
54.8839015125
 21
43.1349185517
  0
LINE
  5
276
100
AcDbEntity
  8
0
100
AcDbLine
 62
7
  6
CONTINUOUS
 10
32.7080665448
 20
55.9378531988
 11
33.6980201595
 21
55.3663161428
  0
LINE
  5
277
100
AcDbEntity
  8
0
100
AcDbLine
 62
7
  6
CONTINUOUS
 10
53.4100197061
 20
44.0167465387
 11
52.5477828353
 21
44.5145479665
  0
LINE
  5
278
100
AcDbEntity
  8
0
100
AcDbLine
 62
7
  6
CONTINUOUS
 10
30.3719478676
 20
57.3174826135
 11
31.3619014823
 21
56.7459455575
  0
LINE
  5
279
100
AcDbEntity
  8
0
100
AcDbLine
 62
7
  6
CONTINUOUS
 10
53.043880256
 20
44.3597574988
 11
52.3230653302
 21
44.7759107756
  0
LINE
  5
27A
100
AcDbEntity
  8
0
100
AcDbLine
 62
7
  6
CONTINUOUS
 10
31.1371839772
 20
57.0073083666
 11
30.4163690513
 21
57.4234616435
  0
LINE
  5
27B
100
AcDbEntity
  8
0
100
AcDbLine
 62
7
  6
CONTINUOUS
 10
31.2360696135
 20
57.0481062813
 11
30.5152546877
 21
57.4642595581
  0
LINE
  5
27C
100
AcDbEntity
  8
0
100
AcDbLine
 62
7
  6
CONTINUOUS
 10
52.4219509666
 20
44.8167086902
 11
53.1427658924
 21
44.4005554134
  0
LINE
  5
27D
100
AcDbEntity
  8
0
100
AcDbLine
 62
7
  6
CONTINUOUS
 10
34.1717096032
 20
55.5089993787
 11
33.4508946774
 21
55.9251526555
  0
LINE
  5
27E
100
AcDbEntity
  8
0
100
AcDbLine
 62
7
  6
CONTINUOUS
 10
55.3575909563
 20
43.2776017877
 11
56.0784058821
 21
42.8614485109
  0
LINE
  5
27F
100
AcDbEntity
  8
0
100
AcDbLine
 62
7
  6
CONTINUOUS
 10
31.0843362722
 20
57.5191685046
 11
29.1851264768
 21
58.6156529855
  0
LINE
  5
280
100
AcDbEntity
  8
0
100
AcDbLine
 62
7
  6
CONTINUOUS
 10
55.7461383834
 20
43.9770683367
 11
54.8839015125
 21
44.4748697644
  0
LINE
  5
281
100
AcDbEntity
  8
0
100
AcDbLine
 62
7
  6
CONTINUOUS
 10
32.7080665448
 20
57.2778044114
 11
33.6980201595
 21
56.7062673554
  0
LINE
  5
282
100
AcDbEntity
  8
0
100
AcDbLine
 62
7
  6
CONTINUOUS
 10
32.8038885825
 20
57.2405131423
 11
33.7938421972
 21
56.6689760862
  0
LINE
  5
283
100
AcDbEntity
  8
0
100
AcDbLine
 62
7
  6
CONTINUOUS
 10
54.9797225636
 20
44.4375786452
 11
55.8419594345
 21
43.9397772175
  0
LINE
  5
284
100
AcDbEntity
  8
0
100
AcDbLine
 62
7
  6
CONTINUOUS
 10
34.1717096032
 20
57.1105503102
 11
33.4508946774
 21
57.526703587
  0
LINE
  5
285
100
AcDbEntity
  8
0
100
AcDbLine
 62
7
  6
CONTINUOUS
 10
55.3575909563
 20
44.8791527192
 11
56.0784058821
 21
44.4629994424
  0
LINE
  5
286
100
AcDbEntity
  8
0
100
AcDbLine
 62
7
  6
CONTINUOUS
 10
56.1894417874
 20
44.419166019
 11
55.4686268615
 21
44.8353192958
  0
LINE
  5
287
100
AcDbEntity
  8
0
100
AcDbLine
 62
7
  6
CONTINUOUS
 10
33.5619326851
 20
57.482869708
 11
34.2827476109
 21
57.0667164312
  0
LINE
  5
288
100
AcDbEntity
  8
0
100
AcDbLine
 62
7
  6
CONTINUOUS
 10
22.9164261917
 20
91.2202256908
 11
23.1521865801
 21
90.1121112175
  0
LINE
  5
289
100
AcDbEntity
  8
0
100
AcDbLine
 62
7
  6
CONTINUOUS
 10
27.0929810164
 20
35.092153692
 11
27.0929810164
 21
116.7423690323
  0
LINE
  5
28A
100
AcDbEntity
  8
0
100
AcDbLine
 62
7
  6
CONTINUOUS
 10
29.1926401815
 20
110.1411980497
 11
29.1926401815
 21
106.7935381398
  0
LINE
  5
28B
100
AcDbEntity
  8
0
100
AcDbLine
 62
7
  6
CONTINUOUS
 10
29.1926401815
 20
89.8919381049
 11
29.1926401815
 21
86.5442781943
  0
LINE
  5
28C
100
AcDbEntity
  8
0
100
AcDbLine
 62
7
  6
CONTINUOUS
 10
29.1926401815
 20
56.2520385191
 11
29.1926401815
 21
52.9043786092
  0
LINE
  5
28D
100
AcDbEntity
  8
0
100
AcDbLine
 62
7
  6
CONTINUOUS
 10
29.355713295
 20
110.292003733
 11
29.355713295
 21
106.20949165
  0
LINE
  5
28E
100
AcDbEntity
  8
0
100
AcDbLine
 62
7
  6
CONTINUOUS
 10
29.355713295
 20
90.0427437902
 11
29.355713295
 21
85.9602317046
  0
LINE
  5
28F
100
AcDbEntity
  8
0
100
AcDbLine
 62
7
  6
CONTINUOUS
 10
29.355713295
 20
56.4028442038
 11
29.355713295
 21
52.3203321181
  0
LINE
  5
290
100
AcDbEntity
  8
0
100
AcDbLine
 62
7
  6
CONTINUOUS
 10
30.0765282214
 20
109.8758504578
 11
30.0765282214
 21
105.7933383722
  0
LINE
  5
291
100
AcDbEntity
  8
0
100
AcDbLine
 62
7
  6
CONTINUOUS
 10
30.0765282214
 20
89.626590513
 11
30.0765282214
 21
85.5440784268
  0
LINE
  5
292
100
AcDbEntity
  8
0
100
AcDbLine
 62
7
  6
CONTINUOUS
 10
30.0765282214
 20
55.9866909273
 11
30.0765282214
 21
51.9041788416
  0
LINE
  5
293
100
AcDbEntity
  8
0
100
AcDbLine
 62
7
  6
CONTINUOUS
 10
30.1825937967
 20
109.5696609936
 11
30.1825937967
 21
106.2220010822
  0
LINE
  5
294
100
AcDbEntity
  8
0
100
AcDbLine
 62
7
  6
CONTINUOUS
 10
30.1825937967
 20
89.3204010482
 11
30.1825937967
 21
85.9727411383
  0
LINE
  5
295
100
AcDbEntity
  8
0
100
AcDbLine
 62
7
  6
CONTINUOUS
 10
30.1825937967
 20
55.6805014631
 11
30.1825937967
 21
52.3328415517
  0
LINE
  5
296
100
AcDbEntity
  8
0
100
AcDbLine
 62
7
  6
CONTINUOUS
 10
30.4151396101
 20
35.4847178652
 11
30.4151396101
 21
30.7535411192
  0
LINE
  5
297
100
AcDbEntity
  8
0
100
AcDbLine
 62
7
  6
CONTINUOUS
 10
31.1532666773
 20
34.953052656
 11
31.1532666773
 21
33.9732509427
  0
LINE
  5
298
100
AcDbEntity
  8
0
100
AcDbLine
 62
7
  6
CONTINUOUS
 10
31.1532666774
 20
32.9934480412
 11
31.1532666774
 21
31.5146905444
  0
LINE
  5
299
100
AcDbEntity
  8
0
100
AcDbLine
 62
7
  6
CONTINUOUS
 10
95.8256657068
 20
132.1957236809
 11
97.9979307897
 21
133.449874025
  0
LINE
  5
29A
100
AcDbEntity
  8
0
100
AcDbLine
 62
7
  6
CONTINUOUS
 10
29.0413959165
 20
58.3518901046
 11
29.5740409728
 21
58.2434992987
  0
LINE
  5
29B
100
AcDbEntity
  8
0
100
AcDbLine
 62
7
  6
CONTINUOUS
 10
31.0843353073
 20
57.5191668321
 11
31.4065034292
 21
57.4197205476
  0
LINE
  5
29C
100
AcDbEntity
  8
0
100
AcDbLine
 62
7
  6
CONTINUOUS
 10
25.7455704974
 20
65.1371200065
 11
30.2749472665
 21
62.5673885434
  0
LINE
  5
29D
100
AcDbEntity
  8
0
100
AcDbLine
 62
7
  6
CONTINUOUS
 10
30.9758535613
 20
62.97917968
 11
26.4464767922
 21
65.5489111431
  0
LINE
  5
29E
100
AcDbEntity
  8
0
100
AcDbLine
 62
7
  6
CONTINUOUS
 10
27.1311334936
 20
65.7888894832
 11
31.6563139456
 21
63.2187601045
  0
LINE
  5
29F
100
AcDbEntity
  8
0
100
AcDbLine
 62
7
  6
CONTINUOUS
 10
20.3755504983
 20
66.4052547411
 11
24.1162849375
 21
64.2455895638
  0
LINE
  5
2A0
100
AcDbEntity
  8
0
100
AcDbLine
 62
7
  6
CONTINUOUS
 10
32.1047322697
 20
61.1724402538
 11
30.1966175392
 21
62.274065885
  0
LINE
  5
2A1
100
AcDbEntity
  8
0
100
AcDbLine
 62
7
  6
CONTINUOUS
 10
25.521940746
 20
64.9729307335
 11
25.0336350182
 21
65.254847799
  0
LINE
  5
2A2
100
AcDbEntity
  8
0
100
AcDbLine
 62
7
  6
CONTINUOUS
 10
18.961331048
 20
68.8547410848
 11
25.1111794665
 21
65.3042047688
  0
LINE
  5
2A3
100
AcDbEntity
  8
0
100
AcDbLine
 62
7
  6
CONTINUOUS
 10
18.6077761854
 20
69.4671126703
 11
25.4475108265
 21
65.5182793686
  0
LINE
  5
2A4
100
AcDbEntity
  8
0
100
AcDbLine
 62
7
  6
CONTINUOUS
 10
32.4122379539
 20
34.3516559248
 11
32.4122379539
 21
56.1079195814
  0
LINE
  5
2A5
100
AcDbEntity
  8
0
100
AcDbLine
 62
7
  6
CONTINUOUS
 10
32.8914208955
 20
31.5468282503
 11
32.8914208955
 21
31.9899469377
  0
LINE
  5
2A6
100
AcDbEntity
  8
0
100
AcDbLine
 62
7
  6
CONTINUOUS
 10
32.8914208955
 20
32.9697498392
 11
32.8914208955
 21
33.9495515525
  0
LINE
  5
2A7
100
AcDbEntity
  8
0
100
AcDbLine
 62
7
  6
CONTINUOUS
 10
34.7252287266
 20
56.5445342488
 11
34.7252287266
 21
35.7105666757
  0
LINE
  5
2A8
100
AcDbEntity
  8
0
100
AcDbLine
 62
7
  6
CONTINUOUS
 10
34.8713116397
 20
33.1330305689
 11
34.8713116397
 21
33.6229320197
  0
LINE
  5
2A9
100
AcDbEntity
  8
0
100
AcDbLine
 62
7
  6
CONTINUOUS
 10
34.8713116397
 20
35.5008875782
 11
34.8713116397
 21
57.1102182923
  0
LINE
  5
2AA
100
AcDbEntity
  8
0
100
AcDbLine
 62
7
  6
CONTINUOUS
 10
36.2855193141
 20
27.0694202544
 11
36.2855193141
 21
33.5064001886
  0
LINE
  5
2AB
100
AcDbEntity
  8
0
100
AcDbLine
 62
7
  6
CONTINUOUS
 10
36.2855193141
 20
63.8335073428
 11
36.2855193141
 21
96.057437001
  0
LINE
  5
2AC
100
AcDbEntity
  8
0
100
AcDbLine
 62
7
  6
CONTINUOUS
 10
95.3109362078
 20
130.2655414065
 11
93.7553077663
 21
129.3674042682
  0
LINE
  5
2AD
100
AcDbEntity
  8
0
100
AcDbLine
 62
7
  6
CONTINUOUS
 10
49.7204922211
 20
103.6786648876
 11
95.3001775011
 21
129.9939513725
  0
LINE
  5
2AE
100
AcDbEntity
  8
0
100
AcDbLine
 62
7
  6
CONTINUOUS
 10
97.9769865948
 20
130.7118440764
 11
93.7553077664
 21
128.2744712176
  0
LINE
  5
2AF
100
AcDbEntity
  8
0
100
AcDbLine
 62
7
  6
CONTINUOUS
 10
30.4163690502
 20
91.063361228
 11
29.7092652136
 21
90.6551170744
  0
LINE
  5
2B0
100
AcDbEntity
  8
0
100
AcDbLine
 62
7
  6
CONTINUOUS
 10
30.2532959373
 20
90.9125555442
 11
29.5461921001
 21
90.5043113904
  0
LINE
  5
2B1
100
AcDbEntity
  8
0
100
AcDbLine
 62
7
  6
CONTINUOUS
 10
99.1668072554
 20
130.266758348
 11
101.3390723378
 21
131.5209086918
  0
LINE
  5
2B2
100
AcDbEntity
  8
0
100
AcDbLine
 62
7
  6
CONTINUOUS
 10
31.1371839772
 20
90.6472079524
 11
30.43008014
 21
90.2389637985
  0
LINE
  5
2B3
100
AcDbEntity
  8
0
100
AcDbLine
 62
7
  6
CONTINUOUS
 10
31.2432495528
 20
90.3410184878
 11
30.5361457154
 21
89.9327743338
  0
LINE
  5
2B4
100
AcDbEntity
  8
0
100
AcDbLine
 62
7
  6
CONTINUOUS
 10
100.0035031884
 20
129.5418606446
 11
95.7818243599
 21
127.1044877857
  0
LINE
  5
2B5
100
AcDbEntity
  8
0
100
AcDbLine
 62
7
  6
CONTINUOUS
 10
97.096449315
 20
127.4384389346
 11
98.6520777566
 21
128.336576073
  0
LINE
  5
2B6
100
AcDbEntity
  8
0
100
AcDbLine
 62
7
  6
CONTINUOUS
 10
49.7134211829
 20
103.6746800736
 11
36.2855193141
 21
96.0574370008
  0
LINE
  5
2B7
100
AcDbEntity
  8
0
100
AcDbLine
 62
7
  6
CONTINUOUS
 10
34.7252287266
 20
56.5445342488
 11
33.3539255648
 21
56.661172726
  0
LINE
  5
2B8
100
AcDbEntity
  8
0
100
AcDbLine
 62
7
  6
CONTINUOUS
 10
31.4065034292
 20
57.4197205476
 11
34.8713116397
 21
57.1102182927
  0
LINE
  5
2B9
100
AcDbEntity
  8
0
100
AcDbLine
 62
7
  6
CONTINUOUS
 10
29.2144220626
 20
67.915914888
 11
36.2855193141
 21
63.8335073428
  0
LINE
  5
2BA
100
AcDbEntity
  8
0
100
AcDbLine
 62
7
  6
CONTINUOUS
 10
38.2540960941
 20
16.185324395
 11
38.254096094
 21
15.4083621734
  0
LINE
  5
2BB
100
AcDbEntity
  8
0
100
AcDbLine
 62
7
  6
CONTINUOUS
 10
38.4068308257
 20
16.9031096375
 11
38.4068308257
 21
15.4965430854
  0
LINE
  5
2BC
100
AcDbEntity
  8
0
100
AcDbLine
 62
7
  6
CONTINUOUS
 10
29.5461921001
 20
86.340149063
 11
30.2532959373
 21
86.7483932169
  0
LINE
  5
2BD
100
AcDbEntity
  8
0
100
AcDbLine
 62
7
  6
CONTINUOUS
 10
29.7092652133
 20
85.7561025715
 11
30.4163690513
 21
86.1643467258
  0
LINE
  5
2BE
100
AcDbEntity
  8
0
100
AcDbLine
 62
7
  6
CONTINUOUS
 10
51.615961493
 20
98.2568261523
 11
52.3230653302
 21
98.6650703062
  0
LINE
  5
2BF
100
AcDbEntity
  8
0
100
AcDbLine
 62
7
  6
CONTINUOUS
 10
30.5361457154
 20
85.7686120067
 11
31.2432495528
 21
86.1768561608
  0
LINE
  5
2C0
100
AcDbEntity
  8
0
100
AcDbLine
 62
7
  6
CONTINUOUS
 10
51.7220270683
 20
97.9506366881
 11
52.4291309055
 21
98.358880842
  0
LINE
  5
2C1
100
AcDbEntity
  8
0
100
AcDbLine
 62
7
  6
CONTINUOUS
 10
30.43008014
 20
85.3399492957
 11
31.1371839772
 21
85.7481934496
  0
LINE
  5
2C2
100
AcDbEntity
  8
0
100
AcDbLine
 62
7
  6
CONTINUOUS
 10
52.3367764182
 20
97.8406728751
 11
53.0438802549
 21
98.2489170287
  0
LINE
  5
2C3
100
AcDbEntity
  8
0
100
AcDbLine
 62
7
  6
CONTINUOUS
 10
53.2913677761
 20
97.8610794135
 11
52.5842639393
 21
97.4528352599
  0
LINE
  5
2C4
100
AcDbEntity
  8
0
100
AcDbLine
 62
7
  6
CONTINUOUS
 10
14.1797777527
 20
66.2400551309
 11
14.3465638202
 21
66.2147543316
  0
LINE
  5
2C5
100
AcDbEntity
  8
0
100
AcDbLine
 62
7
  6
CONTINUOUS
 10
72.6246162331
 20
52.0785665176
 11
73.687051196
 21
51.4651832823
  0
LINE
  5
2C6
100
AcDbEntity
  8
0
100
AcDbLine
 62
7
  6
CONTINUOUS
 10
78.0794287863
 20
48.9293002675
 11
79.1418637492
 21
48.3159170322
  0
LINE
  5
2C7
100
AcDbEntity
  8
0
100
AcDbLine
 62
7
  6
CONTINUOUS
 10
13.5455671473
 20
65.8711874775
 11
13.5790761218
 21
65.8929509268
  0
LINE
  5
2C8
100
AcDbEntity
  8
0
100
AcDbLine
 62
7
  6
CONTINUOUS
 10
52.4291309055
 20
94.1947185135
 11
51.7220270683
 21
93.7864743596
  0
LINE
  5
2C9
100
AcDbEntity
  8
0
100
AcDbLine
 62
7
  6
CONTINUOUS
 10
52.3230653302
 20
93.7660558034
 11
51.615961493
 21
93.3578116495
  0
LINE
  5
2CA
100
AcDbEntity
  8
0
100
AcDbLine
 62
7
  6
CONTINUOUS
 10
52.5842639393
 20
93.2886729325
 11
53.2913677761
 21
93.6969170862
  0
LINE
  5
2CB
100
AcDbEntity
  8
0
100
AcDbLine
 62
7
  6
CONTINUOUS
 10
53.0438802549
 20
93.3499025259
 11
52.3367764182
 21
92.9416583724
  0
LINE
  5
2CC
100
AcDbEntity
  8
0
100
AcDbLine
 62
7
  6
CONTINUOUS
 10
98.5303306008
 20
64.9449251696
 11
96.4871092453
 21
65.014633707
  0
LINE
  5
2CD
100
AcDbEntity
  8
0
100
AcDbLine
 62
7
  6
CONTINUOUS
 10
79.4187356255
 20
52.5649934764
 11
80.8329550758
 21
51.7485119674
  0
LINE
  5
2CE
100
AcDbEntity
  8
0
100
AcDbLine
 62
7
  6
CONTINUOUS
 10
83.6613939763
 20
50.1155489493
 11
85.0756134266
 21
49.2990674403
  0
LINE
  5
2CF
100
AcDbEntity
  8
0
100
AcDbLine
 62
7
  6
CONTINUOUS
 10
85.5057982841
 20
51.9901144171
 11
85.0756134266
 21
52.2384761416
  0
LINE
  5
2D0
100
AcDbEntity
  8
0
100
AcDbLine
 62
7
  6
CONTINUOUS
 10
79.4187356255
 20
55.5044021778
 11
78.988550768
 21
55.7527639024
  0
LINE
  5
2D1
100
AcDbEntity
  8
0
100
AcDbLine
 62
7
  6
CONTINUOUS
 10
49.7134211828
 20
103.6746800741
 11
49.7134211828
 21
22.0243671058
  0
LINE
  5
2D2
100
AcDbEntity
  8
0
100
AcDbLine
 62
7
  6
CONTINUOUS
 10
49.7204922211
 20
22.0284495474
 11
49.7204922211
 21
103.6786648876
  0
LINE
  5
2D3
100
AcDbEntity
  8
0
100
AcDbLine
 62
7
  6
CONTINUOUS
 10
51.2624095744
 20
39.6727812506
 11
51.2624095744
 21
43.7552933363
  0
LINE
  5
2D4
100
AcDbEntity
  8
0
100
AcDbLine
 62
7
  6
CONTINUOUS
 10
51.2624095744
 20
73.3126808364
 11
51.2624095744
 21
77.3951929214
  0
LINE
  5
2D5
100
AcDbEntity
  8
0
100
AcDbLine
 62
7
  6
CONTINUOUS
 10
51.2624095744
 20
93.5619407812
 11
51.2624095744
 21
97.6444528668
  0
LINE
  5
2D6
100
AcDbEntity
  8
0
100
AcDbLine
 62
7
  6
CONTINUOUS
 10
51.36847515
 20
40.1014439614
 11
51.36847515
 21
43.4491038717
  0
LINE
  5
2D7
100
AcDbEntity
  8
0
100
AcDbLine
 62
7
  6
CONTINUOUS
 10
51.3684751497
 20
73.7413435473
 11
51.3684751497
 21
77.0890034572
  0
LINE
  5
2D8
100
AcDbEntity
  8
0
100
AcDbLine
 62
7
  6
CONTINUOUS
 10
51.3684751497
 20
93.9906034912
 11
51.3684751497
 21
97.3382634026
  0
LINE
  5
2D9
100
AcDbEntity
  8
0
100
AcDbLine
 62
7
  6
CONTINUOUS
 10
51.9832245002
 20
39.2566303687
 11
51.9832245002
 21
43.3391376645
  0
LINE
  5
2DA
100
AcDbEntity
  8
0
100
AcDbLine
 62
7
  6
CONTINUOUS
 10
51.9832244997
 20
72.8965299537
 11
51.9832244997
 21
76.9790372492
  0
LINE
  5
2DB
100
AcDbEntity
  8
0
100
AcDbLine
 62
7
  6
CONTINUOUS
 10
51.9832244997
 20
93.1457898991
 11
51.9832244997
 21
97.2282971947
  0
LINE
  5
2DC
100
AcDbEntity
  8
0
100
AcDbLine
 62
7
  6
CONTINUOUS
 10
52.2307120208
 20
96.840461975
 11
52.2307120208
 21
93.4928020636
  0
LINE
  5
2DD
100
AcDbEntity
  8
0
100
AcDbLine
 62
7
  6
CONTINUOUS
 10
52.2307120208
 20
76.5912020296
 11
52.2307120208
 21
73.2435421197
  0
LINE
  5
2DE
100
AcDbEntity
  8
0
100
AcDbLine
 62
7
  6
CONTINUOUS
 10
52.2307120206
 20
42.9513024444
 11
52.2307120206
 21
39.6036425329
  0
LINE
  5
2DF
100
AcDbEntity
  8
0
100
AcDbLine
 62
7
  6
CONTINUOUS
 10
25.0336350183
 20
65.2548477993
 11
29.2144220626
 21
67.9159148882
  0
LINE
  5
2E0
100
AcDbEntity
  8
0
100
AcDbLine
 62
7
  6
CONTINUOUS
 10
13.5789863874
 20
65.8932194275
 11
14.1797650405
 21
66.2400770742
  0
LINE
  5
2E1
100
AcDbEntity
  8
0
100
AcDbLine
 62
7
  6
CONTINUOUS
 10
13.7962884932
 20
65.8970546194
 11
14.3465638202
 21
66.2147543311
  0
LINE
  5
2E2
100
AcDbEntity
  8
0
100
AcDbLine
 62
7
  6
CONTINUOUS
 10
18.961331048
 20
68.8547410848
 11
19.3148920198
 21
69.0588683886
  0
LINE
  5
2E3
100
AcDbEntity
  8
0
100
AcDbLine
 62
7
  6
CONTINUOUS
 10
16.8912768903
 20
63.0511135188
 11
17.4827984556
 21
63.3926266152
  0
LINE
  5
2E4
100
AcDbEntity
  8
0
100
AcDbLine
 62
7
  6
CONTINUOUS
 10
17.0503702207
 20
61.9286457996
 11
17.6289104306
 21
62.2626641518
  0
LINE
  5
2E5
100
AcDbEntity
  8
0
100
AcDbLine
 62
7
  6
CONTINUOUS
 10
77.1087323576
 20
59.2618463685
 11
81.5400471371
 21
56.7291346394
  0
LINE
  5
2E6
100
AcDbEntity
  8
0
100
AcDbLine
 62
7
  6
CONTINUOUS
 10
82.9542548116
 20
54.6062142455
 11
84.3684742618
 21
53.7897327365
  0
LINE
  5
2E7
100
AcDbEntity
  8
0
100
AcDbLine
 62
7
  6
CONTINUOUS
 10
87.1969131625
 20
52.1567697184
 11
88.6111326127
 21
51.3402882094
  0
LINE
  5
2E8
100
AcDbEntity
  8
0
100
AcDbLine
 62
7
  6
CONTINUOUS
 10
29.4592694559
 20
85.7313386303
 11
30.1800843817
 21
85.3151853534
  0
LINE
  5
2E9
100
AcDbEntity
  8
0
100
AcDbLine
 62
7
  6
CONTINUOUS
 10
52.0867812681
 20
72.6676355378
 11
51.3659663422
 21
73.0837888146
  0
LINE
  5
2EA
100
AcDbEntity
  8
0
100
AcDbLine
 62
7
  6
CONTINUOUS
 10
29.3557132955
 20
85.9602317036
 11
30.43008014
 21
85.3399492957
  0
LINE
  5
2EB
100
AcDbEntity
  8
0
100
AcDbLine
 62
7
  6
CONTINUOUS
 10
51.2624095744
 20
73.3126808364
 11
52.3367764188
 21
72.6923984279
  0
LINE
  5
2EC
100
AcDbEntity
  8
0
100
AcDbLine
 62
7
  6
CONTINUOUS
 10
29.2961963426
 20
86.3153851203
 11
30.2861499573
 21
85.7438480642
  0
LINE
  5
2ED
100
AcDbEntity
  8
0
100
AcDbLine
 62
7
  6
CONTINUOUS
 10
51.4720319178
 20
73.5124515254
 11
52.3342687882
 21
73.014650098
  0
LINE
  5
2EE
100
AcDbEntity
  8
0
100
AcDbLine
 62
7
  6
CONTINUOUS
 10
52.5842639389
 20
73.0394129881
 11
51.36847515
 21
73.7413435471
  0
LINE
  5
2EF
100
AcDbEntity
  8
0
100
AcDbLine
 62
7
  6
CONTINUOUS
 10
30.5361457156
 20
85.7686120065
 11
29.1926401822
 21
86.5442781939
  0
LINE
  5
2F0
100
AcDbEntity
  8
0
100
AcDbLine
 62
7
  6
CONTINUOUS
 10
30.4163690513
 20
86.1643467264
 11
31.1371839772
 21
85.7481934496
  0
LINE
  5
2F1
100
AcDbEntity
  8
0
100
AcDbLine
 62
7
  6
CONTINUOUS
 10
52.3230653302
 20
73.5167958586
 11
53.043880256
 21
73.1006425818
  0
LINE
  5
2F2
100
AcDbEntity
  8
0
100
AcDbLine
 62
7
  6
CONTINUOUS
 10
31.2360696135
 20
85.8215781509
 11
30.5152546877
 21
86.2377314278
  0
LINE
  5
2F3
100
AcDbEntity
  8
0
100
AcDbLine
 62
7
  6
CONTINUOUS
 10
52.4219509666
 20
73.5901805599
 11
53.1427658924
 21
73.1740272831
  0
LINE
  5
2F4
100
AcDbEntity
  8
0
100
AcDbLine
 62
7
  6
CONTINUOUS
 10
53.2913677762
 20
73.447657142
 11
52.4291309058
 21
73.9454585694
  0
LINE
  5
2F5
100
AcDbEntity
  8
0
100
AcDbLine
 62
7
  6
CONTINUOUS
 10
31.2432495528
 20
86.1768561604
 11
30.2532959381
 21
86.7483932164
  0
LINE
  5
2F6
100
AcDbEntity
  8
0
100
AcDbLine
 62
7
  6
CONTINUOUS
 10
53.4100197057
 20
73.5398371156
 11
52.5477828353
 21
74.037638543
  0
LINE
  5
2F7
100
AcDbEntity
  8
0
100
AcDbLine
 62
7
  6
CONTINUOUS
 10
30.3719478676
 20
86.84057319
 11
31.3619014823
 21
86.269036134
  0
LINE
  5
2F8
100
AcDbEntity
  8
0
100
AcDbLine
 62
7
  6
CONTINUOUS
 10
82.9542842512
 20
56.9045385357
 11
81.5400648009
 21
57.7210200448
  0
LINE
  5
2F9
100
AcDbEntity
  8
0
100
AcDbLine
 62
7
  6
CONTINUOUS
 10
75.7875093369
 20
61.6832517705
 11
78.5451549178
 21
60.0911603699
  0
LINE
  5
2FA
100
AcDbEntity
  8
0
100
AcDbLine
 62
7
  6
CONTINUOUS
 10
93.0202325063
 20
51.7341594883
 11
95.7817853429
 21
50.1398122836
  0
LINE
  5
2FB
100
AcDbEntity
  8
0
100
AcDbLine
 62
7
  6
CONTINUOUS
 10
98.1571050703
 20
49.9931740876
 11
96.8424410988
 21
50.7521785144
  0
LINE
  5
2FC
100
AcDbEntity
  8
0
100
AcDbLine
 62
7
  6
CONTINUOUS
 10
76.848165093
 20
62.2956180011
 11
75.5295938656
 21
63.0568782322
  0
LINE
  5
2FD
100
AcDbEntity
  8
0
100
AcDbLine
 62
7
  6
CONTINUOUS
 10
29.1926401822
 20
89.8919381044
 11
30.1825937969
 21
89.3204010484
  0
LINE
  5
2FE
100
AcDbEntity
  8
0
100
AcDbLine
 62
7
  6
CONTINUOUS
 10
51.36847515
 20
77.0890034573
 11
52.2307120203
 21
76.5912020299
  0
LINE
  5
2FF
100
AcDbEntity
  8
0
100
AcDbLine
 62
7
  6
CONTINUOUS
 10
51.9832245002
 20
76.9790396446
 11
51.2624095744
 21
77.3951929214
  0
LINE
  5
300
100
AcDbEntity
  8
0
100
AcDbLine
 62
7
  6
CONTINUOUS
 10
30.0765282214
 20
89.626590513
 11
29.3557132955
 21
90.0427437898
  0
LINE
  5
301
100
AcDbEntity
  8
0
100
AcDbLine
 62
7
  6
CONTINUOUS
 10
52.5842639389
 20
77.2035753154
 11
51.7220270686
 21
77.7013767428
  0
LINE
  5
302
100
AcDbEntity
  8
0
100
AcDbLine
 62
7
  6
CONTINUOUS
 10
30.5361457156
 20
89.9327743339
 11
29.5461921008
 21
90.5043113899
  0
LINE
  5
303
100
AcDbEntity
  8
0
100
AcDbLine
 62
7
  6
CONTINUOUS
 10
87.1969249382
 20
53.4632086032
 11
91.5838099461
 21
50.9048454868
  0
LINE
  5
304
100
AcDbEntity
  8
0
100
AcDbLine
 62
7
  6
CONTINUOUS
 10
30.1970690211
 20
62.2743580776
 11
31.6563139454
 21
63.2187601049
  0
LINE
  5
305
100
AcDbEntity
  8
0
100
AcDbLine
 62
7
  6
CONTINUOUS
 10
25.7455704964
 20
65.1371200059
 11
26.4464767954
 21
65.548911145
  0
LINE
  5
306
100
AcDbEntity
  8
0
100
AcDbLine
 62
7
  6
CONTINUOUS
 10
25.245393724
 20
60.5053083922
 11
24.9585223786
 21
60.3367679208
  0
LINE
  5
307
100
AcDbEntity
  8
0
100
AcDbLine
 62
7
  6
CONTINUOUS
 10
51.615961493
 20
78.0075662075
 11
52.3230653302
 21
78.4158103614
  0
LINE
  5
308
100
AcDbEntity
  8
0
100
AcDbLine
 62
7
  6
CONTINUOUS
 10
51.7220270683
 20
77.7013767427
 11
52.4291309055
 21
78.1096208966
  0
LINE
  5
309
100
AcDbEntity
  8
0
100
AcDbLine
 62
7
  6
CONTINUOUS
 10
52.3367764186
 20
77.59141293
 11
53.0438802555
 21
77.9996570836
  0
LINE
  5
30A
100
AcDbEntity
  8
0
100
AcDbLine
 62
7
  6
CONTINUOUS
 10
53.2913677761
 20
77.6118194687
 11
52.5842639393
 21
77.2035753151
  0
LINE
  5
30B
100
AcDbEntity
  8
0
100
AcDbLine
 62
7
  6
CONTINUOUS
 10
17.0503415341
 20
61.9286292375
 11
17.048096849
 21
61.9273464915
  0
LINE
  5
30C
100
AcDbEntity
  8
0
100
AcDbLine
 62
7
  6
CONTINUOUS
 10
29.7092652141
 20
90.6551170753
 11
30.43008014
 21
90.2389637985
  0
LINE
  5
30D
100
AcDbEntity
  8
0
100
AcDbLine
 62
7
  6
CONTINUOUS
 10
51.615961493
 20
78.0075662075
 11
52.3367764188
 21
77.5914129306
  0
LINE
  5
30E
100
AcDbEntity
  8
0
100
AcDbLine
 62
7
  6
CONTINUOUS
 10
85.5705684489
 20
58.415041905
 11
84.1563489986
 21
59.2315234141
  0
LINE
  5
30F
100
AcDbEntity
  8
0
100
AcDbLine
 62
7
  6
CONTINUOUS
 10
30.2532959381
 20
90.9125555438
 11
31.2432495528
 21
90.3410184877
  0
LINE
  5
310
100
AcDbEntity
  8
0
100
AcDbLine
 62
7
  6
CONTINUOUS
 10
52.4291309058
 20
78.1096208967
 11
53.2913677762
 21
77.6118194693
  0
LINE
  5
311
100
AcDbEntity
  8
0
100
AcDbLine
 62
7
  6
CONTINUOUS
 10
55.7461383829
 20
76.27701671
 11
54.8839015125
 21
76.7748181375
  0
LINE
  5
312
100
AcDbEntity
  8
0
100
AcDbLine
 62
7
  6
CONTINUOUS
 10
32.7080665448
 20
89.5777527845
 11
33.6980201595
 21
89.0062157285
  0
LINE
  5
313
100
AcDbEntity
  8
0
100
AcDbLine
 62
7
  6
CONTINUOUS
 10
53.4100197057
 20
77.6566461248
 11
52.5477828353
 21
78.1544475522
  0
LINE
  5
314
100
AcDbEntity
  8
0
100
AcDbLine
 62
7
  6
CONTINUOUS
 10
30.3719478676
 20
90.9573821993
 11
31.3619014823
 21
90.3858451432
  0
LINE
  5
315
100
AcDbEntity
  8
0
100
AcDbLine
 62
7
  6
CONTINUOUS
 10
53.043880256
 20
77.9996570845
 11
52.3230653302
 21
78.4158103613
  0
LINE
  5
316
100
AcDbEntity
  8
0
100
AcDbLine
 62
7
  6
CONTINUOUS
 10
31.1371839772
 20
90.6472079524
 11
30.4163690513
 21
91.0633612292
  0
LINE
  5
317
100
AcDbEntity
  8
0
100
AcDbLine
 62
7
  6
CONTINUOUS
 10
31.2360696135
 20
90.688005867
 11
30.5152546877
 21
91.1041591439
  0
LINE
  5
318
100
AcDbEntity
  8
0
100
AcDbLine
 62
7
  6
CONTINUOUS
 10
52.4219509666
 20
78.456608276
 11
53.1427658924
 21
78.0404549992
  0
LINE
  5
319
100
AcDbEntity
  8
0
100
AcDbLine
 62
7
  6
CONTINUOUS
 10
34.1717096032
 20
89.1488989645
 11
33.4508946774
 21
89.5650522413
  0
LINE
  5
31A
100
AcDbEntity
  8
0
100
AcDbLine
 62
7
  6
CONTINUOUS
 10
55.3575909563
 20
76.9175013734
 11
56.0784058821
 21
76.5013480966
  0
LINE
  5
31B
100
AcDbEntity
  8
0
100
AcDbLine
 62
7
  6
CONTINUOUS
 10
55.7461383829
 20
77.6169679227
 11
54.8839015125
 21
78.1147693501
  0
LINE
  5
31C
100
AcDbEntity
  8
0
100
AcDbLine
 62
7
  6
CONTINUOUS
 10
32.7080665448
 20
90.9177039971
 11
33.6980201595
 21
90.3461669411
  0
LINE
  5
31D
100
AcDbEntity
  8
0
100
AcDbLine
 62
7
  6
CONTINUOUS
 10
54.9797225636
 20
78.0774782309
 11
55.841959434
 21
77.5796768035
  0
LINE
  5
31E
100
AcDbEntity
  8
0
100
AcDbLine
 62
7
  6
CONTINUOUS
 10
32.8038885825
 20
90.880412728
 11
33.7938421972
 21
90.308875672
  0
LINE
  5
31F
100
AcDbEntity
  8
0
100
AcDbLine
 62
7
  6
CONTINUOUS
 10
34.1717096032
 20
90.7504498959
 11
33.4508946774
 21
91.1666031727
  0
LINE
  5
320
100
AcDbEntity
  8
0
100
AcDbLine
 62
7
  6
CONTINUOUS
 10
55.3575909563
 20
78.5190523049
 11
56.0784058821
 21
78.1028990281
  0
LINE
  5
321
100
AcDbEntity
  8
0
100
AcDbLine
 62
7
  6
CONTINUOUS
 10
56.1894417874
 20
78.0590656047
 11
55.4686268615
 21
78.4752188816
  0
LINE
  5
322
100
AcDbEntity
  8
0
100
AcDbLine
 62
7
  6
CONTINUOUS
 10
33.5619326851
 20
91.1227692938
 11
34.2827476109
 21
90.7066160169
  0
LINE
  5
323
100
AcDbEntity
  8
0
100
AcDbLine
 62
7
  6
CONTINUOUS
 10
76.0245665511
 20
141.4002802169
 11
76.5392960507
 21
143.3304624924
  0
LINE
  5
324
100
AcDbEntity
  8
0
100
AcDbLine
 62
7
  6
CONTINUOUS
 10
36.2855193141
 20
63.8335073436
 11
32.1047322684
 21
61.172440253
  0
LINE
  5
325
100
AcDbEntity
  8
0
100
AcDbLine
 62
7
  6
CONTINUOUS
 10
30.9758535592
 20
62.9791796789
 11
30.2749472656
 21
62.567388543
  0
LINE
  5
326
100
AcDbEntity
  8
0
100
AcDbLine
 62
7
  6
CONTINUOUS
 10
24.9585223792
 20
58.4366875737
 11
20.3755504983
 21
55.7907233189
  0
LINE
  5
327
100
AcDbEntity
  8
0
100
AcDbLine
 62
7
  6
CONTINUOUS
 10
18.9613341027
 20
54.9741947026
 11
18.6077761854
 21
54.7700691623
  0
LINE
  5
328
100
AcDbEntity
  8
0
100
AcDbLine
 62
7
  6
CONTINUOUS
 10
52.4291309055
 20
73.9454585696
 11
51.7220270683
 21
73.5372144157
  0
LINE
  5
329
100
AcDbEntity
  8
0
100
AcDbLine
 62
7
  6
CONTINUOUS
 10
52.3230653302
 20
73.5167958586
 11
51.615961493
 21
73.1085517047
  0
LINE
  5
32A
100
AcDbEntity
  8
0
100
AcDbLine
 62
7
  6
CONTINUOUS
 10
52.5842639393
 20
73.0394129877
 11
53.2913677761
 21
73.4476571413
  0
LINE
  5
32B
100
AcDbEntity
  8
0
100
AcDbLine
 62
7
  6
CONTINUOUS
 10
53.0438802563
 20
73.1006425814
 11
52.3367764182
 21
72.692398427
  0
LINE
  5
32C
100
AcDbEntity
  8
0
100
AcDbLine
 62
7
  6
CONTINUOUS
 10
97.0964493145
 20
59.4646127083
 11
95.7818243605
 21
60.2235946089
  0
LINE
  5
32D
100
AcDbEntity
  8
0
100
AcDbLine
 62
7
  6
CONTINUOUS
 10
75.7875093369
 20
71.7670566219
 11
74.4689381098
 21
72.5283168528
  0
LINE
  5
32E
100
AcDbEntity
  8
0
100
AcDbLine
 62
7
  6
CONTINUOUS
 10
98.1571050703
 20
60.0769789391
 11
96.8424462104
 21
60.8359804148
  0
LINE
  5
32F
100
AcDbEntity
  8
0
100
AcDbLine
 62
7
  6
CONTINUOUS
 10
76.848165093
 20
72.3794228527
 11
75.5295938656
 21
73.1406830838
  0
LINE
  5
330
100
AcDbEntity
  8
0
100
AcDbLine
 62
7
  6
CONTINUOUS
 10
13.6580081094
 20
109.1211411457
 11
36.2855193141
 21
96.057437001
  0
LINE
  5
331
100
AcDbEntity
  8
0
100
AcDbLine
 62
7
  6
CONTINUOUS
 10
77.1087323573
 20
59.2618463683
 11
81.5400471371
 21
53.7897259378
  0
LINE
  5
332
100
AcDbEntity
  8
0
100
AcDbLine
 62
7
  6
CONTINUOUS
 10
82.9542548115
 20
54.606214246
 11
78.5451549179
 21
60.0911603701
  0
LINE
  5
333
100
AcDbEntity
  8
0
100
AcDbLine
 62
7
  6
CONTINUOUS
 10
79.8804375987
 20
141.4014971599
 11
79.3657080992
 21
139.4713148844
  0
LINE
  5
334
100
AcDbEntity
  8
0
100
AcDbLine
 62
7
  6
CONTINUOUS
 10
30.4151282825
 20
57.2409748659
 11
30.9856331002
 21
57.5761535183
  0
LINE
  5
335
100
AcDbEntity
  8
0
100
AcDbLine
 62
7
  6
CONTINUOUS
 10
32.4122379533
 20
56.107919581
 11
33.3539255648
 21
56.6611727259
  0
LINE
  5
336
100
AcDbEntity
  8
0
100
AcDbLine
 62
7
  6
CONTINUOUS
 10
30.4163690508
 20
57.4234616432
 11
29.7092652136
 21
57.0152174893
  0
LINE
  5
337
100
AcDbEntity
  8
0
100
AcDbLine
 62
7
  6
CONTINUOUS
 10
30.2532959373
 20
57.2726559585
 11
29.5461921001
 21
56.8644118046
  0
LINE
  5
338
100
AcDbEntity
  8
0
100
AcDbLine
 62
7
  6
CONTINUOUS
 10
31.1371839772
 20
57.0073083666
 11
30.43008014
 21
56.5990642128
  0
LINE
  5
339
100
AcDbEntity
  8
0
100
AcDbLine
 62
7
  6
CONTINUOUS
 10
31.2432495535
 20
56.701118903
 11
30.536145715
 21
56.2928747484
  0
LINE
  5
33A
100
AcDbEntity
  8
0
100
AcDbLine
 62
7
  6
CONTINUOUS
 10
29.5461921001
 20
52.7002494773
 11
30.2532959373
 21
53.1084936311
  0
LINE
  5
33B
100
AcDbEntity
  8
0
100
AcDbLine
 62
7
  6
CONTINUOUS
 10
29.7092652136
 20
52.1162029865
 11
30.4163690508
 21
52.5244471404
  0
LINE
  5
33C
100
AcDbEntity
  8
0
100
AcDbLine
 62
7
  6
CONTINUOUS
 10
30.536145715
 20
52.1287124199
 11
31.2432495533
 21
52.5369565744
  0
LINE
  5
33D
100
AcDbEntity
  8
0
100
AcDbLine
 62
7
  6
CONTINUOUS
 10
30.43008014
 20
51.70004971
 11
31.1371839772
 21
52.1082938639
  0
LINE
  5
33E
100
AcDbEntity
  8
0
100
AcDbLine
 62
7
  6
CONTINUOUS
 10
29.4592694559
 20
105.9805985751
 11
30.1800843817
 21
105.5644452983
  0
LINE
  5
33F
100
AcDbEntity
  8
0
100
AcDbLine
 62
7
  6
CONTINUOUS
 10
52.0867812681
 20
92.9168954826
 11
51.3659663422
 21
93.3330487595
  0
LINE
  5
340
100
AcDbEntity
  8
0
100
AcDbLine
 62
7
  6
CONTINUOUS
 10
29.3557132955
 20
106.209491649
 11
30.43008014
 21
105.5892092405
  0
LINE
  5
341
100
AcDbEntity
  8
0
100
AcDbLine
 62
7
  6
CONTINUOUS
 10
51.2624095744
 20
93.5619407812
 11
52.3367764188
 21
92.9416583727
  0
LINE
  5
342
100
AcDbEntity
  8
0
100
AcDbLine
 62
7
  6
CONTINUOUS
 10
29.2961963426
 20
106.5646450651
 11
30.2861499573
 21
105.993108009
  0
LINE
  5
343
100
AcDbEntity
  8
0
100
AcDbLine
 62
7
  6
CONTINUOUS
 10
51.4720319178
 20
93.7617114702
 11
52.3342687882
 21
93.2639100428
  0
LINE
  5
344
100
AcDbEntity
  8
0
100
AcDbLine
 62
7
  6
CONTINUOUS
 10
52.5842639389
 20
93.2886729329
 11
51.36847515
 21
93.990603492
  0
LINE
  5
345
100
AcDbEntity
  8
0
100
AcDbLine
 62
7
  6
CONTINUOUS
 10
30.5361457156
 20
106.0178719513
 11
29.1926401822
 21
106.7935381393
  0
LINE
  5
346
100
AcDbEntity
  8
0
100
AcDbLine
 62
7
  6
CONTINUOUS
 10
30.4163690513
 20
106.4136066712
 11
31.1371839772
 21
105.9974533944
  0
LINE
  5
347
100
AcDbEntity
  8
0
100
AcDbLine
 62
7
  6
CONTINUOUS
 10
52.3230653302
 20
93.7660558034
 11
53.043880256
 21
93.3499025266
  0
LINE
  5
348
100
AcDbEntity
  8
0
100
AcDbLine
 62
7
  6
CONTINUOUS
 10
31.2360696135
 20
106.0708380957
 11
30.5152546877
 21
106.4869913726
  0
LINE
  5
349
100
AcDbEntity
  8
0
100
AcDbLine
 62
7
  6
CONTINUOUS
 10
52.4219509666
 20
93.8394405047
 11
53.1427658924
 21
93.4232872279
  0
LINE
  5
34A
100
AcDbEntity
  8
0
100
AcDbLine
 62
7
  6
CONTINUOUS
 10
53.2913677762
 20
93.6969170868
 11
52.4291309058
 21
94.1947185142
  0
LINE
  5
34B
100
AcDbEntity
  8
0
100
AcDbLine
 62
7
  6
CONTINUOUS
 10
31.2432495528
 20
106.4261161052
 11
30.2532959381
 21
106.9976531612
  0
LINE
  5
34C
100
AcDbEntity
  8
0
100
AcDbLine
 62
7
  6
CONTINUOUS
 10
53.4100197057
 20
93.7890970604
 11
52.5477828353
 21
94.2868984878
  0
LINE
  5
34D
100
AcDbEntity
  8
0
100
AcDbLine
 62
7
  6
CONTINUOUS
 10
30.3719478676
 20
107.0898331348
 11
31.3619014823
 21
106.5182960788
  0
LINE
  5
34E
100
AcDbEntity
  8
0
100
AcDbLine
 62
7
  6
CONTINUOUS
 10
13.9809846069
 20
39.9466580497
 11
13.6481473723
 21
39.7544955298
  0
LINE
  5
34F
100
AcDbEntity
  8
0
100
AcDbLine
 62
7
  6
CONTINUOUS
 10
74.4689381098
 20
72.528316853
 11
75.5295938656
 21
73.1406830838
  0
LINE
  5
350
100
AcDbEntity
  8
0
100
AcDbLine
 62
7
  6
CONTINUOUS
 10
76.848165093
 20
72.3794228523
 11
75.7875093372
 21
71.7670566215
  0
LINE
  5
351
100
AcDbEntity
  8
0
100
AcDbLine
 62
7
  6
CONTINUOUS
 10
29.1926401822
 20
110.1411980492
 11
30.1825937969
 21
109.5696609932
  0
LINE
  5
352
100
AcDbEntity
  8
0
100
AcDbLine
 62
7
  6
CONTINUOUS
 10
51.36847515
 20
97.3382634022
 11
52.2307120203
 21
96.8404619747
  0
LINE
  5
353
100
AcDbEntity
  8
0
100
AcDbLine
 62
7
  6
CONTINUOUS
 10
51.9832245002
 20
97.22829959
 11
51.2624095744
 21
97.6444528668
  0
LINE
  5
354
100
AcDbEntity
  8
0
100
AcDbLine
 62
7
  6
CONTINUOUS
 10
30.0765282214
 20
109.8758504578
 11
29.3557132955
 21
110.2920037346
  0
LINE
  5
355
100
AcDbEntity
  8
0
100
AcDbLine
 62
7
  6
CONTINUOUS
 10
52.5842639389
 20
97.4528352602
 11
51.7220270686
 21
97.9506366876
  0
LINE
  5
356
100
AcDbEntity
  8
0
100
AcDbLine
 62
7
  6
CONTINUOUS
 10
30.5361457156
 20
110.1820342787
 11
29.5461921008
 21
110.7535713347
  0
LINE
  5
357
100
AcDbEntity
  8
0
100
AcDbLine
 62
7
  6
CONTINUOUS
 10
29.7092652141
 20
110.9043770201
 11
30.43008014
 21
110.4882237433
  0
LINE
  5
358
100
AcDbEntity
  8
0
100
AcDbLine
 62
7
  6
CONTINUOUS
 10
51.615961493
 20
98.2568261523
 11
52.3367764188
 21
97.8406728754
  0
LINE
  5
359
100
AcDbEntity
  8
0
100
AcDbLine
 62
7
  6
CONTINUOUS
 10
30.2532959381
 20
111.1618154886
 11
31.2432495528
 21
110.5902784326
  0
LINE
  5
35A
100
AcDbEntity
  8
0
100
AcDbLine
 62
7
  6
CONTINUOUS
 10
52.4291309058
 20
98.3588808415
 11
53.2913677762
 21
97.8610794141
  0
LINE
  5
35B
100
AcDbEntity
  8
0
100
AcDbLine
 62
7
  6
CONTINUOUS
 10
55.7461383829
 20
96.5262766548
 11
54.8839015125
 21
97.0240780823
  0
LINE
  5
35C
100
AcDbEntity
  8
0
100
AcDbLine
 62
7
  6
CONTINUOUS
 10
32.7080665448
 20
109.8270127294
 11
33.6980201595
 21
109.2554756733
  0
LINE
  5
35D
100
AcDbEntity
  8
0
100
AcDbLine
 62
7
  6
CONTINUOUS
 10
53.4100197057
 20
97.9059060696
 11
52.5477828353
 21
98.403707497
  0
LINE
  5
35E
100
AcDbEntity
  8
0
100
AcDbLine
 62
7
  6
CONTINUOUS
 10
30.3719478676
 20
111.2066421441
 11
31.3619014823
 21
110.635105088
  0
LINE
  5
35F
100
AcDbEntity
  8
0
100
AcDbLine
 62
7
  6
CONTINUOUS
 10
53.043880256
 20
98.2489170293
 11
52.3230653302
 21
98.6650703062
  0
LINE
  5
360
100
AcDbEntity
  8
0
100
AcDbLine
 62
7
  6
CONTINUOUS
 10
31.1371839772
 20
110.8964678972
 11
30.4163690513
 21
111.312621174
  0
LINE
  5
361
100
AcDbEntity
  8
0
100
AcDbLine
 62
7
  6
CONTINUOUS
 10
31.2360696135
 20
110.9372658119
 11
30.5152546877
 21
111.3534190887
  0
LINE
  5
362
100
AcDbEntity
  8
0
100
AcDbLine
 62
7
  6
CONTINUOUS
 10
52.4219509666
 20
98.7058682208
 11
53.1427658924
 21
98.289714944
  0
LINE
  5
363
100
AcDbEntity
  8
0
100
AcDbLine
 62
7
  6
CONTINUOUS
 10
34.1717096032
 20
109.3981589093
 11
33.4508946774
 21
109.8143121861
  0
LINE
  5
364
100
AcDbEntity
  8
0
100
AcDbLine
 62
7
  6
CONTINUOUS
 10
55.3575909563
 20
97.1667613182
 11
56.0784058821
 21
96.7506080414
  0
LINE
  5
365
100
AcDbEntity
  8
0
100
AcDbLine
 62
7
  6
CONTINUOUS
 10
55.7461383829
 20
97.8662278675
 11
54.8839015125
 21
98.3640292949
  0
LINE
  5
366
100
AcDbEntity
  8
0
100
AcDbLine
 62
7
  6
CONTINUOUS
 10
32.7080665448
 20
111.166963942
 11
33.6980201595
 21
110.5954268859
  0
LINE
  5
367
100
AcDbEntity
  8
0
100
AcDbLine
 62
7
  6
CONTINUOUS
 10
32.8038885825
 20
111.1296726728
 11
33.7938421972
 21
110.5581356168
  0
LINE
  5
368
100
AcDbEntity
  8
0
100
AcDbLine
 62
7
  6
CONTINUOUS
 10
54.9797225637
 20
98.3267381757
 11
55.841959434
 21
97.8289367483
  0
LINE
  5
369
100
AcDbEntity
  8
0
100
AcDbLine
 62
7
  6
CONTINUOUS
 10
34.1717096032
 20
110.9997098407
 11
33.4508946774
 21
111.4158631176
  0
LINE
  5
36A
100
AcDbEntity
  8
0
100
AcDbLine
 62
7
  6
CONTINUOUS
 10
55.3575909562
 20
98.7683122497
 11
56.0784058821
 21
98.3521589729
  0
LINE
  5
36B
100
AcDbEntity
  8
0
100
AcDbLine
 62
7
  6
CONTINUOUS
 10
56.1894417874
 20
98.3083255495
 11
55.4686268615
 21
98.7244788264
  0
LINE
  5
36C
100
AcDbEntity
  8
0
100
AcDbLine
 62
7
  6
CONTINUOUS
 10
33.5619326851
 20
111.3720292386
 11
34.2827476109
 21
110.9558759618
  0
LINE
  5
36D
100
AcDbEntity
  8
0
100
AcDbLine
 62
7
  6
CONTINUOUS
 10
81.2713631048
 20
56.0725209222
 11
81.1686219458
 21
56.3638094186
  0
LINE
  5
36E
100
AcDbEntity
  8
0
100
AcDbLine
 62
7
  6
CONTINUOUS
 10
83.2229859473
 20
54.8641261976
 11
83.329052405
 21
54.5634099193
  0
LINE
  5
36F
100
AcDbEntity
  8
0
100
AcDbLine
 62
7
  6
CONTINUOUS
 10
81.228637747
 20
54.9856740049
 11
81.165296647
 21
55.1696620074
  0
LINE
  5
370
100
AcDbEntity
  8
0
100
AcDbLine
 62
7
  6
CONTINUOUS
 10
83.2657090632
 20
53.737013728
 11
83.329052405
 21
53.553019212
  0
LINE
  5
371
100
AcDbEntity
  8
0
100
AcDbLine
 62
7
  6
CONTINUOUS
 10
74.4689381098
 20
131.696682563
 11
74.4689381098
 21
72.528316853
  0
LINE
  5
372
100
AcDbEntity
  8
0
100
AcDbLine
 62
7
  6
CONTINUOUS
 10
75.5295938656
 20
73.1406830838
 11
75.5295938656
 21
63.0568782322
  0
LINE
  5
373
100
AcDbEntity
  8
0
100
AcDbLine
 62
7
  6
CONTINUOUS
 10
75.7875093372
 20
138.6479497977
 11
75.7875093372
 21
130.935422332
  0
LINE
  5
374
100
AcDbEntity
  8
0
100
AcDbLine
 62
7
  6
CONTINUOUS
 10
75.7875093372
 20
71.7670566215
 11
75.7875093372
 21
61.6832517703
  0
LINE
  5
375
100
AcDbEntity
  8
0
100
AcDbLine
 62
7
  6
CONTINUOUS
 10
76.848165093
 20
62.2956180011
 11
76.848165093
 21
72.3794228523
  0
LINE
  5
376
100
AcDbEntity
  8
0
100
AcDbLine
 62
7
  6
CONTINUOUS
 10
77.8100796578
 20
138.5731777462
 11
77.8100796578
 21
137.4802446963
  0
LINE
  5
377
100
AcDbEntity
  8
0
100
AcDbLine
 62
7
  6
CONTINUOUS
 10
78.711561133
 20
144.5846128362
 11
78.711561133
 21
142.1351055846
  0
LINE
  5
378
100
AcDbEntity
  8
0
100
AcDbLine
 62
7
  6
CONTINUOUS
 10
78.0794287869
 20
48.9293002671
 11
78.0801535785
 21
50.7489401655
  0
LINE
  5
379
100
AcDbEntity
  8
0
100
AcDbLine
 62
7
  6
CONTINUOUS
 10
78.711561133
 20
142.1351055846
 11
78.2034187581
 21
135.1350461523
  0
LINE
  5
37A
100
AcDbEntity
  8
0
100
AcDbLine
 62
7
  6
CONTINUOUS
 10
79.5219899856
 20
134.3737859218
 11
80.0091881653
 21
141.0853226564
  0
LINE
  5
37B
100
AcDbEntity
  8
0
100
AcDbLine
 62
7
  6
CONTINUOUS
 10
82.031758486
 20
139.917617555
 11
82.0527026811
 21
140.2061402524
  0
LINE
  5
37C
100
AcDbEntity
  8
0
100
AcDbLine
 62
7
  6
CONTINUOUS
 10
73.8433096421
 20
53.1950278053
 11
73.6870511952
 21
51.4651832835
  0
LINE
  5
37D
100
AcDbEntity
  8
0
100
AcDbLine
 62
7
  6
CONTINUOUS
 10
72.7865964367
 20
53.8630350538
 11
72.6246162333
 21
52.0785665174
  0
LINE
  5
37E
100
AcDbEntity
  8
0
100
AcDbLine
 62
7
  6
CONTINUOUS
 10
14.297693134
 20
29.7978780977
 11
14.3418878424
 21
29.8242845431
  0
LINE
  5
37F
100
AcDbEntity
  8
0
100
AcDbLine
 62
7
  6
CONTINUOUS
 10
26.5920286286
 20
38.7321818606
 11
26.9133086004
 21
38.9209378266
  0
LINE
  5
380
100
AcDbEntity
  8
0
100
AcDbLine
 62
7
  6
CONTINUOUS
 10
27.6522305238
 20
37.940108524
 11
28.0206291557
 21
38.1565472869
  0
LINE
  5
381
100
AcDbEntity
  8
0
100
AcDbLine
 62
7
  6
CONTINUOUS
 10
27.7272694585
 20
37.725967032
 11
28.1072701223
 21
37.9492221325
  0
LINE
  5
382
100
AcDbEntity
  8
0
100
AcDbLine
 62
7
  6
CONTINUOUS
 10
27.0859099781
 20
116.7383842188
 11
49.7134211828
 21
103.6746800741
  0
LINE
  5
383
100
AcDbEntity
  8
0
100
AcDbLine
 62
7
  6
CONTINUOUS
 10
49.7204922211
 20
103.6786648876
 11
27.0929810164
 21
116.7423690323
  0
LINE
  5
384
100
AcDbEntity
  8
0
100
AcDbLine
 62
7
  6
CONTINUOUS
 10
84.7041411319
 20
58.4050301866
 11
84.8068822908
 21
58.1137416917
  0
LINE
  5
385
100
AcDbEntity
  8
0
100
AcDbLine
 62
7
  6
CONTINUOUS
 10
86.8645715911
 20
56.6046306888
 11
86.7585051334
 21
56.9053469672
  0
LINE
  5
386
100
AcDbEntity
  8
0
100
AcDbLine
 62
7
  6
CONTINUOUS
 10
84.7008158331
 20
57.2108827769
 11
84.7641569332
 21
57.0268947743
  0
LINE
  5
387
100
AcDbEntity
  8
0
100
AcDbLine
 62
7
  6
CONTINUOUS
 10
86.8645715911
 20
55.5942399815
 11
86.8012282492
 21
55.7782344976
  0
LINE
  5
388
100
AcDbEntity
  8
0
100
AcDbLine
 62
7
  6
CONTINUOUS
 10
83.1133839391
 20
52.8106804798
 11
83.6613939763
 21
50.4245331163
  0
LINE
  5
389
100
AcDbEntity
  8
0
100
AcDbLine
 62
7
  6
CONTINUOUS
 10
79.141863749
 20
48.3159170323
 11
79.1418630746
 21
50.1939032198
  0
LINE
  5
38A
100
AcDbEntity
  8
0
100
AcDbLine
 62
7
  6
CONTINUOUS
 10
79.4187356255
 20
52.5649934761
 11
79.4187356255
 21
55.5044021778
  0
LINE
  5
38B
100
AcDbEntity
  8
0
100
AcDbLine
 62
7
  6
CONTINUOUS
 10
80.8329550758
 20
51.7485119674
 11
80.8329550758
 21
52.0574961344
  0
LINE
  5
38C
100
AcDbEntity
  8
0
100
AcDbLine
 62
7
  6
CONTINUOUS
 10
81.165296647
 20
54.6838467587
 11
81.165296647
 21
54.8022359203
  0
LINE
  5
38D
100
AcDbEntity
  8
0
100
AcDbLine
 62
7
  6
CONTINUOUS
 10
81.165296647
 20
55.1696620074
 11
81.165296647
 21
55.8126266275
  0
LINE
  5
38E
100
AcDbEntity
  8
0
100
AcDbLine
 62
7
  6
CONTINUOUS
 10
81.2713631053
 20
56.0725209218
 11
81.2713631053
 21
55.9908706801
  0
LINE
  5
38F
100
AcDbEntity
  8
0
100
AcDbLine
 62
7
  6
CONTINUOUS
 10
81.5400471371
 20
53.7897259378
 11
81.5400471371
 21
56.7291346394
  0
LINE
  5
390
100
AcDbEntity
  8
0
100
AcDbLine
 62
7
  6
CONTINUOUS
 10
81.5400648009
 20
56.9969773949
 11
81.5400648009
 21
57.7210200441
  0
LINE
  5
391
100
AcDbEntity
  8
0
100
AcDbLine
 62
7
  6
CONTINUOUS
 10
82.0527026811
 20
142.6556475033
 11
82.0527026811
 21
140.2061402519
  0
LINE
  5
392
100
AcDbEntity
  8
0
100
AcDbLine
 62
7
  6
CONTINUOUS
 10
82.9542842512
 20
56.9045385351
 11
82.9542842512
 21
56.1804958858
  0
LINE
  5
393
100
AcDbEntity
  8
0
100
AcDbLine
 62
7
  6
CONTINUOUS
 10
83.2229859468
 20
54.8641261976
 11
83.2229859468
 21
54.9457764393
  0
LINE
  5
394
100
AcDbEntity
  8
0
100
AcDbLine
 62
7
  6
CONTINUOUS
 10
83.329052405
 20
54.5634099193
 11
83.329052405
 21
53.9204452991
  0
LINE
  5
395
100
AcDbEntity
  8
0
100
AcDbLine
 62
7
  6
CONTINUOUS
 10
83.6613939763
 20
50.4245331163
 11
83.6613939763
 21
50.1155489493
  0
LINE
  5
396
100
AcDbEntity
  8
0
100
AcDbLine
 62
7
  6
CONTINUOUS
 10
83.329052405
 20
53.553019212
 11
83.3290268627
 21
53.4346520044
  0
LINE
  5
397
100
AcDbEntity
  8
0
100
AcDbLine
 62
7
  6
CONTINUOUS
 10
79.0695613692
 20
57.4904604286
 11
78.988550768
 21
55.7527639024
  0
LINE
  5
398
100
AcDbEntity
  8
0
100
AcDbLine
 62
7
  6
CONTINUOUS
 10
95.3109362083
 20
130.265541406
 11
95.8256657068
 21
132.1957236809
  0
LINE
  5
399
100
AcDbEntity
  8
0
100
AcDbLine
 62
7
  6
CONTINUOUS
 10
30.4679381746
 20
30.6023154189
 11
30.2436609447
 21
30.432528915
  0
LINE
  5
39A
100
AcDbEntity
  8
0
100
AcDbLine
 62
7
  6
CONTINUOUS
 10
28.3104095671
 20
29.2964272657
 11
28.6209120052
 21
29.5171649571
  0
LINE
  5
39B
100
AcDbEntity
  8
0
100
AcDbLine
 62
7
  6
CONTINUOUS
 10
33.7719961656
 20
35.1505307298
 11
32.4122379538
 21
34.3516559248
  0
LINE
  5
39C
100
AcDbEntity
  8
0
100
AcDbLine
 62
7
  6
CONTINUOUS
 10
75.5295938656
 20
63.0568782322
 11
27.0929810164
 21
35.092153692
  0
LINE
  5
39D
100
AcDbEntity
  8
0
100
AcDbLine
 62
7
  6
CONTINUOUS
 10
75.7875093372
 20
61.6832517703
 11
76.848165093
 21
62.2956180011
  0
LINE
  5
39E
100
AcDbEntity
  8
0
100
AcDbLine
 62
7
  6
CONTINUOUS
 10
26.5933170836
 20
38.7299889441
 11
26.5541208847
 21
38.7099105911
  0
LINE
  5
39F
100
AcDbEntity
  8
0
100
AcDbLine
 62
7
  6
CONTINUOUS
 10
87.1969131624
 20
52.4657538858
 11
86.6488818953
 21
54.8518744514
  0
LINE
  5
3A0
100
AcDbEntity
  8
0
100
AcDbLine
 62
7
  6
CONTINUOUS
 10
85.5057982839
 20
51.9901144172
 11
85.4248167678
 21
53.8211390327
  0
LINE
  5
3A1
100
AcDbEntity
  8
0
100
AcDbLine
 62
7
  6
CONTINUOUS
 10
84.1563489986
 20
59.2315234141
 11
84.1563489986
 21
58.5074807644
  0
LINE
  5
3A2
100
AcDbEntity
  8
0
100
AcDbLine
 62
7
  6
CONTINUOUS
 10
84.3684742618
 20
53.7897327365
 11
84.3684742618
 21
54.0987169036
  0
LINE
  5
3A3
100
AcDbEntity
  8
0
100
AcDbLine
 62
7
  6
CONTINUOUS
 10
84.7008158331
 20
57.8538473971
 11
84.7008158331
 21
57.2108827769
  0
LINE
  5
3A4
100
AcDbEntity
  8
0
100
AcDbLine
 62
7
  6
CONTINUOUS
 10
84.7008158331
 20
56.8434566898
 11
84.7008158331
 21
56.7250675254
  0
LINE
  5
3A5
100
AcDbEntity
  8
0
100
AcDbLine
 62
7
  6
CONTINUOUS
 10
84.8068822908
 20
58.1137416917
 11
84.8068822908
 21
58.0320914503
  0
LINE
  5
3A6
100
AcDbEntity
  8
0
100
AcDbLine
 62
7
  6
CONTINUOUS
 10
85.0756134266
 20
52.2384761416
 11
85.0756134266
 21
49.2990674403
  0
LINE
  5
3A7
100
AcDbEntity
  8
0
100
AcDbLine
 62
7
  6
CONTINUOUS
 10
85.5705684489
 20
57.6909992554
 11
85.5705684489
 21
58.415041905
  0
LINE
  5
3A8
100
AcDbEntity
  8
0
100
AcDbLine
 62
7
  6
CONTINUOUS
 10
86.7585051334
 20
56.9053469672
 11
86.7585051334
 21
56.9869972086
  0
LINE
  5
3A9
100
AcDbEntity
  8
0
100
AcDbLine
 62
7
  6
CONTINUOUS
 10
86.8645715911
 20
55.9616660686
 11
86.8645715911
 21
56.6046306888
  0
LINE
  5
3AA
100
AcDbEntity
  8
0
100
AcDbLine
 62
7
  6
CONTINUOUS
 10
87.1969249383
 20
50.5237999019
 11
87.1969249383
 21
53.4632086033
  0
LINE
  5
3AB
100
AcDbEntity
  8
0
100
AcDbLine
 62
7
  6
CONTINUOUS
 10
86.8645205159
 20
55.4758988799
 11
86.8645715911
 21
55.5942399815
  0
LINE
  5
3AC
100
AcDbEntity
  8
0
100
AcDbLine
 62
7
  6
CONTINUOUS
 10
99.1668072554
 20
130.2667583477
 11
98.6520777558
 21
128.3365760722
  0
LINE
  5
3AD
100
AcDbEntity
  8
0
100
AcDbLine
 62
7
  6
CONTINUOUS
 10
80.8329550758
 20
52.0574961344
 11
81.3809591657
 21
53.8108512995
  0
LINE
  5
3AE
100
AcDbEntity
  8
0
100
AcDbLine
 62
7
  6
CONTINUOUS
 10
57.8496376162
 20
42.2317067548
 11
38.4013881404
 21
28.5633894953
  0
LINE
  5
3AF
100
AcDbEntity
  8
0
100
AcDbLine
 62
7
  6
CONTINUOUS
 10
74.4691981074
 20
54.4572846278
 11
58.4755260799
 21
43.4939635694
  0
LINE
  5
3B0
100
AcDbEntity
  8
0
100
AcDbLine
 62
7
  6
CONTINUOUS
 10
73.843309642
 20
53.1950278126
 11
57.8496376159
 21
42.231706755
  0
LINE
  5
3B1
100
AcDbEntity
  8
0
100
AcDbLine
 62
7
  6
CONTINUOUS
 10
38.401329211
 20
28.5640033713
 11
60.0690747955
 21
43.4167808354
  0
LINE
  5
3B2
100
AcDbEntity
  8
0
100
AcDbLine
 62
7
  6
CONTINUOUS
 10
29.0575761426
 20
30.4541158486
 11
29.9837799161
 21
30.9982720467
  0
LINE
  5
3B3
100
AcDbEntity
  8
0
100
AcDbLine
 62
7
  6
CONTINUOUS
 10
30.4151396101
 20
30.7535411192
 11
31.2681643437
 21
31.2547037243
  0
LINE
  5
3B4
100
AcDbEntity
  8
0
100
AcDbLine
 62
7
  6
CONTINUOUS
 10
28.6209099847
 20
29.5171670213
 11
30.4679427114
 21
30.6023216441
  0
LINE
  5
3B5
100
AcDbEntity
  8
0
100
AcDbLine
 62
7
  6
CONTINUOUS
 10
28.3967564987
 20
29.3471571583
 11
30.2437888197
 21
30.4323115428
  0
LINE
  5
3B6
100
AcDbEntity
  8
0
100
AcDbLine
 62
7
  6
CONTINUOUS
 10
32.0018130112
 20
33.4833535714
 11
31.1532666774
 21
32.9934480415
  0
LINE
  5
3B7
100
AcDbEntity
  8
0
100
AcDbLine
 62
7
  6
CONTINUOUS
 10
33.8106558838
 20
34.4802701392
 11
34.517759721
 21
34.8885142931
  0
LINE
  5
3B8
100
AcDbEntity
  8
0
100
AcDbLine
 62
7
  6
CONTINUOUS
 10
77.1087323576
 20
59.2618463685
 11
78.5451549178
 21
60.0911603699
  0
LINE
  5
3B9
100
AcDbEntity
  8
0
100
AcDbLine
 62
7
  6
CONTINUOUS
 10
51.615961493
 20
44.3676666218
 11
52.3230653302
 21
44.7759107756
  0
LINE
  5
3BA
100
AcDbEntity
  8
0
100
AcDbLine
 62
7
  6
CONTINUOUS
 10
51.7220270687
 20
44.0614771572
 11
52.4291309055
 21
44.4697213108
  0
LINE
  5
3BB
100
AcDbEntity
  8
0
100
AcDbLine
 62
7
  6
CONTINUOUS
 10
34.4470493368
 20
33.8678869768
 11
32.8914208955
 21
32.9697498386
  0
LINE
  5
3BC
100
AcDbEntity
  8
0
100
AcDbLine
 62
7
  6
CONTINUOUS
 10
52.3367764185
 20
43.9515133447
 11
53.0438802551
 21
44.3597574983
  0
LINE
  5
3BD
100
AcDbEntity
  8
0
100
AcDbLine
 62
7
  6
CONTINUOUS
 10
53.2913677766
 20
43.9719198838
 11
52.5842639391
 21
43.5636757298
  0
LINE
  5
3BE
100
AcDbEntity
  8
0
100
AcDbLine
 62
7
  6
CONTINUOUS
 10
73.8234436322
 20
55.7963093931
 11
79.9971986147
 21
59.3607072177
  0
LINE
  5
3BF
100
AcDbEntity
  8
0
100
AcDbLine
 62
7
  6
CONTINUOUS
 10
34.8713116397
 20
33.1330305686
 11
32.891420895
 21
31.9899469374
  0
LINE
  5
3C0
100
AcDbEntity
  8
0
100
AcDbLine
 62
7
  6
CONTINUOUS
 10
36.2855193141
 20
33.5064001889
 11
32.891420895
 21
31.54682825
  0
LINE
  5
3C1
100
AcDbEntity
  8
0
100
AcDbLine
 62
7
  6
CONTINUOUS
 10
72.7866155685
 20
53.8630216324
 11
79.069561369
 21
57.4904604287
  0
LINE
  5
3C2
100
AcDbEntity
  8
0
100
AcDbLine
 62
7
  6
CONTINUOUS
 10
79.5082435066
 20
57.6408613331
 11
80.2181865782
 21
58.0507447099
  0
LINE
  5
3C3
100
AcDbEntity
  8
0
100
AcDbLine
 62
7
  6
CONTINUOUS
 10
81.5400648009
 20
57.7210200448
 11
84.1563489981
 21
59.2315234138
  0
LINE
  5
3C4
100
AcDbEntity
  8
0
100
AcDbLine
 62
7
  6
CONTINUOUS
 10
72.6246162333
 20
52.0785665174
 11
78.9885507682
 21
55.7527639022
  0
LINE
  5
3C5
100
AcDbEntity
  8
0
100
AcDbLine
 62
7
  6
CONTINUOUS
 10
52.4291309055
 20
40.3055589835
 11
51.7220270687
 21
39.8973148299
  0
LINE
  5
3C6
100
AcDbEntity
  8
0
100
AcDbLine
 62
7
  6
CONTINUOUS
 10
85.017711254
 20
59.0094967236
 11
81.4821920679
 21
56.9682759542
  0
LINE
  5
3C7
100
AcDbEntity
  8
0
100
AcDbLine
 62
7
  6
CONTINUOUS
 10
84.1563489984
 20
58.5074807643
 11
81.5400648009
 21
56.9969773951
  0
LINE
  5
3C8
100
AcDbEntity
  8
0
100
AcDbLine
 62
7
  6
CONTINUOUS
 10
93.7553077664
 20
128.2744712176
 11
93.7553077664
 21
129.3674042675
  0
LINE
  5
3C9
100
AcDbEntity
  8
0
100
AcDbLine
 62
7
  6
CONTINUOUS
 10
97.9979307897
 20
131.0003667736
 11
97.9769865948
 21
130.7118440764
  0
LINE
  5
3CA
100
AcDbEntity
  8
0
100
AcDbLine
 62
7
  6
CONTINUOUS
 10
84.916478352
 20
55.8520720675
 11
84.3684742618
 21
54.0987169039
  0
LINE
  5
3CB
100
AcDbEntity
  8
0
100
AcDbLine
 62
7
  6
CONTINUOUS
 10
81.165296647
 20
54.8022359203
 11
81.2286392645
 21
54.9130903319
  0
LINE
  5
3CC
100
AcDbEntity
  8
0
100
AcDbLine
 62
7
  6
CONTINUOUS
 10
84.7641584506
 20
56.9543111015
 11
84.7008158331
 21
56.8434566898
  0
LINE
  5
3CD
100
AcDbEntity
  8
0
100
AcDbLine
 62
7
  6
CONTINUOUS
 10
83.329052405
 20
53.9204452991
 11
83.2657090632
 21
53.8095917209
  0
LINE
  5
3CE
100
AcDbEntity
  8
0
100
AcDbLine
 62
7
  6
CONTINUOUS
 10
81.165296647
 20
55.8126266275
 11
81.2713631048
 21
55.9908706808
  0
LINE
  5
3CF
100
AcDbEntity
  8
0
100
AcDbLine
 62
7
  6
CONTINUOUS
 10
84.8068822908
 20
58.0320914503
 11
84.7008158331
 21
57.8538473971
  0
LINE
  5
3D0
100
AcDbEntity
  8
0
100
AcDbLine
 62
7
  6
CONTINUOUS
 10
83.3257271063
 20
55.1184323478
 11
83.2229859473
 21
54.9457764391
  0
LINE
  5
3D1
100
AcDbEntity
  8
0
100
AcDbLine
 62
7
  6
CONTINUOUS
 10
86.7585051334
 20
56.9869972086
 11
86.8612462923
 21
57.1596531158
  0
LINE
  5
3D2
100
AcDbEntity
  8
0
100
AcDbLine
 62
7
  6
CONTINUOUS
 10
78.0801535771
 20
50.7489401641
 11
62.0864815505
 21
39.7856191062
  0
LINE
  5
3D3
100
AcDbEntity
  8
0
100
AcDbLine
 62
7
  6
CONTINUOUS
 10
73.687051196
 20
51.4651832823
 11
57.8496376162
 21
42.2317067548
  0
LINE
  5
3D4
100
AcDbEntity
  8
0
100
AcDbLine
 62
7
  6
CONTINUOUS
 10
52.3230653302
 20
39.8768962729
 11
51.615961493
 21
39.468652119
  0
LINE
  5
3D5
100
AcDbEntity
  8
0
100
AcDbLine
 62
7
  6
CONTINUOUS
 10
79.4187356255
 20
55.5044021778
 11
81.5400471371
 21
56.7291346394
  0
LINE
  5
3D6
100
AcDbEntity
  8
0
100
AcDbLine
 62
7
  6
CONTINUOUS
 10
81.1686219453
 20
56.3638094182
 11
84.7041411314
 21
58.4050301875
  0
LINE
  5
3D7
100
AcDbEntity
  8
0
100
AcDbLine
 62
7
  6
CONTINUOUS
 10
91.0477444054
 20
61.9937599295
 11
96.1388788176
 21
64.9331102073
  0
LINE
  5
3D8
100
AcDbEntity
  8
0
100
AcDbLine
 62
7
  6
CONTINUOUS
 10
81.2713631053
 20
56.0725209218
 11
84.8068822914
 21
58.1137416911
  0
LINE
  5
3D9
100
AcDbEntity
  8
0
100
AcDbLine
 62
7
  6
CONTINUOUS
 10
83.1114059692
 20
57.1115182034
 11
90.9938960507
 21
61.6624488085
  0
LINE
  5
3DA
100
AcDbEntity
  8
0
100
AcDbLine
 62
7
  6
CONTINUOUS
 10
81.2713631053
 20
55.9908706801
 11
84.8068822914
 21
58.0320914494
  0
LINE
  5
3DB
100
AcDbEntity
  8
0
100
AcDbLine
 62
7
  6
CONTINUOUS
 10
52.5842639391
 20
39.3995134013
 11
53.2913677766
 21
39.8077575553
  0
LINE
  5
3DC
100
AcDbEntity
  8
0
100
AcDbLine
 62
7
  6
CONTINUOUS
 10
82.9542842512
 20
56.9045385357
 11
85.5705684484
 21
58.4150419048
  0
LINE
  5
3DD
100
AcDbEntity
  8
0
100
AcDbLine
 62
7
  6
CONTINUOUS
 10
81.1652966466
 20
55.8126266279
 11
84.7008158326
 21
57.8538473973
  0
LINE
  5
3DE
100
AcDbEntity
  8
0
100
AcDbLine
 62
7
  6
CONTINUOUS
 10
53.0438802551
 20
39.4607429955
 11
52.3367764185
 21
39.0524988419
  0
LINE
  5
3DF
100
AcDbEntity
  8
0
100
AcDbLine
 62
7
  6
CONTINUOUS
 10
81.1652966466
 20
55.1696620077
 11
84.7008158326
 21
57.210882777
  0
LINE
  5
3E0
100
AcDbEntity
  8
0
100
AcDbLine
 62
7
  6
CONTINUOUS
 10
82.9542842512
 20
56.180495886
 11
85.5705684487
 21
57.6909992553
  0
LINE
  5
3E1
100
AcDbEntity
  8
0
100
AcDbLine
 62
7
  6
CONTINUOUS
 10
84.7641584503
 20
57.0268882659
 11
81.2286392643
 21
54.9856674965
  0
LINE
  5
3E2
100
AcDbEntity
  8
0
100
AcDbLine
 62
7
  6
CONTINUOUS
 10
81.2286392643
 20
54.9130903322
 11
84.7641584503
 21
56.9543111016
  0
LINE
  5
3E3
100
AcDbEntity
  8
0
100
AcDbLine
 62
7
  6
CONTINUOUS
 10
81.1652966466
 20
54.8022359206
 11
84.7008158326
 21
56.8434566899
  0
LINE
  5
3E4
100
AcDbEntity
  8
0
100
AcDbLine
 62
7
  6
CONTINUOUS
 10
84.7008158326
 20
56.7250638398
 11
81.1652966466
 21
54.6838430705
  0
LINE
  5
3E5
100
AcDbEntity
  8
0
100
AcDbLine
 62
7
  6
CONTINUOUS
 10
26.2573408727
 20
22.8931284618
 11
26.3023070098
 21
22.9190895336
  0
LINE
  5
3E6
100
AcDbEntity
  8
0
100
AcDbLine
 62
7
  6
CONTINUOUS
 10
86.8612462928
 20
57.1596531161
 11
83.3257271068
 21
55.1184323467
  0
LINE
  5
3E7
100
AcDbEntity
  8
0
100
AcDbLine
 62
7
  6
CONTINUOUS
 10
83.2229859468
 20
54.9457764393
 11
86.7585051328
 21
56.9869972087
  0
LINE
  5
3E8
100
AcDbEntity
  8
0
100
AcDbLine
 62
7
  6
CONTINUOUS
 10
81.3809651127
 20
53.810870328
 11
84.9164842988
 21
55.8520910974
  0
LINE
  5
3E9
100
AcDbEntity
  8
0
100
AcDbLine
 62
7
  6
CONTINUOUS
 10
83.2229859468
 20
54.8641261976
 11
86.7585051328
 21
56.9053469669
  0
LINE
  5
3EA
100
AcDbEntity
  8
0
100
AcDbLine
 62
7
  6
CONTINUOUS
 10
79.4187356255
 20
52.5649934761
 11
82.9542548116
 21
54.6062142455
  0
LINE
  5
3EB
100
AcDbEntity
  8
0
100
AcDbLine
 62
7
  6
CONTINUOUS
 10
83.3290524055
 20
54.5634099196
 11
86.8645715916
 21
56.604630689
  0
LINE
  5
3EC
100
AcDbEntity
  8
0
100
AcDbLine
 62
7
  6
CONTINUOUS
 10
83.3290524055
 20
53.9204452994
 11
86.8645715916
 21
55.9616660688
  0
LINE
  5
3ED
100
AcDbEntity
  8
0
100
AcDbLine
 62
7
  6
CONTINUOUS
 10
36.2756585771
 20
26.6907913852
 11
37.0534893811
 21
27.1398695287
  0
LINE
  5
3EE
100
AcDbEntity
  8
0
100
AcDbLine
 62
7
  6
CONTINUOUS
 10
83.2657090626
 20
53.8095917206
 11
86.8012282487
 21
55.85081249
  0
LINE
  5
3EF
100
AcDbEntity
  8
0
100
AcDbLine
 62
7
  6
CONTINUOUS
 10
84.6039599305
 20
54.5322535614
 11
92.4838822183
 21
59.081701659
  0
LINE
  5
3F0
100
AcDbEntity
  8
0
100
AcDbLine
 62
7
  6
CONTINUOUS
 10
86.8012282487
 20
55.7782344974
 11
83.2657090626
 21
53.737013728
  0
LINE
  5
3F1
100
AcDbEntity
  8
0
100
AcDbLine
 62
7
  6
CONTINUOUS
 10
83.3290524055
 20
53.5530192123
 11
86.8645715916
 21
55.5942399817
  0
LINE
  5
3F2
100
AcDbEntity
  8
0
100
AcDbLine
 62
7
  6
CONTINUOUS
 10
80.8329550758
 20
52.0574961343
 11
84.3684742618
 21
54.0987169036
  0
LINE
  5
3F3
100
AcDbEntity
  8
0
100
AcDbLine
 62
7
  6
CONTINUOUS
 10
92.7977296276
 20
58.9626785191
 11
97.8888640398
 21
61.9020287969
  0
LINE
  5
3F4
100
AcDbEntity
  8
0
100
AcDbLine
 62
7
  6
CONTINUOUS
 10
83.3290013204
 20
53.4346558913
 11
86.8645205065
 21
55.4758766607
  0
LINE
  5
3F5
100
AcDbEntity
  8
0
100
AcDbLine
 62
7
  6
CONTINUOUS
 10
80.8329550758
 20
51.7485119671
 11
84.3684742618
 21
53.7897327365
  0
LINE
  5
3F6
100
AcDbEntity
  8
0
100
AcDbLine
 62
7
  6
CONTINUOUS
 10
96.8424462104
 20
60.8359804148
 11
95.7818243606
 21
60.2235946089
  0
LINE
  5
3F7
100
AcDbEntity
  8
0
100
AcDbLine
 62
7
  6
CONTINUOUS
 10
83.1133503267
 20
52.8107464747
 11
86.6488695128
 21
54.851967244
  0
LINE
  5
3F8
100
AcDbEntity
  8
0
100
AcDbLine
 62
7
  6
CONTINUOUS
 10
85.4247876832
 20
53.8213518112
 11
79.1418419763
 21
50.1939130689
  0
LINE
  5
3F9
100
AcDbEntity
  8
0
100
AcDbLine
 62
7
  6
CONTINUOUS
 10
78.0794287869
 20
48.9293002671
 11
62.0864815505
 21
39.7856191062
  0
LINE
  5
3FA
100
AcDbEntity
  8
0
100
AcDbLine
 62
7
  6
CONTINUOUS
 10
37.3122930717
 20
27.6518436989
 11
36.2855193141
 21
27.0694202546
  0
LINE
  5
3FB
100
AcDbEntity
  8
0
100
AcDbLine
 62
7
  6
CONTINUOUS
 10
27.117327627
 20
21.2795599843
 11
27.421019763
 21
21.4488796927
  0
LINE
  5
3FC
100
AcDbEntity
  8
0
100
AcDbLine
 62
7
  6
CONTINUOUS
 10
95.7817853426
 20
50.1398122839
 11
95.7817904546
 21
60.2236141841
  0
LINE
  5
3FD
100
AcDbEntity
  8
0
100
AcDbLine
 62
7
  6
CONTINUOUS
 10
95.7818204504
 20
119.3919625765
 11
95.7818243603
 21
127.1044877855
  0
LINE
  5
3FE
100
AcDbEntity
  8
0
100
AcDbLine
 62
7
  6
CONTINUOUS
 10
96.8424410988
 20
50.7521785144
 11
96.8424462104
 21
60.8359804148
  0
LINE
  5
3FF
100
AcDbEntity
  8
0
100
AcDbLine
 62
7
  6
CONTINUOUS
 10
97.0964493145
 20
118.6329784185
 11
97.0964493145
 21
59.4646127083
  0
LINE
  5
400
100
AcDbEntity
  8
0
100
AcDbLine
 62
7
  6
CONTINUOUS
 10
97.9979307897
 20
133.449874025
 11
97.9979307897
 21
131.0003667736
  0
LINE
  5
401
100
AcDbEntity
  8
0
100
AcDbLine
 62
7
  6
CONTINUOUS
 10
98.1571050703
 20
60.0769789391
 11
98.1571050703
 21
49.9931740876
  0
LINE
  5
402
100
AcDbEntity
  8
0
100
AcDbLine
 62
7
  6
CONTINUOUS
 10
100.0035031887
 20
129.5418606444
 11
99.5163017482
 21
122.8303257903
  0
LINE
  5
403
100
AcDbEntity
  8
0
100
AcDbLine
 62
7
  6
CONTINUOUS
 10
100.8309299628
 20
122.0713420077
 11
101.3390723378
 21
129.0714014399
  0
LINE
  5
404
100
AcDbEntity
  8
0
100
AcDbLine
 62
7
  6
CONTINUOUS
 10
86.8012282492
 20
55.8508124904
 11
86.8645715911
 21
55.9616660686
  0
LINE
  5
405
100
AcDbEntity
  8
0
100
AcDbLine
 62
7
  6
CONTINUOUS
 10
97.0964493145
 20
59.4646127083
 11
98.1571050703
 21
60.0769789391
  0
LINE
  5
406
100
AcDbEntity
  8
0
100
AcDbLine
 62
7
  6
CONTINUOUS
 10
87.1969249383
 20
53.4632086033
 11
85.0756134266
 21
52.2384761416
  0
LINE
  5
407
100
AcDbEntity
  8
0
100
AcDbLine
 62
7
  6
CONTINUOUS
 10
83.258218004
 20
51.1456762059
 11
83.9681610753
 21
51.5555595825
  0
LINE
  5
408
100
AcDbEntity
  8
0
100
AcDbLine
 62
7
  6
CONTINUOUS
 10
79.1418637492
 20
48.3159170322
 11
85.5057982841
 21
51.9901144171
  0
LINE
  5
409
100
AcDbEntity
  8
0
100
AcDbLine
 62
7
  6
CONTINUOUS
 10
83.6613939763
 20
50.4245331162
 11
87.1969131624
 21
52.4657538856
  0
LINE
  5
40A
100
AcDbEntity
  8
0
100
AcDbLine
 62
7
  6
CONTINUOUS
 10
83.6613939764
 20
50.115548949
 11
87.1969131625
 21
52.1567697184
  0
LINE
  5
40B
100
AcDbEntity
  8
0
100
AcDbLine
 62
7
  6
CONTINUOUS
 10
85.0756134266
 20
49.2990674403
 11
88.6111326127
 21
51.3402882094
  0
LINE
  5
40C
100
AcDbEntity
  8
0
100
AcDbLine
 62
7
  6
CONTINUOUS
 10
91.5838099461
 20
50.9048454868
 11
93.0202325063
 21
51.7341594883
  0
LINE
  5
40D
100
AcDbEntity
  8
0
100
AcDbLine
 62
7
  6
CONTINUOUS
 10
101.3390723378
 20
131.5209086918
 11
101.3390723378
 21
129.071401441
  0
LINE
  5
40E
100
AcDbEntity
  8
0
100
AcDbLine
 62
7
  6
CONTINUOUS
 10
99.0948326646
 20
63.9671730778
 11
98.1335820237
 21
62.1628421788
  0
LINE
  5
40F
100
AcDbEntity
  8
0
100
AcDbLine
 62
7
  6
CONTINUOUS
 10
37.9923068417
 20
17.3717702843
 11
38.1133768137
 21
17.444109886
  0
LINE
  5
410
100
AcDbEntity
  8
0
100
AcDbLine
 62
7
  6
CONTINUOUS
 10
95.7817853429
 20
50.1398122836
 11
96.8424410988
 21
50.7521785145
  0
LINE
  5
411
100
AcDbEntity
  8
0
100
AcDbLine
 62
7
  6
CONTINUOUS
 10
98.1571050703
 20
49.9931740876
 11
49.7204922211
 21
22.0284495474
  0
LINE
  5
412
100
AcDbEntity
  8
0
100
AcDbLine
 62
7
  6
CONTINUOUS
 10
49.7134211829
 20
22.0243671059
 11
38.4068308257
 21
15.4965430854
  0
LINE
  5
413
100
AcDbEntity
  8
0
100
AcDbLine
 62
7
  6
CONTINUOUS
 10
38.2540960941
 20
15.4083621734
 11
37.7827308689
 21
15.1362209582
  0
LINE
  5
414
100
AcDbEntity
  8
0
100
AcDbLine
 62
7
  6
CONTINUOUS
 10
72.6726662966
 20
143.0576555173
 11
74.4689381099
 21
140.5021430788
  0
LINE
  5
415
100
AcDbEntity
  8
0
100
AcDbLine
 62
7
  6
CONTINUOUS
 10
97.0964493145
 20
118.6329784185
 11
95.7818204501
 21
119.3919625767
  0
LINE
  5
416
100
AcDbEntity
  8
0
100
AcDbLine
 62
7
  6
CONTINUOUS
 10
75.7875093369
 20
130.9354223322
 11
74.4689381098
 21
131.6966825631
  0
LINE
  5
417
100
AcDbEntity
  8
0
100
AcDbLine
 62
7
  6
CONTINUOUS
 10
78.2034187576
 20
135.1350461522
 11
79.5219899848
 21
134.3737859213
  0
LINE
  5
418
100
AcDbEntity
  8
0
100
AcDbLine
 62
7
  6
CONTINUOUS
 10
99.5163010979
 20
122.8303261658
 11
100.8309299623
 21
122.0713420076
  0
LINE
  5
419
100
AcDbEntity
  8
0
100
AcDbLine
 62
7
  6
CONTINUOUS
 10
95.7818243599
 20
127.1044877857
 11
93.7553077664
 21
128.274471218
  0
LINE
  5
41A
100
AcDbEntity
  8
0
100
AcDbLine
 62
7
  6
CONTINUOUS
 10
77.8100796578
 20
137.4802446963
 11
75.7875093372
 21
138.6479497984
  0
LINE
  5
41B
100
AcDbEntity
  8
0
100
AcDbLine
 62
7
  6
CONTINUOUS
 10
97.0964493146
 20
127.4384389342
 11
74.4689381098
 21
140.502143079
  0
LINE
  5
41C
100
AcDbEntity
  8
0
100
AcDbLine
 62
7
  6
CONTINUOUS
 10
95.3001775011
 20
129.9939513725
 11
72.6726662964
 21
143.0576555172
  0
LINE
  5
41D
100
AcDbEntity
  8
0
100
AcDbLine
 62
7
  6
CONTINUOUS
 10
98.6520777566
 20
128.336576073
 11
95.3109362078
 21
130.2655414065
  0
LINE
  5
41E
100
AcDbEntity
  8
0
100
AcDbLine
 62
7
  6
CONTINUOUS
 10
79.3657080997
 20
139.4713148844
 11
76.0245665516
 21
141.4002802175
  0
LINE
  5
41F
100
AcDbEntity
  8
0
100
AcDbLine
 62
7
  6
CONTINUOUS
 10
97.0964493145
 20
127.438438934
 11
95.300177501
 21
129.9939513721
  0
LINE
  5
420
100
AcDbEntity
  8
0
100
AcDbLine
 62
7
  6
CONTINUOUS
 10
80.0091881653
 20
141.085322657
 11
82.0317584859
 21
139.917617555
  0
LINE
  5
421
100
AcDbEntity
  8
0
100
AcDbLine
 62
7
  6
CONTINUOUS
 10
97.9769865948
 20
130.7118440769
 11
100.0035031884
 21
129.5418606446
  0
LINE
  5
422
100
AcDbEntity
  8
0
100
AcDbLine
 62
7
  6
CONTINUOUS
 10
99.1668072549
 20
130.266758348
 11
95.8256657062
 21
132.1957236815
  0
LINE
  5
423
100
AcDbEntity
  8
0
100
AcDbLine
 62
7
  6
CONTINUOUS
 10
79.8804375983
 20
141.4014971593
 11
76.5392960502
 21
143.3304624924
  0
LINE
  5
424
100
AcDbEntity
  8
0
100
AcDbLine
 62
7
  6
CONTINUOUS
 10
101.3390723378
 20
129.071401441
 11
97.997930789
 21
131.0003667745
  0
LINE
  5
425
100
AcDbEntity
  8
0
100
AcDbLine
 62
7
  6
CONTINUOUS
 10
82.0527026811
 20
140.2061402519
 11
78.711561133
 21
142.1351055851
  0
LINE
  5
426
100
AcDbEntity
  8
0
100
AcDbLine
 62
7
  6
CONTINUOUS
 10
101.3390723378
 20
131.5209086918
 11
97.997930789
 21
133.4498740254
  0
LINE
  5
427
100
AcDbEntity
  8
0
100
AcDbLine
 62
7
  6
CONTINUOUS
 10
82.0527026811
 20
142.6556475033
 11
78.711561133
 21
144.5846128365
  0
ARC
  5
428
100
AcDbEntity
  8
0
100
AcDbCircle
 62
7
  6
CONTINUOUS
 10
-77.1016171933
 20
0.9721235182
 40
111.0852925127
100
AcDbArc
 50
19.0478137008
 51
19.3210727072
  0
ARC
  5
429
100
AcDbEntity
  8
0
100
AcDbCircle
 62
7
  6
CONTINUOUS
 10
46.6798672743
 20
21.3643917017
 40
26.5910718472
100
AcDbArc
 50
139.5330433201
 51
139.8603051025
  0
ARC
  5
42A
100
AcDbEntity
  8
0
100
AcDbCircle
 62
7
  6
CONTINUOUS
 10
6.1098741692
 20
28.8585280243
 40
23.8018155979
100
AcDbArc
 50
18.6795724818
 51
22.4534585198
  0
ARC
  5
42B
100
AcDbEntity
  8
0
100
AcDbCircle
 62
7
  6
CONTINUOUS
 10
47.5721498569
 20
44.8001794123
 40
21.0680743977
100
AcDbArc
 50
199.0028095192
 51
199.6199022842
  0
ARC
  5
42C
100
AcDbEntity
  8
0
100
AcDbCircle
 62
7
  6
CONTINUOUS
 10
23.2391536531
 20
82.8060011419
 40
19.5120542879
100
AcDbArc
 50
240.7967118284
 51
243.1921814734
  0
ARC
  5
42D
100
AcDbEntity
  8
0
100
AcDbCircle
 62
7
  6
CONTINUOUS
 10
23.1759281236
 20
79.6857854317
 40
19.3782263018
100
AcDbArc
 50
241.0818700975
 51
243.2016235941
  0
ARC
  5
42E
100
AcDbEntity
  8
0
100
AcDbCircle
 62
7
  6
CONTINUOUS
 10
22.8819975745
 20
79.1501457778
 40
18.7672418554
100
AcDbArc
 50
240.7748574651
 51
241.0295893965
  0
ARC
  5
42F
100
AcDbEntity
  8
0
100
AcDbCircle
 62
7
  6
CONTINUOUS
 10
7.3256503922
 20
57.0080251891
 40
10.9944349362
100
AcDbArc
 50
49.6829726075
 51
53.9484795748
  0
ARC
  5
430
100
AcDbEntity
  8
0
100
AcDbCircle
 62
7
  6
CONTINUOUS
 10
18.8939897354
 20
72.2172254404
 40
10.7908601984
100
AcDbArc
 50
241.8075443874
 51
245.6173621532
  0
ARC
  5
431
100
AcDbEntity
  8
0
100
AcDbCircle
 62
7
  6
CONTINUOUS
 10
32.2368883424
 20
33.7694222082
 40
7.8651031685
100
AcDbArc
 50
194.6270636638
 51
205.0262480684
  0
ARC
  5
432
100
AcDbEntity
  8
0
100
AcDbCircle
 62
7
  6
CONTINUOUS
 10
84.4383784194
 20
56.1561365186
 40
5.9181891835
100
AcDbArc
 50
209.7955480766
 51
214.6166822615
  0
ARC
  5
433
100
AcDbEntity
  8
0
100
AcDbCircle
 62
7
  6
CONTINUOUS
 10
84.1746379401
 20
56.0621779694
 40
5.6465563326
100
AcDbArc
 50
200.3855418034
 51
200.6140717326
  0
ARC
  5
434
100
AcDbEntity
  8
0
100
AcDbCircle
 62
7
  6
CONTINUOUS
 10
84.0163741009
 20
55.9794532468
 40
5.4606879869
100
AcDbArc
 50
200.1554301558
 51
200.3855152232
  0
ARC
  5
435
100
AcDbEntity
  8
0
100
AcDbCircle
 62
7
  6
CONTINUOUS
 10
18.2690138387
 20
63.5754290361
 40
5.0533399483
100
AcDbArc
 50
154.2095103695
 51
156.2343412051
  0
ARC
  5
436
100
AcDbEntity
  8
0
100
AcDbCircle
 62
7
  6
CONTINUOUS
 10
31.2329311383
 20
35.2690566171
 40
4.0996284316
100
AcDbArc
 50
272.6502132836
 51
274.7930507585
  0
ARC
  5
437
100
AcDbEntity
  8
0
100
AcDbCircle
 62
7
  6
CONTINUOUS
 10
28.3044108846
 20
31.9361432528
 40
3.5262925324
100
AcDbArc
 50
205.0653975392
 51
209.8889829131
  0
ARC
  5
438
100
AcDbEntity
  8
0
100
AcDbCircle
 62
7
  6
CONTINUOUS
 10
27.031389008
 20
62.9553142257
 40
2.5325097645
100
AcDbArc
 50
120.5124113763
 51
124.6980893098
  0
ARC
  5
439
100
AcDbEntity
  8
0
100
AcDbCircle
 62
7
  6
CONTINUOUS
 10
27.1280510298
 20
31.2280525396
 40
2.2535468926
100
AcDbArc
 50
275.6676221543
 51
282.2601748733
  0
ARC
  5
43A
100
AcDbEntity
  8
0
100
AcDbCircle
 62
7
  6
CONTINUOUS
 10
80.8494306773
 20
56.9566823021
 40
1.2631001082
100
AcDbArc
 50
107.8494407092
 51
119.9837707493
  0
ARC
  5
43B
100
AcDbEntity
  8
0
100
AcDbCircle
 62
7
  6
CONTINUOUS
 10
29.7576558338
 20
31.2611724411
 40
0.9747605157
100
AcDbArc
 50
333.1782210556
 51
337.3812870778
  0
ARC
  5
43C
100
AcDbEntity
  8
0
100
AcDbCircle
 62
7
  6
CONTINUOUS
 10
24.9182867255
 20
61.6373874113
 40
0.8232291072
100
AcDbArc
 50
234.3413613764
 51
240.4208257401
  0
ARC
  5
43D
100
AcDbEntity
  8
0
100
AcDbCircle
 62
7
  6
CONTINUOUS
 10
29.9529697612
 20
31.1379167308
 40
0.7430082315
100
AcDbArc
 50
313.8748714055
 51
320.7200172462
  0
ARC
  5
43E
100
AcDbEntity
  8
0
100
AcDbCircle
 62
7
  6
CONTINUOUS
 10
21.8552309334
 20
92.6559074194
 40
0.6023187107
100
AcDbArc
 50
139.0345740616
 51
141.6377103486
  0
ARC
  5
43F
100
AcDbEntity
  8
0
100
AcDbCircle
 62
7
  6
CONTINUOUS
 10
34.0237607732
 20
35.0344069426
 40
0.2244624727
100
AcDbArc
 50
231.445490348
 51
240.4541672187
  0
ARC
  5
440
100
AcDbEntity
  8
0
100
AcDbCircle
 62
7
  6
CONTINUOUS
 10
33.5670145165
 20
34.5888118529
 40
0.218176486
100
AcDbArc
 50
51.1783018444
 51
60.0253833036
  0
SPLINE
  5
441
100
AcDbEntity
  8
0
100
AcDbSpline
 62
7
  6
CONTINUOUS
 70
0
 71
3
 72
13
 73
9
 74
0
 42
0.0000001
 43
0.0000001
 44
0.0000000001
 40
0.0
 40
0.0
 40
0.0
 40
0.0
 40
0.200288402
 40
0.3175603099
 40
0.4447401931
 40
0.579635035
 40
0.7193547177
 40
1.0
 40
1.0
 40
1.0
 40
1.0
 10
98.5303328262
 20
64.9449183665
 30
0.0
 10
98.5837211962
 20
64.9430864807
 30
0.0
 10
98.667475609
 20
64.9156310353
 30
0.0
 10
98.7679827498
 20
64.8527369461
 30
0.0
 10
98.8456150674
 20
64.7872069087
 30
0.0
 10
98.9183827699
 20
64.7082127172
 30
0.0
 10
99.005863013
 20
64.5884662379
 30
0.0
 10
99.0571852144
 20
64.4874393701
 30
0.0
 10
99.0832587696
 20
64.4172752069
 30
0.0
  0
SPLINE
  5
442
100
AcDbEntity
  8
0
100
AcDbSpline
 62
7
  6
CONTINUOUS
 70
0
 71
3
 72
9
 73
5
 74
0
 42
0.0000001
 43
0.0000001
 44
0.0000000001
 40
0.0
 40
0.0
 40
0.0
 40
0.0
 40
0.5135835535
 40
1.0
 40
1.0
 40
1.0
 40
1.0
 10
98.1335760723
 20
62.1628488447
 30
0.0
 10
98.1045000862
 20
62.1082720395
 30
0.0
 10
98.0350523667
 20
62.0079926224
 30
0.0
 10
97.9395876404
 20
61.9313084031
 30
0.0
 10
97.888863033
 20
61.902030541
 30
0.0
  0
SPLINE
  5
443
100
AcDbEntity
  8
0
100
AcDbSpline
 62
7
  6
CONTINUOUS
 70
0
 71
3
 72
9
 73
5
 74
0
 42
0.0000001
 43
0.0000001
 44
0.0000000001
 40
0.0
 40
0.0
 40
0.0
 40
0.0
 40
0.4864149768
 40
1.0
 40
1.0
 40
1.0
 40
1.0
 10
96.1388798244
 20
64.9331084632
 30
0.0
 10
96.1896043554
 20
64.9623862812
 30
0.0
 10
96.3037338799
 20
65.0067484542
 30
0.0
 10
96.4253070719
 20
65.0167321703
 30
0.0
 10
96.487110433
 20
65.0146301067
 30
0.0
  0
SPLINE
  5
444
100
AcDbEntity
  8
0
100
AcDbSpline
 62
7
  6
CONTINUOUS
 70
0
 71
3
 72
11
 73
7
 74
0
 42
0.0000001
 43
0.0000001
 44
0.0000000001
 40
0.0
 40
0.0
 40
0.0
 40
0.0
 40
0.2327331934
 40
0.4730084086
 40
0.7272417838
 40
1.0
 40
1.0
 40
1.0
 40
1.0
 10
91.0477454122
 20
61.9937581854
 30
0.0
 10
91.0097528644
 20
61.9718291723
 30
0.0
 10
90.9374072663
 20
61.9182251462
 30
0.0
 10
90.847097253
 20
61.813818593
 30
0.0
 10
90.7756580416
 20
61.6871211919
 30
0.0
 10
90.7424530845
 20
61.5929740242
 30
0.0
 10
90.728895842
 20
61.5433825803
 30
0.0
  0
SPLINE
  5
445
100
AcDbEntity
  8
0
100
AcDbSpline
 62
7
  6
CONTINUOUS
 70
0
 71
3
 72
11
 73
7
 74
0
 42
0.0000001
 43
0.0000001
 44
0.0000000001
 40
0.0
 40
0.0
 40
0.0
 40
0.0
 40
0.2884255581
 40
0.5545418074
 40
0.7920698828
 40
1.0
 40
1.0
 40
1.0
 40
1.0
 10
99.0832587696
 20
64.4172752069
 30
0.0
 10
99.0987274325
 20
64.375648577
 30
0.0
 10
99.1230088021
 20
64.2934129751
 30
0.0
 10
99.1386175417
 20
64.1718417958
 30
0.0
 10
99.1314982288
 20
64.06174945
 30
0.0
 10
99.1098782208
 20
63.9954345739
 30
0.0
 10
99.0948275688
 20
63.9671787826
 30
0.0
  0
SPLINE
  5
446
100
AcDbEntity
  8
0
100
AcDbSpline
 62
7
  6
CONTINUOUS
 70
0
 71
3
 72
16
 73
12
 74
0
 42
0.0000001
 43
0.0000001
 44
0.0000000001
 40
0.0
 40
0.0
 40
0.0
 40
0.0
 40
0.0551890969
 40
0.1103916483
 40
0.2219298431
 40
0.3365369412
 40
0.4561207212
 40
0.582118565
 40
0.7151242305
 40
0.8548057185
 40
1.0
 40
1.0
 40
1.0
 40
1.0
 10
79.5082435066
 20
57.6408613331
 30
0.0
 10
79.44613511
 20
57.6050032477
 30
0.0
 10
79.3265238211
 20
57.5248805797
 30
0.0
 10
79.1096137395
 20
57.3338052292
 30
0.0
 10
78.8841510216
 20
57.0408699103
 30
0.0
 10
78.6974714176
 20
56.6286228991
 30
0.0
 10
78.5903978285
 20
56.1703842905
 30
0.0
 10
78.5585577903
 20
55.6775848724
 30
0.0
 10
78.5976963249
 20
55.1595174076
 30
0.0
 10
78.7042389314
 20
54.6258839318
 30
0.0
 10
78.8160037902
 20
54.2721405645
 30
0.0
 10
78.8817258857
 20
54.0952818356
 30
0.0
  0
SPLINE
  5
447
100
AcDbEntity
  8
0
100
AcDbSpline
 62
7
  6
CONTINUOUS
 70
0
 71
3
 72
11
 73
7
 74
0
 42
0.0000001
 43
0.0000001
 44
0.0000000001
 40
0.0
 40
0.0
 40
0.0
 40
0.0
 40
0.2729996181
 40
0.5272788598
 40
0.7674567825
 40
1.0
 40
1.0
 40
1.0
 40
1.0
 10
92.2441206508
 20
58.9128376196
 30
0.0
 10
92.2942149586
 20
58.8994763006
 30
0.0
 10
92.3930744776
 20
58.8806037537
 30
0.0
 10
92.5396539358
 20
58.8786752062
 30
0.0
 10
92.6762825203
 20
58.9045404401
 30
0.0
 10
92.7594801826
 20
58.9406035522
 30
0.0
 10
92.7977286207
 20
58.9626802632
 30
0.0
  0
SPLINE
  5
448
100
AcDbEntity
  8
0
100
AcDbSpline
 62
7
  6
CONTINUOUS
 70
0
 71
3
 72
19
 73
15
 74
0
 42
0.0000001
 43
0.0000001
 44
0.0000000001
 40
0.0
 40
0.0
 40
0.0
 40
0.0
 40
0.1411731411
 40
0.2830912375
 40
0.4214764611
 40
0.5527254055
 40
0.6150288937
 40
0.6749676004
 40
0.7326629843
 40
0.7883809612
 40
0.8425280645
 40
0.8955823811
 40
0.9479102557
 40
1.0
 40
1.0
 40
1.0
 40
1.0
 10
78.8896131284
 20
54.0741862297
 30
0.0
 10
78.9868557091
 20
53.815668249
 30
0.0
 10
79.2196701966
 20
53.3107874074
 30
0.0
 10
79.6643836691
 20
52.6134744365
 30
0.0
 10
80.1886840655
 20
51.9988644517
 30
0.0
 10
80.6827412201
 20
51.572242413
 30
0.0
 10
81.0994551702
 20
51.3020749794
 30
0.0
 10
81.4131333834
 20
51.1407907559
 30
0.0
 10
81.730991471
 20
51.0202144799
 30
0.0
 10
82.0507115078
 20
50.943414307
 30
0.0
 10
82.3692995438
 20
50.9137269378
 30
0.0
 10
82.6821821782
 20
50.9349611482
 30
0.0
 10
82.9828531456
 20
51.0091709993
 30
0.0
 10
83.1699590875
 20
51.0947202009
 30
0.0
 10
83.258218004
 20
51.1456762059
 30
0.0
  0
SPLINE
  5
449
100
AcDbEntity
  8
0
100
AcDbSpline
 62
7
  6
CONTINUOUS
 70
0
 71
3
 72
20
 73
16
 74
0
 42
0.0000001
 43
0.0000001
 44
0.0000000001
 40
0.0
 40
0.0
 40
0.0
 40
0.0
 40
0.1455530378
 40
0.292187447
 40
0.43499235
 40
0.5035965245
 40
0.5696861668
 40
0.6329243388
 40
0.6931038614
 40
0.7501800962
 40
0.8042866098
 40
0.8557502038
 40
0.9050888651
 40
0.9529075196
 40
1.0
 40
1.0
 40
1.0
 40
1.0
 10
84.4857653842
 20
54.9928019775
 30
0.0
 10
84.387306686
 20
55.2577551883
 30
0.0
 10
84.1512109763
 20
55.7760692708
 30
0.0
 10
83.7006396747
 20
56.4932778825
 30
0.0
 10
83.2526768895
 20
57.0285144775
 30
0.0
 10
82.8617519352
 20
57.400120257
 30
0.0
 10
82.5622702775
 20
57.6418115175
 30
0.0
 10
82.2561473499
 20
57.8470190725
 30
0.0
 10
81.9466994116
 20
58.012976815
 30
0.0
 10
81.6371625485
 20
58.1372233763
 30
0.0
 10
81.3307003841
 20
58.2174675987
 30
0.0
 10
81.0306357142
 20
58.2515003265
 30
0.0
 10
80.7409433631
 20
58.2370682981
 30
0.0
 10
80.4666534385
 20
58.1729132775
 30
0.0
 10
80.2973855463
 20
58.0964699826
 30
0.0
 10
80.2181865784
 20
58.0507447101
 30
0.0
  0
SPLINE
  5
44A
100
AcDbEntity
  8
0
100
AcDbSpline
 62
7
  6
CONTINUOUS
 70
0
 71
3
 72
16
 73
12
 74
0
 42
0.0000001
 43
0.0000001
 44
0.0000000001
 40
0.0
 40
0.0
 40
0.0
 40
0.0
 40
0.0508038427
 40
0.1019444011
 40
0.2068255438
 40
0.3177119971
 40
0.4367162506
 40
0.564900194
 40
0.7022513695
 40
0.8478360222
 40
1.0
 40
1.0
 40
1.0
 40
1.0
 10
83.9681610758
 20
51.5555595828
 30
0.0
 10
84.0231971774
 20
51.5873345012
 30
0.0
 10
84.1293759152
 20
51.6588309631
 30
0.0
 10
84.3229368319
 20
51.8314823946
 30
0.0
 10
84.5254518748
 20
52.1017540221
 30
0.0
 10
84.6936816607
 20
52.488557708
 30
0.0
 10
84.7902431324
 20
52.9283499958
 30
0.0
 10
84.8164034748
 20
53.4104029539
 30
0.0
 10
84.7739186165
 20
53.9243029359
 30
0.0
 10
84.6649790204
 20
54.4586622736
 30
0.0
 10
84.5520675649
 20
54.8143822341
 30
0.0
 10
84.4857653842
 20
54.9928019775
 30
0.0
  0
SPLINE
  5
44B
100
AcDbEntity
  8
0
100
AcDbSpline
 62
7
  6
CONTINUOUS
 70
0
 71
3
 72
15
 73
11
 74
0
 42
0.0000001
 43
0.0000001
 44
0.0000000001
 40
0.0
 40
0.0
 40
0.0
 40
0.0
 40
0.0954474557
 40
0.1955428447
 40
0.3039107464
 40
0.4226884265
 40
0.5525774362
 40
0.6930771197
 40
0.8429255574
 40
1.0
 40
1.0
 40
1.0
 40
1.0
 10
92.7977286207
 20
58.9626802632
 30
0.0
 10
92.844846104
 20
58.9898761204
 30
0.0
 10
92.9338333603
 20
59.0597569871
 30
0.0
 10
93.0377272047
 20
59.2005350699
 30
0.0
 10
93.1114954812
 20
59.3733953001
 30
0.0
 10
93.1540861729
 20
59.5734510467
 30
0.0
 10
93.1650806658
 20
59.7957877037
 30
0.0
 10
93.1445324489
 20
60.0350630059
 30
0.0
 10
93.0929984443
 20
60.2853319744
 30
0.0
 10
93.0398762034
 20
60.4523748115
 30
0.0
 10
93.0086902451
 20
60.5362964957
 30
0.0
  0
SPLINE
  5
44C
100
AcDbEntity
  8
0
100
AcDbSpline
 62
7
  6
CONTINUOUS
 70
0
 71
3
 72
19
 73
15
 74
0
 42
0.0000001
 43
0.0000001
 44
0.0000000001
 40
0.0
 40
0.0
 40
0.0
 40
0.0
 40
0.1628373397
 40
0.315692406
 40
0.4558626754
 40
0.5207795948
 40
0.5821808891
 40
0.6950063168
 40
0.7475036997
 40
0.798165934
 40
0.8478230732
 40
0.8974086692
 40
0.9478689179
 40
1.0
 40
1.0
 40
1.0
 40
1.0
 10
78.8900913127
 20
54.0978746368
 30
0.0
 10
78.8167088134
 20
54.2978027824
 30
0.0
 10
78.6967157792
 20
54.6941880224
 30
0.0
 10
78.5994352907
 20
55.2841783085
 30
0.0
 10
78.5936821635
 20
55.7547483046
 30
0.0
 10
78.6388932588
 20
56.1009510812
 30
0.0
 10
78.7113183755
 20
56.4055256113
 30
0.0
 10
78.8291393222
 20
56.6820275602
 30
0.0
 10
78.9947836789
 20
56.912051563
 30
0.0
 10
79.1361597855
 20
57.0545940942
 30
0.0
 10
79.2961700938
 20
57.169490331
 30
0.0
 10
79.4731545841
 20
57.2554362361
 30
0.0
 10
79.6650388404
 20
57.311427891
 30
0.0
 10
79.7987693873
 20
57.328263625
 30
0.0
 10
79.866852773
 20
57.3319047553
 30
0.0
  0
SPLINE
  5
44D
100
AcDbEntity
  8
0
100
AcDbSpline
 62
7
  6
CONTINUOUS
 70
0
 71
3
 72
15
 73
11
 74
0
 42
0.0000001
 43
0.0000001
 44
0.0000000001
 40
0.0
 40
0.0
 40
0.0
 40
0.0
 40
0.1570744426
 40
0.3069228803
 40
0.4474225638
 40
0.5773115735
 40
0.6960892536
 40
0.8044571553
 40
0.9045525443
 40
1.0
 40
1.0
 40
1.0
 40
1.0
 10
92.6634999648
 20
60.4215238405
 30
0.0
 10
92.6900525584
 20
60.3500705808
 30
0.0
 10
92.7352823142
 20
60.207845656
 30
0.0
 10
92.7791598013
 20
59.9947596845
 30
0.0
 10
92.7966551256
 20
59.7910340266
 30
0.0
 10
92.7872941081
 20
59.6017304032
 30
0.0
 10
92.7510312066
 20
59.4313973677
 30
0.0
 10
92.6882228411
 20
59.2842193523
 30
0.0
 10
92.5997647278
 20
59.1643569709
 30
0.0
 10
92.5239984989
 20
59.1048584543
 30
0.0
 10
92.4838813611
 20
59.0817031439
 30
0.0
  0
SPLINE
  5
44E
100
AcDbEntity
  8
0
100
AcDbSpline
 62
7
  6
CONTINUOUS
 70
0
 71
3
 72
20
 73
16
 74
0
 42
0.0000001
 43
0.0000001
 44
0.0000000001
 40
0.0
 40
0.0
 40
0.0
 40
0.0
 40
0.1486272936
 40
0.298472893
 40
0.4442435604
 40
0.5140959493
 40
0.5811827634
 40
0.6450774303
 40
0.7054695737
 40
0.7622004007
 40
0.8152935261
 40
0.8649918139
 40
0.911794726
 40
0.9564656061
 40
1.0
 40
1.0
 40
1.0
 40
1.0
 10
83.7102772131
 20
54.5177202699
 30
0.0
 10
83.610432062
 20
54.7864044376
 30
0.0
 10
83.3712033068
 20
55.3123081547
 30
0.0
 10
82.9154898719
 20
56.0404633743
 30
0.0
 10
82.4630957538
 20
56.5843894081
 30
0.0
 10
82.0691493521
 20
56.9619987416
 30
0.0
 10
81.7686054634
 20
57.2070477672
 30
0.0
 10
81.4628322031
 20
57.414657563
 30
0.0
 10
81.1557721224
 20
57.5820466367
 30
0.0
 10
80.8513965822
 20
57.7069736644
 30
0.0
 10
80.5535693097
 20
57.787658304
 30
0.0
 10
80.2660831851
 20
57.8227369826
 30
0.0
 10
79.9926853817
 20
57.811320725
 30
0.0
 10
79.7373637312
 20
57.7530898708
 30
0.0
 10
79.5809597761
 20
57.6828300986
 30
0.0
 10
79.5082474218
 20
57.6408545516
 30
0.0
  0
SPLINE
  5
44F
100
AcDbEntity
  8
0
100
AcDbSpline
 62
7
  6
CONTINUOUS
 70
0
 71
3
 72
17
 73
13
 74
0
 42
0.0000001
 43
0.0000001
 44
0.0000000001
 40
0.0
 40
0.0
 40
0.0
 40
0.0
 40
0.1486977884
 40
0.2986141689
 40
0.4444558737
 40
0.5813483532
 40
0.7055453881
 40
0.8152047963
 40
0.8649274824
 40
0.9117529287
 40
0.9564444499
 40
1.0
 40
1.0
 40
1.0
 40
1.0
 10
93.0086902451
 20
60.5362964957
 30
0.0
 10
92.9620962208
 20
60.6616817415
 30
0.0
 10
92.8504656961
 20
60.9070928655
 30
0.0
 10
92.6377656981
 20
61.2469403808
 30
0.0
 10
92.3880690715
 20
61.5471332395
 30
0.0
 10
92.1140272545
 20
61.7921818529
 30
0.0
 10
91.8294680645
 20
61.9696250062
 30
0.0
 10
91.5862191073
 20
62.0560497886
 30
0.0
 10
91.4014081978
 20
62.0786400959
 30
0.0
 10
91.2738162295
 20
62.073306542
 30
0.0
 10
91.154671037
 20
62.046123682
 30
0.0
 10
91.0816793579
 20
62.0133446038
 30
0.0
 10
91.0477454122
 20
61.9937581854
 30
0.0
  0
SPLINE
  5
450
100
AcDbEntity
  8
0
100
AcDbSpline
 62
7
  6
CONTINUOUS
 70
0
 71
3
 72
12
 73
8
 74
0
 42
0.0000001
 43
0.0000001
 44
0.0000000001
 40
0.0
 40
0.0
 40
0.0
 40
0.0
 40
0.2883548552
 40
0.5543055178
 40
0.6769860694
 40
0.7921463595
 40
1.0
 40
1.0
 40
1.0
 40
1.0
 10
98.0998246574
 20
63.4756467735
 30
0.0
 10
98.144947259
 20
63.3542187851
 30
0.0
 10
98.2157484197
 20
63.1144214967
 30
0.0
 10
98.2547700626
 20
62.8110918242
 30
0.0
 10
98.249796217
 20
62.5843435626
 30
0.0
 10
98.2233262679
 20
62.3857436081
 30
0.0
 10
98.177480667
 20
62.2452595499
 30
0.0
 10
98.1335760723
 20
62.1628488447
 30
0.0
  0
SPLINE
  5
451
100
AcDbEntity
  8
0
100
AcDbSpline
 62
7
  6
CONTINUOUS
 70
0
 71
3
 72
16
 73
12
 74
0
 42
0.0000001
 43
0.0000001
 44
0.0000000001
 40
0.0
 40
0.0
 40
0.0
 40
0.0
 40
0.0932211192
 40
0.1439478458
 40
0.1975988064
 40
0.3135849015
 40
0.4403094874
 40
0.5755416081
 40
0.7162538474
 40
0.8589486477
 40
1.0
 40
1.0
 40
1.0
 40
1.0
 10
79.866852773
 20
57.3319047553
 30
0.0
 10
80.0135840643
 20
57.3397520114
 30
0.0
 10
80.2427999731
 20
57.3167232885
 30
0.0
 10
80.5429277491
 20
57.2324975189
 30
0.0
 10
80.8662052206
 20
57.1036706854
 30
0.0
 10
81.2728199404
 20
56.868605683
 30
0.0
 10
81.7383042961
 20
56.493826285
 30
0.0
 10
82.1771586084
 20
56.032966166
 30
0.0
 10
82.5730666667
 20
55.5031954979
 30
0.0
 10
82.9112992567
 20
54.9243896239
 30
0.0
 10
83.0925344242
 20
54.5141974762
 30
0.0
 10
83.1699809623
 20
54.3057881704
 30
0.0
  0
SPLINE
  5
452
100
AcDbEntity
  8
0
100
AcDbSpline
 62
7
  6
CONTINUOUS
 70
0
 71
3
 72
19
 73
15
 74
0
 42
0.0000001
 43
0.0000001
 44
0.0000000001
 40
0.0
 40
0.0
 40
0.0
 40
0.0
 40
0.1628603101
 40
0.315815858
 40
0.4561044222
 40
0.5210724224
 40
0.5825120432
 40
0.6953583919
 40
0.747834166
 40
0.7984535945
 40
0.8480502398
 40
0.8975630189
 40
0.9479452482
 40
1.0
 40
1.0
 40
1.0
 40
1.0
 10
83.1699809623
 20
54.3057881704
 30
0.0
 10
83.2445901658
 20
54.1050141567
 30
0.0
 10
83.3668432001
 20
53.706728816
 30
0.0
 10
83.4669942843
 20
53.113512182
 30
0.0
 10
83.4746165032
 20
52.6399873926
 30
0.0
 10
83.4304825674
 20
52.2914059545
 30
0.0
 10
83.358823418
 20
51.9847085485
 30
0.0
 10
83.2414105513
 20
51.7061482459
 30
0.0
 10
83.0756873987
 20
51.4742986913
 30
0.0
 10
82.93407684
 20
51.3306370373
 30
0.0
 10
82.7736463847
 20
51.2148290452
 30
0.0
 10
82.5960717069
 20
51.1282059561
 30
0.0
 10
82.40345452
 20
51.0717877873
 30
0.0
 10
82.269179763
 20
51.0548435345
 30
0.0
 10
82.2008167496
 20
51.0511874495
 30
0.0
  0
SPLINE
  5
453
100
AcDbEntity
  8
0
100
AcDbSpline
 62
7
  6
CONTINUOUS
 70
0
 71
3
 72
15
 73
11
 74
0
 42
0.0000001
 43
0.0000001
 44
0.0000000001
 40
0.0
 40
0.0
 40
0.0
 40
0.0
 40
0.2001938984
 40
0.2575106477
 40
0.3175048608
 40
0.4446204638
 40
0.5794402764
 40
0.7191022271
 40
0.8604152926
 40
1.0
 40
1.0
 40
1.0
 40
1.0
 10
96.487110433
 20
65.0146301067
 30
0.0
 10
96.6428369017
 20
65.0093335186
 30
0.0
 10
96.8415885755
 20
64.9440913647
 30
0.0
 10
97.0564958883
 20
64.8230964255
 30
0.0
 10
97.2146783845
 20
64.7168405337
 30
0.0
 10
97.4066467781
 20
64.5546134641
 30
0.0
 10
97.6189496968
 20
64.3242262875
 30
0.0
 10
97.8102508651
 20
64.0623626895
 30
0.0
 10
97.9738612083
 20
63.7781585553
 30
0.0
 10
98.0619806921
 20
63.5774852122
 30
0.0
 10
98.0998246573
 20
63.4756467735
 30
0.0
  0
SPLINE
  5
454
100
AcDbEntity
  8
0
100
AcDbSpline
 62
7
  6
CONTINUOUS
 70
0
 71
3
 72
12
 73
8
 74
0
 42
0.0000001
 43
0.0000001
 44
0.0000000001
 40
0.0
 40
0.0
 40
0.0
 40
0.0
 40
0.2143207528
 40
0.3300698394
 40
0.45194076
 40
0.7141885074
 40
1.0
 40
1.0
 40
1.0
 40
1.0
 10
82.2008167496
 20
51.0511874495
 30
0.0
 10
82.0669306027
 20
51.0440271577
 30
0.0
 10
81.8585280634
 20
51.0621687659
 30
0.0
 10
81.5843234783
 20
51.1319754964
 30
0.0
 10
81.289963431
 20
51.2390712041
 30
0.0
 10
80.9177408992
 20
51.4360326917
 30
0.0
 10
80.6406830353
 20
51.6399838823
 30
0.0
 10
80.5034490139
 20
51.7545998489
 30
0.0
  0
SPLINE
  5
455
100
AcDbEntity
  8
0
100
AcDbSpline
 62
7
  6
CONTINUOUS
 70
0
 71
3
 72
9
 73
5
 74
0
 42
0.0000001
 43
0.0000001
 44
0.0000000001
 40
0.0
 40
0.0
 40
0.0
 40
0.0
 40
0.2438454429
 40
1.0
 40
1.0
 40
1.0
 40
1.0
 10
80.5034490139
 20
51.7545998489
 30
0.0
 10
80.4612465131
 20
51.7898467969
 30
0.0
 10
80.290936778
 20
51.9376814511
 30
0.0
 10
80.1315459028
 20
52.0979785512
 30
0.0
 10
80.0173109903
 20
52.2245613707
 30
0.0
  0
SPLINE
  5
456
100
AcDbEntity
  8
0
100
AcDbSpline
 62
7
  6
CONTINUOUS
 70
0
 71
3
 72
9
 73
5
 74
0
 42
0.0000001
 43
0.0000001
 44
0.0000000001
 40
0.0
 40
0.0
 40
0.0
 40
0.0
 40
0.2465090715
 40
1.0
 40
1.0
 40
1.0
 40
1.0
 10
80.0173109903
 20
52.2245613707
 30
0.0
 10
79.9773544907
 20
52.2688368576
 30
0.0
 10
79.8183240849
 20
52.4511902945
 30
0.0
 10
79.6714514921
 20
52.644095311
 30
0.0
 10
79.5678803487
 20
52.7941115701
 30
0.0
  0
SPLINE
  5
457
100
AcDbEntity
  8
0
100
AcDbSpline
 62
7
  6
CONTINUOUS
 70
0
 71
3
 72
9
 73
5
 74
0
 42
0.0000001
 43
0.0000001
 44
0.0000000001
 40
0.0
 40
0.0
 40
0.0
 40
0.0
 40
0.2522385221
 40
1.0
 40
1.0
 40
1.0
 40
1.0
 10
79.3025497828
 20
53.2153496467
 30
0.0
 10
79.2627260998
 20
53.2848705204
 30
0.0
 10
79.1104188704
 20
53.5636310712
 30
0.0
 10
78.9804225803
 20
53.8546660688
 30
0.0
 10
78.8976885602
 20
54.0773040344
 30
0.0
  0
SPLINE
  5
458
100
AcDbEntity
  8
0
100
AcDbSpline
 62
7
  6
CONTINUOUS
 70
0
 71
3
 72
17
 73
13
 74
0
 42
0.0000001
 43
0.0000001
 44
0.0000000001
 40
0.0
 40
0.0
 40
0.0
 40
0.0
 40
0.0475137561
 40
0.0956322705
 40
0.1449209736
 40
0.1958810688
 40
0.3042050269
 40
0.4229319289
 40
0.5527614337
 40
0.6932167545
 40
0.8429670091
 40
1.0
 40
1.0
 40
1.0
 40
1.0
 10
83.2582140888
 20
51.1456829874
 30
0.0
 10
83.3084943543
 20
51.174708889
 30
0.0
 10
83.4057394803
 20
51.24030393
 30
0.0
 10
83.5378694707
 20
51.3589685334
 30
0.0
 10
83.6558832756
 20
51.4972707704
 30
0.0
 10
83.7960818749
 20
51.7107819942
 30
0.0
 10
83.9306257264
 20
52.0258553459
 30
0.0
 10
84.0218131003
 20
52.4544532562
 30
0.0
 10
84.0454260129
 20
52.9309281143
 30
0.0
 10
84.0013578537
 20
53.4436210782
 30
0.0
 10
83.890969903
 20
53.9799284051
 30
0.0
 10
83.7771149605
 20
54.3378593119
 30
0.0
 10
83.7102772131
 20
54.5177202699
 30
0.0
  0
SPLINE
  5
459
100
AcDbEntity
  8
0
100
AcDbSpline
 62
7
  6
CONTINUOUS
 70
0
 71
3
 72
17
 73
13
 74
0
 42
0.0000001
 43
0.0000001
 44
0.0000000001
 40
0.0
 40
0.0
 40
0.0
 40
0.0
 40
0.0435555501
 40
0.0882470713
 40
0.1350725176
 40
0.1847952037
 40
0.2944546119
 40
0.4186516468
 40
0.5555441263
 40
0.7013858311
 40
0.8513022116
 40
1.0
 40
1.0
 40
1.0
 40
1.0
 10
90.993896908
 20
61.6624473235
 30
0.0
 10
91.0227892146
 20
61.6791237457
 30
0.0
 10
91.0849363635
 20
61.7070327661
 30
0.0
 10
91.1863798994
 20
61.7301770103
 30
0.0
 10
91.2950152556
 20
61.7347181466
 30
0.0
 10
91.4523684121
 20
61.7154841298
 30
0.0
 10
91.6594773505
 20
61.6418996625
 30
0.0
 10
91.9017589719
 20
61.4908196187
 30
0.0
 10
92.1350858088
 20
61.2821784029
 30
0.0
 10
92.3476844725
 20
61.0265858406
 30
0.0
 10
92.528783176
 20
60.737230199
 30
0.0
 10
92.6238285144
 20
60.5282803316
 30
0.0
 10
92.6634999647
 20
60.4215238404
 30
0.0
  0
SPLINE
  5
45A
100
AcDbEntity
  8
0
100
AcDbSpline
 62
7
  6
CONTINUOUS
 70
0
 71
3
 72
17
 73
13
 74
0
 42
0.0000001
 43
0.0000001
 44
0.0000000001
 40
0.0
 40
0.0
 40
0.0
 40
0.0
 40
0.1570329909
 40
0.3067832455
 40
0.4472385663
 40
0.5770680711
 40
0.6957949731
 40
0.8041189312
 40
0.8550790264
 40
0.9043677295
 40
0.9524862439
 40
1.0
 40
1.0
 40
1.0
 40
1.0
 10
84.4202202844
 20
54.9276036465
 30
0.0
 10
84.4870580318
 20
54.7477426885
 30
0.0
 10
84.6009129744
 20
54.3898117818
 30
0.0
 10
84.711300925
 20
53.8535044549
 30
0.0
 10
84.7553690842
 20
53.340811491
 30
0.0
 10
84.7317561716
 20
52.8643366328
 30
0.0
 10
84.6405687977
 20
52.4357387226
 30
0.0
 10
84.5060249462
 20
52.1206653709
 30
0.0
 10
84.365826347
 20
51.9071541471
 30
0.0
 10
84.247812542
 20
51.7688519101
 30
0.0
 10
84.1156825516
 20
51.6501873067
 30
0.0
 10
84.0184374256
 20
51.5845922657
 30
0.0
 10
83.9681571601
 20
51.5555663641
 30
0.0
  0
SPLINE
  5
45B
100
AcDbEntity
  8
0
100
AcDbSpline
 62
7
  6
CONTINUOUS
 70
0
 71
3
 72
20
 73
16
 74
0
 42
0.0000001
 43
0.0000001
 44
0.0000000001
 40
0.0
 40
0.0
 40
0.0
 40
0.0
 40
0.0437729649
 40
0.0894905322
 40
0.1378135409
 40
0.1891920971
 40
0.243868085
 40
0.3019051441
 40
0.3632097621
 40
0.4275612165
 40
0.4946378212
 40
0.5640312452
 40
0.7077703923
 40
0.8546037284
 40
1.0
 40
1.0
 40
1.0
 40
1.0
 10
80.4622692911
 20
58.158983406
 30
0.0
 10
80.5388942246
 20
58.1837587379
 30
0.0
 10
80.7005698644
 20
58.2198952427
 30
0.0
 10
80.9548512387
 20
58.232395409
 30
0.0
 10
81.2218732942
 20
58.2044113232
 30
0.0
 10
81.4984416157
 20
58.136513371
 30
0.0
 10
81.7815048084
 20
58.0297624585
 30
0.0
 10
82.0678819276
 20
57.8854592112
 30
0.0
 10
82.3543577316
 20
57.7053330833
 30
0.0
 10
82.6376911274
 20
57.4915046141
 30
0.0
 10
82.9146253621
 20
57.2464111354
 30
0.0
 10
83.2752359995
 20
56.8775124485
 30
0.0
 10
83.6884453024
 20
56.3573089603
 30
0.0
 10
84.1060083692
 20
55.6703428887
 30
0.0
 10
84.3270440731
 20
55.1783416402
 30
0.0
 10
84.4202202846
 20
54.9276036467
 30
0.0
  0
SPLINE
  5
45C
100
AcDbEntity
  8
0
100
AcDbSpline
 62
7
  6
CONTINUOUS
 70
0
 71
3
 72
9
 73
5
 74
0
 42
0.0000001
 43
0.0000001
 44
0.0000000001
 40
0.0
 40
0.0
 40
0.0
 40
0.0
 40
0.4913968112
 40
1.0
 40
1.0
 40
1.0
 40
1.0
 10
14.2814406378
 20
29.8591829635
 30
0.0
 10
14.076735081
 20
31.4711320763
 30
0.0
 10
13.7678698753
 20
34.7658338545
 30
0.0
 10
13.657663069
 20
38.0727311869
 30
0.0
 10
13.6481473723
 20
39.7544955298
 30
0.0
  0
SPLINE
  5
45D
100
AcDbEntity
  8
0
100
AcDbSpline
 62
7
  6
CONTINUOUS
 70
0
 71
3
 72
9
 73
5
 74
0
 42
0.0000001
 43
0.0000001
 44
0.0000000001
 40
0.0
 40
0.0
 40
0.0
 40
0.0
 40
0.4912926502
 40
1.0
 40
1.0
 40
1.0
 40
1.0
 10
37.6940774964
 20
17.2487686231
 30
0.0
 10
37.4869766937
 20
18.8594661317
 30
0.0
 10
37.1745309585
 20
22.1526801286
 30
0.0
 10
37.0631131357
 20
25.4583758863
 30
0.0
 10
37.0534893811
 20
27.1398695286
 30
0.0
  0
SPLINE
  5
45E
100
AcDbEntity
  8
0
100
AcDbSpline
 62
7
  6
CONTINUOUS
 70
0
 71
3
 72
9
 73
5
 74
0
 42
0.0000001
 43
0.0000001
 44
0.0000000001
 40
0.0
 40
0.0
 40
0.0
 40
0.0
 40
0.5086031888
 40
1.0
 40
1.0
 40
1.0
 40
1.0
 10
36.275658577
 20
26.6907913852
 30
0.0
 10
36.2851742734
 20
25.0090270423
 30
0.0
 10
36.3953810794
 20
21.7021297099
 30
0.0
 10
36.7042462851
 20
18.4074279318
 30
0.0
 10
36.908951842
 20
16.7954788191
 30
0.0
  0
SPLINE
  5
45F
100
AcDbEntity
  8
0
100
AcDbSpline
 62
7
  6
CONTINUOUS
 70
0
 71
3
 72
9
 73
5
 74
0
 42
0.0000001
 43
0.0000001
 44
0.0000000001
 40
0.0
 40
0.0
 40
0.0
 40
0.0
 40
0.477588495
 40
1.0
 40
1.0
 40
1.0
 40
1.0
 10
21.1877947008
 20
92.9636272474
 30
0.0
 10
21.2496696826
 20
92.9993510477
 30
0.0
 10
21.3960024287
 20
93.0473376132
 30
0.0
 10
21.5483223109
 20
93.0391957813
 30
0.0
 10
21.625145835
 20
93.0248432684
 30
0.0
  0
SPLINE
  5
460
100
AcDbEntity
  8
0
100
AcDbSpline
 62
7
  6
CONTINUOUS
 70
0
 71
3
 72
11
 73
7
 74
0
 42
0.0000001
 43
0.0000001
 44
0.0000000001
 40
0.0
 40
0.0
 40
0.0
 40
0.0
 40
0.2306271359
 40
0.4809317086
 40
0.741126795
 40
1.0
 40
1.0
 40
1.0
 40
1.0
 10
21.3004638282
 20
93.3196073468
 30
0.0
 10
21.4753489419
 20
93.2092092392
 30
0.0
 10
21.81514284
 20
92.9386332144
 30
0.0
 10
22.2597365339
 20
92.4412605129
 30
0.0
 10
22.6388893414
 20
91.8619768157
 30
0.0
 10
22.8355621618
 20
91.4378314965
 30
0.0
 10
22.9164261917
 20
91.2202256908
 30
0.0
  0
SPLINE
  5
461
100
AcDbEntity
  8
0
100
AcDbSpline
 62
7
  6
CONTINUOUS
 70
0
 71
3
 72
9
 73
5
 74
0
 42
0.0000001
 43
0.0000001
 44
0.0000000001
 40
0.0
 40
0.0
 40
0.0
 40
0.0
 40
0.2653479336
 40
1.0
 40
1.0
 40
1.0
 40
1.0
 10
23.0647536343
 20
90.5561899697
 30
0.0
 10
23.0563326184
 20
90.5307996773
 30
0.0
 10
23.0204268136
 20
90.4366391121
 30
0.0
 10
22.9657996688
 20
90.3489199047
 30
0.0
 10
22.9154083552
 20
90.2946438496
 30
0.0
  0
SPLINE
  5
462
100
AcDbEntity
  8
0
100
AcDbSpline
 62
7
  6
CONTINUOUS
 70
0
 71
3
 72
9
 73
5
 74
0
 42
0.0000001
 43
0.0000001
 44
0.0000000001
 40
0.0
 40
0.0
 40
0.0
 40
0.0
 40
0.2536330265
 40
1.0
 40
1.0
 40
1.0
 40
1.0
 10
22.9154083552
 20
90.2946438496
 30
0.0
 10
22.9059809045
 20
90.2844896228
 30
0.0
 10
22.8674026088
 20
90.2457888148
 30
0.0
 10
22.8230401986
 20
90.2128298774
 30
0.0
 10
22.7877291789
 20
90.1924429006
 30
0.0
  0
SPLINE
  5
463
100
AcDbEntity
  8
0
100
AcDbSpline
 62
7
  6
CONTINUOUS
 70
0
 71
3
 72
11
 73
7
 74
0
 42
0.0000001
 43
0.0000001
 44
0.0000000001
 40
0.0
 40
0.0
 40
0.0
 40
0.0
 40
0.2895396728
 40
0.5491163861
 40
0.7822545093
 40
1.0
 40
1.0
 40
1.0
 40
1.0
 10
34.4470493373
 20
33.8678869777
 30
0.0
 10
34.4733609184
 20
33.8830778855
 30
0.0
 10
34.525746803
 20
33.9079660579
 30
0.0
 10
34.6062322478
 20
33.9274479542
 30
0.0
 10
34.6817901783
 20
33.9255505484
 30
0.0
 10
34.7272400152
 20
33.9089986731
 30
0.0
 10
34.7470274612
 20
33.8975746336
 30
0.0
  0
SPLINE
  5
464
100
AcDbEntity
  8
0
100
AcDbSpline
 62
7
  6
CONTINUOUS
 70
0
 71
3
 72
11
 73
7
 74
0
 42
0.0000001
 43
0.0000001
 44
0.0000000001
 40
0.0
 40
0.0
 40
0.0
 40
0.0
 40
0.285916229
 40
0.5460823547
 40
0.7817419076
 40
1.0
 40
1.0
 40
1.0
 40
1.0
 10
33.8106558838
 20
34.4802701392
 30
0.0
 10
33.8106558554
 20
34.5095945455
 30
0.0
 10
33.8065887476
 20
34.5657349777
 30
0.0
 10
33.7866772624
 20
34.6439386093
 30
0.0
 10
33.7531037669
 20
34.7098045511
 30
0.0
 10
33.7212300307
 20
34.7447607804
 30
0.0
 10
33.7037891166
 20
34.7587932865
 30
0.0
  0
SPLINE
  5
465
100
AcDbEntity
  8
0
100
AcDbSpline
 62
7
  6
CONTINUOUS
 70
0
 71
3
 72
11
 73
7
 74
0
 42
0.0000001
 43
0.0000001
 44
0.0000000001
 40
0.0
 40
0.0
 40
0.0
 40
0.0
 40
0.2081940932
 40
0.4377381721
 40
0.700934502
 40
1.0
 40
1.0
 40
1.0
 40
1.0
 10
33.913073922
 20
34.8391332305
 30
0.0
 10
33.940235915
 20
34.8237477415
 30
0.0
 10
34.0049970925
 20
34.803734995
 30
0.0
 10
34.1115884866
 20
34.812829341
 30
0.0
 10
34.2233784004
 20
34.8561264094
 30
0.0
 10
34.2941356789
 20
34.9030560496
 30
0.0
 10
34.3293611296
 20
34.9308045947
 30
0.0
  0
SPLINE
  5
466
100
AcDbEntity
  8
0
100
AcDbSpline
 62
7
  6
CONTINUOUS
 70
0
 71
3
 72
9
 73
5
 74
0
 42
0.0000001
 43
0.0000001
 44
0.0000000001
 40
0.0
 40
0.0
 40
0.0
 40
0.0
 40
0.2456071925
 40
1.0
 40
1.0
 40
1.0
 40
1.0
 10
34.3293611296
 20
34.9308045947
 30
0.0
 10
34.3342704905
 20
34.9346719015
 30
0.0
 10
34.3540741336
 20
34.9506518239
 30
0.0
 10
34.373146312
 20
34.9675338025
 30
0.0
 10
34.3871218465
 20
34.9806932477
 30
0.0
  0
SPLINE
  5
467
100
AcDbEntity
  8
0
100
AcDbSpline
 62
7
  6
CONTINUOUS
 70
0
 71
3
 72
11
 73
7
 74
0
 42
0.0000001
 43
0.0000001
 44
0.0000000001
 40
0.0
 40
0.0
 40
0.0
 40
0.0
 40
0.2526359709
 40
0.5149613066
 40
0.769472239
 40
1.0
 40
1.0
 40
1.0
 40
1.0
 10
34.3871218465
 20
34.9806932477
 30
0.0
 10
34.4375881348
 20
35.0282126007
 30
0.0
 10
34.5299779813
 20
35.1365301799
 30
0.0
 10
34.6363511186
 20
35.3201380981
 30
0.0
 10
34.7061666954
 20
35.5140976158
 30
0.0
 10
34.7252286758
 20
35.6473155519
 30
0.0
 10
34.7252287266
 20
35.7105671951
 30
0.0
  0
SPLINE
  5
468
100
AcDbEntity
  8
0
100
AcDbSpline
 62
7
  6
CONTINUOUS
 70
0
 71
3
 72
9
 73
5
 74
0
 42
0.0000001
 43
0.0000001
 44
0.0000000001
 40
0.0
 40
0.0
 40
0.0
 40
0.0
 40
0.7468388501
 40
1.0
 40
1.0
 40
1.0
 40
1.0
 10
26.5541192202
 20
38.7099091386
 30
0.0
 10
26.5381212031
 20
38.7005106715
 30
0.0
 10
26.5175773687
 20
38.6863415269
 30
0.0
 10
26.4984923004
 20
38.6704325552
 30
0.0
 10
26.4937518958
 20
38.66629894
 30
0.0
  0
SPLINE
  5
469
100
AcDbEntity
  8
0
100
AcDbSpline
 62
7
  6
CONTINUOUS
 70
0
 71
3
 72
9
 73
5
 74
0
 42
0.0000001
 43
0.0000001
 44
0.0000000001
 40
0.0
 40
0.0
 40
0.0
 40
0.0
 40
0.2464891983
 40
1.0
 40
1.0
 40
1.0
 40
1.0
 10
26.4937518958
 20
38.66629894
 30
0.0
 10
26.4899010044
 20
38.6629409771
 30
0.0
 10
26.4745255359
 20
38.6490356192
 30
0.0
 10
26.460148107
 20
38.6340343022
 30
0.0
 10
26.4499025275
 20
38.6222451499
 30
0.0
  0
SPLINE
  5
46A
100
AcDbEntity
  8
0
100
AcDbSpline
 62
7
  6
CONTINUOUS
 70
0
 71
3
 72
9
 73
5
 74
0
 42
0.0000001
 43
0.0000001
 44
0.0000000001
 40
0.0
 40
0.0
 40
0.0
 40
0.0
 40
0.2644264156
 40
1.0
 40
1.0
 40
1.0
 40
1.0
 10
25.885751514
 20
59.8107063308
 30
0.0
 10
25.8857514672
 20
59.8474723755
 30
0.0
 10
25.8816847774
 20
59.9864210999
 30
0.0
 10
25.8607644309
 20
60.125347076
 30
0.0
 10
25.8329217
 20
60.2237589443
 30
0.0
  0
SPLINE
  5
46B
100
AcDbEntity
  8
0
100
AcDbSpline
 62
7
  6
CONTINUOUS
 70
0
 71
3
 72
17
 73
13
 74
0
 42
0.0000001
 43
0.0000001
 44
0.0000000001
 40
0.0
 40
0.0
 40
0.0
 40
0.0
 40
0.0428340049
 40
0.0873473173
 40
0.1349530345
 40
0.1865531122
 40
0.3027798665
 40
0.4353019497
 40
0.5788605407
 40
0.7260603645
 40
0.8688521311
 40
1.0
 40
1.0
 40
1.0
 40
1.0
 10
24.0132394023
 20
61.6015767101
 30
0.0
 10
23.9601697414
 20
61.6321955009
 30
0.0
 10
23.859534247
 20
61.7087964885
 30
0.0
 10
23.7375793643
 20
61.8605097018
 30
0.0
 10
23.6454209278
 20
62.0458309578
 30
0.0
 10
23.5607480051
 20
62.3435869972
 30
0.0
 10
23.5441502535
 20
62.7787163489
 30
0.0
 10
23.648263624
 20
63.3334388911
 30
0.0
 10
23.866564856
 20
63.9014350539
 30
0.0
 10
24.1822981926
 20
64.4384441837
 30
0.0
 10
24.5704049448
 20
64.9026345624
 30
0.0
 10
24.8753807461
 20
65.1541191013
 30
0.0
 10
25.0336350183
 20
65.2548477993
 30
0.0
  0
SPLINE
  5
46C
100
AcDbEntity
  8
0
100
AcDbSpline
 62
7
  6
CONTINUOUS
 70
0
 71
3
 72
10
 73
6
 74
0
 42
0.0000001
 43
0.0000001
 44
0.0000000001
 40
0.0
 40
0.0
 40
0.0
 40
0.0
 40
0.2320451769
 40
0.4733725072
 40
1.0
 40
1.0
 40
1.0
 40
1.0
 10
24.4383813474
 20
60.9685100003
 30
0.0
 10
24.3924053287
 20
61.0014928609
 30
0.0
 10
24.3053739125
 20
61.0787373819
 30
0.0
 10
24.1568131387
 20
61.2735265958
 30
0.0
 10
24.0853466139
 20
61.4510272881
 30
0.0
 10
24.05250146
 20
61.5751717222
 30
0.0
  0
SPLINE
  5
46D
100
AcDbEntity
  8
0
100
AcDbSpline
 62
7
  6
CONTINUOUS
 70
0
 71
3
 72
15
 73
11
 74
0
 42
0.0000001
 43
0.0000001
 44
0.0000000001
 40
0.0
 40
0.0
 40
0.0
 40
0.0
 40
0.1027217611
 40
0.2178383407
 40
0.3434885903
 40
0.4764794533
 40
0.6128374646
 40
0.7482592566
 40
0.8785127806
 40
1.0
 40
1.0
 40
1.0
 40
1.0
 10
24.05250146
 20
61.5751717222
 30
0.0
 10
24.0176468513
 20
61.7069112681
 30
0.0
 10
23.9804252572
 20
61.9963355565
 30
0.0
 10
24.009654854
 20
62.4530474079
 30
0.0
 10
24.1182964144
 20
62.9386758754
 30
0.0
 10
24.3014100422
 20
63.4311983422
 30
0.0
 10
24.550604379
 20
63.9083882781
 30
0.0
 10
24.854555556
 20
64.3483803277
 30
0.0
 10
25.1992000611
 20
64.7311153449
 30
0.0
 10
25.4572085563
 20
64.9457610942
 30
0.0
 10
25.5897524901
 20
65.0374501141
 30
0.0
  0
SPLINE
  5
46E
100
AcDbEntity
  8
0
100
AcDbSpline
 62
7
  6
CONTINUOUS
 70
0
 71
3
 72
9
 73
5
 74
0
 42
0.0000001
 43
0.0000001
 44
0.0000000001
 40
0.0
 40
0.0
 40
0.0
 40
0.0
 40
0.2725864828
 40
1.0
 40
1.0
 40
1.0
 40
1.0
 10
26.4464767954
 20
65.548911145
 30
0.0
 10
26.5035516399
 20
65.5824433237
 30
0.0
 10
26.7176483141
 20
65.696432199
 30
0.0
 10
26.9552443884
 20
65.7725250304
 30
0.0
 10
27.1311334916
 20
65.7888894819
 30
0.0
  0
SPLINE
  5
46F
100
AcDbEntity
  8
0
100
AcDbSpline
 62
7
  6
CONTINUOUS
 70
0
 71
3
 72
9
 73
5
 74
0
 42
0.0000001
 43
0.0000001
 44
0.0000000001
 40
0.0
 40
0.0
 40
0.0
 40
0.0
 40
0.5152995481
 40
1.0
 40
1.0
 40
1.0
 40
1.0
 10
29.5740409728
 20
58.2434992987
 30
0.0
 10
29.6441774139
 20
58.2490468049
 30
0.0
 10
29.7823110265
 20
58.2444046186
 30
0.0
 10
29.9142624904
 20
58.2013354775
 30
0.0
 10
29.973281529
 20
58.1713981934
 30
0.0
  0
SPLINE
  5
470
100
AcDbEntity
  8
0
100
AcDbSpline
 62
7
  6
CONTINUOUS
 70
0
 71
3
 72
10
 73
6
 74
0
 42
0.0000001
 43
0.0000001
 44
0.0000000001
 40
0.0
 40
0.0
 40
0.0
 40
0.0
 40
0.2740459908
 40
0.5326207338
 40
1.0
 40
1.0
 40
1.0
 40
1.0
 10
24.4932311926
 20
33.0436862859
 30
0.0
 10
24.5283450369
 20
33.4783788632
 30
0.0
 10
24.6314429204
 20
34.3213170198
 30
0.0
 10
24.9698498957
 20
35.8769017598
 30
0.0
 10
25.38676702
 20
36.9695624488
 30
0.0
 10
25.747429177
 20
37.6200402782
 30
0.0
  0
SPLINE
  5
471
100
AcDbEntity
  8
0
100
AcDbSpline
 62
7
  6
CONTINUOUS
 70
0
 71
3
 72
9
 73
5
 74
0
 42
0.0000001
 43
0.0000001
 44
0.0000000001
 40
0.0
 40
0.0
 40
0.0
 40
0.0
 40
0.2566198059
 40
1.0
 40
1.0
 40
1.0
 40
1.0
 10
30.6275461243
 20
30.8213441275
 30
0.0
 10
30.6204604896
 20
30.8073496981
 30
0.0
 10
30.5914838947
 20
30.753525026
 30
0.0
 10
30.5568866254
 20
30.7026713301
 30
0.0
 10
30.5281037863
 20
30.6675104328
 30
0.0
  0
SPLINE
  5
472
100
AcDbEntity
  8
0
100
AcDbSpline
 62
7
  6
CONTINUOUS
 70
0
 71
3
 72
9
 73
5
 74
0
 42
0.0000001
 43
0.0000001
 44
0.0000000001
 40
0.0
 40
0.0
 40
0.0
 40
0.0
 40
0.5211448656
 40
1.0
 40
1.0
 40
1.0
 40
1.0
 10
24.626694604
 20
31.7832760745
 30
0.0
 10
24.5707125529
 20
31.9969879144
 30
0.0
 10
24.4905276069
 20
32.4147461398
 30
0.0
 10
24.4768885768
 20
32.8413460879
 30
0.0
 10
24.4932351294
 20
33.0436819648
 30
0.0
  0
SPLINE
  5
473
100
AcDbEntity
  8
0
100
AcDbSpline
 62
7
  6
CONTINUOUS
 70
0
 71
3
 72
9
 73
5
 74
0
 42
0.0000001
 43
0.0000001
 44
0.0000000001
 40
0.0
 40
0.0
 40
0.0
 40
0.0
 40
0.251822498
 40
1.0
 40
1.0
 40
1.0
 40
1.0
 10
26.3516542273
 20
38.5064257103
 30
0.0
 10
26.2941919404
 20
38.4370016333
 30
0.0
 10
26.0724377767
 20
38.1560367388
 30
0.0
 10
25.8773728945
 20
37.8541456301
 30
0.0
 10
25.747429177
 20
37.6200402782
 30
0.0
  0
SPLINE
  5
474
100
AcDbEntity
  8
0
100
AcDbSpline
 62
7
  6
CONTINUOUS
 70
0
 71
3
 72
9
 73
5
 74
0
 42
0.0000001
 43
0.0000001
 44
0.0000000001
 40
0.0
 40
0.0
 40
0.0
 40
0.0
 40
0.5052636036
 40
1.0
 40
1.0
 40
1.0
 40
1.0
 10
27.6065944402
 20
29.0259013637
 30
0.0
 10
27.7310877394
 20
29.0529346822
 30
0.0
 10
27.9742836276
 20
29.1235162834
 30
0.0
 10
28.2028160664
 20
29.2332039324
 30
0.0
 10
28.3103637336
 20
29.2963992281
 30
0.0
  0
SPLINE
  5
475
100
AcDbEntity
  8
0
100
AcDbSpline
 62
7
  6
CONTINUOUS
 70
0
 71
3
 72
11
 73
7
 74
0
 42
0.0000001
 43
0.0000001
 44
0.0000000001
 40
0.0
 40
0.0
 40
0.0
 40
0.0
 40
0.2398069995
 40
0.482184461
 40
0.7338153094
 40
1.0
 40
1.0
 40
1.0
 40
1.0
 10
27.3506055248
 20
28.9855220283
 30
0.0
 10
27.1471412378
 20
28.9654855093
 30
0.0
 10
26.7292156545
 20
28.9839011268
 30
0.0
 10
26.1335262253
 20
29.2076579512
 30
0.0
 10
25.6217037142
 20
29.6205727954
 30
0.0
 10
25.360417311
 20
29.9822733459
 30
0.0
 10
25.2471414088
 20
30.1789174915
 30
0.0
  0
SPLINE
  5
476
100
AcDbEntity
  8
0
100
AcDbSpline
 62
7
  6
CONTINUOUS
 70
0
 71
3
 72
9
 73
5
 74
0
 42
0.0000001
 43
0.0000001
 44
0.0000000001
 40
0.0
 40
0.0
 40
0.0
 40
0.0
 40
0.5081171362
 40
1.0
 40
1.0
 40
1.0
 40
1.0
 10
31.5754837131
 20
31.1837645822
 30
0.0
 10
31.8069559249
 20
31.2031976215
 30
0.0
 10
32.260391724
 20
31.2811207811
 30
0.0
 10
32.690628523
 20
31.4456023108
 30
0.0
 10
32.8914208955
 20
31.5468282503
 30
0.0
  0
SPLINE
  5
477
100
AcDbEntity
  8
0
100
AcDbSpline
 62
7
  6
CONTINUOUS
 70
0
 71
3
 72
12
 73
8
 74
0
 42
0.0000001
 43
0.0000001
 44
0.0000000001
 40
0.0
 40
0.0
 40
0.0
 40
0.0
 40
0.2568157741
 40
0.5383239284
 40
0.6737384898
 40
0.7979349043
 40
1.0
 40
1.0
 40
1.0
 40
1.0
 10
31.1532666774
 20
31.5146905444
 30
0.0
 10
31.1532666774
 20
31.474615525
 30
0.0
 10
31.1728589395
 20
31.390711777
 30
0.0
 10
31.2255471786
 20
31.2982819782
 30
0.0
 10
31.2830147053
 20
31.235688174
 30
0.0
 10
31.3398487797
 20
31.1918090755
 30
0.0
 10
31.3909937036
 20
31.1723602544
 30
0.0
 10
31.4224916253
 20
31.1738130225
 30
0.0
  0
SPLINE
  5
478
100
AcDbEntity
  8
0
100
AcDbSpline
 62
7
  6
CONTINUOUS
 70
0
 71
3
 72
9
 73
5
 74
0
 42
0.0000001
 43
0.0000001
 44
0.0000000001
 40
0.0
 40
0.0
 40
0.0
 40
0.0
 40
0.2568833693
 40
1.0
 40
1.0
 40
1.0
 40
1.0
 10
13.4071975967
 20
65.6925798874
 30
0.0
 10
13.4148936612
 20
65.7104596844
 30
0.0
 10
13.4491723236
 20
65.7780583597
 30
0.0
 10
13.5003641716
 20
65.8375895288
 30
0.0
 10
13.5455584461
 20
65.8711811874
 30
0.0
  0
SPLINE
  5
479
100
AcDbEntity
  8
0
100
AcDbSpline
 62
7
  6
CONTINUOUS
 70
0
 71
3
 72
9
 73
5
 74
0
 42
0.0000001
 43
0.0000001
 44
0.0000000001
 40
0.0
 40
0.0
 40
0.0
 40
0.0
 40
0.2381422156
 40
1.0
 40
1.0
 40
1.0
 40
1.0
 10
17.048096849
 20
61.9273464915
 30
0.0
 10
17.0367931238
 20
61.9209513953
 30
0.0
 10
16.9875784297
 20
61.8971667405
 30
0.0
 10
16.9327413682
 20
61.8863211612
 30
0.0
 10
16.8912769102
 20
61.8836753779
 30
0.0
  0
SPLINE
  5
47A
100
AcDbEntity
  8
0
100
AcDbSpline
 62
7
  6
CONTINUOUS
 70
0
 71
3
 72
10
 73
6
 74
0
 42
0.0000001
 43
0.0000001
 44
0.0000000001
 40
0.0
 40
0.0
 40
0.0
 40
0.0
 40
0.2508773808
 40
0.4968210893
 40
1.0
 40
1.0
 40
1.0
 40
1.0
 10
16.8912769101
 20
61.8836753778
 30
0.0
 10
16.6804223606
 20
61.870221073
 30
0.0
 10
16.2602737939
 20
61.8729980289
 30
0.0
 10
15.4251905054
 20
61.9985827403
 30
0.0
 10
14.8253900357
 20
62.2143241357
 30
0.0
 10
14.4392156524
 20
62.3888150048
 30
0.0
  0
LINE
  5
47B
100
AcDbEntity
  8
0
100
AcDbLine
 62
7
  6
CONTINUOUS
 10
13.7962886592
 20
62.7066910275
 11
13.7826289082
 21
62.7138352121
  0
SPLINE
  5
47C
100
AcDbEntity
  8
0
100
AcDbSpline
 62
7
  6
CONTINUOUS
 70
0
 71
3
 72
13
 73
9
 74
0
 42
0.0000001
 43
0.0000001
 44
0.0000000001
 40
0.0
 40
0.0
 40
0.0
 40
0.0
 40
0.0957518295
 40
0.1990833535
 40
0.3113674582
 40
0.4331927868
 40
0.7030760886
 40
1.0
 40
1.0
 40
1.0
 40
1.0
 10
13.4072032175
 20
62.9905818904
 30
0.0
 10
13.3485760098
 20
63.0590995773
 30
0.0
 10
13.2438322204
 20
63.2168025397
 30
0.0
 10
13.1342212614
 20
63.4905245185
 30
0.0
 10
13.0686338035
 20
63.8029013405
 30
0.0
 10
13.0401240336
 20
64.2780582104
 30
0.0
 10
13.1257925333
 20
64.9267921738
 30
0.0
 10
13.296645952
 20
65.4357251358
 30
0.0
 10
13.4071973862
 20
65.6925797658
 30
0.0
  0
SPLINE
  5
47D
100
AcDbEntity
  8
0
100
AcDbSpline
 62
7
  6
CONTINUOUS
 70
0
 71
3
 72
9
 73
5
 74
0
 42
0.0000001
 43
0.0000001
 44
0.0000000001
 40
0.0
 40
0.0
 40
0.0
 40
0.0
 40
0.4479939141
 40
1.0
 40
1.0
 40
1.0
 40
1.0
 10
13.4071975941
 20
62.9905786437
 30
0.0
 10
13.4251064895
 20
62.9696490857
 30
0.0
 10
13.4699342642
 20
62.9271924748
 30
0.0
 10
13.5182053458
 20
62.8890703796
 30
0.0
 10
13.5455622886
 20
62.8689803747
 30
0.0
  0
SPLINE
  5
47E
100
AcDbEntity
  8
0
100
AcDbSpline
 62
7
  6
CONTINUOUS
 70
0
 71
3
 72
9
 73
5
 74
0
 42
0.0000001
 43
0.0000001
 44
0.0000000001
 40
0.0
 40
0.0
 40
0.0
 40
0.0
 40
0.2411901846
 40
1.0
 40
1.0
 40
1.0
 40
1.0
 10
13.5455709932
 20
62.8689742571
 30
0.0
 10
13.5586369513
 20
62.8593781794
 30
0.0
 10
13.6132161169
 20
62.8201508489
 30
0.0
 10
13.669073271
 20
62.7826788061
 30
0.0
 10
13.7123145826
 20
62.755634071
 30
0.0
  0
SPLINE
  5
47F
100
AcDbEntity
  8
0
100
AcDbSpline
 62
7
  6
CONTINUOUS
 70
0
 71
3
 72
9
 73
5
 74
0
 42
0.0000001
 43
0.0000001
 44
0.0000000001
 40
0.0
 40
0.0
 40
0.0
 40
0.0
 40
0.2653239027
 40
1.0
 40
1.0
 40
1.0
 40
1.0
 10
13.7123145826
 20
62.755634071
 30
0.0
 10
13.7184485582
 20
62.7517976531
 30
0.0
 10
13.7416413858
 20
62.7374584285
 30
0.0
 10
13.7651199911
 20
62.7235702002
 30
0.0
 10
13.7826289084
 20
62.7138352123
 30
0.0
  0
SPLINE
  5
480
100
AcDbEntity
  8
0
100
AcDbSpline
 62
7
  6
CONTINUOUS
 70
0
 71
3
 72
9
 73
5
 74
0
 42
0.0000001
 43
0.0000001
 44
0.0000000001
 40
0.0
 40
0.0
 40
0.0
 40
0.0
 40
0.5178050276
 40
1.0
 40
1.0
 40
1.0
 40
1.0
 10
28.6579289068
 20
36.4816673048
 30
0.0
 10
28.9577263416
 20
35.5933761575
 30
0.0
 10
29.4329378179
 20
33.8405306059
 30
0.0
 10
29.6591899512
 20
32.035838695
 30
0.0
 10
29.6926622824
 20
31.1634369648
 30
0.0
  0
LINE
  5
481
100
AcDbEntity
  8
0
100
AcDbLine
 62
7
  6
CONTINUOUS
 10
27.9013731608
 20
37.2255954808
 11
27.9147130278
 21
37.1868842841
  0
SPLINE
  5
482
100
AcDbEntity
  8
0
100
AcDbSpline
 62
7
  6
CONTINUOUS
 70
0
 71
3
 72
9
 73
5
 74
0
 42
0.0000001
 43
0.0000001
 44
0.0000000001
 40
0.0
 40
0.0
 40
0.0
 40
0.0
 40
0.251646014
 40
1.0
 40
1.0
 40
1.0
 40
1.0
 10
27.9147130278
 20
37.1868842841
 30
0.0
 10
27.9430261644
 20
37.1046544149
 30
0.0
 10
28.0550058567
 20
36.777704625
 30
0.0
 10
28.1643425494
 20
36.4498402268
 30
0.0
 10
28.2438166153
 20
36.2037260509
 30
0.0
  0
SPLINE
  5
483
100
AcDbEntity
  8
0
100
AcDbSpline
 62
7
  6
CONTINUOUS
 70
0
 71
3
 72
9
 73
5
 74
0
 42
0.0000001
 43
0.0000001
 44
0.0000000001
 40
0.0
 40
0.0
 40
0.0
 40
0.0
 40
0.7508044415
 40
1.0
 40
1.0
 40
1.0
 40
1.0
 10
27.5315015526
 20
38.1977127979
 30
0.0
 10
27.5679271863
 20
38.1364590552
 30
0.0
 10
27.6106724681
 20
38.0511753809
 30
0.0
 10
27.6444041194
 20
37.9624299424
 30
0.0
 10
27.6522287989
 20
37.9401081116
 30
0.0
  0
SPLINE
  5
484
100
AcDbEntity
  8
0
100
AcDbSpline
 62
7
  6
CONTINUOUS
 70
0
 71
3
 72
11
 73
7
 74
0
 42
0.0000001
 43
0.0000001
 44
0.0000000001
 40
0.0
 40
0.0
 40
0.0
 40
0.0
 40
0.2372445139
 40
0.5000012535
 40
0.7627573128
 40
1.0
 40
1.0
 40
1.0
 40
1.0
 10
34.8713116397
 20
35.5008899319
 30
0.0
 10
34.8713113502
 20
35.4429292138
 30
0.0
 10
34.8495665741
 20
35.3206969185
 30
0.0
 10
34.7737976749
 20
35.1489396597
 30
0.0
 10
34.6629374799
 20
34.9974428272
 30
0.0
 10
34.5679547191
 20
34.9174945499
 30
0.0
 10
34.5177597211
 20
34.8885142931
 30
0.0
  0
SPLINE
  5
485
100
AcDbEntity
  8
0
100
AcDbSpline
 62
7
  6
CONTINUOUS
 70
0
 71
3
 72
14
 73
10
 74
0
 42
0.0000001
 43
0.0000001
 44
0.0000000001
 40
0.0
 40
0.0
 40
0.0
 40
0.0
 40
0.297026267
 40
0.4432370792
 40
0.5808264926
 40
0.7057215493
 40
0.8158714651
 40
0.9122598953
 40
1.0
 40
1.0
 40
1.0
 40
1.0
 10
17.4827984554
 20
63.3926266154
 30
0.0
 10
17.5642724635
 20
63.2983393065
 30
0.0
 10
17.66615046
 20
63.1390405928
 30
0.0
 10
17.7539030853
 20
62.9111644322
 30
0.0
 10
17.7914123059
 20
62.7430670945
 30
0.0
 10
17.7987195131
 20
62.5859636024
 30
0.0
 10
17.774907244
 20
62.4475411144
 30
0.0
 10
17.7197970653
 20
62.3346745476
 30
0.0
 10
17.660798093
 20
62.2810525451
 30
0.0
 10
17.6289092538
 20
62.2626661927
 30
0.0
  0
SPLINE
  5
486
100
AcDbEntity
  8
0
100
AcDbSpline
 62
7
  6
CONTINUOUS
 70
0
 71
3
 72
17
 73
13
 74
0
 42
0.0000001
 43
0.0000001
 44
0.0000000001
 40
0.0
 40
0.0
 40
0.0
 40
0.0
 40
0.1311478689
 40
0.2739396355
 40
0.4211394594
 40
0.5646980504
 40
0.6972201335
 40
0.8134468878
 40
0.8650469655
 40
0.9126526827
 40
0.9571659951
 40
1.0
 40
1.0
 40
1.0
 40
1.0
 10
32.1047322684
 20
61.172440253
 30
0.0
 10
31.9464779961
 20
61.071711555
 30
0.0
 10
31.6415021951
 20
60.8202270159
 30
0.0
 10
31.2533954432
 20
60.3560366373
 30
0.0
 10
30.9376621069
 20
59.8190275075
 30
0.0
 10
30.7193608752
 20
59.2510313449
 30
0.0
 10
30.6152475049
 20
58.6963088031
 30
0.0
 10
30.6318452566
 20
58.2611794516
 30
0.0
 10
30.7165181794
 20
57.9634234124
 30
0.0
 10
30.8086766158
 20
57.7781021564
 30
0.0
 10
30.9306314986
 20
57.6263889432
 30
0.0
 10
31.0312669929
 20
57.5497879557
 30
0.0
 10
31.0843366538
 20
57.5191691649
 30
0.0
  0
SPLINE
  5
487
100
AcDbEntity
  8
0
100
AcDbSpline
 62
7
  6
CONTINUOUS
 70
0
 71
3
 72
14
 73
10
 74
0
 42
0.0000001
 43
0.0000001
 44
0.0000000001
 40
0.0
 40
0.0
 40
0.0
 40
0.0
 40
0.0890459397
 40
0.1857969055
 40
0.2952489011
 40
0.4187022973
 40
0.5547148754
 40
0.7000123145
 40
1.0
 40
1.0
 40
1.0
 40
1.0
 10
26.9133455427
 20
38.9208758333
 30
0.0
 10
26.9512392377
 20
38.9431662116
 30
0.0
 10
27.0404474765
 20
38.9738930099
 30
0.0
 10
27.1885226756
 20
38.9695349158
 30
0.0
 10
27.3451701357
 20
38.9197425279
 30
0.0
 10
27.5039503903
 20
38.8283147962
 30
0.0
 10
27.6581661031
 20
38.6998407506
 30
0.0
 10
27.8498299079
 20
38.4853742351
 30
0.0
 10
27.9629564142
 20
38.2929527001
 30
0.0
 10
28.0206340357
 20
38.1565356112
 30
0.0
  0
SPLINE
  5
488
100
AcDbEntity
  8
0
100
AcDbSpline
 62
7
  6
CONTINUOUS
 70
0
 71
3
 72
9
 73
5
 74
0
 42
0.0000001
 43
0.0000001
 44
0.0000000001
 40
0.0
 40
0.0
 40
0.0
 40
0.0
 40
0.4836272516
 40
1.0
 40
1.0
 40
1.0
 40
1.0
 10
14.3465638202
 20
66.2147543316
 30
0.0
 10
14.9131053174
 20
65.8356922148
 30
0.0
 10
16.0227983992
 20
64.9577055347
 30
0.0
 10
17.0069389686
 20
63.9433238438
 30
0.0
 10
17.4827984554
 20
63.3926266154
 30
0.0
  0
SPLINE
  5
489
100
AcDbEntity
  8
0
100
AcDbSpline
 62
7
  6
CONTINUOUS
 70
0
 71
3
 72
9
 73
5
 74
0
 42
0.0000001
 43
0.0000001
 44
0.0000000001
 40
0.0
 40
0.0
 40
0.0
 40
0.0
 40
0.2567311547
 40
1.0
 40
1.0
 40
1.0
 40
1.0
 10
37.3122930723
 20
27.6518436985
 30
0.0
 10
37.3172898791
 20
26.769879131
 30
0.0
 10
37.3864243505
 20
23.3351176398
 30
0.0
 10
37.6589971253
 20
19.9033616084
 30
0.0
 10
37.9923068417
 20
17.3717702843
 30
0.0
  0
SPLINE
  5
48A
100
AcDbEntity
  8
0
100
AcDbSpline
 62
7
  6
CONTINUOUS
 70
0
 71
3
 72
19
 73
15
 74
0
 42
0.0000001
 43
0.0000001
 44
0.0000000001
 40
0.0
 40
0.0
 40
0.0
 40
0.0
 40
0.1617173043
 40
0.3086373557
 40
0.3753407463
 40
0.4372759051
 40
0.5477669202
 40
0.5986003333
 40
0.6482234573
 40
0.6983405836
 40
0.7505715076
 40
0.8062283417
 40
0.866169097
 40
1.0
 40
1.0
 40
1.0
 40
1.0
 10
19.5034537558
 20
91.0376983762
 30
0.0
 10
19.4239442974
 20
91.2516591618
 30
0.0
 10
19.3033801194
 20
91.6725796217
 30
0.0
 10
19.2515586476
 20
92.2039476719
 30
0.0
 10
19.2837866379
 20
92.59274329
 30
0.0
 10
19.3564603062
 20
92.9227738441
 30
0.0
 10
19.4961940068
 20
93.2147870055
 30
0.0
 10
19.7050249256
 20
93.4302002152
 30
0.0
 10
19.8851331956
 20
93.5466204548
 30
0.0
 10
20.0890252282
 20
93.6189690619
 30
0.0
 10
20.3119447811
 20
93.6464792833
 30
0.0
 10
20.5495302535
 20
93.6290779739
 30
0.0
 10
20.8925702677
 20
93.5445970385
 30
0.0
 10
21.140731389
 20
93.4204401657
 30
0.0
 10
21.3004638282
 20
93.3196073468
 30
0.0
  0
SPLINE
  5
48B
100
AcDbEntity
  8
0
100
AcDbSpline
 62
7
  6
CONTINUOUS
 70
0
 71
3
 72
9
 73
5
 74
0
 42
0.0000001
 43
0.0000001
 44
0.0000000001
 40
0.0
 40
0.0
 40
0.0
 40
0.0
 40
0.2536965929
 40
1.0
 40
1.0
 40
1.0
 40
1.0
 10
13.5790057837
 20
65.8931619622
 30
0.0
 10
13.5831610054
 20
65.8955471759
 30
0.0
 10
13.5997481025
 20
65.9045765074
 30
0.0
 10
13.6172036665
 20
65.9120483656
 30
0.0
 10
13.6305800085
 20
65.9164890871
 30
0.0
  0
SPLINE
  5
48C
100
AcDbEntity
  8
0
100
AcDbSpline
 62
7
  6
CONTINUOUS
 70
0
 71
3
 72
9
 73
5
 74
0
 42
0.0000001
 43
0.0000001
 44
0.0000000001
 40
0.0
 40
0.0
 40
0.0
 40
0.0
 40
0.5082100153
 40
1.0
 40
1.0
 40
1.0
 40
1.0
 10
13.6305800085
 20
65.9164890871
 30
0.0
 10
13.655670242
 20
65.9248186244
 30
0.0
 10
13.70834053
 20
65.9336943564
 30
0.0
 10
13.7605952914
 20
65.9186828183
 30
0.0
 10
13.7826287427
 20
65.9056829997
 30
0.0
  0
SPLINE
  5
48D
100
AcDbEntity
  8
0
100
AcDbSpline
 62
7
  6
CONTINUOUS
 70
0
 71
3
 72
11
 73
7
 74
0
 42
0.0000001
 43
0.0000001
 44
0.0000000001
 40
0.0
 40
0.0
 40
0.0
 40
0.0
 40
0.2867904293
 40
0.5472540613
 40
0.78258428
 40
1.0
 40
1.0
 40
1.0
 40
1.0
 10
33.7719962449
 20
35.1505307761
 30
0.0
 10
33.7719962696
 20
35.1197231254
 30
0.0
 10
33.776243451
 20
35.0607971382
 30
0.0
 10
33.7970706369
 20
34.9787864195
 30
0.0
 10
33.8321990713
 20
34.9098796448
 30
0.0
 10
33.8655975516
 20
34.8734291686
 30
0.0
 10
33.8838625378
 20
34.8588737964
 30
0.0
  0
SPLINE
  5
48E
100
AcDbEntity
  8
0
100
AcDbSpline
 62
7
  6
CONTINUOUS
 70
0
 71
3
 72
9
 73
5
 74
0
 42
0.0000001
 43
0.0000001
 44
0.0000000001
 40
0.0
 40
0.0
 40
0.0
 40
0.0
 40
0.2456205334
 40
1.0
 40
1.0
 40
1.0
 40
1.0
 10
27.6046528292
 20
29.0239261295
 30
0.0
 10
27.6322852674
 20
29.613386463
 30
0.0
 10
27.7705804813
 20
32.0120152355
 30
0.0
 10
28.0099300799
 20
34.4046112936
 30
0.0
 10
28.2419072648
 20
36.2021140962
 30
0.0
  0
SPLINE
  5
48F
100
AcDbEntity
  8
0
100
AcDbSpline
 62
7
  6
CONTINUOUS
 70
0
 71
3
 72
11
 73
7
 74
0
 42
0.0000001
 43
0.0000001
 44
0.0000000001
 40
0.0
 40
0.0
 40
0.0
 40
0.0
 40
0.2168925424
 40
0.4505112965
 40
0.7103724687
 40
1.0
 40
1.0
 40
1.0
 40
1.0
 10
30.0315206649
 20
58.1380045556
 30
0.0
 10
30.0931961195
 20
58.0983145663
 30
0.0
 10
30.2077119287
 20
57.9931395112
 30
0.0
 10
30.3288430077
 20
57.7823206964
 30
0.0
 10
30.4009080569
 20
57.5252968313
 30
0.0
 10
30.4151281579
 20
57.338913114
 30
0.0
 10
30.4151282825
 20
57.2409748659
 30
0.0
  0
SPLINE
  5
490
100
AcDbEntity
  8
0
100
AcDbSpline
 62
7
  6
CONTINUOUS
 70
0
 71
3
 72
9
 73
5
 74
0
 42
0.0000001
 43
0.0000001
 44
0.0000000001
 40
0.0
 40
0.0
 40
0.0
 40
0.0
 40
0.4710384985
 40
1.0
 40
1.0
 40
1.0
 40
1.0
 10
25.2471794861
 20
30.1789339496
 30
0.0
 10
25.521133901
 20
29.9125375297
 30
0.0
 10
26.1905740714
 20
29.4363322453
 30
0.0
 10
26.9424554561
 20
29.1179583578
 30
0.0
 10
27.350627851
 20
28.9855473823
 30
0.0
  0
SPLINE
  5
491
100
AcDbEntity
  8
0
100
AcDbSpline
 62
7
  6
CONTINUOUS
 70
0
 71
3
 72
9
 73
5
 74
0
 42
0.0000001
 43
0.0000001
 44
0.0000000001
 40
0.0
 40
0.0
 40
0.0
 40
0.0
 40
0.2543596015
 40
1.0
 40
1.0
 40
1.0
 40
1.0
 10
25.7464007982
 20
37.619869424
 30
0.0
 10
25.668186589
 20
37.0138170661
 30
0.0
 10
25.3837652826
 20
34.6282636333
 30
0.0
 10
25.1930517545
 20
32.2313242515
 30
0.0
 10
25.109170241
 20
30.4419481445
 30
0.0
  0
SPLINE
  5
492
100
AcDbEntity
  8
0
100
AcDbSpline
 62
7
  6
CONTINUOUS
 70
0
 71
3
 72
10
 73
6
 74
0
 42
0.0000001
 43
0.0000001
 44
0.0000000001
 40
0.0
 40
0.0
 40
0.0
 40
0.0
 40
0.4844471098
 40
0.7389778582
 40
1.0
 40
1.0
 40
1.0
 40
1.0
 10
29.0575761426
 20
30.4541158486
 30
0.0
 10
29.1036437397
 20
31.3948483722
 30
0.0
 10
29.0221888682
 20
32.8404761622
 30
0.0
 10
28.6661304568
 20
34.7527513047
 30
0.0
 10
28.4000515978
 20
35.720896286
 30
0.0
 10
28.2438166153
 20
36.2037260509
 30
0.0
  0
SPLINE
  5
493
100
AcDbEntity
  8
0
100
AcDbSpline
 62
7
  6
CONTINUOUS
 70
0
 71
3
 72
11
 73
7
 74
0
 42
0.0000001
 43
0.0000001
 44
0.0000000001
 40
0.0
 40
0.0
 40
0.0
 40
0.0
 40
0.2397525653
 40
0.4833382354
 40
0.7360291901
 40
1.0
 40
1.0
 40
1.0
 40
1.0
 10
28.6209099847
 20
29.5171670213
 30
0.0
 10
28.6853795857
 20
29.572263721
 30
0.0
 10
28.8036371985
 20
29.6979273015
 30
0.0
 10
28.9381201864
 20
29.9230320989
 30
0.0
 10
29.0268416107
 20
30.178673871
 30
0.0
 10
29.0530028155
 20
30.3608563769
 30
0.0
 10
29.0575740915
 20
30.4541164293
 30
0.0
  0
SPLINE
  5
494
100
AcDbEntity
  8
0
100
AcDbSpline
 62
7
  6
CONTINUOUS
 70
0
 71
3
 72
9
 73
5
 74
0
 42
0.0000001
 43
0.0000001
 44
0.0000000001
 40
0.0
 40
0.0
 40
0.0
 40
0.0
 40
0.2458366066
 40
1.0
 40
1.0
 40
1.0
 40
1.0
 10
21.3829515625
 20
93.0297255906
 30
0.0
 10
21.3778255048
 20
93.0232510903
 30
0.0
 10
21.3575069611
 20
92.9964951621
 30
0.0
 10
21.3393264896
 20
92.9681296023
 30
0.0
 10
21.326821089
 20
92.9460976497
 30
0.0
  0
SPLINE
  5
495
100
AcDbEntity
  8
0
100
AcDbSpline
 62
7
  6
CONTINUOUS
 70
0
 71
3
 72
9
 73
5
 74
0
 42
0.0000001
 43
0.0000001
 44
0.0000000001
 40
0.0
 40
0.0
 40
0.0
 40
0.0
 40
0.2270965714
 40
1.0
 40
1.0
 40
1.0
 40
1.0
 10
21.326821089
 20
92.9460976497
 30
0.0
 10
21.3071130667
 20
92.9113761542
 30
0.0
 10
21.2333079995
 20
92.7510470245
 30
0.0
 10
21.2099509044
 20
92.5712066676
 30
0.0
 10
21.2099509044
 20
92.4353261372
 30
0.0
  0
SPLINE
  5
496
100
AcDbEntity
  8
0
100
AcDbSpline
 62
7
  6
CONTINUOUS
 70
0
 71
3
 72
9
 73
5
 74
0
 42
0.0000001
 43
0.0000001
 44
0.0000000001
 40
0.0
 40
0.0
 40
0.0
 40
0.0
 40
0.2389692241
 40
1.0
 40
1.0
 40
1.0
 40
1.0
 10
26.5933170135
 20
38.7299889412
 30
0.0
 10
26.6638685867
 20
38.6808373957
 30
0.0
 10
26.9642607848
 20
38.4825896771
 30
0.0
 10
27.2830454867
 20
38.3128341341
 30
0.0
 10
27.5315014984
 20
38.1977127876
 30
0.0
  0
SPLINE
  5
497
100
AcDbEntity
  8
0
100
AcDbSpline
 62
7
  6
CONTINUOUS
 70
0
 71
3
 72
13
 73
9
 74
0
 42
0.0000001
 43
0.0000001
 44
0.0000000001
 40
0.0
 40
0.0
 40
0.0
 40
0.0
 40
0.3005920387
 40
0.5729861361
 40
0.6939034939
 40
0.8038032343
 40
0.9045676276
 40
1.0
 40
1.0
 40
1.0
 40
1.0
 10
27.5315015526
 20
38.1977127979
 30
0.0
 10
27.4719849183
 20
38.2977951198
 30
0.0
 10
27.335874303
 20
38.4759304564
 30
0.0
 10
27.123875629
 20
38.6470217232
 30
0.0
 10
26.9469075929
 20
38.7308735746
 30
0.0
 10
26.8215549619
 20
38.7631022749
 30
0.0
 10
26.7017440426
 20
38.7650728246
 30
0.0
 10
26.6271442117
 20
38.7449009127
 30
0.0
 10
26.5933170836
 20
38.7299889441
 30
0.0
  0
SPLINE
  5
498
100
AcDbEntity
  8
0
100
AcDbSpline
 62
7
  6
CONTINUOUS
 70
0
 71
3
 72
17
 73
13
 74
0
 42
0.0000001
 43
0.0000001
 44
0.0000000001
 40
0.0
 40
0.0
 40
0.0
 40
0.0
 40
0.1285549585
 40
0.2702535569
 40
0.4176870245
 40
0.5623470482
 40
0.6962450108
 40
0.813526089
 40
0.8653896456
 40
0.9130455869
 40
0.9574315559
 40
1.0
 40
1.0
 40
1.0
 40
1.0
 10
30.2749472656
 20
62.567388543
 30
0.0
 10
30.0909212361
 20
62.4592709695
 30
0.0
 10
29.7339734578
 20
62.1800877528
 30
0.0
 10
29.2778118037
 20
61.6534755997
 30
0.0
 10
28.9025956702
 20
61.0347720943
 30
0.0
 10
28.6395114362
 20
60.3743978813
 30
0.0
 10
28.509659126
 20
59.7262914304
 30
0.0
 10
28.522587353
 20
59.2164719906
 30
0.0
 10
28.6174493716
 20
58.8675046641
 30
0.0
 10
28.7226783572
 20
58.6511368387
 30
0.0
 10
28.863147026
 20
58.4747712385
 30
0.0
 10
28.9798273883
 20
58.3865936616
 30
0.0
 10
29.0412963744
 20
58.3517146607
 30
0.0
  0
SPLINE
  5
499
100
AcDbEntity
  8
0
100
AcDbSpline
 62
7
  6
CONTINUOUS
 70
0
 71
3
 72
9
 73
5
 74
0
 42
0.0000001
 43
0.0000001
 44
0.0000000001
 40
0.0
 40
0.0
 40
0.0
 40
0.0
 40
0.2294370273
 40
1.0
 40
1.0
 40
1.0
 40
1.0
 10
31.6563139454
 20
63.2187601049
 30
0.0
 10
31.6011430474
 20
63.2134300842
 30
0.0
 10
31.362273468
 20
63.1733852063
 30
0.0
 10
31.1363566042
 20
63.0734772075
 30
0.0
 10
30.9758535592
 20
62.9791796789
 30
0.0
  0
SPLINE
  5
49A
100
AcDbEntity
  8
0
100
AcDbSpline
 62
7
  6
CONTINUOUS
 70
0
 71
3
 72
15
 73
11
 74
0
 42
0.0000001
 43
0.0000001
 44
0.0000000001
 40
0.0
 40
0.0
 40
0.0
 40
0.0
 40
0.0869252175
 40
0.1863952293
 40
0.3037887541
 40
0.4375985698
 40
0.5820955924
 40
0.7293795763
 40
0.8712014648
 40
1.0
 40
1.0
 40
1.0
 40
1.0
 10
33.6760190413
 20
34.7778065422
 30
0.0
 10
33.6435410807
 20
34.7965266864
 30
0.0
 10
33.5620020274
 20
34.8175469919
 30
0.0
 10
33.4306930864
 20
34.7912284257
 30
0.0
 10
33.2965690024
 20
34.7179571949
 30
0.0
 10
33.1679440878
 20
34.6040651722
 30
0.0
 10
33.0544244936
 20
34.4587046102
 30
0.0
 10
32.9649640212
 20
34.2934738711
 30
0.0
 10
32.9069964396
 20
34.1219306146
 30
0.0
 10
32.8914208412
 20
34.0050969894
 30
0.0
 10
32.891420895
 20
33.9495521461
 30
0.0
  0
SPLINE
  5
49B
100
AcDbEntity
  8
0
100
AcDbSpline
 62
7
  6
CONTINUOUS
 70
0
 71
3
 72
11
 73
7
 74
0
 42
0.0000001
 43
0.0000001
 44
0.0000000001
 40
0.0
 40
0.0
 40
0.0
 40
0.0
 40
0.2177442247
 40
0.450881766
 40
0.7104588048
 40
1.0
 40
1.0
 40
1.0
 40
1.0
 10
34.7470274612
 20
33.8975746336
 30
0.0
 10
34.7668155765
 20
33.8861502077
 30
0.0
 10
34.8038766429
 20
33.8550648064
 30
0.0
 10
34.8433005488
 20
33.790576106
 30
0.0
 10
34.8666724509
 20
33.7111294357
 30
0.0
 10
34.8713116397
 20
33.6533153345
 30
0.0
 10
34.8713116397
 20
33.6229320192
 30
0.0
  0
SPLINE
  5
49C
100
AcDbEntity
  8
0
100
AcDbSpline
 62
7
  6
CONTINUOUS
 70
0
 71
3
 72
17
 73
13
 74
0
 42
0.0000001
 43
0.0000001
 44
0.0000000001
 40
0.0
 40
0.0
 40
0.0
 40
0.0
 40
0.1309276844
 40
0.2737326252
 40
0.4211200251
 40
0.5649580111
 40
0.6977445884
 40
0.8140950146
 40
0.8656602662
 40
0.9131477596
 40
0.9574533071
 40
1.0
 40
1.0
 40
1.0
 40
1.0
 10
30.1970690211
 20
62.2743580776
 30
0.0
 10
30.0400306979
 20
62.1727251658
 30
0.0
 10
29.7374593513
 20
61.9195809193
 30
0.0
 10
29.3528175828
 20
61.4535140554
 30
0.0
 10
29.039836183
 20
60.9150055405
 30
0.0
 10
28.8234199999
 20
60.345989916
 30
0.0
 10
28.7201744905
 20
59.790880825
 30
0.0
 10
28.736498035
 20
59.3558320222
 30
0.0
 10
28.8204154959
 20
59.0582982934
 30
0.0
 10
28.911727737
 20
58.8734123407
 30
0.0
 10
29.0326087175
 20
58.7222505889
 30
0.0
 10
29.132479603
 20
58.6460391702
 30
0.0
 10
29.1851260532
 20
58.6156522412
 30
0.0
  0
SPLINE
  5
49D
100
AcDbEntity
  8
0
100
AcDbSpline
 62
7
  6
CONTINUOUS
 70
0
 71
3
 72
15
 73
11
 74
0
 42
0.0000001
 43
0.0000001
 44
0.0000000001
 40
0.0
 40
0.0
 40
0.0
 40
0.0
 40
0.0878902535
 40
0.1841873594
 40
0.2939289385
 40
0.4182197883
 40
0.5552232283
 40
0.7011415771
 40
0.8512330036
 40
1.0
 40
1.0
 40
1.0
 40
1.0
 10
22.7877291789
 20
90.1924429006
 30
0.0
 10
22.7251755508
 20
90.1563272807
 30
0.0
 10
22.5767733139
 20
90.1081141463
 30
0.0
 10
22.3315202015
 20
90.1225970914
 30
0.0
 10
22.0731571422
 20
90.2144486391
 30
0.0
 10
21.8128229738
 20
90.3767261916
 30
0.0
 10
21.5623685643
 20
90.6007732124
 30
0.0
 10
21.3339922334
 20
90.8752186139
 30
0.0
 10
21.1395926663
 20
91.1859611818
 30
0.0
 10
21.0374920864
 20
91.4103325964
 30
0.0
 10
20.9949043372
 20
91.524936599
 30
0.0
  0
SPLINE
  5
49E
100
AcDbEntity
  8
0
100
AcDbSpline
 62
7
  6
CONTINUOUS
 70
0
 71
3
 72
21
 73
17
 74
0
 42
0.0000001
 43
0.0000001
 44
0.0000000001
 40
0.0
 40
0.0
 40
0.0
 40
0.0
 40
0.063846808
 40
0.1220794703
 40
0.1749673765
 40
0.2236001912
 40
0.2698891837
 40
0.3163007096
 40
0.365271379
 40
0.4186388622
 40
0.4774058098
 40
0.541793111
 40
0.6114282119
 40
0.6854850182
 40
0.8418356086
 40
1.0
 40
1.0
 40
1.0
 40
1.0
 10
23.1523614111
 20
90.1120196919
 30
0.0
 10
23.1572181349
 20
89.9889131803
 30
0.0
 10
23.1508941247
 20
89.7524092163
 30
0.0
 10
23.0868748823
 20
89.4191196708
 30
0.0
 10
22.9690368669
 20
89.131576742
 30
0.0
 10
22.7989379204
 20
88.8985545598
 30
0.0
 10
22.5801549997
 20
88.7292138629
 30
0.0
 10
22.3206741138
 20
88.6314878327
 30
0.0
 10
22.0314081371
 20
88.6077406114
 30
0.0
 10
21.7219169681
 20
88.6562854078
 30
0.0
 10
21.4003854431
 20
88.7739513082
 30
0.0
 10
21.0747697347
 20
88.9565906019
 30
0.0
 10
20.7534371836
 20
89.1991431309
 30
0.0
 10
20.3348450207
 20
89.600720506
 30
0.0
 10
19.8800429713
 20
90.2033728507
 30
0.0
 10
19.6097662719
 20
90.7516104732
 30
0.0
 10
19.5034537558
 20
91.0376983762
 30
0.0
  0
SPLINE
  5
49F
100
AcDbEntity
  8
0
100
AcDbSpline
 62
7
  6
CONTINUOUS
 70
0
 71
3
 72
9
 73
5
 74
0
 42
0.0000001
 43
0.0000001
 44
0.0000000001
 40
0.0
 40
0.0
 40
0.0
 40
0.0
 40
0.4779325161
 40
1.0
 40
1.0
 40
1.0
 40
1.0
 10
21.2099509044
 20
92.4353261372
 30
0.0
 10
21.2099509044
 20
92.3202246226
 30
0.0
 10
21.2370797518
 20
92.0791688109
 30
0.0
 10
21.3046522286
 20
91.8469103791
 30
0.0
 10
21.3484485106
 20
91.7290542044
 30
0.0
  0
SPLINE
  5
4A0
100
AcDbEntity
  8
0
100
AcDbSpline
 62
7
  6
CONTINUOUS
 70
0
 71
3
 72
13
 73
9
 74
0
 42
0.0000001
 43
0.0000001
 44
0.0000000001
 40
0.0
 40
0.0
 40
0.0
 40
0.0
 40
0.2852388585
 40
0.5618032337
 40
0.688522219
 40
0.8040674121
 40
0.9075527132
 40
1.0
 40
1.0
 40
1.0
 40
1.0
 10
21.3484485106
 20
91.7290542044
 30
0.0
 10
21.4221264054
 20
91.5307863505
 30
0.0
 10
21.615152716
 20
91.1570332558
 30
0.0
 10
21.9473379482
 20
90.7621513254
 30
0.0
 10
22.2507888697
 20
90.523576984
 30
0.0
 10
22.4761888171
 20
90.3985629572
 30
0.0
 10
22.697634793
 20
90.3272140895
 30
0.0
 10
22.8449113294
 20
90.3180739323
 30
0.0
 10
22.9131315119
 20
90.3248209559
 30
0.0
  0
SPLINE
  5
4A1
100
AcDbEntity
  8
0
100
AcDbSpline
 62
7
  6
CONTINUOUS
 70
0
 71
3
 72
13
 73
9
 74
0
 42
0.0000001
 43
0.0000001
 44
0.0000000001
 40
0.0
 40
0.0
 40
0.0
 40
0.0
 40
0.304708672
 40
0.5804928161
 40
0.7009573032
 40
0.8085063018
 40
0.9062160166
 40
1.0
 40
1.0
 40
1.0
 40
1.0
 10
17.0480968571
 20
62.8560495571
 30
0.0
 10
17.1029389178
 20
62.7688851615
 30
0.0
 10
17.1848281123
 20
62.5879160762
 30
0.0
 10
17.2263932527
 20
62.3511907644
 30
0.0
 10
17.2136405429
 20
62.1805232523
 30
0.0
 10
17.1828049303
 20
62.0737502946
 30
0.0
 10
17.1288935776
 20
61.9865023052
 30
0.0
 10
17.0778172887
 20
61.9444977867
 30
0.0
 10
17.0503699616
 20
61.9286458731
 30
0.0
  0
SPLINE
  5
4A2
100
AcDbEntity
  8
0
100
AcDbSpline
 62
7
  6
CONTINUOUS
 70
0
 71
3
 72
13
 73
9
 74
0
 42
0.0000001
 43
0.0000001
 44
0.0000000001
 40
0.0
 40
0.0
 40
0.0
 40
0.0
 40
0.3068297901
 40
0.576849543
 40
0.6957628212
 40
0.8042478855
 40
0.9044534788
 40
1.0
 40
1.0
 40
1.0
 40
1.0
 10
20.9949043372
 20
91.524936599
 30
0.0
 10
20.9392675231
 20
91.6746556179
 30
0.0
 10
20.8602122007
 20
91.966583237
 30
0.0
 10
20.8468619888
 20
92.3335787044
 30
0.0
 10
20.9008957141
 20
92.588134222
 30
0.0
 10
20.9683795112
 20
92.7461702274
 30
0.0
 10
21.0633210847
 20
92.8749189816
 30
0.0
 10
21.1447209223
 20
92.9387584067
 30
0.0
 10
21.1877947008
 20
92.9636272474
 30
0.0
  0
SPLINE
  5
4A3
100
AcDbEntity
  8
0
100
AcDbSpline
 62
7
  6
CONTINUOUS
 70
0
 71
3
 72
9
 73
5
 74
0
 42
0.0000001
 43
0.0000001
 44
0.0000000001
 40
0.0
 40
0.0
 40
0.0
 40
0.0
 40
0.2475999745
 40
1.0
 40
1.0
 40
1.0
 40
1.0
 10
13.7190339241
 20
62.7718323946
 30
0.0
 10
13.7096288674
 20
62.7804080041
 30
0.0
 10
13.6722839594
 20
62.8157401781
 30
0.0
 10
13.6375300099
 20
62.8537964493
 30
0.0
 10
13.6129419234
 20
62.8836514519
 30
0.0
  0
SPLINE
  5
4A4
100
AcDbEntity
  8
0
100
AcDbSpline
 62
7
  6
CONTINUOUS
 70
0
 71
3
 72
9
 73
5
 74
0
 42
0.0000001
 43
0.0000001
 44
0.0000000001
 40
0.0
 40
0.0
 40
0.0
 40
0.0
 40
0.2464184672
 40
1.0
 40
1.0
 40
1.0
 40
1.0
 10
13.6129419234
 20
62.8836514519
 30
0.0
 10
13.6041615584
 20
62.894312624
 30
0.0
 10
13.5693195698
 20
62.9382237783
 30
0.0
 10
13.5376484187
 20
62.9846341175
 30
0.0
 10
13.5155901081
 20
63.0206537567
 30
0.0
  0
SPLINE
  5
4A5
100
AcDbEntity
  8
0
100
AcDbSpline
 62
7
  6
CONTINUOUS
 70
0
 71
3
 72
12
 73
8
 74
0
 42
0.0000001
 43
0.0000001
 44
0.0000000001
 40
0.0
 40
0.0
 40
0.0
 40
0.0
 40
0.2030007619
 40
0.3172810248
 40
0.4401183588
 40
0.7086237156
 40
1.0
 40
1.0
 40
1.0
 40
1.0
 10
13.5155901081
 20
63.0206537567
 30
0.0
 10
13.420837955
 20
63.1753772272
 30
0.0
 10
13.3240758974
 20
63.4496424349
 30
0.0
 10
13.273608717
 20
63.8399915402
 30
0.0
 10
13.2720480584
 20
64.2931340313
 30
0.0
 10
13.3722798079
 20
64.8992463026
 30
0.0
 10
13.5392509014
 20
65.3735718586
 30
0.0
 10
13.6441901683
 20
65.6119090019
 30
0.0
  0
SPLINE
  5
4A6
100
AcDbEntity
  8
0
100
AcDbSpline
 62
7
  6
CONTINUOUS
 70
0
 71
3
 72
11
 73
7
 74
0
 42
0.0000001
 43
0.0000001
 44
0.0000000001
 40
0.0
 40
0.0
 40
0.0
 40
0.0
 40
0.2623221728
 40
0.5170169415
 40
0.7629917454
 40
1.0
 40
1.0
 40
1.0
 40
1.0
 10
16.8912768903
 20
63.0511135188
 30
0.0
 10
16.6787699873
 20
63.2577812706
 30
0.0
 10
16.2642246737
 20
63.6694892723
 30
0.0
 10
15.6517739638
 20
64.2763687945
 30
0.0
 10
15.0500120692
 20
64.8532960635
 30
0.0
 10
14.6435588387
 20
65.2178719321
 30
0.0
 10
14.4392301466
 20
65.3910188455
 30
0.0
  0
SPLINE
  5
4A7
100
AcDbEntity
  8
0
100
AcDbSpline
 62
7
  6
CONTINUOUS
 70
0
 71
3
 72
9
 73
5
 74
0
 42
0.0000001
 43
0.0000001
 44
0.0000000001
 40
0.0
 40
0.0
 40
0.0
 40
0.0
 40
0.5021323686
 40
1.0
 40
1.0
 40
1.0
 40
1.0
 10
17.0480968571
 20
62.8560495571
 30
0.0
 10
17.0257447203
 20
62.8915982276
 30
0.0
 10
16.9791960304
 20
62.9614398215
 30
0.0
 10
16.9211247276
 20
63.0220858243
 30
0.0
 10
16.8912768903
 20
63.0511135187
 30
0.0
  0
SPLINE
  5
4A8
100
AcDbEntity
  8
0
100
AcDbSpline
 62
7
  6
CONTINUOUS
 70
0
 71
3
 72
9
 73
5
 74
0
 42
0.0000001
 43
0.0000001
 44
0.0000000001
 40
0.0
 40
0.0
 40
0.0
 40
0.0
 40
0.4713232867
 40
1.0
 40
1.0
 40
1.0
 40
1.0
 10
17.0480817424
 20
61.9273286735
 30
0.0
 10
17.027894185
 20
62.0721060191
 30
0.0
 10
17.0107254621
 20
62.3829352574
 30
0.0
 10
17.0301007562
 20
62.6930601993
 30
0.0
 10
17.0480817249
 20
62.8560371417
 30
0.0
  0
SPLINE
  5
4A9
100
AcDbEntity
  8
0
100
AcDbSpline
 62
7
  6
CONTINUOUS
 70
0
 71
3
 72
8
 73
4
 74
0
 42
0.0000001
 43
0.0000001
 44
0.0000000001
 40
0.0
 40
0.0
 40
0.0
 40
0.0
 40
1.0
 40
1.0
 40
1.0
 40
1.0
 10
13.7962884932
 20
65.8970546194
 30
0.0
 10
13.7919343579
 20
65.9002241146
 30
0.0
 10
13.7872684695
 20
65.902948567
 30
0.0
 10
13.782628742
 20
65.9056829999
 30
0.0
  0
SPLINE
  5
4AA
100
AcDbEntity
  8
0
100
AcDbSpline
 62
7
  6
CONTINUOUS
 70
0
 71
3
 72
10
 73
6
 74
0
 42
0.0000001
 43
0.0000001
 44
0.0000000001
 40
0.0
 40
0.0
 40
0.0
 40
0.0
 40
0.3834891673
 40
0.7044611989
 40
1.0
 40
1.0
 40
1.0
 40
1.0
 10
56.0490724573
 20
43.4819907537
 30
0.0
 10
56.0490722799
 20
43.561769338
 30
0.0
 10
56.0312728177
 20
43.70998544
 30
0.0
 10
55.9260638108
 20
43.8986073505
 30
0.0
 10
55.8060947097
 20
43.963456914
 30
0.0
 10
55.7461383835
 20
43.9770683367
 30
0.0
  0
SPLINE
  5
4AB
100
AcDbEntity
  8
0
100
AcDbSpline
 62
7
  6
CONTINUOUS
 70
0
 71
3
 72
10
 73
6
 74
0
 42
0.0000001
 43
0.0000001
 44
0.0000000001
 40
0.0
 40
0.0
 40
0.0
 40
0.0
 40
0.3510507152
 40
0.6915721011
 40
1.0
 40
1.0
 40
1.0
 40
1.0
 10
55.7461383835
 20
42.637117124
 30
0.0
 10
55.8085501025
 20
42.7233523911
 30
0.0
 10
55.9158014584
 20
42.9052413338
 30
0.0
 10
56.0204737652
 20
43.1914492573
 30
0.0
 10
56.0490722624
 20
43.3884647948
 30
0.0
 10
56.0490724573
 20
43.4819907537
 30
0.0
  0
SPLINE
  5
4AC
100
AcDbEntity
  8
0
100
AcDbSpline
 62
7
  6
CONTINUOUS
 70
0
 71
3
 72
10
 73
6
 74
0
 42
0.0000001
 43
0.0000001
 44
0.0000000001
 40
0.0
 40
0.0
 40
0.0
 40
0.0
 40
0.3269576485
 40
0.6608394169
 40
1.0
 40
1.0
 40
1.0
 40
1.0
 10
53.4100197068
 20
39.8999375295
 30
0.0
 10
53.6891870153
 20
40.1759577025
 30
0.0
 10
54.2370918076
 20
40.7506143351
 30
0.0
 10
55.0164639847
 20
41.6647123953
 30
0.0
 10
55.5073769257
 20
42.3072176965
 30
0.0
 10
55.7461383835
 20
42.637117124
 30
0.0
  0
SPLINE
  5
4AD
100
AcDbEntity
  8
0
100
AcDbSpline
 62
7
  6
CONTINUOUS
 70
0
 71
3
 72
10
 73
6
 74
0
 42
0.0000001
 43
0.0000001
 44
0.0000000001
 40
0.0
 40
0.0
 40
0.0
 40
0.0
 40
0.3177483786
 40
0.6517367782
 40
1.0
 40
1.0
 40
1.0
 40
1.0
 10
53.2913677766
 20
39.8077575553
 30
0.0
 10
53.3051811157
 20
39.8157364451
 30
0.0
 10
53.332700583
 20
39.8335411005
 30
0.0
 10
53.3723275364
 20
39.8644504743
 30
0.0
 10
53.3975847654
 20
39.8876466305
 30
0.0
 10
53.4100197068
 20
39.8999375295
 30
0.0
  0
SPLINE
  5
4AE
100
AcDbEntity
  8
0
100
AcDbSpline
 62
7
  6
CONTINUOUS
 70
0
 71
3
 72
11
 73
7
 74
0
 42
0.0000001
 43
0.0000001
 44
0.0000000001
 40
0.0
 40
0.0
 40
0.0
 40
0.0
 40
0.2773276173
 40
0.5000030365
 40
0.7226764415
 40
1.0
 40
1.0
 40
1.0
 40
1.0
 10
52.2307120206
 20
39.6036425329
 30
0.0
 10
52.2307122648
 20
39.5555550402
 30
0.0
 10
52.2424462655
 20
39.4667189117
 30
0.0
 10
52.3267612315
 20
39.3617555949
 30
0.0
 10
52.459818559
 20
39.341214936
 30
0.0
 10
52.542619374
 20
39.375470326
 30
0.0
 10
52.5842639391
 20
39.3995134013
 30
0.0
  0
SPLINE
  5
4AF
100
AcDbEntity
  8
0
100
AcDbSpline
 62
7
  6
CONTINUOUS
 70
0
 71
3
 72
11
 73
7
 74
0
 42
0.0000001
 43
0.0000001
 44
0.0000000001
 40
0.0
 40
0.0
 40
0.0
 40
0.0
 40
0.2392833701
 40
0.4999983819
 40
0.7607142602
 40
1.0
 40
1.0
 40
1.0
 40
1.0
 10
52.5842639391
 20
43.5636757298
 30
0.0
 10
52.5336376943
 20
43.5344464853
 30
0.0
 10
52.438741115
 20
43.4543481204
 30
0.0
 10
52.3283185903
 20
43.3031984986
 30
0.0
 10
52.2526310975
 20
43.1319940481
 30
0.0
 10
52.2307123176
 20
43.0097612596
 30
0.0
 10
52.2307120206
 20
42.9513024444
 30
0.0
  0
SPLINE
  5
4B0
100
AcDbEntity
  8
0
100
AcDbSpline
 62
7
  6
CONTINUOUS
 70
0
 71
3
 72
10
 73
6
 74
0
 42
0.0000001
 43
0.0000001
 44
0.0000000001
 40
0.0
 40
0.0
 40
0.0
 40
0.0
 40
0.3121055447
 40
0.6453217575
 40
1.0
 40
1.0
 40
1.0
 40
1.0
 10
53.4100197068
 20
44.0167465395
 30
0.0
 10
53.3969414623
 20
44.0145719239
 30
0.0
 10
53.3702102977
 20
44.0080588297
 30
0.0
 10
53.3304496724
 20
43.9928617797
 30
0.0
 10
53.3044170935
 20
43.9794502734
 30
0.0
 10
53.2913677766
 20
43.9719198838
 30
0.0
  0
SPLINE
  5
4B1
100
AcDbEntity
  8
0
100
AcDbSpline
 62
7
  6
CONTINUOUS
 70
0
 71
3
 72
10
 73
6
 74
0
 42
0.0000001
 43
0.0000001
 44
0.0000000001
 40
0.0
 40
0.0
 40
0.0
 40
0.0
 40
0.3195164946
 40
0.6518687364
 40
1.0
 40
1.0
 40
1.0
 40
1.0
 10
55.7461383835
 20
43.9770683367
 30
0.0
 10
55.5021076408
 20
44.0324676473
 30
0.0
 10
54.9952802779
 20
44.1088441132
 30
0.0
 10
54.2101941221
 20
44.1199234174
 30
0.0
 10
53.6789911332
 20
44.0613869044
 30
0.0
 10
53.4100197068
 20
44.0167465395
 30
0.0
  0
SPLINE
  5
4B2
100
AcDbEntity
  8
0
100
AcDbSpline
 62
7
  6
CONTINUOUS
 70
0
 71
3
 72
10
 73
6
 74
0
 42
0.0000001
 43
0.0000001
 44
0.0000000001
 40
0.0
 40
0.0
 40
0.0
 40
0.0
 40
0.3199067767
 40
0.6536632136
 40
1.0
 40
1.0
 40
1.0
 40
1.0
 10
52.3230653295
 20
39.8768962725
 30
0.0
 10
52.334456124
 20
39.8834744938
 30
0.0
 10
52.3571783562
 20
39.8978915088
 30
0.0
 10
52.3901870957
 20
39.9224608871
 30
0.0
 10
52.4114372521
 20
39.9406759963
 30
0.0
 10
52.4219509668
 20
39.9502809748
 30
0.0
  0
SPLINE
  5
4B3
100
AcDbEntity
  8
0
100
AcDbSpline
 62
7
  6
CONTINUOUS
 70
0
 71
3
 72
11
 73
7
 74
0
 42
0.0000001
 43
0.0000001
 44
0.0000000001
 40
0.0
 40
0.0
 40
0.0
 40
0.0
 40
0.2773282194
 40
0.5000037319
 40
0.7226767691
 40
1.0
 40
1.0
 40
1.0
 40
1.0
 10
51.2624095739
 20
39.6727836453
 30
0.0
 10
51.2624098182
 20
39.6246958319
 30
0.0
 10
51.2741430561
 20
39.535859147
 30
0.0
 10
51.3584578676
 20
39.4308947123
 30
0.0
 10
51.4915156666
 20
39.410353464
 30
0.0
 10
51.5743167897
 20
39.444608964
 30
0.0
 10
51.6159614929
 20
39.468652119
 30
0.0
  0
SPLINE
  5
4B4
100
AcDbEntity
  8
0
100
AcDbSpline
 62
7
  6
CONTINUOUS
 70
0
 71
3
 72
11
 73
7
 74
0
 42
0.0000001
 43
0.0000001
 44
0.0000000001
 40
0.0
 40
0.0
 40
0.0
 40
0.0
 40
0.2392835623
 40
0.4999987525
 40
0.7607146107
 40
1.0
 40
1.0
 40
1.0
 40
1.0
 10
51.6159614929
 20
44.3676666217
 30
0.0
 10
51.5653350439
 20
44.3384372593
 30
0.0
 10
51.4704381191
 20
44.2583385054
 30
0.0
 10
51.3600154305
 20
44.1071881762
 30
0.0
 10
51.2843278585
 20
43.9359830569
 30
0.0
 10
51.2624098708
 20
43.8137498595
 30
0.0
 10
51.2624095739
 20
43.7552909409
 30
0.0
  0
SPLINE
  5
4B5
100
AcDbEntity
  8
0
100
AcDbSpline
 62
7
  6
CONTINUOUS
 70
0
 71
3
 72
10
 73
6
 74
0
 42
0.0000001
 43
0.0000001
 44
0.0000000001
 40
0.0
 40
0.0
 40
0.0
 40
0.0
 40
0.3158863251
 40
0.6492033257
 40
1.0
 40
1.0
 40
1.0
 40
1.0
 10
52.4219509668
 20
44.8167086899
 30
0.0
 10
52.410968074
 20
44.8140604173
 30
0.0
 10
52.3886945237
 20
44.8073201284
 30
0.0
 10
52.3556233798
 20
44.793578254
 30
0.0
 10
52.3339314401
 20
44.7821825894
 30
0.0
 10
52.3230653295
 20
44.7759107752
 30
0.0
  0
SPLINE
  5
4B6
100
AcDbEntity
  8
0
100
AcDbSpline
 62
7
  6
CONTINUOUS
 70
0
 71
3
 72
10
 73
6
 74
0
 42
0.0000001
 43
0.0000001
 44
0.0000000001
 40
0.0
 40
0.0
 40
0.0
 40
0.0
 40
0.315555627
 40
0.6475248222
 40
1.0
 40
1.0
 40
1.0
 40
1.0
 10
55.3575909563
 20
44.8791527192
 30
0.0
 10
55.0545789857
 20
44.9509063457
 30
0.0
 10
54.4180401314
 20
45.0407615082
 30
0.0
 10
53.427917071
 20
45.0152015225
 30
0.0
 10
52.760097212
 20
44.8981872978
 30
0.0
 10
52.4219509668
 20
44.8167086899
 30
0.0
  0
SPLINE
  5
4B7
100
AcDbEntity
  8
0
100
AcDbSpline
 62
7
  6
CONTINUOUS
 70
0
 71
3
 72
10
 73
6
 74
0
 42
0.0000001
 43
0.0000001
 44
0.0000000001
 40
0.0
 40
0.0
 40
0.0
 40
0.0
 40
0.3834627647
 40
0.7046811377
 40
1.0
 40
1.0
 40
1.0
 40
1.0
 10
55.7171622447
 20
44.2859745944
 30
0.0
 10
55.7171622447
 20
44.3811997823
 30
0.0
 10
55.6959933321
 20
44.5581475074
 30
0.0
 10
55.5713628619
 20
44.7836217802
 30
0.0
 10
55.428953746
 20
44.8622534378
 30
0.0
 10
55.3575909563
 20
44.8791527192
 30
0.0
  0
SPLINE
  5
4B8
100
AcDbEntity
  8
0
100
AcDbSpline
 62
7
  6
CONTINUOUS
 70
0
 71
3
 72
10
 73
6
 74
0
 42
0.0000001
 43
0.0000001
 44
0.0000000001
 40
0.0
 40
0.0
 40
0.0
 40
0.0
 40
0.3511717183
 40
0.6915970417
 40
1.0
 40
1.0
 40
1.0
 40
1.0
 10
55.3575909562
 20
43.2776017876
 30
0.0
 10
55.4317048712
 20
43.3807314243
 30
0.0
 10
55.5590355703
 20
43.5979814036
 30
0.0
 10
55.6832652429
 20
43.9395224282
 30
0.0
 10
55.7171622447
 20
44.1744431665
 30
0.0
 10
55.7171622447
 20
44.2859745944
 30
0.0
  0
SPLINE
  5
4B9
100
AcDbEntity
  8
0
100
AcDbSpline
 62
7
  6
CONTINUOUS
 70
0
 71
3
 72
10
 73
6
 74
0
 42
0.0000001
 43
0.0000001
 44
0.0000000001
 40
0.0
 40
0.0
 40
0.0
 40
0.0
 40
0.3246976532
 40
0.6588652087
 40
1.0
 40
1.0
 40
1.0
 40
1.0
 10
52.4219509668
 20
39.9502809748
 30
0.0
 10
52.7770481097
 20
40.2747463489
 30
0.0
 10
53.4727013026
 20
40.9608680149
 30
0.0
 10
54.452533936
 20
42.0733272019
 30
0.0
 10
55.0626704841
 20
42.8672214432
 30
0.0
 10
55.3575909562
 20
43.2776017876
 30
0.0
  0
SPLINE
  5
4BA
100
AcDbEntity
  8
0
100
AcDbSpline
 62
7
  6
CONTINUOUS
 70
0
 71
3
 72
10
 73
6
 74
0
 42
0.0000001
 43
0.0000001
 44
0.0000000001
 40
0.0
 40
0.0
 40
0.0
 40
0.0
 40
0.2955388013
 40
0.6165108329
 40
1.0
 40
1.0
 40
1.0
 40
1.0
 10
54.8839015125
 20
44.4748697644
 30
0.0
 10
54.9438578386
 20
44.4612583416
 30
0.0
 10
55.0638269398
 20
44.396408779
 30
0.0
 10
55.1690359468
 20
44.2077868689
 30
0.0
 10
55.186835409
 20
44.0595707672
 30
0.0
 10
55.1868355864
 20
43.9797921832
 30
0.0
  0
SPLINE
  5
4BB
100
AcDbEntity
  8
0
100
AcDbSpline
 62
7
  6
CONTINUOUS
 70
0
 71
3
 72
10
 73
6
 74
0
 42
0.0000001
 43
0.0000001
 44
0.0000000001
 40
0.0
 40
0.0
 40
0.0
 40
0.0
 40
0.3481312637
 40
0.6804835055
 40
1.0
 40
1.0
 40
1.0
 40
1.0
 10
52.5477828356
 20
44.5145479665
 30
0.0
 10
52.8167542621
 20
44.5591883315
 30
0.0
 10
53.3479572509
 20
44.6177248454
 30
0.0
 10
54.1330434069
 20
44.6066455414
 30
0.0
 10
54.6398707699
 20
44.5302690749
 30
0.0
 10
54.8839015125
 20
44.4748697644
 30
0.0
  0
SPLINE
  5
4BC
100
AcDbEntity
  8
0
100
AcDbSpline
 62
7
  6
CONTINUOUS
 70
0
 71
3
 72
10
 73
6
 74
0
 42
0.0000001
 43
0.0000001
 44
0.0000000001
 40
0.0
 40
0.0
 40
0.0
 40
0.0
 40
0.3546782465
 40
0.6878944575
 40
1.0
 40
1.0
 40
1.0
 40
1.0
 10
52.4291309055
 20
44.4697213108
 30
0.0
 10
52.4421802225
 20
44.4772517005
 30
0.0
 10
52.4682128013
 20
44.4906632072
 30
0.0
 10
52.5079734266
 20
44.5058602574
 30
0.0
 10
52.5347045912
 20
44.512373351
 30
0.0
 10
52.5477828356
 20
44.5145479665
 30
0.0
  0
SPLINE
  5
4BD
100
AcDbEntity
  8
0
100
AcDbSpline
 62
7
  6
CONTINUOUS
 70
0
 71
3
 72
11
 73
7
 74
0
 42
0.0000001
 43
0.0000001
 44
0.0000000001
 40
0.0
 40
0.0
 40
0.0
 40
0.0
 40
0.2392857397
 40
0.5000016179
 40
0.7607166296
 40
1.0
 40
1.0
 40
1.0
 40
1.0
 10
51.36847515
 20
43.4491038717
 30
0.0
 10
51.368475447
 20
43.5075626869
 30
0.0
 10
51.3903942269
 20
43.6297954754
 30
0.0
 10
51.4660817196
 20
43.8009999259
 30
0.0
 10
51.5765042445
 20
43.9521495478
 30
0.0
 10
51.6714008239
 20
44.0322479127
 30
0.0
 10
51.7220270687
 20
44.0614771572
 30
0.0
  0
SPLINE
  5
4BE
100
AcDbEntity
  8
0
100
AcDbSpline
 62
7
  6
CONTINUOUS
 70
0
 71
3
 72
11
 73
7
 74
0
 42
0.0000001
 43
0.0000001
 44
0.0000000001
 40
0.0
 40
0.0
 40
0.0
 40
0.0
 40
0.2773235589
 40
0.4999969638
 40
0.7226723828
 40
1.0
 40
1.0
 40
1.0
 40
1.0
 10
51.7220270687
 20
39.8973148299
 30
0.0
 10
51.6803825036
 20
39.8732717546
 30
0.0
 10
51.5975816885
 20
39.8390163644
 30
0.0
 10
51.4645243609
 20
39.8595570233
 30
0.0
 10
51.3802093948
 20
39.9645203401
 30
0.0
 10
51.3684753942
 20
40.0533564687
 30
0.0
 10
51.36847515
 20
40.1014439614
 30
0.0
  0
SPLINE
  5
4BF
100
AcDbEntity
  8
0
100
AcDbSpline
 62
7
  6
CONTINUOUS
 70
0
 71
3
 72
10
 73
6
 74
0
 42
0.0000001
 43
0.0000001
 44
0.0000000001
 40
0.0
 40
0.0
 40
0.0
 40
0.0
 40
0.3482632224
 40
0.6822516204
 40
1.0
 40
1.0
 40
1.0
 40
1.0
 10
52.5477828356
 20
40.3977389575
 30
0.0
 10
52.5353478941
 20
40.3854480585
 30
0.0
 10
52.5100906654
 20
40.3622519021
 30
0.0
 10
52.4704637121
 20
40.3313425282
 30
0.0
 10
52.4429442446
 20
40.3135378733
 30
0.0
 10
52.4291309055
 20
40.3055589835
 30
0.0
  0
SPLINE
  5
4C0
100
AcDbEntity
  8
0
100
AcDbSpline
 62
7
  6
CONTINUOUS
 70
0
 71
3
 72
10
 73
6
 74
0
 42
0.0000001
 43
0.0000001
 44
0.0000000001
 40
0.0
 40
0.0
 40
0.0
 40
0.0
 40
0.3391605831
 40
0.6730423516
 40
1.0
 40
1.0
 40
1.0
 40
1.0
 10
54.8839015124
 20
43.1349185516
 30
0.0
 10
54.6451400546
 20
42.8050191241
 30
0.0
 10
54.1542271139
 20
42.1625138226
 30
0.0
 10
53.3748549367
 20
41.2484157624
 30
0.0
 10
52.826950144
 20
40.6737591304
 30
0.0
 10
52.5477828356
 20
40.3977389575
 30
0.0
  0
SPLINE
  5
4C1
100
AcDbEntity
  8
0
100
AcDbSpline
 62
7
  6
CONTINUOUS
 70
0
 71
3
 72
10
 73
6
 74
0
 42
0.0000001
 43
0.0000001
 44
0.0000000001
 40
0.0
 40
0.0
 40
0.0
 40
0.0
 40
0.3084278987
 40
0.6489492846
 40
1.0
 40
1.0
 40
1.0
 40
1.0
 10
55.1868355864
 20
43.9797921832
 30
0.0
 10
55.1868353915
 20
43.8862662241
 30
0.0
 10
55.1582368943
 20
43.6892506863
 30
0.0
 10
55.0535645874
 20
43.4030427622
 30
0.0
 10
54.9463132316
 20
43.2211538189
 30
0.0
 10
54.8839015124
 20
43.1349185516
 30
0.0
  0
SPLINE
  5
4C2
100
AcDbEntity
  8
0
100
AcDbSpline
 62
7
  6
CONTINUOUS
 70
0
 71
3
 72
11
 73
7
 74
0
 42
0.0000001
 43
0.0000001
 44
0.0000000001
 40
0.0
 40
0.0
 40
0.0
 40
0.0
 40
0.2266498199
 40
0.4714301224
 40
0.7307685011
 40
1.0
 40
1.0
 40
1.0
 40
1.0
 10
97.0964493145
 20
118.6329784183
 30
0.0
 10
97.4419279327
 20
118.8074674128
 30
0.0
 10
98.1306175153
 20
119.2311756864
 30
0.0
 10
99.0979232385
 20
120.0243652497
 30
0.0
 10
100.0151961444
 20
120.9782582117
 30
0.0
 10
100.5684539186
 20
121.6938720302
 30
0.0
 10
100.8309299628
 20
122.0713420077
 30
0.0
  0
SPLINE
  5
4C3
100
AcDbEntity
  8
0
100
AcDbSpline
 62
7
  6
CONTINUOUS
 70
0
 71
3
 72
10
 73
6
 74
0
 42
0.0000001
 43
0.0000001
 44
0.0000000001
 40
0.0
 40
0.0
 40
0.0
 40
0.0
 40
0.3463398007
 40
0.6800904705
 40
1.0
 40
1.0
 40
1.0
 40
1.0
 10
53.1427658931
 20
93.423287229
 30
0.0
 10
53.1322520866
 20
93.4136821666
 30
0.0
 10
53.1110020237
 20
93.3954671204
 30
0.0
 10
53.0779932834
 20
93.3708977415
 30
0.0
 10
53.0552711477
 20
93.356480804
 30
0.0
 10
53.0438802549
 20
93.3499025259
 30
0.0
  0
SPLINE
  5
4C4
100
AcDbEntity
  8
0
100
AcDbSpline
 62
7
  6
CONTINUOUS
 70
0
 71
3
 72
10
 73
6
 74
0
 42
0.0000001
 43
0.0000001
 44
0.0000000001
 40
0.0
 40
0.0
 40
0.0
 40
0.0
 40
0.3411347913
 40
0.6753023468
 40
1.0
 40
1.0
 40
1.0
 40
1.0
 10
56.0784058825
 20
96.7506080419
 30
0.0
 10
55.7834854104
 20
96.3402276975
 30
0.0
 10
55.1733488623
 20
95.5463334561
 30
0.0
 10
54.1935162289
 20
94.4338742691
 30
0.0
 10
53.497863036
 20
93.7477526031
 30
0.0
 10
53.1427658931
 20
93.423287229
 30
0.0
  0
SPLINE
  5
4C5
100
AcDbEntity
  8
0
100
AcDbSpline
 62
7
  6
CONTINUOUS
 70
0
 71
3
 72
13
 73
9
 74
0
 42
0.0000001
 43
0.0000001
 44
0.0000000001
 40
0.0
 40
0.0
 40
0.0
 40
0.0
 40
0.1207187329
 40
0.2514420755
 40
0.407099068
 40
0.5893192262
 40
0.790921834
 40
1.0
 40
1.0
 40
1.0
 40
1.0
 10
56.0784058825
 20
98.3521589729
 30
0.0
 10
56.1500587487
 20
98.335190999
 30
0.0
 10
56.2926894751
 20
98.2562386695
 30
0.0
 10
56.4168576493
 20
98.0304196874
 30
0.0
 10
56.4515075749
 20
97.7422471293
 30
0.0
 10
56.4043145718
 20
97.4136744098
 30
0.0
 10
56.2802769431
 20
97.071753078
 30
0.0
 10
56.1528305808
 20
96.854170134
 30
0.0
 10
56.0784058825
 20
96.7506080419
 30
0.0
  0
SPLINE
  5
4C6
100
AcDbEntity
  8
0
100
AcDbSpline
 62
7
  6
CONTINUOUS
 70
0
 71
3
 72
10
 73
6
 74
0
 42
0.0000001
 43
0.0000001
 44
0.0000000001
 40
0.0
 40
0.0
 40
0.0
 40
0.0
 40
0.3524751777
 40
0.684444373
 40
1.0
 40
1.0
 40
1.0
 40
1.0
 10
53.1427658931
 20
98.2897149437
 30
0.0
 10
53.4809121382
 20
98.3711935516
 30
0.0
 10
54.1487319972
 20
98.4882077763
 30
0.0
 10
55.1388550577
 20
98.5137677619
 30
0.0
 10
55.775393912
 20
98.4239125993
 30
0.0
 10
56.0784058825
 20
98.3521589729
 30
0.0
  0
SPLINE
  5
4C7
100
AcDbEntity
  8
0
100
AcDbSpline
 62
7
  6
CONTINUOUS
 70
0
 71
3
 72
10
 73
6
 74
0
 42
0.0000001
 43
0.0000001
 44
0.0000000001
 40
0.0
 40
0.0
 40
0.0
 40
0.0
 40
0.3507966744
 40
0.684113675
 40
1.0
 40
1.0
 40
1.0
 40
1.0
 10
53.0438802549
 20
98.2489170287
 30
0.0
 10
53.0547463655
 20
98.2551888429
 30
0.0
 10
53.0764383054
 20
98.2665845076
 30
0.0
 10
53.1095094496
 20
98.2803263821
 30
0.0
 10
53.1317830002
 20
98.2870666711
 30
0.0
 10
53.1427658931
 20
98.2897149437
 30
0.0
  0
SPLINE
  5
4C8
100
AcDbEntity
  8
0
100
AcDbSpline
 62
7
  6
CONTINUOUS
 70
0
 71
3
 72
11
 73
7
 74
0
 42
0.0000001
 43
0.0000001
 44
0.0000000001
 40
0.0
 40
0.0
 40
0.0
 40
0.0
 40
0.2392853892
 40
0.5000012474
 40
0.7607164376
 40
1.0
 40
1.0
 40
1.0
 40
1.0
 10
51.9832244997
 20
97.2282971947
 30
0.0
 10
51.9832247967
 20
97.2867561132
 30
0.0
 10
52.0051427843
 20
97.4089893105
 30
0.0
 10
52.0808303561
 20
97.5801944296
 30
0.0
 10
52.1912530447
 20
97.7313447587
 30
0.0
 10
52.2861499692
 20
97.8114435127
 30
0.0
 10
52.3367764182
 20
97.8406728751
 30
0.0
  0
SPLINE
  5
4C9
100
AcDbEntity
  8
0
100
AcDbSpline
 62
7
  6
CONTINUOUS
 70
0
 71
3
 72
11
 73
7
 74
0
 42
0.0000001
 43
0.0000001
 44
0.0000000001
 40
0.0
 40
0.0
 40
0.0
 40
0.0
 40
0.2773232308
 40
0.4999962679
 40
0.7226717806
 40
1.0
 40
1.0
 40
1.0
 40
1.0
 10
52.3367764182
 20
92.9416583724
 30
0.0
 10
52.2951317151
 20
92.9176152174
 30
0.0
 10
52.212330592
 20
92.8833597177
 30
0.0
 10
52.0792727932
 20
92.9039009662
 30
0.0
 10
51.9949579819
 20
93.0088654009
 30
0.0
 10
51.983224744
 20
93.0977020857
 30
0.0
 10
51.9832244997
 20
93.1457898991
 30
0.0
  0
SPLINE
  5
4CA
100
AcDbEntity
  8
0
100
AcDbSpline
 62
7
  6
CONTINUOUS
 70
0
 71
3
 72
11
 73
7
 74
0
 42
0.0000001
 43
0.0000001
 44
0.0000000001
 40
0.0
 40
0.0
 40
0.0
 40
0.0
 40
0.2773232308
 40
0.4999962679
 40
0.7226717806
 40
1.0
 40
1.0
 40
1.0
 40
1.0
 10
52.3367764182
 20
72.692398427
 30
0.0
 10
52.2951317151
 20
72.668355272
 30
0.0
 10
52.212330592
 20
72.6340997723
 30
0.0
 10
52.0792727932
 20
72.6546410208
 30
0.0
 10
51.9949579819
 20
72.7596054555
 30
0.0
 10
51.983224744
 20
72.8484421403
 30
0.0
 10
51.9832244997
 20
72.8965299537
 30
0.0
  0
SPLINE
  5
4CB
100
AcDbEntity
  8
0
100
AcDbSpline
 62
7
  6
CONTINUOUS
 70
0
 71
3
 72
10
 73
6
 74
0
 42
0.0000001
 43
0.0000001
 44
0.0000000001
 40
0.0
 40
0.0
 40
0.0
 40
0.0
 40
0.3463398057
 40
0.6800904802
 40
1.0
 40
1.0
 40
1.0
 40
1.0
 10
53.1427658931
 20
73.1740272835
 30
0.0
 10
53.1322520866
 20
73.1644222211
 30
0.0
 10
53.1110020237
 20
73.1462071749
 30
0.0
 10
53.0779932839
 20
73.1216377964
 30
0.0
 10
53.0552711487
 20
73.1072208592
 30
0.0
 10
53.0438802563
 20
73.1006425814
 30
0.0
  0
SPLINE
  5
4CC
100
AcDbEntity
  8
0
100
AcDbSpline
 62
7
  6
CONTINUOUS
 70
0
 71
3
 72
10
 73
6
 74
0
 42
0.0000001
 43
0.0000001
 44
0.0000000001
 40
0.0
 40
0.0
 40
0.0
 40
0.0
 40
0.3411347913
 40
0.6753023467
 40
1.0
 40
1.0
 40
1.0
 40
1.0
 10
56.0784058824
 20
76.5013480963
 30
0.0
 10
55.7834854103
 20
76.0909677519
 30
0.0
 10
55.1733488623
 20
75.2970735106
 30
0.0
 10
54.1935162289
 20
74.1846143237
 30
0.0
 10
53.497863036
 20
73.4984926576
 30
0.0
 10
53.1427658931
 20
73.1740272835
 30
0.0
  0
SPLINE
  5
4CD
100
AcDbEntity
  8
0
100
AcDbSpline
 62
7
  6
CONTINUOUS
 70
0
 71
3
 72
13
 73
9
 74
0
 42
0.0000001
 43
0.0000001
 44
0.0000000001
 40
0.0
 40
0.0
 40
0.0
 40
0.0
 40
0.1207187329
 40
0.2514420755
 40
0.4070990681
 40
0.5893192261
 40
0.7909218339
 40
1.0
 40
1.0
 40
1.0
 40
1.0
 10
56.0784058824
 20
78.1028990291
 30
0.0
 10
56.1500587486
 20
78.0859310552
 30
0.0
 10
56.292689475
 20
78.0069787253
 30
0.0
 10
56.4168576493
 20
77.781159743
 30
0.0
 10
56.4515075749
 20
77.4929871847
 30
0.0
 10
56.4043145718
 20
77.1644144649
 30
0.0
 10
56.280276943
 20
76.8224931328
 30
0.0
 10
56.1528305807
 20
76.6049101885
 30
0.0
 10
56.0784058824
 20
76.5013480963
 30
0.0
  0
SPLINE
  5
4CE
100
AcDbEntity
  8
0
100
AcDbSpline
 62
7
  6
CONTINUOUS
 70
0
 71
3
 72
10
 73
6
 74
0
 42
0.0000001
 43
0.0000001
 44
0.0000000001
 40
0.0
 40
0.0
 40
0.0
 40
0.0
 40
0.3524751776
 40
0.6844443729
 40
1.0
 40
1.0
 40
1.0
 40
1.0
 10
53.142765893
 20
78.0404549999
 30
0.0
 10
53.480912138
 20
78.1219336077
 30
0.0
 10
54.1487319971
 20
78.2389478308
 30
0.0
 10
55.1388550572
 20
78.2645078161
 30
0.0
 10
55.7753939118
 20
78.1746526555
 30
0.0
 10
56.0784058824
 20
78.1028990291
 30
0.0
  0
SPLINE
  5
4CF
100
AcDbEntity
  8
0
100
AcDbSpline
 62
7
  6
CONTINUOUS
 70
0
 71
3
 72
10
 73
6
 74
0
 42
0.0000001
 43
0.0000001
 44
0.0000000001
 40
0.0
 40
0.0
 40
0.0
 40
0.0
 40
0.3507966674
 40
0.6841136704
 40
1.0
 40
1.0
 40
1.0
 40
1.0
 10
53.0438802555
 20
77.9996570836
 30
0.0
 10
53.0547463658
 20
78.0059288977
 30
0.0
 10
53.0764383057
 20
78.0173245621
 30
0.0
 10
53.1095094496
 20
78.0310664367
 30
0.0
 10
53.131783
 20
78.0378067273
 30
0.0
 10
53.142765893
 20
78.0404549999
 30
0.0
  0
SPLINE
  5
4D0
100
AcDbEntity
  8
0
100
AcDbSpline
 62
7
  6
CONTINUOUS
 70
0
 71
3
 72
11
 73
7
 74
0
 42
0.0000001
 43
0.0000001
 44
0.0000000001
 40
0.0
 40
0.0
 40
0.0
 40
0.0
 40
0.2392853891
 40
0.5000012471
 40
0.7607164371
 40
1.0
 40
1.0
 40
1.0
 40
1.0
 10
51.9832244997
 20
76.9790372492
 30
0.0
 10
51.9832247966
 20
77.0374961677
 30
0.0
 10
52.0051427843
 20
77.159729365
 30
0.0
 10
52.0808303561
 20
77.3309344842
 30
0.0
 10
52.1912530448
 20
77.4820848133
 30
0.0
 10
52.2861499694
 20
77.5621835674
 30
0.0
 10
52.3367764186
 20
77.59141293
 30
0.0
  0
SPLINE
  5
4D1
100
AcDbEntity
  8
0
100
AcDbSpline
 62
7
  6
CONTINUOUS
 70
0
 71
3
 72
11
 73
7
 74
0
 42
0.0000001
 43
0.0000001
 44
0.0000000001
 40
0.0
 40
0.0
 40
0.0
 40
0.0
 40
0.2773232309
 40
0.499996268
 40
0.7226717806
 40
1.0
 40
1.0
 40
1.0
 40
1.0
 10
52.3367764185
 20
39.0524988419
 30
0.0
 10
52.2951317153
 20
39.028455687
 30
0.0
 10
52.2123305922
 20
38.9942001874
 30
0.0
 10
52.0792727935
 20
39.0147414361
 30
0.0
 10
51.9949579824
 20
39.1197058707
 30
0.0
 10
51.9832247445
 20
39.2085425554
 30
0.0
 10
51.9832245002
 20
39.2566303687
 30
0.0
  0
SPLINE
  5
4D2
100
AcDbEntity
  8
0
100
AcDbSpline
 62
7
  6
CONTINUOUS
 70
0
 71
3
 72
10
 73
6
 74
0
 42
0.0000001
 43
0.0000001
 44
0.0000000001
 40
0.0
 40
0.0
 40
0.0
 40
0.0
 40
0.3463397998
 40
0.6800904712
 40
1.0
 40
1.0
 40
1.0
 40
1.0
 10
53.1427658929
 20
39.5341276979
 30
0.0
 10
53.1322520865
 20
39.5245226356
 30
0.0
 10
53.1110020237
 20
39.5063075897
 30
0.0
 10
53.0779932835
 20
39.481738211
 30
0.0
 10
53.0552711479
 20
39.4673212736
 30
0.0
 10
53.0438802551
 20
39.4607429955
 30
0.0
  0
SPLINE
  5
4D3
100
AcDbEntity
  8
0
100
AcDbSpline
 62
7
  6
CONTINUOUS
 70
0
 71
3
 72
10
 73
6
 74
0
 42
0.0000001
 43
0.0000001
 44
0.0000000001
 40
0.0
 40
0.0
 40
0.0
 40
0.0
 40
0.3411347913
 40
0.6753023467
 40
1.0
 40
1.0
 40
1.0
 40
1.0
 10
56.0784058826
 20
42.8614485115
 30
0.0
 10
55.7834854104
 20
42.4510681671
 30
0.0
 10
55.1733488621
 20
41.6571739258
 30
0.0
 10
54.1935162286
 20
40.5447147386
 30
0.0
 10
53.497863036
 20
39.8585930721
 30
0.0
 10
53.1427658929
 20
39.5341276979
 30
0.0
  0
SPLINE
  5
4D4
100
AcDbEntity
  8
0
100
AcDbSpline
 62
7
  6
CONTINUOUS
 70
0
 71
3
 72
13
 73
9
 74
0
 42
0.0000001
 43
0.0000001
 44
0.0000000001
 40
0.0
 40
0.0
 40
0.0
 40
0.0
 40
0.1207187329
 40
0.2514420754
 40
0.407099068
 40
0.5893192262
 40
0.790921834
 40
1.0
 40
1.0
 40
1.0
 40
1.0
 10
56.0784058825
 20
44.4629994423
 30
0.0
 10
56.1500587487
 20
44.4460314684
 30
0.0
 10
56.2926894753
 20
44.3670791394
 30
0.0
 10
56.4168576498
 20
44.1412601572
 30
0.0
 10
56.4515075755
 20
43.853087599
 30
0.0
 10
56.4043145722
 20
43.5245148794
 30
0.0
 10
56.2802769434
 20
43.1825935475
 30
0.0
 10
56.1528305808
 20
42.9650106036
 30
0.0
 10
56.0784058826
 20
42.8614485115
 30
0.0
  0
SPLINE
  5
4D5
100
AcDbEntity
  8
0
100
AcDbSpline
 62
7
  6
CONTINUOUS
 70
0
 71
3
 72
10
 73
6
 74
0
 42
0.0000001
 43
0.0000001
 44
0.0000000001
 40
0.0
 40
0.0
 40
0.0
 40
0.0
 40
0.3524751777
 40
0.684444373
 40
1.0
 40
1.0
 40
1.0
 40
1.0
 10
53.142765893
 20
44.4005554136
 30
0.0
 10
53.4809121381
 20
44.4820340214
 30
0.0
 10
54.1487319972
 20
44.5990482455
 30
0.0
 10
55.1388550576
 20
44.6246082309
 30
0.0
 10
55.775393912
 20
44.5347530687
 30
0.0
 10
56.0784058825
 20
44.4629994423
 30
0.0
  0
SPLINE
  5
4D6
100
AcDbEntity
  8
0
100
AcDbSpline
 62
7
  6
CONTINUOUS
 70
0
 71
3
 72
10
 73
6
 74
0
 42
0.0000001
 43
0.0000001
 44
0.0000000001
 40
0.0
 40
0.0
 40
0.0
 40
0.0
 40
0.3507966727
 40
0.6841136749
 40
1.0
 40
1.0
 40
1.0
 40
1.0
 10
53.0438802551
 20
44.3597574983
 30
0.0
 10
53.0547463657
 20
44.3660293125
 30
0.0
 10
53.0764383056
 20
44.3774249772
 30
0.0
 10
53.1095094496
 20
44.3911668517
 30
0.0
 10
53.1317830001
 20
44.397907141
 30
0.0
 10
53.142765893
 20
44.4005554136
 30
0.0
  0
SPLINE
  5
4D7
100
AcDbEntity
  8
0
100
AcDbSpline
 62
7
  6
CONTINUOUS
 70
0
 71
3
 72
11
 73
7
 74
0
 42
0.0000001
 43
0.0000001
 44
0.0000000001
 40
0.0
 40
0.0
 40
0.0
 40
0.0
 40
0.2392853891
 40
0.5000012471
 40
0.7607164372
 40
1.0
 40
1.0
 40
1.0
 40
1.0
 10
51.9832245002
 20
43.3391376645
 30
0.0
 10
51.9832247972
 20
43.397596583
 30
0.0
 10
52.0051427848
 20
43.5198297801
 30
0.0
 10
52.0808303565
 20
43.6910348991
 30
0.0
 10
52.1912530449
 20
43.8421852281
 30
0.0
 10
52.2861499694
 20
43.9222839822
 30
0.0
 10
52.3367764185
 20
43.9515133447
 30
0.0
  0
SPLINE
  5
4D8
100
AcDbEntity
  8
0
100
AcDbSpline
 62
7
  6
CONTINUOUS
 70
0
 71
3
 72
47
 73
43
 74
0
 42
0.0000001
 43
0.0000001
 44
0.0000000001
 40
0.0
 40
0.0
 40
0.0
 40
0.0
 40
0.0850476225
 40
0.1622380916
 40
0.2325340628
 40
0.2967412191
 40
0.3555336189
 40
0.4094824055
 40
0.4590570467
 40
0.5046478162
 40
0.5465974701
 40
0.5852161925
 40
0.6207805387
 40
0.6535435072
 40
0.6837412557
 40
0.7115851035
 40
0.7372651888
 40
0.7609597995
 40
0.7828319842
 40
0.8030249523
 40
0.8216650956
 40
0.8388700694
 40
0.8547518643
 40
0.8694147353
 40
0.8829489657
 40
0.8954352403
 40
0.9069509732
 40
0.9175702334
 40
0.9273585946
 40
0.9363783645
 40
0.944688326
 40
0.9523371909
 40
0.9593712905
 40
0.9658333897
 40
0.9717670551
 40
0.9772184896
 40
0.9821987496
 40
0.9867265394
 40
0.9908257624
 40
0.9944135839
 40
0.9974531182
 40
1.0
 40
1.0
 40
1.0
 40
1.0
 10
62.0864815511
 20
39.7856191069
 30
0.0
 10
61.4381832154
 20
39.4152666554
 30
0.0
 10
60.1997143791
 20
38.7118493018
 30
0.0
 10
58.4170687186
 20
37.7170887721
 30
0.0
 10
56.7890208988
 20
36.8208151552
 30
0.0
 10
55.2975347563
 20
36.0114539688
 30
0.0
 10
53.9280076028
 20
35.2782940723
 30
0.0
 10
52.667967059
 20
34.6128419367
 30
0.0
 10
51.5070517753
 20
34.0079139937
 30
0.0
 10
50.4365299958
 20
33.4575078835
 30
0.0
 10
49.448797407
 20
32.9564634056
 30
0.0
 10
48.5370281511
 20
32.5002721637
 30
0.0
 10
47.6949565615
 20
32.0850553635
 30
0.0
 10
46.9169888223
 20
31.7070298693
 30
0.0
 10
46.1979304729
 20
31.3628821679
 30
0.0
 10
45.5329863615
 20
31.0497341122
 30
0.0
 10
44.9178966168
 20
30.7647545724
 30
0.0
 10
44.3487632735
 20
30.5053194255
 30
0.0
 10
43.8218736928
 20
30.269377778
 30
0.0
 10
43.3338603345
 20
30.0552277484
 30
0.0
 10
42.881815404
 20
29.8611153513
 30
0.0
 10
42.463106437
 20
29.6853307216
 30
0.0
 10
42.0752995081
 20
29.5261753692
 30
0.0
 10
41.7160632419
 20
29.382315641
 30
0.0
 10
41.383229863
 20
29.2527507231
 30
0.0
 10
41.0748859803
 20
29.1364878584
 30
0.0
 10
40.7892985844
 20
29.0324592401
 30
0.0
 10
40.5248240581
 20
28.9397270375
 30
0.0
 10
40.2798882747
 20
28.8575648036
 30
0.0
 10
40.0531310717
 20
28.7850267102
 30
0.0
 10
39.8431675639
 20
28.7217288855
 30
0.0
 10
39.648801192
 20
28.6672112425
 30
0.0
 10
39.4690040009
 20
28.6209747802
 30
0.0
 10
39.3028178212
 20
28.5824578629
 30
0.0
 10
39.1492861973
 20
28.5511116969
 30
0.0
 10
39.0076565472
 20
28.5267890768
 30
0.0
 10
38.8772807692
 20
28.5104830397
 30
0.0
 10
38.7580009884
 20
28.5027048118
 30
0.0
 10
38.6506842513
 20
28.5025860697
 30
0.0
 10
38.5566719304
 20
28.5109623241
 30
0.0
 10
38.4778546066
 20
28.5285158019
 30
0.0
 10
38.4318399649
 20
28.546501757
 30
0.0
 10
38.4121832958
 20
28.5571570504
 30
0.0
  0
SPLINE
  5
4D9
100
AcDbEntity
  8
0
100
AcDbSpline
 62
7
  6
CONTINUOUS
 70
0
 71
3
 72
28
 73
24
 74
0
 42
0.0000001
 43
0.0000001
 44
0.0000000001
 40
0.0
 40
0.0
 40
0.0
 40
0.0
 40
0.0623681313
 40
0.1571399519
 40
0.247390251
 40
0.3347747909
 40
0.378130771
 40
0.4217627894
 40
0.4746542469
 40
0.5298384869
 40
0.5887785977
 40
0.6531194537
 40
0.7002130579
 40
0.7513687987
 40
0.7787036529
 40
0.8071411224
 40
0.8367588107
 40
0.8684574417
 40
0.8977989771
 40
0.9279295943
 40
0.9455227207
 40
0.9633718491
 40
1.0
 40
1.0
 40
1.0
 40
1.0
 10
60.0690747954
 20
43.4167808353
 30
0.0
 10
60.0123898229
 20
43.4490592374
 30
0.0
 10
59.8665399458
 20
43.5251309893
 30
0.0
 10
59.625464082
 20
43.6214172229
 30
0.0
 10
59.3468874929
 20
43.6865527384
 30
0.0
 10
59.1144497813
 20
43.6988058711
 30
0.0
 10
58.9327865455
 20
43.6791965422
 30
0.0
 10
58.7897321297
 20
43.6470672313
 30
0.0
 10
58.6401893455
 20
43.5922800637
 30
0.0
 10
58.4867592325
 20
43.5072830159
 30
0.0
 10
58.3392176085
 20
43.3916360948
 30
0.0
 10
58.2182712063
 20
43.2596573917
 30
0.0
 10
58.1204852454
 20
43.1201959574
 30
0.0
 10
58.0568053651
 20
43.0050067769
 30
0.0
 10
58.0102133467
 20
42.9033007778
 30
0.0
 10
57.9769921174
 20
42.8203606992
 30
0.0
 10
57.9462896098
 20
42.7316100551
 30
0.0
 10
57.9198942494
 20
42.6404966378
 30
0.0
 10
57.8973523297
 20
42.5478217251
 30
0.0
 10
57.881401182
 20
42.4687832284
 30
0.0
 10
57.8703428242
 20
42.4010933381
 30
0.0
 10
57.8592329641
 20
42.3265340269
 30
0.0
 10
57.8530841135
 20
42.2698608834
 30
0.0
 10
57.849637616
 20
42.2317067551
 30
0.0
  0
LINE
  5
4DA
100
AcDbEntity
  8
0
100
AcDbLine
 62
7
  6
CONTINUOUS
 10
38.4121832958
 20
28.5571570504
 11
38.4013881404
 21
28.5633894953
  0
SPLINE
  5
4DB
100
AcDbEntity
  8
0
100
AcDbSpline
 62
7
  6
CONTINUOUS
 70
0
 71
3
 72
45
 73
41
 74
0
 42
0.0000001
 43
0.0000001
 44
0.0000000001
 40
0.0
 40
0.0
 40
0.0
 40
0.0
 40
0.00703335
 40
0.0140588958
 40
0.0269025134
 40
0.0398162217
 40
0.0486764822
 40
0.0577208818
 40
0.0718140066
 40
0.0855352115
 40
0.1459327044
 40
0.2029587338
 40
0.2602996218
 40
0.3134927176
 40
0.363012112
 40
0.4093352963
 40
0.4639077729
 40
0.5144955737
 40
0.5615499946
 40
0.6055542152
 40
0.6454231087
 40
0.6833898751
 40
0.7201510652
 40
0.7383901889
 40
0.7567454372
 40
0.778995974
 40
0.8022110455
 40
0.8270061479
 40
0.8540732521
 40
0.8738847307
 40
0.895405081
 40
0.9069043894
 40
0.9188675493
 40
0.9313272072
 40
0.9446622823
 40
0.9570057674
 40
0.9696812057
 40
0.9770823349
 40
0.9845911597
 40
1.0
 40
1.0
 40
1.0
 40
1.0
 10
78.0801535771
 20
50.7489401641
 30
0.0
 10
78.0801605422
 20
50.7664264848
 30
0.0
 10
78.0798817509
 20
50.8013803496
 30
0.0
 10
78.0784101025
 20
50.8682504872
 30
0.0
 10
78.0748793481
 20
50.9496935159
 30
0.0
 10
78.068265715
 20
51.0355190582
 30
0.0
 10
78.0607632992
 20
51.1117739287
 30
0.0
 10
78.051752329
 20
51.190818064
 30
0.0
 10
78.0393073719
 20
51.2816217356
 30
0.0
 10
78.003591604
 20
51.4980186652
 30
0.0
 10
77.9290053782
 20
51.8161330813
 30
0.0
 10
77.7894616337
 20
52.2281646671
 30
0.0
 10
77.6222540325
 20
52.6103150913
 30
0.0
 10
77.4321343999
 20
52.9603673808
 30
0.0
 10
77.2306870722
 20
53.2717855035
 30
0.0
 10
77.0041879383
 20
53.569747702
 30
0.0
 10
76.7522430175
 20
53.850467835
 30
0.0
 10
76.4719865701
 20
54.105803637
 30
0.0
 10
76.1864878533
 20
54.3133244448
 30
0.0
 10
75.9013374537
 20
54.4720347159
 30
0.0
 10
75.6191434843
 20
54.5847333169
 30
0.0
 10
75.3405576094
 20
54.6498750809
 30
0.0
 10
75.1081220386
 20
54.6621267729
 30
0.0
 10
74.9264585282
 20
54.6425176289
 30
0.0
 10
74.7834041702
 20
54.6103882791
 30
0.0
 10
74.6338613672
 20
54.5556011241
 30
0.0
 10
74.4804312599
 20
54.4706040725
 30
0.0
 10
74.3328896342
 20
54.3549571526
 30
0.0
 10
74.2119432324
 20
54.2229784491
 30
0.0
 10
74.1141572714
 20
54.0835170149
 30
0.0
 10
74.0504773912
 20
53.9683278345
 30
0.0
 10
74.0038853727
 20
53.8666218353
 30
0.0
 10
73.9706641434
 20
53.7836817567
 30
0.0
 10
73.9399616358
 20
53.6949311127
 30
0.0
 10
73.9135662755
 20
53.6038176953
 30
0.0
 10
73.8910243557
 20
53.5111427826
 30
0.0
 10
73.875073208
 20
53.4321042859
 30
0.0
 10
73.8640148503
 20
53.3644143956
 30
0.0
 10
73.8529049902
 20
53.2898550844
 30
0.0
 10
73.8467561396
 20
53.2331819409
 30
0.0
 10
73.843309642
 20
53.1950278126
 30
0.0
  0
SPLINE
  5
4DC
100
AcDbEntity
  8
0
100
AcDbSpline
 62
7
  6
CONTINUOUS
 70
0
 71
3
 72
20
 73
16
 74
0
 42
0.0000001
 43
0.0000001
 44
0.0000000001
 40
0.0
 40
0.0
 40
0.0
 40
0.0
 40
0.0734401236
 40
0.1381077252
 40
0.196796922
 40
0.253662917
 40
0.3145174624
 40
0.3827231332
 40
0.4593155124
 40
0.5438391671
 40
0.6343942261
 40
0.7281112619
 40
0.8228332678
 40
0.9144026824
 40
1.0
 40
1.0
 40
1.0
 40
1.0
 10
72.7862887902
 20
53.8594116684
 30
0.0
 10
72.8109049156
 20
54.130597197
 30
0.0
 10
72.9068834523
 20
54.6390859599
 30
0.0
 10
73.2314152214
 20
55.3047316434
 30
0.0
 10
73.7196940066
 20
55.7837984904
 30
0.0
 10
74.3427392493
 20
56.0326662105
 30
0.0
 10
75.0455817987
 20
56.0361485956
 30
0.0
 10
75.7830228046
 20
55.8097240576
 30
0.0
 10
76.520925965
 20
55.3751198144
 30
0.0
 10
77.2258629673
 20
54.7567555258
 30
0.0
 10
77.863684517
 20
53.9860396536
 30
0.0
 10
78.4035693266
 20
53.0996613075
 30
0.0
 10
78.8157307871
 20
52.1428550912
 30
0.0
 10
79.0769068135
 20
51.165425961
 30
0.0
 10
79.1418629625
 20
50.5076385705
 30
0.0
 10
79.1418630764
 20
50.1902617955
 30
0.0
  0
SPLINE
  5
4DD
100
AcDbEntity
  8
0
100
AcDbSpline
 62
7
  6
CONTINUOUS
 70
0
 71
3
 72
10
 73
6
 74
0
 42
0.0000001
 43
0.0000001
 44
0.0000000001
 40
0.0
 40
0.0
 40
0.0
 40
0.0
 40
0.3417172683
 40
0.6747799564
 40
1.0
 40
1.0
 40
1.0
 40
1.0
 10
81.1776129431
 20
54.4887366026
 30
0.0
 10
81.1749064747
 20
54.5108522235
 30
0.0
 10
81.1703794678
 20
54.5546288858
 30
0.0
 10
81.1662422798
 20
54.6197153794
 30
0.0
 10
81.1652967015
 20
54.6626417972
 30
0.0
 10
81.165296647
 20
54.6838467587
 30
0.0
  0
SPLINE
  5
4DE
100
AcDbEntity
  8
0
100
AcDbSpline
 62
7
  6
CONTINUOUS
 70
0
 71
3
 72
10
 73
6
 74
0
 42
0.0000001
 43
0.0000001
 44
0.0000000001
 40
0.0
 40
0.0
 40
0.0
 40
0.0
 40
0.3466235339
 40
0.6818386699
 40
1.0
 40
1.0
 40
1.0
 40
1.0
 10
81.3809591657
 20
53.8108512995
 30
0.0
 10
81.3459511425
 20
53.8850841922
 30
0.0
 10
81.2839344362
 20
54.0344770994
 30
0.0
 10
81.2152998024
 20
54.2614830216
 30
0.0
 10
81.1867639515
 20
54.4139601045
 30
0.0
 10
81.1776129431
 20
54.4887366026
 30
0.0
  0
SPLINE
  5
4DF
100
AcDbEntity
  8
0
100
AcDbSpline
 62
7
  6
CONTINUOUS
 70
0
 71
3
 72
20
 73
16
 74
0
 42
0.0000001
 43
0.0000001
 44
0.0000000001
 40
0.0
 40
0.0
 40
0.0
 40
0.0
 40
0.0849501563
 40
0.176409756
 40
0.2715025009
 40
0.366952145
 40
0.4595207152
 40
0.5460805372
 40
0.6242641007
 40
0.6930684296
 40
0.7534881785
 40
0.8090979435
 40
0.8655643365
 40
0.9281914012
 40
1.0
 40
1.0
 40
1.0
 40
1.0
 10
85.4248167678
 20
53.8211390327
 30
0.0
 10
85.4111279173
 20
54.1306494412
 30
0.0
 10
85.3182909551
 20
54.7712343359
 30
0.0
 10
85.0242559862
 20
55.720074259
 30
0.0
 10
84.5853538497
 20
56.6537306992
 30
0.0
 10
84.0245918192
 20
57.5243082446
 30
0.0
 10
83.3708561634
 20
58.2872993215
 30
0.0
 10
82.6575233488
 20
58.9032891734
 30
0.0
 10
81.9200707002
 20
59.3403737811
 30
0.0
 10
81.1924120101
 20
59.574805839
 30
0.0
 10
80.5053370688
 20
59.5861323961
 30
0.0
 10
79.9016309436
 20
59.3535031993
 30
0.0
 10
79.4409537317
 20
58.8889202089
 30
0.0
 10
79.1531006322
 20
58.2425332049
 30
0.0
 10
79.0817540004
 20
57.7520621983
 30
0.0
 10
79.0695613692
 20
57.4904604286
 30
0.0
  0
SPLINE
  5
4E0
100
AcDbEntity
  8
0
100
AcDbSpline
 62
7
  6
CONTINUOUS
 70
0
 71
3
 72
10
 73
6
 74
0
 42
0.0000001
 43
0.0000001
 44
0.0000000001
 40
0.0
 40
0.0
 40
0.0
 40
0.0
 40
0.3625846428
 40
0.693865704
 40
1.0
 40
1.0
 40
1.0
 40
1.0
 10
83.3166437608
 20
53.2534386648
 30
0.0
 10
83.3081996749
 20
53.1941933916
 30
0.0
 10
83.2830079299
 20
53.0817123344
 30
0.0
 10
83.2152325593
 20
52.9299025455
 30
0.0
 10
83.1497268499
 20
52.8457827202
 30
0.0
 10
83.1133839391
 20
52.8106804798
 30
0.0
  0
SPLINE
  5
4E1
100
AcDbEntity
  8
0
100
AcDbSpline
 62
7
  6
CONTINUOUS
 70
0
 71
3
 72
10
 73
6
 74
0
 42
0.0000001
 43
0.0000001
 44
0.0000000001
 40
0.0
 40
0.0
 40
0.0
 40
0.0
 40
0.3411697929
 40
0.6736073143
 40
1.0
 40
1.0
 40
1.0
 40
1.0
 10
83.3290268627
 20
53.4346520044
 30
0.0
 10
83.3290265507
 20
53.4139805842
 30
0.0
 10
83.3281124076
 20
53.3731608057
 30
0.0
 10
83.3240485115
 20
53.3126880362
 30
0.0
 10
83.3194341974
 20
53.2730168852
 30
0.0
 10
83.3166437608
 20
53.2534386648
 30
0.0
  0
SPLINE
  5
4E2
100
AcDbEntity
  8
0
100
AcDbSpline
 62
7
  6
CONTINUOUS
 70
0
 71
3
 72
10
 73
6
 74
0
 42
0.0000001
 43
0.0000001
 44
0.0000000001
 40
0.0
 40
0.0
 40
0.0
 40
0.0
 40
0.283298112
 40
0.6190131415
 40
1.0
 40
1.0
 40
1.0
 40
1.0
 10
83.2657090632
 20
53.8095917209
 30
0.0
 10
83.2622276297
 20
53.8034915046
 30
0.0
 10
83.257809432
 20
53.7883447446
 30
0.0
 10
83.25834563
 20
53.7633409405
 30
0.0
 10
83.2626363696
 20
53.7459457052
 30
0.0
 10
83.2657090632
 20
53.737013728
 30
0.0
  0
SPLINE
  5
4E3
100
AcDbEntity
  8
0
100
AcDbSpline
 62
7
  6
CONTINUOUS
 70
0
 71
3
 72
10
 73
6
 74
0
 42
0.0000001
 43
0.0000001
 44
0.0000000001
 40
0.0
 40
0.0
 40
0.0
 40
0.0
 40
0.3490849614
 40
0.6871092335
 40
1.0
 40
1.0
 40
1.0
 40
1.0
 10
82.9542842512
 20
56.1804958858
 30
0.0
 10
83.0250959138
 20
56.0689989096
 30
0.0
 10
83.1483288128
 20
55.8387452527
 30
0.0
 10
83.2752407596
 20
55.4808842545
 30
0.0
 10
83.3179891624
 20
55.2365672538
 30
0.0
 10
83.3257271063
 20
55.1184323478
 30
0.0
  0
SPLINE
  5
4E4
100
AcDbEntity
  8
0
100
AcDbSpline
 62
7
  6
CONTINUOUS
 70
0
 71
3
 72
10
 73
6
 74
0
 42
0.0000001
 43
0.0000001
 44
0.0000000001
 40
0.0
 40
0.0
 40
0.0
 40
0.0
 40
0.3759662042
 40
0.7013504803
 40
1.0
 40
1.0
 40
1.0
 40
1.0
 10
81.1686219458
 20
56.3638094186
 30
0.0
 10
81.1754369283
 20
56.459984421
 30
0.0
 10
81.2081945972
 20
56.6395051244
 30
0.0
 10
81.3348403107
 20
56.8692782755
 30
0.0
 10
81.4694487267
 20
56.967326958
 30
0.0
 10
81.5400648009
 20
56.9969773949
 30
0.0
  0
SPLINE
  5
4E5
100
AcDbEntity
  8
0
100
AcDbSpline
 62
7
  6
CONTINUOUS
 70
0
 71
3
 72
10
 73
6
 74
0
 42
0.0000001
 43
0.0000001
 44
0.0000000001
 40
0.0
 40
0.0
 40
0.0
 40
0.0
 40
0.2840634856
 40
0.6196754496
 40
1.0
 40
1.0
 40
1.0
 40
1.0
 10
81.2286392645
 20
54.9130903319
 30
0.0
 10
81.2320584452
 20
54.919241075
 30
0.0
 10
81.2363937978
 20
54.9343963083
 30
0.0
 10
81.2358775972
 20
54.9593747999
 30
0.0
 10
81.2316592789
 20
54.9767497043
 30
0.0
 10
81.228637747
 20
54.9856740049
 30
0.0
  0
SPLINE
  5
4E6
100
AcDbEntity
  8
0
100
AcDbSpline
 62
7
  6
CONTINUOUS
 70
0
 71
3
 72
12
 73
8
 74
0
 42
0.0000001
 43
0.0000001
 44
0.0000000001
 40
0.0
 40
0.0
 40
0.0
 40
0.0
 40
0.2454547052
 40
0.4738557256
 40
0.676327311
 40
0.8496189421
 40
1.0
 40
1.0
 40
1.0
 40
1.0
 10
86.4898034373
 20
58.2217166554
 30
0.0
 10
86.413150693
 20
58.3424069978
 30
0.0
 10
86.246044042
 20
58.5639957052
 30
0.0
 10
85.9561386476
 20
58.8340682308
 30
0.0
 10
85.6515280225
 20
59.0167508936
 30
0.0
 10
85.3507902801
 20
59.0987176009
 30
0.0
 10
85.156350194
 20
59.0721065131
 30
0.0
 10
85.075583987
 20
59.0381981644
 30
0.0
  0
SPLINE
  5
4E7
100
AcDbEntity
  8
0
100
AcDbSpline
 62
7
  6
CONTINUOUS
 70
0
 71
3
 72
10
 73
6
 74
0
 42
0.0000001
 43
0.0000001
 44
0.0000000001
 40
0.0
 40
0.0
 40
0.0
 40
0.0
 40
0.3128907664
 40
0.6509150386
 40
1.0
 40
1.0
 40
1.0
 40
1.0
 10
86.8612462923
 20
57.1596531158
 30
0.0
 10
86.8535083485
 20
57.277788022
 30
0.0
 10
86.810759946
 20
57.522105023
 30
0.0
 10
86.6838479991
 20
57.8799660218
 30
0.0
 10
86.5606151
 20
58.110219679
 30
0.0
 10
86.4898034373
 20
58.2217166554
 30
0.0
  0
SPLINE
  5
4E8
100
AcDbEntity
  8
0
100
AcDbSpline
 62
7
  6
CONTINUOUS
 70
0
 71
3
 72
10
 73
6
 74
0
 42
0.0000001
 43
0.0000001
 44
0.0000000001
 40
0.0
 40
0.0
 40
0.0
 40
0.0
 40
0.3809868585
 40
0.716701888
 40
1.0
 40
1.0
 40
1.0
 40
1.0
 10
86.8012282492
 20
55.7782344976
 30
0.0
 10
86.7981555557
 20
55.7871664747
 30
0.0
 10
86.7938648161
 20
55.80456171
 30
0.0
 10
86.793328618
 20
55.8295655141
 30
0.0
 10
86.7977468158
 20
55.8447122742
 30
0.0
 10
86.8012282492
 20
55.8508124904
 30
0.0
  0
SPLINE
  5
4E9
100
AcDbEntity
  8
0
100
AcDbSpline
 62
7
  6
CONTINUOUS
 70
0
 71
3
 72
10
 73
6
 74
0
 42
0.0000001
 43
0.0000001
 44
0.0000000001
 40
0.0
 40
0.0
 40
0.0
 40
0.0
 40
0.3263469127
 40
0.658737815
 40
1.0
 40
1.0
 40
1.0
 40
1.0
 10
86.852162947
 20
55.2946594349
 30
0.0
 10
86.8549533841
 20
55.3142376592
 30
0.0
 10
86.8595644358
 20
55.3539088903
 30
0.0
 10
86.8636439389
 20
55.4143898212
 30
0.0
 10
86.8645202037
 20
55.4552189575
 30
0.0
 10
86.8645205159
 20
55.4758988799
 30
0.0
  0
SPLINE
  5
4EA
100
AcDbEntity
  8
0
100
AcDbSpline
 62
7
  6
CONTINUOUS
 70
0
 71
3
 72
10
 73
6
 74
0
 42
0.0000001
 43
0.0000001
 44
0.0000000001
 40
0.0
 40
0.0
 40
0.0
 40
0.0
 40
0.3061821638
 40
0.6374403704
 40
1.0
 40
1.0
 40
1.0
 40
1.0
 10
86.6488818953
 20
54.8518744514
 30
0.0
 10
86.6852329986
 20
54.8869846046
 30
0.0
 10
86.7507464753
 20
54.9711131563
 30
0.0
 10
86.818527303
 20
55.1229329874
 30
0.0
 10
86.8437188606
 20
55.2354141583
 30
0.0
 10
86.852162947
 20
55.2946594349
 30
0.0
  0
SPLINE
  5
4EB
100
AcDbEntity
  8
0
100
AcDbSpline
 62
7
  6
CONTINUOUS
 70
0
 71
3
 72
10
 73
6
 74
0
 42
0.0000001
 43
0.0000001
 44
0.0000000001
 40
0.0
 40
0.0
 40
0.0
 40
0.0
 40
0.3181613297
 40
0.6533764651
 40
1.0
 40
1.0
 40
1.0
 40
1.0
 10
84.7131321293
 20
56.5299573716
 30
0.0
 10
84.7222831376
 20
56.4551808734
 30
0.0
 10
84.7508189889
 20
56.3027037907
 30
0.0
 10
84.8194536228
 20
56.0756978682
 30
0.0
 10
84.8814703286
 20
55.9263049605
 30
0.0
 10
84.916478352
 20
55.8520720675
 30
0.0
  0
SPLINE
  5
4EC
100
AcDbEntity
  8
0
100
AcDbSpline
 62
7
  6
CONTINUOUS
 70
0
 71
3
 72
10
 73
6
 74
0
 42
0.0000001
 43
0.0000001
 44
0.0000000001
 40
0.0
 40
0.0
 40
0.0
 40
0.0
 40
0.3252200441
 40
0.6582827317
 40
1.0
 40
1.0
 40
1.0
 40
1.0
 10
84.7008158331
 20
56.7250675254
 30
0.0
 10
84.7008158875
 20
56.7038625641
 30
0.0
 10
84.7017614659
 20
56.6609361468
 30
0.0
 10
84.7058986539
 20
56.595849654
 30
0.0
 10
84.7104256609
 20
56.5520729922
 30
0.0
 10
84.7131321293
 20
56.5299573716
 30
0.0
  0
SPLINE
  5
4ED
100
AcDbEntity
  8
0
100
AcDbSpline
 62
7
  6
CONTINUOUS
 70
0
 71
3
 72
10
 73
6
 74
0
 42
0.0000001
 43
0.0000001
 44
0.0000000001
 40
0.0
 40
0.0
 40
0.0
 40
0.0
 40
0.3803245505
 40
0.7159365144
 40
1.0
 40
1.0
 40
1.0
 40
1.0
 10
84.7641569332
 20
57.0268947743
 30
0.0
 10
84.7671784651
 20
57.0179704737
 30
0.0
 10
84.7713967833
 20
57.0005955693
 30
0.0
 10
84.7719129839
 20
56.9756170777
 30
0.0
 10
84.7675776313
 20
56.9604618445
 30
0.0
 10
84.7641584506
 20
56.9543111015
 30
0.0
  0
SPLINE
  5
4EE
100
AcDbEntity
  8
0
100
AcDbSpline
 62
7
  6
CONTINUOUS
 70
0
 71
3
 72
10
 73
6
 74
0
 42
0.0000001
 43
0.0000001
 44
0.0000000001
 40
0.0
 40
0.0
 40
0.0
 40
0.0
 40
0.2986495196
 40
0.6240337956
 40
1.0
 40
1.0
 40
1.0
 40
1.0
 10
85.075583987
 20
59.0381981644
 30
0.0
 10
85.0049679126
 20
59.0085477275
 30
0.0
 10
84.8703594964
 20
58.9104990448
 30
0.0
 10
84.7437137829
 20
58.6807258931
 30
0.0
 10
84.7109561144
 20
58.5012051892
 30
0.0
 10
84.7041411319
 20
58.4050301866
 30
0.0
  0
SPLINE
  5
4EF
100
AcDbEntity
  8
0
100
AcDbSpline
 62
7
  6
CONTINUOUS
 70
0
 71
3
 72
12
 73
8
 74
0
 42
0.0000001
 43
0.0000001
 44
0.0000000001
 40
0.0
 40
0.0
 40
0.0
 40
0.0
 40
0.150397061
 40
0.3237011437
 40
0.5261771787
 40
0.7545694148
 40
1.0
 40
1.0
 40
1.0
 40
1.0
 10
84.1563489986
 20
58.5074807644
 30
0.0
 10
84.2371237802
 20
58.541392713
 30
0.0
 10
84.4315830364
 20
58.5680007503
 30
0.0
 10
84.7323356471
 20
58.4860152837
 30
0.0
 10
85.036943471
 20
58.3033195306
 30
0.0
 10
85.3268301476
 20
58.0332519814
 30
0.0
 10
85.4939232563
 20
57.8116777078
 30
0.0
 10
85.5705684489
 20
57.6909992554
 30
0.0
  0
SPLINE
  5
4F0
100
AcDbEntity
  8
0
100
AcDbSpline
 62
7
  6
CONTINUOUS
 70
0
 71
3
 72
11
 73
7
 74
0
 42
0.0000001
 43
0.0000001
 44
0.0000000001
 40
0.0
 40
0.0
 40
0.0
 40
0.0
 40
0.2692314989
 40
0.5285698776
 40
0.7733501801
 40
1.0
 40
1.0
 40
1.0
 40
1.0
 10
78.2034187581
 20
135.1350461523
 30
0.0
 10
77.9409427139
 20
134.7575761748
 30
0.0
 10
77.3876849397
 20
134.0419623563
 30
0.0
 10
76.4704120338
 20
133.0880693943
 30
0.0
 10
75.5031063106
 20
132.2948798311
 30
0.0
 10
74.814416728
 20
131.8711715575
 30
0.0
 10
74.4689381098
 20
131.696682563
 30
0.0
  0
SPLINE
  5
4F1
100
AcDbEntity
  8
0
100
AcDbSpline
 62
7
  6
CONTINUOUS
 70
0
 71
3
 72
10
 73
6
 74
0
 42
0.0000001
 43
0.0000001
 44
0.0000000001
 40
0.0
 40
0.0
 40
0.0
 40
0.0
 40
0.3198937934
 40
0.653651043
 40
1.0
 40
1.0
 40
1.0
 40
1.0
 10
30.4163690513
 20
106.4136066712
 30
0.0
 10
30.4277601929
 20
106.4201833106
 30
0.0
 10
30.4504831594
 20
106.4345985274
 30
0.0
 10
30.4834919879
 20
106.459168112
 30
0.0
 10
30.5047414578
 20
106.4773850528
 30
0.0
 10
30.515254688
 20
106.4869913732
 30
0.0
  0
SPLINE
  5
4F2
100
AcDbEntity
  8
0
100
AcDbSpline
 62
7
  6
CONTINUOUS
 70
0
 71
3
 72
11
 73
7
 74
0
 42
0.0000001
 43
0.0000001
 44
0.0000000001
 40
0.0
 40
0.0
 40
0.0
 40
0.0
 40
0.2773278919
 40
0.5000030368
 40
0.7226761673
 40
1.0
 40
1.0
 40
1.0
 40
1.0
 10
29.355713295
 20
106.20949165
 30
0.0
 10
29.355713295
 20
106.1614039593
 30
0.0
 10
29.3674468536
 20
106.0725674807
 30
0.0
 10
29.4517618192
 20
105.9676035224
 30
0.0
 10
29.584819702
 20
105.9470631839
 30
0.0
 10
29.6676205993
 20
105.9813191313
 30
0.0
 10
29.7092652137
 20
106.0053625171
 30
0.0
  0
SPLINE
  5
4F3
100
AcDbEntity
  8
0
100
AcDbSpline
 62
7
  6
CONTINUOUS
 70
0
 71
3
 72
11
 73
7
 74
0
 42
0.0000001
 43
0.0000001
 44
0.0000000001
 40
0.0
 40
0.0
 40
0.0
 40
0.0
 40
0.2392832121
 40
0.4999983821
 40
0.7607144186
 40
1.0
 40
1.0
 40
1.0
 40
1.0
 10
29.7092652137
 20
110.9043770199
 30
0.0
 10
29.6586388236
 20
110.8751480344
 30
0.0
 10
29.5637419404
 20
110.7950498438
 30
0.0
 10
29.4533192105
 20
110.6439001654
 30
0.0
 10
29.3776317717
 20
110.4726955089
 30
0.0
 10
29.355713295
 20
110.3504625445
 30
0.0
 10
29.355713295
 20
110.292003733
 30
0.0
  0
SPLINE
  5
4F4
100
AcDbEntity
  8
0
100
AcDbSpline
 62
7
  6
CONTINUOUS
 70
0
 71
3
 72
10
 73
6
 74
0
 42
0.0000001
 43
0.0000001
 44
0.0000000001
 40
0.0
 40
0.0
 40
0.0
 40
0.0
 40
0.3158698459
 40
0.6491868153
 40
1.0
 40
1.0
 40
1.0
 40
1.0
 10
30.515254688
 20
111.3534190883
 30
0.0
 10
30.5042718798
 20
111.3507727004
 30
0.0
 10
30.4819980167
 20
111.344034638
 30
0.0
 10
30.448926665
 20
111.3302924894
 30
0.0
 10
30.4272350001
 20
111.318894595
 30
0.0
 10
30.4163690513
 20
111.312621174
 30
0.0
  0
SPLINE
  5
4F5
100
AcDbEntity
  8
0
100
AcDbSpline
 62
7
  6
CONTINUOUS
 70
0
 71
3
 72
10
 73
6
 74
0
 42
0.0000001
 43
0.0000001
 44
0.0000000001
 40
0.0
 40
0.0
 40
0.0
 40
0.0
 40
0.3155555795
 40
0.6475247669
 40
1.0
 40
1.0
 40
1.0
 40
1.0
 10
33.4508946778
 20
111.4158631175
 30
0.0
 10
33.1478827947
 20
111.4876169735
 30
0.0
 10
32.5113439839
 20
111.577472443
 30
0.0
 10
31.521220856
 20
111.5519124291
 30
0.0
 10
30.8534009562
 20
111.4348979041
 30
0.0
 10
30.515254688
 20
111.3534190883
 30
0.0
  0
SPLINE
  5
4F6
100
AcDbEntity
  8
0
100
AcDbSpline
 62
7
  6
CONTINUOUS
 70
0
 71
3
 72
13
 73
9
 74
0
 42
0.0000001
 43
0.0000001
 44
0.0000000001
 40
0.0
 40
0.0
 40
0.0
 40
0.0
 40
0.2090556525
 40
0.4106471171
 40
0.5928678486
 40
0.7485334708
 40
0.8792682092
 40
1.0
 40
1.0
 40
1.0
 40
1.0
 10
33.4508946778
 20
109.8143121866
 30
0.0
 10
33.5253116212
 20
109.9178630482
 30
0.0
 10
33.6527499171
 20
110.1354265611
 30
0.0
 10
33.7767898772
 20
110.4773253553
 30
0.0
 10
33.8239965335
 20
110.8058948211
 30
0.0
 10
33.7893620171
 20
111.0940815374
 30
0.0
 10
33.6651996441
 20
111.3199284149
 30
0.0
 10
33.5225554384
 20
111.3988936976
 30
0.0
 10
33.4508946778
 20
111.4158631175
 30
0.0
  0
SPLINE
  5
4F7
100
AcDbEntity
  8
0
100
AcDbSpline
 62
7
  6
CONTINUOUS
 70
0
 71
3
 72
10
 73
6
 74
0
 42
0.0000001
 43
0.0000001
 44
0.0000000001
 40
0.0
 40
0.0
 40
0.0
 40
0.0
 40
0.3246976273
 40
0.6588651875
 40
1.0
 40
1.0
 40
1.0
 40
1.0
 10
30.515254688
 20
106.4869913732
 30
0.0
 10
30.8703519116
 20
106.8114566086
 30
0.0
 10
31.5660052318
 20
107.4975781228
 30
0.0
 10
32.5458378727
 20
108.6100373293
 30
0.0
 10
33.1559743
 20
109.4039317299
 30
0.0
 10
33.4508946778
 20
109.8143121866
 30
0.0
  0
SPLINE
  5
4F8
100
AcDbEntity
  8
0
100
AcDbSpline
 62
7
  6
CONTINUOUS
 70
0
 71
3
 72
11
 73
7
 74
0
 42
0.0000001
 43
0.0000001
 44
0.0000000001
 40
0.0
 40
0.0
 40
0.0
 40
0.0
 40
0.2392832117
 40
0.4999983817
 40
0.7607144183
 40
1.0
 40
1.0
 40
1.0
 40
1.0
 10
29.7092652136
 20
90.6551170744
 30
0.0
 10
29.6586388237
 20
90.6258880891
 30
0.0
 10
29.5637419404
 20
90.5457898995
 30
0.0
 10
29.4533192106
 20
90.3946402217
 30
0.0
 10
29.3776317717
 20
90.2234355657
 30
0.0
 10
29.355713295
 20
90.1012026016
 30
0.0
 10
29.355713295
 20
90.0427437902
 30
0.0
  0
SPLINE
  5
4F9
100
AcDbEntity
  8
0
100
AcDbSpline
 62
7
  6
CONTINUOUS
 70
0
 71
3
 72
10
 73
6
 74
0
 42
0.0000001
 43
0.0000001
 44
0.0000000001
 40
0.0
 40
0.0
 40
0.0
 40
0.0
 40
0.3158698391
 40
0.6491868046
 40
1.0
 40
1.0
 40
1.0
 40
1.0
 10
30.515254688
 20
91.1041591444
 30
0.0
 10
30.5042718798
 20
91.1015127565
 30
0.0
 10
30.4819980166
 20
91.0947746944
 30
0.0
 10
30.4489266644
 20
91.0810325451
 30
0.0
 10
30.4272349995
 20
91.0696346493
 30
0.0
 10
30.4163690502
 20
91.063361228
 30
0.0
  0
SPLINE
  5
4FA
100
AcDbEntity
  8
0
100
AcDbSpline
 62
7
  6
CONTINUOUS
 70
0
 71
3
 72
10
 73
6
 74
0
 42
0.0000001
 43
0.0000001
 44
0.0000000001
 40
0.0
 40
0.0
 40
0.0
 40
0.0
 40
0.3155555796
 40
0.6475247671
 40
1.0
 40
1.0
 40
1.0
 40
1.0
 10
33.4508946779
 20
91.1666031736
 30
0.0
 10
33.1478827946
 20
91.2383570296
 30
0.0
 10
32.5113439834
 20
91.3282124972
 30
0.0
 10
31.5212208559
 20
91.3026524835
 30
0.0
 10
30.853400956
 20
91.1856379601
 30
0.0
 10
30.515254688
 20
91.1041591444
 30
0.0
  0
SPLINE
  5
4FB
100
AcDbEntity
  8
0
100
AcDbSpline
 62
7
  6
CONTINUOUS
 70
0
 71
3
 72
13
 73
9
 74
0
 42
0.0000001
 43
0.0000001
 44
0.0000000001
 40
0.0
 40
0.0
 40
0.0
 40
0.0
 40
0.2090556525
 40
0.4106471171
 40
0.5928678486
 40
0.7485334708
 40
0.8792682092
 40
1.0
 40
1.0
 40
1.0
 40
1.0
 10
33.4508946778
 20
89.5650522412
 30
0.0
 10
33.5253116213
 20
89.6686031029
 30
0.0
 10
33.6527499171
 20
89.8861666161
 30
0.0
 10
33.7767898772
 20
90.2280654105
 30
0.0
 10
33.8239965335
 20
90.5566348764
 30
0.0
 10
33.7893620171
 20
90.844821593
 30
0.0
 10
33.6651996441
 20
91.0706684706
 30
0.0
 10
33.5225554385
 20
91.1496337536
 30
0.0
 10
33.4508946779
 20
91.1666031736
 30
0.0
  0
SPLINE
  5
4FC
100
AcDbEntity
  8
0
100
AcDbSpline
 62
7
  6
CONTINUOUS
 70
0
 71
3
 72
10
 73
6
 74
0
 42
0.0000001
 43
0.0000001
 44
0.0000000001
 40
0.0
 40
0.0
 40
0.0
 40
0.0
 40
0.3246976273
 40
0.6588651875
 40
1.0
 40
1.0
 40
1.0
 40
1.0
 10
30.515254688
 20
86.2377314278
 30
0.0
 10
30.8703519116
 20
86.5621966632
 30
0.0
 10
31.5660052317
 20
87.2483181774
 30
0.0
 10
32.5458378727
 20
88.3607773839
 30
0.0
 10
33.1559743
 20
89.1546717846
 30
0.0
 10
33.4508946778
 20
89.5650522412
 30
0.0
  0
SPLINE
  5
4FD
100
AcDbEntity
  8
0
100
AcDbSpline
 62
7
  6
CONTINUOUS
 70
0
 71
3
 72
10
 73
6
 74
0
 42
0.0000001
 43
0.0000001
 44
0.0000000001
 40
0.0
 40
0.0
 40
0.0
 40
0.0
 40
0.3198965515
 40
0.6536480229
 40
1.0
 40
1.0
 40
1.0
 40
1.0
 10
30.4163690513
 20
86.1643467258
 30
0.0
 10
30.4277602914
 20
86.1709234221
 30
0.0
 10
30.450483161
 20
86.1853385612
 30
0.0
 10
30.4834919901
 20
86.2099081461
 30
0.0
 10
30.5047413659
 20
86.2281250235
 30
0.0
 10
30.515254688
 20
86.2377314278
 30
0.0
  0
SPLINE
  5
4FE
100
AcDbEntity
  8
0
100
AcDbSpline
 62
7
  6
CONTINUOUS
 70
0
 71
3
 72
11
 73
7
 74
0
 42
0.0000001
 43
0.0000001
 44
0.0000000001
 40
0.0
 40
0.0
 40
0.0
 40
0.0
 40
0.2773278921
 40
0.5000030371
 40
0.7226761678
 40
1.0
 40
1.0
 40
1.0
 40
1.0
 10
29.355713295
 20
85.9602317046
 30
0.0
 10
29.3557132951
 20
85.9121440138
 30
0.0
 10
29.3674468536
 20
85.8233075353
 30
0.0
 10
29.4517618192
 20
85.7183435769
 30
0.0
 10
29.5848197018
 20
85.6978032384
 30
0.0
 10
29.6676205991
 20
85.7320591858
 30
0.0
 10
29.7092652133
 20
85.7561025715
 30
0.0
  0
SPLINE
  5
4FF
100
AcDbEntity
  8
0
100
AcDbSpline
 62
7
  6
CONTINUOUS
 70
0
 71
3
 72
11
 73
7
 74
0
 42
0.0000001
 43
0.0000001
 44
0.0000000001
 40
0.0
 40
0.0
 40
0.0
 40
0.0
 40
0.2392832118
 40
0.4999983819
 40
0.7607144185
 40
1.0
 40
1.0
 40
1.0
 40
1.0
 10
29.7092652136
 20
57.0152174893
 30
0.0
 10
29.6586388236
 20
56.9859885039
 30
0.0
 10
29.5637419403
 20
56.9058903139
 30
0.0
 10
29.4533192104
 20
56.7547406358
 30
0.0
 10
29.3776317715
 20
56.5835359795
 30
0.0
 10
29.355713295
 20
56.4613030152
 30
0.0
 10
29.355713295
 20
56.4028442038
 30
0.0
  0
SPLINE
  5
500
100
AcDbEntity
  8
0
100
AcDbSpline
 62
7
  6
CONTINUOUS
 70
0
 71
3
 72
10
 73
6
 74
0
 42
0.0000001
 43
0.0000001
 44
0.0000000001
 40
0.0
 40
0.0
 40
0.0
 40
0.0
 40
0.315891469
 40
0.6492084845
 40
1.0
 40
1.0
 40
1.0
 40
1.0
 10
30.515254688
 20
57.4642595578
 30
0.0
 10
30.5042712116
 20
57.4616130088
 30
0.0
 10
30.4819984775
 20
57.4548687702
 30
0.0
 10
30.4489275807
 20
57.4411275336
 30
0.0
 10
30.4272342457
 20
57.4297346289
 30
0.0
 10
30.4163690508
 20
57.4234616432
 30
0.0
  0
SPLINE
  5
501
100
AcDbEntity
  8
0
100
AcDbSpline
 62
7
  6
CONTINUOUS
 70
0
 71
3
 72
10
 73
6
 74
0
 42
0.0000001
 43
0.0000001
 44
0.0000000001
 40
0.0
 40
0.0
 40
0.0
 40
0.0
 40
0.3155556418
 40
0.6475248395
 40
1.0
 40
1.0
 40
1.0
 40
1.0
 10
33.4508946778
 20
57.5267035869
 30
0.0
 10
33.1478827536
 20
57.5984574526
 30
0.0
 10
32.5113437688
 20
57.6883120843
 30
0.0
 10
31.5212208103
 20
57.6627521684
 30
0.0
 10
30.8534008656
 20
57.5457383517
 30
0.0
 10
30.515254688
 20
57.4642595578
 30
0.0
  0
SPLINE
  5
502
100
AcDbEntity
  8
0
100
AcDbSpline
 62
7
  6
CONTINUOUS
 70
0
 71
3
 72
13
 73
9
 74
0
 42
0.0000001
 43
0.0000001
 44
0.0000000001
 40
0.0
 40
0.0
 40
0.0
 40
0.0
 40
0.2090556525
 40
0.4106471171
 40
0.5928678486
 40
0.7485334708
 40
0.8792682092
 40
1.0
 40
1.0
 40
1.0
 40
1.0
 10
33.4508946778
 20
55.9251526561
 30
0.0
 10
33.5253116213
 20
56.0287035177
 30
0.0
 10
33.652749917
 20
56.2462670306
 30
0.0
 10
33.7767898771
 20
56.5881658247
 30
0.0
 10
33.8239965334
 20
56.9167352904
 30
0.0
 10
33.789362017
 20
57.2049220067
 30
0.0
 10
33.665199644
 20
57.4307688841
 30
0.0
 10
33.5225554384
 20
57.509734167
 30
0.0
 10
33.4508946778
 20
57.5267035869
 30
0.0
  0
SPLINE
  5
503
100
AcDbEntity
  8
0
100
AcDbSpline
 62
7
  6
CONTINUOUS
 70
0
 71
3
 72
10
 73
6
 74
0
 42
0.0000001
 43
0.0000001
 44
0.0000000001
 40
0.0
 40
0.0
 40
0.0
 40
0.0
 40
0.3246976615
 40
0.6588652154
 40
1.0
 40
1.0
 40
1.0
 40
1.0
 10
30.515254688
 20
52.5978318427
 30
0.0
 10
30.8703519448
 20
52.9222971083
 30
0.0
 10
31.5660049112
 20
53.6084190336
 30
0.0
 10
32.5458375407
 20
54.7208781835
 30
0.0
 10
33.1559743277
 20
55.5147722379
 30
0.0
 10
33.4508946778
 20
55.9251526561
 30
0.0
  0
SPLINE
  5
504
100
AcDbEntity
  8
0
100
AcDbSpline
 62
7
  6
CONTINUOUS
 70
0
 71
3
 72
10
 73
6
 74
0
 42
0.0000001
 43
0.0000001
 44
0.0000000001
 40
0.0
 40
0.0
 40
0.0
 40
0.0
 40
0.3199135754
 40
0.653664
 40
1.0
 40
1.0
 40
1.0
 40
1.0
 10
30.4163690508
 20
52.5244471404
 30
0.0
 10
30.4277608477
 20
52.5310241581
 30
0.0
 10
30.450481389
 20
52.5454441105
 30
0.0
 10
30.4834900781
 20
52.5700130405
 30
0.0
 10
30.5047418965
 20
52.5882259231
 30
0.0
 10
30.515254688
 20
52.5978318427
 30
0.0
  0
SPLINE
  5
505
100
AcDbEntity
  8
0
100
AcDbSpline
 62
7
  6
CONTINUOUS
 70
0
 71
3
 72
11
 73
7
 74
0
 42
0.0000001
 43
0.0000001
 44
0.0000000001
 40
0.0
 40
0.0
 40
0.0
 40
0.0
 40
0.2773278913
 40
0.5000030364
 40
0.7226761674
 40
1.0
 40
1.0
 40
1.0
 40
1.0
 10
29.355713295
 20
52.3203321181
 30
0.0
 10
29.355713295
 20
52.2722444278
 30
0.0
 10
29.3674468547
 20
52.1834079498
 30
0.0
 10
29.4517618202
 20
52.0784439925
 30
0.0
 10
29.5848197023
 20
52.0579036542
 30
0.0
 10
29.6676205995
 20
52.0921596008
 30
0.0
 10
29.7092652136
 20
52.1162029865
 30
0.0
  0
SPLINE
  5
506
100
AcDbEntity
  8
0
100
AcDbSpline
 62
7
  6
CONTINUOUS
 70
0
 71
3
 72
11
 73
7
 74
0
 42
0.0000001
 43
0.0000001
 44
0.0000000001
 40
0.0
 40
0.0
 40
0.0
 40
0.0
 40
0.2266498199
 40
0.4714301223
 40
0.730768501
 40
1.0
 40
1.0
 40
1.0
 40
1.0
 10
75.7875093372
 20
130.935422332
 30
0.0
 10
76.1329879554
 20
131.1099113265
 30
0.0
 10
76.8216775379
 20
131.5336196001
 30
0.0
 10
77.788983261
 20
132.3268091633
 30
0.0
 10
78.706256167
 20
133.2807021254
 30
0.0
 10
79.2595139412
 20
133.9963159441
 30
0.0
 10
79.5219899856
 20
134.3737859218
 30
0.0
  0
SPLINE
  5
507
100
AcDbEntity
  8
0
100
AcDbSpline
 62
7
  6
CONTINUOUS
 70
0
 71
3
 72
11
 73
7
 74
0
 42
0.0000001
 43
0.0000001
 44
0.0000000001
 40
0.0
 40
0.0
 40
0.0
 40
0.0
 40
0.277323833
 40
0.4999969636
 40
0.7226721083
 40
1.0
 40
1.0
 40
1.0
 40
1.0
 10
30.43008014
 20
105.5892092405
 30
0.0
 10
30.3884355256
 20
105.5651658547
 30
0.0
 10
30.3056346285
 20
105.530909907
 30
0.0
 10
30.1725767457
 20
105.551450245
 30
0.0
 10
30.08826178
 20
105.6564142031
 30
0.0
 10
30.0765282214
 20
105.7452506815
 30
0.0
 10
30.0765282214
 20
105.7933383722
 30
0.0
  0
SPLINE
  5
508
100
AcDbEntity
  8
0
100
AcDbSpline
 62
7
  6
CONTINUOUS
 70
0
 71
3
 72
10
 73
6
 74
0
 42
0.0000001
 43
0.0000001
 44
0.0000000001
 40
0.0
 40
0.0
 40
0.0
 40
0.0
 40
0.3463519737
 40
0.6801034447
 40
1.0
 40
1.0
 40
1.0
 40
1.0
 10
31.2360696132
 20
106.0708380955
 30
0.0
 10
31.2255562913
 20
106.0612316913
 30
0.0
 10
31.2043069158
 20
106.0430148142
 30
0.0
 10
31.1712980869
 20
106.0184452295
 30
0.0
 10
31.1485752173
 20
106.0040300907
 30
0.0
 10
31.1371839772
 20
105.9974533944
 30
0.0
  0
SPLINE
  5
509
100
AcDbEntity
  8
0
100
AcDbSpline
 62
7
  6
CONTINUOUS
 70
0
 71
3
 72
10
 73
6
 74
0
 42
0.0000001
 43
0.0000001
 44
0.0000000001
 40
0.0
 40
0.0
 40
0.0
 40
0.0
 40
0.3411348125
 40
0.6753023727
 40
1.0
 40
1.0
 40
1.0
 40
1.0
 10
34.1717096033
 20
109.3981589094
 30
0.0
 10
33.8767892255
 20
108.9877784527
 30
0.0
 10
33.266652798
 20
108.1938840522
 30
0.0
 10
32.2868201569
 20
107.0814248456
 30
0.0
 10
31.591166837
 20
106.3953033309
 30
0.0
 10
31.2360696132
 20
106.0708380955
 30
0.0
  0
SPLINE
  5
50A
100
AcDbEntity
  8
0
100
AcDbSpline
 62
7
  6
CONTINUOUS
 70
0
 71
3
 72
13
 73
9
 74
0
 42
0.0000001
 43
0.0000001
 44
0.0000000001
 40
0.0
 40
0.0
 40
0.0
 40
0.0
 40
0.120718749
 40
0.2514419882
 40
0.4070989343
 40
0.5893191381
 40
0.7909218237
 40
1.0
 40
1.0
 40
1.0
 40
1.0
 10
34.1717096031
 20
110.9997098408
 30
0.0
 10
34.243362652
 20
110.982742247
 30
0.0
 10
34.3859939735
 20
110.9037905875
 30
0.0
 10
34.5101628103
 20
110.6779716169
 30
0.0
 10
34.5448128553
 20
110.3897987849
 30
0.0
 10
34.4976196297
 20
110.0612256686
 30
0.0
 10
34.3735814744
 20
109.7193040062
 30
0.0
 10
34.2461345948
 20
109.5017209698
 30
0.0
 10
34.1717096033
 20
109.3981589094
 30
0.0
  0
SPLINE
  5
50B
100
AcDbEntity
  8
0
100
AcDbSpline
 62
7
  6
CONTINUOUS
 70
0
 71
3
 72
10
 73
6
 74
0
 42
0.0000001
 43
0.0000001
 44
0.0000000001
 40
0.0
 40
0.0
 40
0.0
 40
0.0
 40
0.352475233
 40
0.6844444205
 40
1.0
 40
1.0
 40
1.0
 40
1.0
 10
31.2360696139
 20
110.9372658119
 30
0.0
 10
31.5742158819
 20
111.0187446276
 30
0.0
 10
32.2420357816
 20
111.135759152
 30
0.0
 10
33.2321589091
 20
111.1613191658
 30
0.0
 10
33.86869772
 20
111.0714636968
 30
0.0
 10
34.1717096031
 20
110.9997098408
 30
0.0
  0
SPLINE
  5
50C
100
AcDbEntity
  8
0
100
AcDbSpline
 62
7
  6
CONTINUOUS
 70
0
 71
3
 72
10
 73
6
 74
0
 42
0.0000001
 43
0.0000001
 44
0.0000000001
 40
0.0
 40
0.0
 40
0.0
 40
0.0
 40
0.3508131871
 40
0.6841301537
 40
1.0
 40
1.0
 40
1.0
 40
1.0
 10
31.1371839772
 20
110.8964678972
 30
0.0
 10
31.1480499261
 20
110.9027413182
 30
0.0
 10
31.1697415909
 20
110.9141392129
 30
0.0
 10
31.2028129426
 20
110.9278813615
 30
0.0
 10
31.2250868056
 20
110.934619424
 30
0.0
 10
31.2360696139
 20
110.9372658119
 30
0.0
  0
SPLINE
  5
50D
100
AcDbEntity
  8
0
100
AcDbSpline
 62
7
  6
CONTINUOUS
 70
0
 71
3
 72
11
 73
7
 74
0
 42
0.0000001
 43
0.0000001
 44
0.0000000001
 40
0.0
 40
0.0
 40
0.0
 40
0.0
 40
0.2392855815
 40
0.5000016181
 40
0.7607167881
 40
1.0
 40
1.0
 40
1.0
 40
1.0
 10
30.0765282214
 20
109.8758504578
 30
0.0
 10
30.0765282214
 20
109.9343092692
 30
0.0
 10
30.098446698
 20
110.0565422335
 30
0.0
 10
30.1741341369
 20
110.2277468898
 30
0.0
 10
30.2845568668
 20
110.3788965678
 30
0.0
 10
30.37945375
 20
110.4589947579
 30
0.0
 10
30.43008014
 20
110.4882237433
 30
0.0
  0
SPLINE
  5
50E
100
AcDbEntity
  8
0
100
AcDbSpline
 62
7
  6
CONTINUOUS
 70
0
 71
3
 72
10
 73
6
 74
0
 42
0.0000001
 43
0.0000001
 44
0.0000000001
 40
0.0
 40
0.0
 40
0.0
 40
0.0
 40
0.3120766016
 40
0.6452924724
 40
1.0
 40
1.0
 40
1.0
 40
1.0
 10
31.361901483
 20
110.6351050889
 30
0.0
 10
31.348823623
 20
110.6329345937
 30
0.0
 10
31.3220918654
 20
110.626426326
 30
0.0
 10
31.2823306584
 20
110.611228558
 30
0.0
 10
31.2562985646
 20
110.5978122386
 30
0.0
 10
31.2432495533
 20
110.5902784334
 30
0.0
  0
SPLINE
  5
50F
100
AcDbEntity
  8
0
100
AcDbSpline
 62
7
  6
CONTINUOUS
 70
0
 71
3
 72
10
 73
6
 74
0
 42
0.0000001
 43
0.0000001
 44
0.0000000001
 40
0.0
 40
0.0
 40
0.0
 40
0.0
 40
0.3195164788
 40
0.6518687183
 40
1.0
 40
1.0
 40
1.0
 40
1.0
 10
33.6980201595
 20
110.5954268861
 30
0.0
 10
33.4539894403
 20
110.6508262591
 30
0.0
 10
32.9471620919
 20
110.7272028081
 30
0.0
 10
32.1620759206
 20
110.738282107
 30
0.0
 10
31.6308729179
 20
110.6797455119
 30
0.0
 10
31.361901483
 20
110.6351050889
 30
0.0
  0
SPLINE
  5
510
100
AcDbEntity
  8
0
100
AcDbSpline
 62
7
  6
CONTINUOUS
 70
0
 71
3
 72
10
 73
6
 74
0
 42
0.0000001
 43
0.0000001
 44
0.0000000001
 40
0.0
 40
0.0
 40
0.0
 40
0.0
 40
0.3834910436
 40
0.704461995
 40
1.0
 40
1.0
 40
1.0
 40
1.0
 10
34.000954518
 20
110.1003494699
 30
0.0
 10
34.0009545223
 20
110.1801284891
 30
0.0
 10
33.9831548054
 20
110.3283448697
 30
0.0
 10
33.8779455389
 20
110.5169667861
 30
0.0
 10
33.7579764129
 20
110.5818157356
 30
0.0
 10
33.6980201595
 20
110.5954268861
 30
0.0
  0
SPLINE
  5
511
100
AcDbEntity
  8
0
100
AcDbSpline
 62
7
  6
CONTINUOUS
 70
0
 71
3
 72
10
 73
6
 74
0
 42
0.0000001
 43
0.0000001
 44
0.0000000001
 40
0.0
 40
0.0
 40
0.0
 40
0.0
 40
0.3510498074
 40
0.6915704063
 40
1.0
 40
1.0
 40
1.0
 40
1.0
 10
33.6980201594
 20
109.255475673
 30
0.0
 10
33.7604318662
 20
109.341710657
 30
0.0
 10
33.8676832532
 20
109.5235991003
 30
0.0
 10
33.9723556438
 20
109.8098070665
 30
0.0
 10
34.0009545129
 20
110.006822963
 30
0.0
 10
34.000954518
 20
110.1003494699
 30
0.0
  0
SPLINE
  5
512
100
AcDbEntity
  8
0
100
AcDbSpline
 62
7
  6
CONTINUOUS
 70
0
 71
3
 72
10
 73
6
 74
0
 42
0.0000001
 43
0.0000001
 44
0.0000000001
 40
0.0
 40
0.0
 40
0.0
 40
0.0
 40
0.3269576405
 40
0.6608394103
 40
1.0
 40
1.0
 40
1.0
 40
1.0
 10
31.361901483
 20
106.5182960788
 30
0.0
 10
31.6410688147
 20
106.7943162159
 30
0.0
 10
32.1889736422
 20
107.3689728082
 30
0.0
 10
32.9683458209
 20
108.2830708724
 30
0.0
 10
33.4592587279
 20
108.9255762155
 30
0.0
 10
33.6980201594
 20
109.255475673
 30
0.0
  0
SPLINE
  5
513
100
AcDbEntity
  8
0
100
AcDbSpline
 62
7
  6
CONTINUOUS
 70
0
 71
3
 72
10
 73
6
 74
0
 42
0.0000001
 43
0.0000001
 44
0.0000000001
 40
0.0
 40
0.0
 40
0.0
 40
0.0
 40
0.3177263463
 40
0.6517165695
 40
1.0
 40
1.0
 40
1.0
 40
1.0
 10
31.2432495533
 20
106.4261161049
 30
0.0
 10
31.2570636739
 20
106.4340916436
 30
0.0
 10
31.284584802
 20
106.4518925928
 30
0.0
 10
31.3242119668
 20
106.4828024764
 30
0.0
 10
31.3494676649
 20
106.5060024334
 30
0.0
 10
31.361901483
 20
106.5182960788
 30
0.0
  0
SPLINE
  5
514
100
AcDbEntity
  8
0
100
AcDbSpline
 62
7
  6
CONTINUOUS
 70
0
 71
3
 72
11
 73
7
 74
0
 42
0.0000001
 43
0.0000001
 44
0.0000000001
 40
0.0
 40
0.0
 40
0.0
 40
0.0
 40
0.2773278917
 40
0.5000030367
 40
0.7226761676
 40
1.0
 40
1.0
 40
1.0
 40
1.0
 10
30.1825937967
 20
106.2220010822
 30
0.0
 10
30.1825937966
 20
106.1739133917
 30
0.0
 10
30.1943273557
 20
106.0850769134
 30
0.0
 10
30.2786423214
 20
105.9801129556
 30
0.0
 10
30.4117002038
 20
105.9595726175
 30
0.0
 10
30.4945011008
 20
105.9938285647
 30
0.0
 10
30.536145715
 20
106.0178719504
 30
0.0
  0
SPLINE
  5
515
100
AcDbEntity
  8
0
100
AcDbSpline
 62
7
  6
CONTINUOUS
 70
0
 71
3
 72
11
 73
7
 74
0
 42
0.0000001
 43
0.0000001
 44
0.0000000001
 40
0.0
 40
0.0
 40
0.0
 40
0.0
 40
0.2392832116
 40
0.4999983817
 40
0.7607144183
 40
1.0
 40
1.0
 40
1.0
 40
1.0
 10
30.536145715
 20
110.1820342789
 30
0.0
 10
30.4855193251
 20
110.1528052936
 30
0.0
 10
30.3906224423
 20
110.0727071033
 30
0.0
 10
30.2801997126
 20
109.9215574254
 30
0.0
 10
30.2045122737
 20
109.7503527692
 30
0.0
 10
30.1825937967
 20
109.628119805
 30
0.0
 10
30.1825937967
 20
109.5696609936
 30
0.0
  0
SPLINE
  5
516
100
AcDbEntity
  8
0
100
AcDbSpline
 62
7
  6
CONTINUOUS
 70
0
 71
3
 72
10
 73
6
 74
0
 42
0.0000001
 43
0.0000001
 44
0.0000000001
 40
0.0
 40
0.0
 40
0.0
 40
0.0
 40
0.3481312819
 40
0.6804835213
 40
1.0
 40
1.0
 40
1.0
 40
1.0
 10
30.371947867
 20
111.2066421444
 30
0.0
 10
30.6409193021
 20
111.2512825674
 30
0.0
 10
31.172122305
 20
111.3098191639
 30
0.0
 10
31.9572084768
 20
111.2987398653
 30
0.0
 10
32.464035825
 20
111.2223633152
 30
0.0
 10
32.7080665443
 20
111.1669639422
 30
0.0
  0
SPLINE
  5
517
100
AcDbEntity
  8
0
100
AcDbSpline
 62
7
  6
CONTINUOUS
 70
0
 71
3
 72
10
 73
6
 74
0
 42
0.0000001
 43
0.0000001
 44
0.0000000001
 40
0.0
 40
0.0
 40
0.0
 40
0.0
 40
0.3547075365
 40
0.687923406
 40
1.0
 40
1.0
 40
1.0
 40
1.0
 10
30.2532959376
 20
111.1618154889
 30
0.0
 10
30.2663449492
 20
111.1693492943
 30
0.0
 10
30.2923770427
 20
111.1827656148
 30
0.0
 10
30.3321382498
 20
111.1979633829
 30
0.0
 10
30.3588700072
 20
111.2044716492
 30
0.0
 10
30.371947867
 20
111.2066421444
 30
0.0
  0
SPLINE
  5
518
100
AcDbEntity
  8
0
100
AcDbSpline
 62
7
  6
CONTINUOUS
 70
0
 71
3
 72
11
 73
7
 74
0
 42
0.0000001
 43
0.0000001
 44
0.0000000001
 40
0.0
 40
0.0
 40
0.0
 40
0.0
 40
0.2392855815
 40
0.5000016181
 40
0.7607167881
 40
1.0
 40
1.0
 40
1.0
 40
1.0
 10
29.1926401817
 20
110.1411980495
 30
0.0
 10
29.1926401817
 20
110.1996568609
 30
0.0
 10
29.2145586584
 20
110.3218898252
 30
0.0
 10
29.2902460973
 20
110.4930944815
 30
0.0
 10
29.4006688272
 20
110.6442441595
 30
0.0
 10
29.4955657104
 20
110.7243423496
 30
0.0
 10
29.5461921003
 20
110.753571335
 30
0.0
  0
SPLINE
  5
519
100
AcDbEntity
  8
0
100
AcDbSpline
 62
7
  6
CONTINUOUS
 70
0
 71
3
 72
11
 73
7
 74
0
 42
0.0000001
 43
0.0000001
 44
0.0000000001
 40
0.0
 40
0.0
 40
0.0
 40
0.0
 40
0.2773238329
 40
0.4999969635
 40
0.7226721082
 40
1.0
 40
1.0
 40
1.0
 40
1.0
 10
29.5461921003
 20
106.5894090077
 30
0.0
 10
29.504547486
 20
106.5653656218
 30
0.0
 10
29.4217465888
 20
106.5311096741
 30
0.0
 10
29.288688706
 20
106.5516500122
 30
0.0
 10
29.2043737403
 20
106.6566139704
 30
0.0
 10
29.1926401817
 20
106.7454504489
 30
0.0
 10
29.1926401817
 20
106.7935381396
 30
0.0
  0
SPLINE
  5
51A
100
AcDbEntity
  8
0
100
AcDbSpline
 62
7
  6
CONTINUOUS
 70
0
 71
3
 72
10
 73
6
 74
0
 42
0.0000001
 43
0.0000001
 44
0.0000000001
 40
0.0
 40
0.0
 40
0.0
 40
0.0
 40
0.3482834291
 40
0.6822736515
 40
1.0
 40
1.0
 40
1.0
 40
1.0
 10
30.371947867
 20
107.089833135
 30
0.0
 10
30.3595140489
 20
107.0775394897
 30
0.0
 10
30.3342583516
 20
107.0543395322
 30
0.0
 10
30.2946311869
 20
107.0234296484
 30
0.0
 10
30.2671100583
 20
107.0056287002
 30
0.0
 10
30.2532959376
 20
106.9976531615
 30
0.0
  0
SPLINE
  5
51B
100
AcDbEntity
  8
0
100
AcDbSpline
 62
7
  6
CONTINUOUS
 70
0
 71
3
 72
10
 73
6
 74
0
 42
0.0000001
 43
0.0000001
 44
0.0000000001
 40
0.0
 40
0.0
 40
0.0
 40
0.0
 40
0.3391605898
 40
0.6730423596
 40
1.0
 40
1.0
 40
1.0
 40
1.0
 10
32.7080665443
 20
109.8270127296
 30
0.0
 10
32.4693051126
 20
109.4971132719
 30
0.0
 10
31.9783922059
 20
108.8546079283
 30
0.0
 10
31.199020027
 20
107.9405098638
 30
0.0
 10
30.6511151987
 20
107.3658532721
 30
0.0
 10
30.371947867
 20
107.089833135
 30
0.0
  0
SPLINE
  5
51C
100
AcDbEntity
  8
0
100
AcDbSpline
 62
7
  6
CONTINUOUS
 70
0
 71
3
 72
10
 73
6
 74
0
 42
0.0000001
 43
0.0000001
 44
0.0000000001
 40
0.0
 40
0.0
 40
0.0
 40
0.0
 40
0.3084295934
 40
0.6489501927
 40
1.0
 40
1.0
 40
1.0
 40
1.0
 10
33.0110009027
 20
110.6718865253
 30
0.0
 10
33.0110008976
 20
110.5783600186
 30
0.0
 10
32.9824020285
 20
110.3813441223
 30
0.0
 10
32.877729638
 20
110.0951361565
 30
0.0
 10
32.770478251
 20
109.9132477135
 30
0.0
 10
32.7080665443
 20
109.8270127296
 30
0.0
  0
SPLINE
  5
51D
100
AcDbEntity
  8
0
100
AcDbSpline
 62
7
  6
CONTINUOUS
 70
0
 71
3
 72
10
 73
6
 74
0
 42
0.0000001
 43
0.0000001
 44
0.0000000001
 40
0.0
 40
0.0
 40
0.0
 40
0.0
 40
0.2955380049
 40
0.6165089568
 40
1.0
 40
1.0
 40
1.0
 40
1.0
 10
32.7080665443
 20
111.1669639422
 30
0.0
 10
32.7680227978
 20
111.1533527917
 30
0.0
 10
32.8879919237
 20
111.0885038416
 30
0.0
 10
32.9932011901
 20
110.8998819251
 30
0.0
 10
33.011000907
 20
110.7516655444
 30
0.0
 10
33.0110009027
 20
110.6718865253
 30
0.0
  0
SPLINE
  5
51E
100
AcDbEntity
  8
0
100
AcDbSpline
 62
7
  6
CONTINUOUS
 70
0
 71
3
 72
10
 73
6
 74
0
 42
0.0000001
 43
0.0000001
 44
0.0000000001
 40
0.0
 40
0.0
 40
0.0
 40
0.0
 40
0.3508101267
 40
0.6841328688
 40
1.0
 40
1.0
 40
1.0
 40
1.0
 10
31.1371839772
 20
90.6472079524
 30
0.0
 10
31.1480498309
 20
90.6534813185
 30
0.0
 10
31.1697415876
 20
90.6648792445
 30
0.0
 10
31.2028129383
 20
90.678621393
 30
0.0
 10
31.2250869004
 20
90.685359502
 30
0.0
 10
31.2360696139
 20
90.6880058671
 30
0.0
  0
SPLINE
  5
51F
100
AcDbEntity
  8
0
100
AcDbSpline
 62
7
  6
CONTINUOUS
 70
0
 71
3
 72
11
 73
7
 74
0
 42
0.0000001
 43
0.0000001
 44
0.0000000001
 40
0.0
 40
0.0
 40
0.0
 40
0.0
 40
0.2392855814
 40
0.500001618
 40
0.7607167881
 40
1.0
 40
1.0
 40
1.0
 40
1.0
 10
30.0765282214
 20
89.6265905124
 30
0.0
 10
30.0765282214
 20
89.6850493239
 30
0.0
 10
30.0984466979
 20
89.8072822882
 30
0.0
 10
30.1741341368
 20
89.9784869447
 30
0.0
 10
30.2845568667
 20
90.1296366229
 30
0.0
 10
30.37945375
 20
90.2097348131
 30
0.0
 10
30.43008014
 20
90.2389637985
 30
0.0
  0
SPLINE
  5
520
100
AcDbEntity
  8
0
100
AcDbSpline
 62
7
  6
CONTINUOUS
 70
0
 71
3
 72
11
 73
7
 74
0
 42
0.0000001
 43
0.0000001
 44
0.0000000001
 40
0.0
 40
0.0
 40
0.0
 40
0.0
 40
0.277323833
 40
0.4999969636
 40
0.7226721083
 40
1.0
 40
1.0
 40
1.0
 40
1.0
 10
30.43008014
 20
85.3399492957
 30
0.0
 10
30.3884355256
 20
85.3159059099
 30
0.0
 10
30.3056346285
 20
85.2816499622
 30
0.0
 10
30.1725767457
 20
85.3021903002
 30
0.0
 10
30.08826178
 20
85.4071542583
 30
0.0
 10
30.0765282214
 20
85.4959907367
 30
0.0
 10
30.0765282214
 20
85.5440784274
 30
0.0
  0
SPLINE
  5
521
100
AcDbEntity
  8
0
100
AcDbSpline
 62
7
  6
CONTINUOUS
 70
0
 71
3
 72
10
 73
6
 74
0
 42
0.0000001
 43
0.0000001
 44
0.0000000001
 40
0.0
 40
0.0
 40
0.0
 40
0.0
 40
0.3463519737
 40
0.6801034447
 40
1.0
 40
1.0
 40
1.0
 40
1.0
 10
31.2360696132
 20
85.8215781507
 30
0.0
 10
31.2255562913
 20
85.8119717465
 30
0.0
 10
31.2043069158
 20
85.7937548694
 30
0.0
 10
31.1712980869
 20
85.7691852847
 30
0.0
 10
31.1485752173
 20
85.7547701459
 30
0.0
 10
31.1371839772
 20
85.7481934496
 30
0.0
  0
SPLINE
  5
522
100
AcDbEntity
  8
0
100
AcDbSpline
 62
7
  6
CONTINUOUS
 70
0
 71
3
 72
10
 73
6
 74
0
 42
0.0000001
 43
0.0000001
 44
0.0000000001
 40
0.0
 40
0.0
 40
0.0
 40
0.0
 40
0.3411348125
 40
0.6753023727
 40
1.0
 40
1.0
 40
1.0
 40
1.0
 10
34.1717096033
 20
89.1488989646
 30
0.0
 10
33.8767892255
 20
88.7385185079
 30
0.0
 10
33.266652798
 20
87.9446241074
 30
0.0
 10
32.2868201569
 20
86.8321649008
 30
0.0
 10
31.591166837
 20
86.1460433861
 30
0.0
 10
31.2360696132
 20
85.8215781507
 30
0.0
  0
SPLINE
  5
523
100
AcDbEntity
  8
0
100
AcDbSpline
 62
7
  6
CONTINUOUS
 70
0
 71
3
 72
13
 73
9
 74
0
 42
0.0000001
 43
0.0000001
 44
0.0000000001
 40
0.0
 40
0.0
 40
0.0
 40
0.0
 40
0.120718749
 40
0.2514419882
 40
0.4070989343
 40
0.5893191381
 40
0.7909218237
 40
1.0
 40
1.0
 40
1.0
 40
1.0
 10
34.1717096031
 20
90.750449896
 30
0.0
 10
34.243362652
 20
90.7334823022
 30
0.0
 10
34.3859939735
 20
90.6545306427
 30
0.0
 10
34.5101628103
 20
90.4287116721
 30
0.0
 10
34.5448128553
 20
90.14053884
 30
0.0
 10
34.4976196297
 20
89.8119657238
 30
0.0
 10
34.3735814744
 20
89.4700440614
 30
0.0
 10
34.2461345948
 20
89.252461025
 30
0.0
 10
34.1717096033
 20
89.1488989646
 30
0.0
  0
SPLINE
  5
524
100
AcDbEntity
  8
0
100
AcDbSpline
 62
7
  6
CONTINUOUS
 70
0
 71
3
 72
10
 73
6
 74
0
 42
0.0000001
 43
0.0000001
 44
0.0000000001
 40
0.0
 40
0.0
 40
0.0
 40
0.0
 40
0.352475233
 40
0.6844444205
 40
1.0
 40
1.0
 40
1.0
 40
1.0
 10
31.2360696139
 20
90.6880058671
 30
0.0
 10
31.5742158819
 20
90.7694846828
 30
0.0
 10
32.2420357816
 20
90.8864992072
 30
0.0
 10
33.2321589091
 20
90.912059221
 30
0.0
 10
33.86869772
 20
90.822203752
 30
0.0
 10
34.1717096031
 20
90.750449896
 30
0.0
  0
SPLINE
  5
525
100
AcDbEntity
  8
0
100
AcDbSpline
 62
7
  6
CONTINUOUS
 70
0
 71
3
 72
10
 73
6
 74
0
 42
0.0000001
 43
0.0000001
 44
0.0000000001
 40
0.0
 40
0.0
 40
0.0
 40
0.0
 40
0.312076593
 40
0.6452924637
 40
1.0
 40
1.0
 40
1.0
 40
1.0
 10
31.3619014826
 20
90.3858451434
 30
0.0
 10
31.3488236229
 20
90.3836746482
 30
0.0
 10
31.3220918652
 20
90.3771663824
 30
0.0
 10
31.282330658
 20
90.3619686141
 30
0.0
 10
31.2562985645
 20
90.3485522932
 30
0.0
 10
31.2432495528
 20
90.3410184878
 30
0.0
  0
SPLINE
  5
526
100
AcDbEntity
  8
0
100
AcDbSpline
 62
7
  6
CONTINUOUS
 70
0
 71
3
 72
10
 73
6
 74
0
 42
0.0000001
 43
0.0000001
 44
0.0000000001
 40
0.0
 40
0.0
 40
0.0
 40
0.0
 40
0.3195164787
 40
0.651868718
 40
1.0
 40
1.0
 40
1.0
 40
1.0
 10
33.6980201597
 20
90.3461669406
 30
0.0
 10
33.4539894405
 20
90.4015663136
 30
0.0
 10
32.9471620924
 20
90.4779428645
 30
0.0
 10
32.1620759207
 20
90.4890221633
 30
0.0
 10
31.6308729178
 20
90.4304855664
 30
0.0
 10
31.3619014826
 20
90.3858451434
 30
0.0
  0
SPLINE
  5
527
100
AcDbEntity
  8
0
100
AcDbSpline
 62
7
  6
CONTINUOUS
 70
0
 71
3
 72
10
 73
6
 74
0
 42
0.0000001
 43
0.0000001
 44
0.0000000001
 40
0.0
 40
0.0
 40
0.0
 40
0.0
 40
0.3834910438
 40
0.7044619953
 40
1.0
 40
1.0
 40
1.0
 40
1.0
 10
34.000954518
 20
89.8510895245
 30
0.0
 10
34.0009545223
 20
89.9308685437
 30
0.0
 10
33.9831548054
 20
90.0790849243
 30
0.0
 10
33.8779455389
 20
90.2677068406
 30
0.0
 10
33.757976413
 20
90.3325557901
 30
0.0
 10
33.6980201597
 20
90.3461669406
 30
0.0
  0
SPLINE
  5
528
100
AcDbEntity
  8
0
100
AcDbSpline
 62
7
  6
CONTINUOUS
 70
0
 71
3
 72
10
 73
6
 74
0
 42
0.0000001
 43
0.0000001
 44
0.0000000001
 40
0.0
 40
0.0
 40
0.0
 40
0.0
 40
0.3510498072
 40
0.6915704061
 40
1.0
 40
1.0
 40
1.0
 40
1.0
 10
33.6980201596
 20
89.0062157278
 30
0.0
 10
33.7604318663
 20
89.0924507117
 30
0.0
 10
33.8676832532
 20
89.274339155
 30
0.0
 10
33.9723556438
 20
89.5605471211
 30
0.0
 10
34.0009545129
 20
89.7575630176
 30
0.0
 10
34.000954518
 20
89.8510895245
 30
0.0
  0
SPLINE
  5
529
100
AcDbEntity
  8
0
100
AcDbSpline
 62
7
  6
CONTINUOUS
 70
0
 71
3
 72
10
 73
6
 74
0
 42
0.0000001
 43
0.0000001
 44
0.0000000001
 40
0.0
 40
0.0
 40
0.0
 40
0.0
 40
0.3269576404
 40
0.6608394102
 40
1.0
 40
1.0
 40
1.0
 40
1.0
 10
31.361901483
 20
86.2690361349
 30
0.0
 10
31.6410688146
 20
86.5450562719
 30
0.0
 10
32.1889736426
 20
87.1197128632
 30
0.0
 10
32.9683458212
 20
88.0338109272
 30
0.0
 10
33.459258728
 20
88.6763162703
 30
0.0
 10
33.6980201596
 20
89.0062157278
 30
0.0
  0
SPLINE
  5
52A
100
AcDbEntity
  8
0
100
AcDbSpline
 62
7
  6
CONTINUOUS
 70
0
 71
3
 72
10
 73
6
 74
0
 42
0.0000001
 43
0.0000001
 44
0.0000000001
 40
0.0
 40
0.0
 40
0.0
 40
0.0
 40
0.3177263447
 40
0.6517165673
 40
1.0
 40
1.0
 40
1.0
 40
1.0
 10
31.2432495528
 20
86.1768561608
 30
0.0
 10
31.2570636735
 20
86.1848316994
 30
0.0
 10
31.2845848024
 20
86.2026326473
 30
0.0
 10
31.3242119674
 20
86.2335425313
 30
0.0
 10
31.3494676647
 20
86.2567424894
 30
0.0
 10
31.361901483
 20
86.2690361349
 30
0.0
  0
SPLINE
  5
52B
100
AcDbEntity
  8
0
100
AcDbSpline
 62
7
  6
CONTINUOUS
 70
0
 71
3
 72
11
 73
7
 74
0
 42
0.0000001
 43
0.0000001
 44
0.0000000001
 40
0.0
 40
0.0
 40
0.0
 40
0.0
 40
0.2773278915
 40
0.5000030363
 40
0.7226761671
 40
1.0
 40
1.0
 40
1.0
 40
1.0
 10
30.1825937967
 20
85.9727411383
 30
0.0
 10
30.1825937967
 20
85.9246534478
 30
0.0
 10
30.1943273557
 20
85.8358169695
 30
0.0
 10
30.2786423214
 20
85.7308530118
 30
0.0
 10
30.4117002039
 20
85.7103126736
 30
0.0
 10
30.4945011011
 20
85.744568621
 30
0.0
 10
30.5361457154
 20
85.7686120067
 30
0.0
  0
SPLINE
  5
52C
100
AcDbEntity
  8
0
100
AcDbSpline
 62
7
  6
CONTINUOUS
 70
0
 71
3
 72
11
 73
7
 74
0
 42
0.0000001
 43
0.0000001
 44
0.0000000001
 40
0.0
 40
0.0
 40
0.0
 40
0.0
 40
0.2392832121
 40
0.499998382
 40
0.7607144184
 40
1.0
 40
1.0
 40
1.0
 40
1.0
 10
30.5361457154
 20
89.9327743338
 30
0.0
 10
30.4855193254
 20
89.9035453483
 30
0.0
 10
30.3906224424
 20
89.8234471579
 30
0.0
 10
30.2801997126
 20
89.67229748
 30
0.0
 10
30.2045122738
 20
89.5010928238
 30
0.0
 10
30.1825937967
 20
89.3788598597
 30
0.0
 10
30.1825937967
 20
89.3204010482
 30
0.0
  0
SPLINE
  5
52D
100
AcDbEntity
  8
0
100
AcDbSpline
 62
7
  6
CONTINUOUS
 70
0
 71
3
 72
10
 73
6
 74
0
 42
0.0000001
 43
0.0000001
 44
0.0000000001
 40
0.0
 40
0.0
 40
0.0
 40
0.0
 40
0.3481312819
 40
0.6804835213
 40
1.0
 40
1.0
 40
1.0
 40
1.0
 10
30.371947867
 20
90.9573821995
 30
0.0
 10
30.6409193021
 20
91.0020226226
 30
0.0
 10
31.172122305
 20
91.0605592191
 30
0.0
 10
31.9572084768
 20
91.0494799205
 30
0.0
 10
32.464035825
 20
90.9731033704
 30
0.0
 10
32.7080665443
 20
90.9177039974
 30
0.0
  0
SPLINE
  5
52E
100
AcDbEntity
  8
0
100
AcDbSpline
 62
7
  6
CONTINUOUS
 70
0
 71
3
 72
10
 73
6
 74
0
 42
0.0000001
 43
0.0000001
 44
0.0000000001
 40
0.0
 40
0.0
 40
0.0
 40
0.0
 40
0.3547075365
 40
0.687923406
 40
1.0
 40
1.0
 40
1.0
 40
1.0
 10
30.2532959376
 20
90.9125555441
 30
0.0
 10
30.2663449492
 20
90.9200893495
 30
0.0
 10
30.2923770427
 20
90.93350567
 30
0.0
 10
30.3321382498
 20
90.9487034381
 30
0.0
 10
30.3588700072
 20
90.9552117044
 30
0.0
 10
30.371947867
 20
90.9573821995
 30
0.0
  0
SPLINE
  5
52F
100
AcDbEntity
  8
0
100
AcDbSpline
 62
7
  6
CONTINUOUS
 70
0
 71
3
 72
11
 73
7
 74
0
 42
0.0000001
 43
0.0000001
 44
0.0000000001
 40
0.0
 40
0.0
 40
0.0
 40
0.0
 40
0.2392855815
 40
0.5000016181
 40
0.7607167881
 40
1.0
 40
1.0
 40
1.0
 40
1.0
 10
29.1926401817
 20
89.8919381047
 30
0.0
 10
29.1926401817
 20
89.9503969161
 30
0.0
 10
29.2145586584
 20
90.0726298804
 30
0.0
 10
29.2902460973
 20
90.2438345366
 30
0.0
 10
29.4006688272
 20
90.3949842147
 30
0.0
 10
29.4955657104
 20
90.4750824048
 30
0.0
 10
29.5461921003
 20
90.5043113902
 30
0.0
  0
SPLINE
  5
530
100
AcDbEntity
  8
0
100
AcDbSpline
 62
7
  6
CONTINUOUS
 70
0
 71
3
 72
11
 73
7
 74
0
 42
0.0000001
 43
0.0000001
 44
0.0000000001
 40
0.0
 40
0.0
 40
0.0
 40
0.0
 40
0.277323833
 40
0.4999969637
 40
0.7226721084
 40
1.0
 40
1.0
 40
1.0
 40
1.0
 10
29.5461921003
 20
86.3401490628
 30
0.0
 10
29.504547486
 20
86.3161056771
 30
0.0
 10
29.4217465889
 20
86.2818497293
 30
0.0
 10
29.2886887062
 20
86.3023900672
 30
0.0
 10
29.2043737405
 20
86.4073540252
 30
0.0
 10
29.1926401818
 20
86.4961905035
 30
0.0
 10
29.1926401817
 20
86.5442781941
 30
0.0
  0
SPLINE
  5
531
100
AcDbEntity
  8
0
100
AcDbSpline
 62
7
  6
CONTINUOUS
 70
0
 71
3
 72
10
 73
6
 74
0
 42
0.0000001
 43
0.0000001
 44
0.0000000001
 40
0.0
 40
0.0
 40
0.0
 40
0.0
 40
0.3482834292
 40
0.6822736515
 40
1.0
 40
1.0
 40
1.0
 40
1.0
 10
30.371947867
 20
86.8405731902
 30
0.0
 10
30.3595140489
 20
86.8282795449
 30
0.0
 10
30.3342583516
 20
86.8050795873
 30
0.0
 10
30.2946311869
 20
86.7741697036
 30
0.0
 10
30.2671100583
 20
86.7563687554
 30
0.0
 10
30.2532959376
 20
86.7483932167
 30
0.0
  0
SPLINE
  5
532
100
AcDbEntity
  8
0
100
AcDbSpline
 62
7
  6
CONTINUOUS
 70
0
 71
3
 72
10
 73
6
 74
0
 42
0.0000001
 43
0.0000001
 44
0.0000000001
 40
0.0
 40
0.0
 40
0.0
 40
0.0
 40
0.3391605898
 40
0.6730423596
 40
1.0
 40
1.0
 40
1.0
 40
1.0
 10
32.7080665443
 20
89.5777527848
 30
0.0
 10
32.4693051126
 20
89.2478533271
 30
0.0
 10
31.9783922059
 20
88.6053479835
 30
0.0
 10
31.199020027
 20
87.691249919
 30
0.0
 10
30.6511151987
 20
87.1165933273
 30
0.0
 10
30.371947867
 20
86.8405731902
 30
0.0
  0
SPLINE
  5
533
100
AcDbEntity
  8
0
100
AcDbSpline
 62
7
  6
CONTINUOUS
 70
0
 71
3
 72
10
 73
6
 74
0
 42
0.0000001
 43
0.0000001
 44
0.0000000001
 40
0.0
 40
0.0
 40
0.0
 40
0.0
 40
0.3084295934
 40
0.6489501927
 40
1.0
 40
1.0
 40
1.0
 40
1.0
 10
33.0110009027
 20
90.4226265805
 30
0.0
 10
33.0110008976
 20
90.3291000738
 30
0.0
 10
32.9824020285
 20
90.1320841775
 30
0.0
 10
32.877729638
 20
89.8458762117
 30
0.0
 10
32.770478251
 20
89.6639877687
 30
0.0
 10
32.7080665443
 20
89.5777527848
 30
0.0
  0
SPLINE
  5
534
100
AcDbEntity
  8
0
100
AcDbSpline
 62
7
  6
CONTINUOUS
 70
0
 71
3
 72
10
 73
6
 74
0
 42
0.0000001
 43
0.0000001
 44
0.0000000001
 40
0.0
 40
0.0
 40
0.0
 40
0.0
 40
0.2955380049
 40
0.6165089568
 40
1.0
 40
1.0
 40
1.0
 40
1.0
 10
32.7080665443
 20
90.9177039974
 30
0.0
 10
32.7680227978
 20
90.9040928469
 30
0.0
 10
32.8879919237
 20
90.8392438968
 30
0.0
 10
32.9932011901
 20
90.6506219803
 30
0.0
 10
33.011000907
 20
90.5024055996
 30
0.0
 10
33.0110009027
 20
90.4226265805
 30
0.0
  0
SPLINE
  5
535
100
AcDbEntity
  8
0
100
AcDbSpline
 62
7
  6
CONTINUOUS
 70
0
 71
3
 72
10
 73
6
 74
0
 42
0.0000001
 43
0.0000001
 44
0.0000000001
 40
0.0
 40
0.0
 40
0.0
 40
0.0
 40
0.350810127
 40
0.6841328689
 40
1.0
 40
1.0
 40
1.0
 40
1.0
 10
31.1371839766
 20
57.0073083663
 30
0.0
 10
31.1480498305
 20
57.0135817325
 30
0.0
 10
31.1697415873
 20
57.0249796587
 30
0.0
 10
31.2028129384
 20
57.0387218073
 30
0.0
 10
31.2250869007
 20
57.0454599163
 30
0.0
 10
31.2360696143
 20
57.0481062815
 30
0.0
  0
SPLINE
  5
536
100
AcDbEntity
  8
0
100
AcDbSpline
 62
7
  6
CONTINUOUS
 70
0
 71
3
 72
11
 73
7
 74
0
 42
0.0000001
 43
0.0000001
 44
0.0000000001
 40
0.0
 40
0.0
 40
0.0
 40
0.0
 40
0.2392855815
 40
0.500001618
 40
0.760716788
 40
1.0
 40
1.0
 40
1.0
 40
1.0
 10
30.0765282214
 20
55.9866909273
 30
0.0
 10
30.0765282214
 20
56.0451497386
 30
0.0
 10
30.098446698
 20
56.1673827027
 30
0.0
 10
30.1741341368
 20
56.3385873589
 30
0.0
 10
30.2845568665
 20
56.4897370368
 30
0.0
 10
30.3794537495
 20
56.5698352271
 30
0.0
 10
30.4300801394
 20
56.5990642125
 30
0.0
  0
SPLINE
  5
537
100
AcDbEntity
  8
0
100
AcDbSpline
 62
7
  6
CONTINUOUS
 70
0
 71
3
 72
11
 73
7
 74
0
 42
0.0000001
 43
0.0000001
 44
0.0000000001
 40
0.0
 40
0.0
 40
0.0
 40
0.0
 40
0.2773238328
 40
0.4999969634
 40
0.7226721082
 40
1.0
 40
1.0
 40
1.0
 40
1.0
 10
30.4300801394
 20
51.7000497097
 30
0.0
 10
30.3884355251
 20
51.6760063239
 30
0.0
 10
30.3056346281
 20
51.6417503764
 30
0.0
 10
30.1725767455
 20
51.6622907146
 30
0.0
 10
30.08826178
 20
51.7672546726
 30
0.0
 10
30.0765282214
 20
51.856091151
 30
0.0
 10
30.0765282214
 20
51.9041788416
 30
0.0
  0
SPLINE
  5
538
100
AcDbEntity
  8
0
100
AcDbSpline
 62
7
  6
CONTINUOUS
 70
0
 71
3
 72
10
 73
6
 74
0
 42
0.0000001
 43
0.0000001
 44
0.0000000001
 40
0.0
 40
0.0
 40
0.0
 40
0.0
 40
0.3463519783
 40
0.6801034469
 40
1.0
 40
1.0
 40
1.0
 40
1.0
 10
31.2360696143
 20
52.1816785659
 30
0.0
 10
31.2255562921
 20
52.1720721614
 30
0.0
 10
31.2043069161
 20
52.1538552839
 30
0.0
 10
31.1712980867
 20
52.1292856988
 30
0.0
 10
31.1485752168
 20
52.1148705599
 30
0.0
 10
31.1371839766
 20
52.1082938635
 30
0.0
  0
SPLINE
  5
539
100
AcDbEntity
  8
0
100
AcDbSpline
 62
7
  6
CONTINUOUS
 70
0
 71
3
 72
10
 73
6
 74
0
 42
0.0000001
 43
0.0000001
 44
0.0000000001
 40
0.0
 40
0.0
 40
0.0
 40
0.0
 40
0.3411348125
 40
0.6753023728
 40
1.0
 40
1.0
 40
1.0
 40
1.0
 10
34.1717096036
 20
55.5089993791
 30
0.0
 10
33.8767892258
 20
55.0986189225
 30
0.0
 10
33.2666527984
 20
54.304724522
 30
0.0
 10
32.2868201575
 20
53.1922653156
 30
0.0
 10
31.5911668378
 20
52.5061438012
 30
0.0
 10
31.2360696143
 20
52.1816785659
 30
0.0
  0
SPLINE
  5
53A
100
AcDbEntity
  8
0
100
AcDbSpline
 62
7
  6
CONTINUOUS
 70
0
 71
3
 72
13
 73
9
 74
0
 42
0.0000001
 43
0.0000001
 44
0.0000000001
 40
0.0
 40
0.0
 40
0.0
 40
0.0
 40
0.120718749
 40
0.2514419881
 40
0.4070989342
 40
0.589319138
 40
0.7909218236
 40
1.0
 40
1.0
 40
1.0
 40
1.0
 10
34.1717096036
 20
57.1105503101
 30
0.0
 10
34.2433626524
 20
57.0935827164
 30
0.0
 10
34.3859939737
 20
57.0146310566
 30
0.0
 10
34.5101628104
 20
56.7888120862
 30
0.0
 10
34.5448128553
 20
56.5006392543
 30
0.0
 10
34.4976196297
 20
56.1720661383
 30
0.0
 10
34.3735814745
 20
55.830144476
 30
0.0
 10
34.2461345951
 20
55.6125614396
 30
0.0
 10
34.1717096036
 20
55.5089993791
 30
0.0
  0
SPLINE
  5
53B
100
AcDbEntity
  8
0
100
AcDbSpline
 62
7
  6
CONTINUOUS
 70
0
 71
3
 72
10
 73
6
 74
0
 42
0.0000001
 43
0.0000001
 44
0.0000000001
 40
0.0
 40
0.0
 40
0.0
 40
0.0
 40
0.352475233
 40
0.6844444205
 40
1.0
 40
1.0
 40
1.0
 40
1.0
 10
31.2360696143
 20
57.0481062815
 30
0.0
 10
31.5742158823
 20
57.1295850971
 30
0.0
 10
32.242035782
 20
57.2465996215
 30
0.0
 10
33.2321589096
 20
57.2721596353
 30
0.0
 10
33.8686977204
 20
57.1823041661
 30
0.0
 10
34.1717096036
 20
57.1105503101
 30
0.0
  0
SPLINE
  5
53C
100
AcDbEntity
  8
0
100
AcDbSpline
 62
7
  6
CONTINUOUS
 70
0
 71
3
 72
10
 73
6
 74
0
 42
0.0000001
 43
0.0000001
 44
0.0000000001
 40
0.0
 40
0.0
 40
0.0
 40
0.0
 40
0.3120766017
 40
0.6452924726
 40
1.0
 40
1.0
 40
1.0
 40
1.0
 10
31.3619014827
 20
56.7459455582
 30
0.0
 10
31.3488236227
 20
56.7437750631
 30
0.0
 10
31.3220918653
 20
56.7372667954
 30
0.0
 10
31.2823306584
 20
56.7220690275
 30
0.0
 10
31.2562985648
 20
56.7086527082
 30
0.0
 10
31.2432495535
 20
56.701118903
 30
0.0
  0
SPLINE
  5
53D
100
AcDbEntity
  8
0
100
AcDbSpline
 62
7
  6
CONTINUOUS
 70
0
 71
3
 72
10
 73
6
 74
0
 42
0.0000001
 43
0.0000001
 44
0.0000000001
 40
0.0
 40
0.0
 40
0.0
 40
0.0
 40
0.3195164788
 40
0.6518687183
 40
1.0
 40
1.0
 40
1.0
 40
1.0
 10
33.6980201594
 20
56.7062673555
 30
0.0
 10
33.4539894402
 20
56.7616667286
 30
0.0
 10
32.9471620917
 20
56.8380432776
 30
0.0
 10
32.1620759204
 20
56.8491225765
 30
0.0
 10
31.6308729176
 20
56.7905859812
 30
0.0
 10
31.3619014827
 20
56.7459455582
 30
0.0
  0
SPLINE
  5
53E
100
AcDbEntity
  8
0
100
AcDbSpline
 62
7
  6
CONTINUOUS
 70
0
 71
3
 72
10
 73
6
 74
0
 42
0.0000001
 43
0.0000001
 44
0.0000000001
 40
0.0
 40
0.0
 40
0.0
 40
0.0
 40
0.3834910411
 40
0.704461994
 40
1.0
 40
1.0
 40
1.0
 40
1.0
 10
34.0009545176
 20
56.2111899393
 30
0.0
 10
34.0009545217
 20
56.2909689579
 30
0.0
 10
33.9831548051
 20
56.4391853381
 30
0.0
 10
33.8779455389
 20
56.6278072543
 30
0.0
 10
33.757976413
 20
56.692656205
 30
0.0
 10
33.6980201594
 20
56.7062673555
 30
0.0
  0
SPLINE
  5
53F
100
AcDbEntity
  8
0
100
AcDbSpline
 62
7
  6
CONTINUOUS
 70
0
 71
3
 72
10
 73
6
 74
0
 42
0.0000001
 43
0.0000001
 44
0.0000000001
 40
0.0
 40
0.0
 40
0.0
 40
0.0
 40
0.3510498086
 40
0.6915704085
 40
1.0
 40
1.0
 40
1.0
 40
1.0
 10
33.6980201594
 20
55.3663161425
 30
0.0
 10
33.7604318665
 20
55.4525511268
 30
0.0
 10
33.8676832532
 20
55.6344395709
 30
0.0
 10
33.9723556434
 20
55.920647537
 30
0.0
 10
34.0009545128
 20
56.1176634331
 30
0.0
 10
34.0009545176
 20
56.2111899393
 30
0.0
  0
SPLINE
  5
540
100
AcDbEntity
  8
0
100
AcDbSpline
 62
7
  6
CONTINUOUS
 70
0
 71
3
 72
10
 73
6
 74
0
 42
0.0000001
 43
0.0000001
 44
0.0000000001
 40
0.0
 40
0.0
 40
0.0
 40
0.0
 40
0.3269576405
 40
0.6608394102
 40
1.0
 40
1.0
 40
1.0
 40
1.0
 10
31.361901483
 20
52.6291365483
 30
0.0
 10
31.6410688147
 20
52.9051566853
 30
0.0
 10
32.1889736422
 20
53.4798132777
 30
0.0
 10
32.9683458209
 20
54.3939113419
 30
0.0
 10
33.4592587279
 20
55.0364166849
 30
0.0
 10
33.6980201594
 20
55.3663161425
 30
0.0
  0
SPLINE
  5
541
100
AcDbEntity
  8
0
100
AcDbSpline
 62
7
  6
CONTINUOUS
 70
0
 71
3
 72
10
 73
6
 74
0
 42
0.0000001
 43
0.0000001
 44
0.0000000001
 40
0.0
 40
0.0
 40
0.0
 40
0.0
 40
0.3177263463
 40
0.6517165695
 40
1.0
 40
1.0
 40
1.0
 40
1.0
 10
31.2432495533
 20
52.5369565744
 30
0.0
 10
31.2570636739
 20
52.544932113
 30
0.0
 10
31.284584802
 20
52.5627330622
 30
0.0
 10
31.3242119668
 20
52.5936429459
 30
0.0
 10
31.3494676649
 20
52.6168429029
 30
0.0
 10
31.361901483
 20
52.6291365483
 30
0.0
  0
SPLINE
  5
542
100
AcDbEntity
  8
0
100
AcDbSpline
 62
7
  6
CONTINUOUS
 70
0
 71
3
 72
11
 73
7
 74
0
 42
0.0000001
 43
0.0000001
 44
0.0000000001
 40
0.0
 40
0.0
 40
0.0
 40
0.0
 40
0.2773278917
 40
0.5000030367
 40
0.7226761676
 40
1.0
 40
1.0
 40
1.0
 40
1.0
 10
30.1825937967
 20
52.3328415517
 30
0.0
 10
30.1825937966
 20
52.2847538611
 30
0.0
 10
30.1943273557
 20
52.1959173829
 30
0.0
 10
30.2786423214
 20
52.0909534251
 30
0.0
 10
30.4117002038
 20
52.0704130869
 30
0.0
 10
30.4945011008
 20
52.1046690342
 30
0.0
 10
30.536145715
 20
52.1287124199
 30
0.0
  0
SPLINE
  5
543
100
AcDbEntity
  8
0
100
AcDbSpline
 62
7
  6
CONTINUOUS
 70
0
 71
3
 72
11
 73
7
 74
0
 42
0.0000001
 43
0.0000001
 44
0.0000000001
 40
0.0
 40
0.0
 40
0.0
 40
0.0
 40
0.2392832116
 40
0.4999983817
 40
0.7607144183
 40
1.0
 40
1.0
 40
1.0
 40
1.0
 10
30.536145715
 20
56.2928747484
 30
0.0
 10
30.4855193251
 20
56.263645763
 30
0.0
 10
30.3906224423
 20
56.1835475727
 30
0.0
 10
30.2801997126
 20
56.0323978948
 30
0.0
 10
30.2045122737
 20
55.8611932386
 30
0.0
 10
30.1825937967
 20
55.7389602745
 30
0.0
 10
30.1825937967
 20
55.6805014631
 30
0.0
  0
SPLINE
  5
544
100
AcDbEntity
  8
0
100
AcDbSpline
 62
7
  6
CONTINUOUS
 70
0
 71
3
 72
10
 73
6
 74
0
 42
0.0000001
 43
0.0000001
 44
0.0000000001
 40
0.0
 40
0.0
 40
0.0
 40
0.0
 40
0.3481312819
 40
0.6804835213
 40
1.0
 40
1.0
 40
1.0
 40
1.0
 10
30.371947867
 20
57.3174826138
 30
0.0
 10
30.6409193021
 20
57.3621230368
 30
0.0
 10
31.172122305
 20
57.4206596334
 30
0.0
 10
31.9572084768
 20
57.4095803347
 30
0.0
 10
32.464035825
 20
57.3332037847
 30
0.0
 10
32.7080665443
 20
57.2778044117
 30
0.0
  0
SPLINE
  5
545
100
AcDbEntity
  8
0
100
AcDbSpline
 62
7
  6
CONTINUOUS
 70
0
 71
3
 72
10
 73
6
 74
0
 42
0.0000001
 43
0.0000001
 44
0.0000000001
 40
0.0
 40
0.0
 40
0.0
 40
0.0
 40
0.3547075365
 40
0.687923406
 40
1.0
 40
1.0
 40
1.0
 40
1.0
 10
30.2532959376
 20
57.2726559583
 30
0.0
 10
30.2663449492
 20
57.2801897637
 30
0.0
 10
30.2923770427
 20
57.2936060842
 30
0.0
 10
30.3321382498
 20
57.3088038524
 30
0.0
 10
30.3588700072
 20
57.3153121187
 30
0.0
 10
30.371947867
 20
57.3174826138
 30
0.0
  0
SPLINE
  5
546
100
AcDbEntity
  8
0
100
AcDbSpline
 62
7
  6
CONTINUOUS
 70
0
 71
3
 72
11
 73
7
 74
0
 42
0.0000001
 43
0.0000001
 44
0.0000000001
 40
0.0
 40
0.0
 40
0.0
 40
0.0
 40
0.2392855816
 40
0.5000016181
 40
0.7607167881
 40
1.0
 40
1.0
 40
1.0
 40
1.0
 10
29.1926401817
 20
56.2520385195
 30
0.0
 10
29.1926401817
 20
56.3104973309
 30
0.0
 10
29.2145586586
 20
56.432730295
 30
0.0
 10
29.2902460974
 20
56.603934951
 30
0.0
 10
29.4006688272
 20
56.7550846289
 30
0.0
 10
29.4955657102
 20
56.8351828189
 30
0.0
 10
29.5461921001
 20
56.8644118043
 30
0.0
  0
SPLINE
  5
547
100
AcDbEntity
  8
0
100
AcDbSpline
 62
7
  6
CONTINUOUS
 70
0
 71
3
 72
11
 73
7
 74
0
 42
0.0000001
 43
0.0000001
 44
0.0000000001
 40
0.0
 40
0.0
 40
0.0
 40
0.0
 40
0.277323833
 40
0.4999969637
 40
0.7226721084
 40
1.0
 40
1.0
 40
1.0
 40
1.0
 10
29.5461921001
 20
52.700249477
 30
0.0
 10
29.5045474858
 20
52.6762060912
 30
0.0
 10
29.4217465888
 20
52.6419501436
 30
0.0
 10
29.2886887062
 20
52.6624904815
 30
0.0
 10
29.2043737406
 20
52.7674544393
 30
0.0
 10
29.1926401817
 20
52.8562909176
 30
0.0
 10
29.1926401817
 20
52.9043786082
 30
0.0
  0
SPLINE
  5
548
100
AcDbEntity
  8
0
100
AcDbSpline
 62
7
  6
CONTINUOUS
 70
0
 71
3
 72
10
 73
6
 74
0
 42
0.0000001
 43
0.0000001
 44
0.0000000001
 40
0.0
 40
0.0
 40
0.0
 40
0.0
 40
0.3482834292
 40
0.6822736516
 40
1.0
 40
1.0
 40
1.0
 40
1.0
 10
30.3719478673
 20
53.2006736048
 30
0.0
 10
30.3595140492
 20
53.1883799594
 30
0.0
 10
30.3342583518
 20
53.1651800017
 30
0.0
 10
30.2946311869
 20
53.1342701178
 30
0.0
 10
30.2671100581
 20
53.1164691696
 30
0.0
 10
30.2532959373
 20
53.1084936308
 30
0.0
  0
SPLINE
  5
549
100
AcDbEntity
  8
0
100
AcDbSpline
 62
7
  6
CONTINUOUS
 70
0
 71
3
 72
10
 73
6
 74
0
 42
0.0000001
 43
0.0000001
 44
0.0000000001
 40
0.0
 40
0.0
 40
0.0
 40
0.0
 40
0.3391605898
 40
0.6730423596
 40
1.0
 40
1.0
 40
1.0
 40
1.0
 10
32.7080665444
 20
55.9378531992
 30
0.0
 10
32.4693051127
 20
55.6079537415
 30
0.0
 10
31.9783922061
 20
54.965448398
 30
0.0
 10
31.1990200272
 20
54.0513503336
 30
0.0
 10
30.651115199
 20
53.4766937419
 30
0.0
 10
30.3719478673
 20
53.2006736048
 30
0.0
  0
SPLINE
  5
54A
100
AcDbEntity
  8
0
100
AcDbSpline
 62
7
  6
CONTINUOUS
 70
0
 71
3
 72
10
 73
6
 74
0
 42
0.0000001
 43
0.0000001
 44
0.0000000001
 40
0.0
 40
0.0
 40
0.0
 40
0.0
 40
0.3084295934
 40
0.6489501927
 40
1.0
 40
1.0
 40
1.0
 40
1.0
 10
33.0110009027
 20
56.7827269948
 30
0.0
 10
33.0110008979
 20
56.689200488
 30
0.0
 10
32.9824020284
 20
56.4921845918
 30
0.0
 10
32.8777296381
 20
56.2059766261
 30
0.0
 10
32.7704782511
 20
56.0240881831
 30
0.0
 10
32.7080665444
 20
55.9378531992
 30
0.0
  0
SPLINE
  5
54B
100
AcDbEntity
  8
0
100
AcDbSpline
 62
7
  6
CONTINUOUS
 70
0
 71
3
 72
10
 73
6
 74
0
 42
0.0000001
 43
0.0000001
 44
0.0000000001
 40
0.0
 40
0.0
 40
0.0
 40
0.0
 40
0.2955380049
 40
0.6165089568
 40
1.0
 40
1.0
 40
1.0
 40
1.0
 10
32.7080665443
 20
57.2778044117
 30
0.0
 10
32.7680227978
 20
57.2641932612
 30
0.0
 10
32.8879919237
 20
57.1993443111
 30
0.0
 10
32.9932011902
 20
57.0107223946
 30
0.0
 10
33.0110009068
 20
56.8625060139
 30
0.0
 10
33.0110009027
 20
56.7827269948
 30
0.0
  0
SPLINE
  5
54C
100
AcDbEntity
  8
0
100
AcDbSpline
 62
7
  6
CONTINUOUS
 70
0
 71
3
 72
11
 73
7
 74
0
 42
0.0000001
 43
0.0000001
 44
0.0000000001
 40
0.0
 40
0.0
 40
0.0
 40
0.0
 40
0.2692314996
 40
0.5285698818
 40
0.7733501857
 40
1.0
 40
1.0
 40
1.0
 40
1.0
 10
99.5163017482
 20
122.8303257903
 30
0.0
 10
99.2538255868
 20
122.452855875
 30
0.0
 10
98.7005676097
 20
121.7372421712
 30
0.0
 10
97.7832944965
 20
120.7833493418
 30
0.0
 10
96.815988666
 20
119.9901598553
 30
0.0
 10
96.1272990655
 20
119.5664515831
 30
0.0
 10
95.7818204504
 20
119.3919625765
 30
0.0
  0
SPLINE
  5
54D
100
AcDbEntity
  8
0
100
AcDbSpline
 62
7
  6
CONTINUOUS
 70
0
 71
3
 72
10
 73
6
 74
0
 42
0.0000001
 43
0.0000001
 44
0.0000000001
 40
0.0
 40
0.0
 40
0.0
 40
0.0
 40
0.3246976533
 40
0.6588652087
 40
1.0
 40
1.0
 40
1.0
 40
1.0
 10
52.4219509667
 20
93.8394405049
 30
0.0
 10
52.7770481097
 20
94.1639058791
 30
0.0
 10
53.4727013023
 20
94.8500275455
 30
0.0
 10
54.4525339359
 20
95.9624867326
 30
0.0
 10
55.0626704841
 20
96.7563809739
 30
0.0
 10
55.3575909563
 20
97.1667613183
 30
0.0
  0
SPLINE
  5
54E
100
AcDbEntity
  8
0
100
AcDbSpline
 62
7
  6
CONTINUOUS
 70
0
 71
3
 72
10
 73
6
 74
0
 42
0.0000001
 43
0.0000001
 44
0.0000000001
 40
0.0
 40
0.0
 40
0.0
 40
0.0
 40
0.319909529
 40
0.6536602004
 40
1.0
 40
1.0
 40
1.0
 40
1.0
 10
52.3230653298
 20
93.7660558032
 30
0.0
 10
52.3344562224
 20
93.7726340812
 30
0.0
 10
52.3571783579
 20
93.7870510185
 30
0.0
 10
52.3901870977
 20
93.811620397
 30
0.0
 10
52.4114371604
 20
93.8298354427
 30
0.0
 10
52.4219509667
 20
93.8394405049
 30
0.0
  0
SPLINE
  5
54F
100
AcDbEntity
  8
0
100
AcDbSpline
 62
7
  6
CONTINUOUS
 70
0
 71
3
 72
11
 73
7
 74
0
 42
0.0000001
 43
0.0000001
 44
0.0000000001
 40
0.0
 40
0.0
 40
0.0
 40
0.0
 40
0.2773282193
 40
0.5000037318
 40
0.7226767689
 40
1.0
 40
1.0
 40
1.0
 40
1.0
 10
51.2624095744
 20
93.5619431761
 30
0.0
 10
51.2624098187
 20
93.5138553627
 30
0.0
 10
51.2741430566
 20
93.4250186779
 30
0.0
 10
51.3584578679
 20
93.3200542433
 30
0.0
 10
51.4915156668
 20
93.2995129948
 30
0.0
 10
51.5743167899
 20
93.3337684946
 30
0.0
 10
51.6159614932
 20
93.3578116496
 30
0.0
  0
SPLINE
  5
550
100
AcDbEntity
  8
0
100
AcDbSpline
 62
7
  6
CONTINUOUS
 70
0
 71
3
 72
11
 73
7
 74
0
 42
0.0000001
 43
0.0000001
 44
0.0000000001
 40
0.0
 40
0.0
 40
0.0
 40
0.0
 40
0.2392835627
 40
0.4999987528
 40
0.7607146109
 40
1.0
 40
1.0
 40
1.0
 40
1.0
 10
51.6159614932
 20
98.2568261524
 30
0.0
 10
51.565335044
 20
98.2275967899
 30
0.0
 10
51.4704381194
 20
98.1474980359
 30
0.0
 10
51.3600154308
 20
97.9963477068
 30
0.0
 10
51.284327859
 20
97.8251425877
 30
0.0
 10
51.2624098714
 20
97.7029093904
 30
0.0
 10
51.2624095744
 20
97.6444504719
 30
0.0
  0
SPLINE
  5
551
100
AcDbEntity
  8
0
100
AcDbSpline
 62
7
  6
CONTINUOUS
 70
0
 71
3
 72
10
 73
6
 74
0
 42
0.0000001
 43
0.0000001
 44
0.0000000001
 40
0.0
 40
0.0
 40
0.0
 40
0.0
 40
0.3158863249
 40
0.6492033273
 40
1.0
 40
1.0
 40
1.0
 40
1.0
 10
52.4219509667
 20
98.7058682208
 30
0.0
 10
52.4109680739
 20
98.7032199483
 30
0.0
 10
52.3886945236
 20
98.696479659
 30
0.0
 10
52.35562338
 20
98.6827377846
 30
0.0
 10
52.3339314402
 20
98.6713421201
 30
0.0
 10
52.3230653298
 20
98.665070306
 30
0.0
  0
SPLINE
  5
552
100
AcDbEntity
  8
0
100
AcDbSpline
 62
7
  6
CONTINUOUS
 70
0
 71
3
 72
10
 73
6
 74
0
 42
0.0000001
 43
0.0000001
 44
0.0000000001
 40
0.0
 40
0.0
 40
0.0
 40
0.0
 40
0.315555627
 40
0.6475248223
 40
1.0
 40
1.0
 40
1.0
 40
1.0
 10
55.3575909563
 20
98.7683122497
 30
0.0
 10
55.0545789857
 20
98.8400658762
 30
0.0
 10
54.4180401313
 20
98.9299210383
 30
0.0
 10
53.4279170709
 20
98.9043610528
 30
0.0
 10
52.7600972118
 20
98.7873468287
 30
0.0
 10
52.4219509667
 20
98.7058682208
 30
0.0
  0
SPLINE
  5
553
100
AcDbEntity
  8
0
100
AcDbSpline
 62
7
  6
CONTINUOUS
 70
0
 71
3
 72
10
 73
6
 74
0
 42
0.0000001
 43
0.0000001
 44
0.0000000001
 40
0.0
 40
0.0
 40
0.0
 40
0.0
 40
0.3834627648
 40
0.7046811377
 40
1.0
 40
1.0
 40
1.0
 40
1.0
 10
55.7171622453
 20
98.1751341253
 30
0.0
 10
55.7171622453
 20
98.2703593132
 30
0.0
 10
55.6959933326
 20
98.4473070383
 30
0.0
 10
55.5713628622
 20
98.6727813112
 30
0.0
 10
55.428953746
 20
98.7514129683
 30
0.0
 10
55.3575909563
 20
98.7683122497
 30
0.0
  0
SPLINE
  5
554
100
AcDbEntity
  8
0
100
AcDbSpline
 62
7
  6
CONTINUOUS
 70
0
 71
3
 72
10
 73
6
 74
0
 42
0.0000001
 43
0.0000001
 44
0.0000000001
 40
0.0
 40
0.0
 40
0.0
 40
0.0
 40
0.3511717182
 40
0.6915970416
 40
1.0
 40
1.0
 40
1.0
 40
1.0
 10
55.3575909563
 20
97.1667613183
 30
0.0
 10
55.4317048713
 20
97.269890955
 30
0.0
 10
55.5590355706
 20
97.4871409343
 30
0.0
 10
55.6832652433
 20
97.8286819589
 30
0.0
 10
55.7171622453
 20
98.0636026974
 30
0.0
 10
55.7171622453
 20
98.1751341253
 30
0.0
  0
SPLINE
  5
555
100
AcDbEntity
  8
0
100
AcDbSpline
 62
7
  6
CONTINUOUS
 70
0
 71
3
 72
10
 73
6
 74
0
 42
0.0000001
 43
0.0000001
 44
0.0000000001
 40
0.0
 40
0.0
 40
0.0
 40
0.0
 40
0.295538106
 40
0.6165091777
 40
1.0
 40
1.0
 40
1.0
 40
1.0
 10
54.8839015126
 20
98.364029295
 30
0.0
 10
54.9438576811
 20
98.3504179081
 30
0.0
 10
55.0638264738
 20
98.2855686622
 30
0.0
 10
55.1690356962
 20
98.0969470365
 30
0.0
 10
55.1868356935
 20
97.9487308496
 30
0.0
 10
55.1868358709
 20
97.8689519434
 30
0.0
  0
SPLINE
  5
556
100
AcDbEntity
  8
0
100
AcDbSpline
 62
7
  6
CONTINUOUS
 70
0
 71
3
 72
10
 73
6
 74
0
 42
0.0000001
 43
0.0000001
 44
0.0000000001
 40
0.0
 40
0.0
 40
0.0
 40
0.0
 40
0.3481312398
 40
0.6804834847
 40
1.0
 40
1.0
 40
1.0
 40
1.0
 10
52.5477828359
 20
98.4037074978
 30
0.0
 10
52.8167542391
 20
98.4483478589
 30
0.0
 10
53.34795723
 20
98.5068841717
 30
0.0
 10
54.1330433464
 20
98.4958048478
 30
0.0
 10
54.6398707586
 20
98.4194286081
 30
0.0
 10
54.8839015126
 20
98.364029295
 30
0.0
  0
SPLINE
  5
557
100
AcDbEntity
  8
0
100
AcDbSpline
 62
7
  6
CONTINUOUS
 70
0
 71
3
 72
10
 73
6
 74
0
 42
0.0000001
 43
0.0000001
 44
0.0000000001
 40
0.0
 40
0.0
 40
0.0
 40
0.0
 40
0.3546399767
 40
0.6878566369
 40
1.0
 40
1.0
 40
1.0
 40
1.0
 10
52.4291309055
 20
98.358880842
 30
0.0
 10
52.4421785898
 20
98.3664102895
 30
0.0
 10
52.46821459
 20
98.3798112489
 30
0.0
 10
52.5079738965
 20
98.3950059313
 30
0.0
 10
52.5347032319
 20
98.4015326562
 30
0.0
 10
52.5477828359
 20
98.4037074978
 30
0.0
  0
SPLINE
  5
558
100
AcDbEntity
  8
0
100
AcDbSpline
 62
7
  6
CONTINUOUS
 70
0
 71
3
 72
11
 73
7
 74
0
 42
0.0000001
 43
0.0000001
 44
0.0000000001
 40
0.0
 40
0.0
 40
0.0
 40
0.0
 40
0.2392857401
 40
0.5000016181
 40
0.7607166296
 40
1.0
 40
1.0
 40
1.0
 40
1.0
 10
51.3684751497
 20
97.3382634026
 30
0.0
 10
51.3684754467
 20
97.3967222179
 30
0.0
 10
51.3903942278
 20
97.5189550061
 30
0.0
 10
51.4660817203
 20
97.6901594564
 30
0.0
 10
51.576504245
 20
97.8413090779
 30
0.0
 10
51.6714008235
 20
97.9214074436
 30
0.0
 10
51.7220270683
 20
97.9506366881
 30
0.0
  0
SPLINE
  5
559
100
AcDbEntity
  8
0
100
AcDbSpline
 62
7
  6
CONTINUOUS
 70
0
 71
3
 72
11
 73
7
 74
0
 42
0.0000001
 43
0.0000001
 44
0.0000000001
 40
0.0
 40
0.0
 40
0.0
 40
0.0
 40
0.2773235582
 40
0.4999969636
 40
0.7226723831
 40
1.0
 40
1.0
 40
1.0
 40
1.0
 10
51.7220270683
 20
93.7864743596
 30
0.0
 10
51.6803825035
 20
93.7624312845
 30
0.0
 10
51.5975816883
 20
93.7281758957
 30
0.0
 10
51.4645243616
 20
93.748716555
 30
0.0
 10
51.3802093958
 20
93.8536798708
 30
0.0
 10
51.368475394
 20
93.9425159988
 30
0.0
 10
51.3684751497
 20
93.9906034912
 30
0.0
  0
SPLINE
  5
55A
100
AcDbEntity
  8
0
100
AcDbSpline
 62
7
  6
CONTINUOUS
 70
0
 71
3
 72
10
 73
6
 74
0
 42
0.0000001
 43
0.0000001
 44
0.0000000001
 40
0.0
 40
0.0
 40
0.0
 40
0.0
 40
0.3482368182
 40
0.6822228407
 40
1.0
 40
1.0
 40
1.0
 40
1.0
 10
52.5477828359
 20
94.2868984876
 30
0.0
 10
52.5353489461
 20
94.2746086281
 30
0.0
 10
52.5100863924
 20
94.2514205702
 30
0.0
 10
52.4704597648
 20
94.2205128016
 30
0.0
 10
52.4429453747
 20
94.2026980561
 30
0.0
 10
52.4291309055
 20
94.1947185135
 30
0.0
  0
SPLINE
  5
55B
100
AcDbEntity
  8
0
100
AcDbSpline
 62
7
  6
CONTINUOUS
 70
0
 71
3
 72
10
 73
6
 74
0
 42
0.0000001
 43
0.0000001
 44
0.0000000001
 40
0.0
 40
0.0
 40
0.0
 40
0.0
 40
0.3391605742
 40
0.6730423409
 40
1.0
 40
1.0
 40
1.0
 40
1.0
 10
54.8839015126
 20
97.0240780823
 30
0.0
 10
54.6451400618
 20
96.6941786645
 30
0.0
 10
54.1542270213
 20
96.0516734566
 30
0.0
 10
53.3748548467
 20
95.1375754082
 30
0.0
 10
52.8269501525
 20
94.5629186687
 30
0.0
 10
52.5477828359
 20
94.2868984876
 30
0.0
  0
SPLINE
  5
55C
100
AcDbEntity
  8
0
100
AcDbSpline
 62
7
  6
CONTINUOUS
 70
0
 71
3
 72
10
 73
6
 74
0
 42
0.0000001
 43
0.0000001
 44
0.0000000001
 40
0.0
 40
0.0
 40
0.0
 40
0.0
 40
0.3084297317
 40
0.6489502577
 40
1.0
 40
1.0
 40
1.0
 40
1.0
 10
55.1868358709
 20
97.8689519434
 30
0.0
 10
55.1868356761
 20
97.7754254016
 30
0.0
 10
55.1582366087
 20
97.5784095576
 30
0.0
 10
55.0535642589
 20
97.2922016152
 30
0.0
 10
54.9463130768
 20
97.1103131354
 30
0.0
 10
54.8839015126
 20
97.0240780823
 30
0.0
  0
SPLINE
  5
55D
100
AcDbEntity
  8
0
100
AcDbSpline
 62
7
  6
CONTINUOUS
 70
0
 71
3
 72
10
 73
6
 74
0
 42
0.0000001
 43
0.0000001
 44
0.0000000001
 40
0.0
 40
0.0
 40
0.0
 40
0.0
 40
0.3834891672
 40
0.7044611987
 40
1.0
 40
1.0
 40
1.0
 40
1.0
 10
56.0490724573
 20
97.371150286
 30
0.0
 10
56.0490722799
 20
97.4509288701
 30
0.0
 10
56.0312728176
 20
97.5991449717
 30
0.0
 10
55.9260638107
 20
97.7877668818
 30
0.0
 10
55.8060947096
 20
97.8526164444
 30
0.0
 10
55.7461383834
 20
97.8662278672
 30
0.0
  0
SPLINE
  5
55E
100
AcDbEntity
  8
0
100
AcDbSpline
 62
7
  6
CONTINUOUS
 70
0
 71
3
 72
10
 73
6
 74
0
 42
0.0000001
 43
0.0000001
 44
0.0000000001
 40
0.0
 40
0.0
 40
0.0
 40
0.0
 40
0.3510507151
 40
0.6915721011
 40
1.0
 40
1.0
 40
1.0
 40
1.0
 10
55.7461383836
 20
96.526276655
 30
0.0
 10
55.8085501027
 20
96.6125119221
 30
0.0
 10
55.9158014584
 20
96.7944008653
 30
0.0
 10
56.0204737652
 20
97.0806087892
 30
0.0
 10
56.0490722624
 20
97.277624327
 30
0.0
 10
56.0490724573
 20
97.371150286
 30
0.0
  0
SPLINE
  5
55F
100
AcDbEntity
  8
0
100
AcDbSpline
 62
7
  6
CONTINUOUS
 70
0
 71
3
 72
10
 73
6
 74
0
 42
0.0000001
 43
0.0000001
 44
0.0000000001
 40
0.0
 40
0.0
 40
0.0
 40
0.0
 40
0.3269576486
 40
0.6608394169
 40
1.0
 40
1.0
 40
1.0
 40
1.0
 10
53.4100197061
 20
93.7890970601
 30
0.0
 10
53.6891870147
 20
94.0651172331
 30
0.0
 10
54.2370918076
 20
94.6397738654
 30
0.0
 10
55.016463985
 20
95.5538719258
 30
0.0
 10
55.5073769258
 20
96.1963772274
 30
0.0
 10
55.7461383836
 20
96.526276655
 30
0.0
  0
SPLINE
  5
560
100
AcDbEntity
  8
0
100
AcDbSpline
 62
7
  6
CONTINUOUS
 70
0
 71
3
 72
10
 73
6
 74
0
 42
0.0000001
 43
0.0000001
 44
0.0000000001
 40
0.0
 40
0.0
 40
0.0
 40
0.0
 40
0.3177483813
 40
0.6517367814
 40
1.0
 40
1.0
 40
1.0
 40
1.0
 10
53.2913677761
 20
93.6969170862
 30
0.0
 10
53.3051811153
 20
93.704895976
 30
0.0
 10
53.332700583
 20
93.722700631
 30
0.0
 10
53.3723275363
 20
93.7536100048
 30
0.0
 10
53.3975847648
 20
93.7768061612
 30
0.0
 10
53.4100197061
 20
93.7890970601
 30
0.0
  0
SPLINE
  5
561
100
AcDbEntity
  8
0
100
AcDbSpline
 62
7
  6
CONTINUOUS
 70
0
 71
3
 72
11
 73
7
 74
0
 42
0.0000001
 43
0.0000001
 44
0.0000000001
 40
0.0
 40
0.0
 40
0.0
 40
0.0
 40
0.2773276171
 40
0.5000030361
 40
0.7226764411
 40
1.0
 40
1.0
 40
1.0
 40
1.0
 10
52.2307120208
 20
93.4928020636
 30
0.0
 10
52.2307122651
 20
93.444714571
 30
0.0
 10
52.2424462659
 20
93.3558784427
 30
0.0
 10
52.3267612318
 20
93.2509151261
 30
0.0
 10
52.4598185593
 20
93.2303744673
 30
0.0
 10
52.5426193742
 20
93.2646298573
 30
0.0
 10
52.5842639393
 20
93.2886729325
 30
0.0
  0
SPLINE
  5
562
100
AcDbEntity
  8
0
100
AcDbSpline
 62
7
  6
CONTINUOUS
 70
0
 71
3
 72
11
 73
7
 74
0
 42
0.0000001
 43
0.0000001
 44
0.0000000001
 40
0.0
 40
0.0
 40
0.0
 40
0.0
 40
0.2392833704
 40
0.499998382
 40
0.7607142602
 40
1.0
 40
1.0
 40
1.0
 40
1.0
 10
52.5842639393
 20
97.4528352599
 30
0.0
 10
52.5336376945
 20
97.4236060154
 30
0.0
 10
52.4387411153
 20
97.3435076505
 30
0.0
 10
52.3283185906
 20
97.1923580289
 30
0.0
 10
52.2526310979
 20
97.0211535785
 30
0.0
 10
52.2307123178
 20
96.8989207902
 30
0.0
 10
52.2307120208
 20
96.840461975
 30
0.0
  0
SPLINE
  5
563
100
AcDbEntity
  8
0
100
AcDbSpline
 62
7
  6
CONTINUOUS
 70
0
 71
3
 72
10
 73
6
 74
0
 42
0.0000001
 43
0.0000001
 44
0.0000000001
 40
0.0
 40
0.0
 40
0.0
 40
0.0
 40
0.3121055424
 40
0.6453217533
 40
1.0
 40
1.0
 40
1.0
 40
1.0
 10
53.4100197068
 20
97.9059060694
 30
0.0
 10
53.3969414623
 20
97.9037314538
 30
0.0
 10
53.3702102976
 20
97.8972183602
 30
0.0
 10
53.3304496721
 20
97.88202131
 30
0.0
 10
53.3044170932
 20
97.8686098032
 30
0.0
 10
53.2913677761
 20
97.8610794135
 30
0.0
  0
SPLINE
  5
564
100
AcDbEntity
  8
0
100
AcDbSpline
 62
7
  6
CONTINUOUS
 70
0
 71
3
 72
10
 73
6
 74
0
 42
0.0000001
 43
0.0000001
 44
0.0000000001
 40
0.0
 40
0.0
 40
0.0
 40
0.0
 40
0.3195164945
 40
0.6518687363
 40
1.0
 40
1.0
 40
1.0
 40
1.0
 10
55.7461383834
 20
97.8662278672
 30
0.0
 10
55.5021076408
 20
97.9216271777
 30
0.0
 10
54.995280278
 20
97.9980036442
 30
0.0
 10
54.2101941221
 20
98.0090829483
 30
0.0
 10
53.6789911333
 20
97.9505464343
 30
0.0
 10
53.4100197068
 20
97.9059060694
 30
0.0
  0
SPLINE
  5
565
100
AcDbEntity
  8
0
100
AcDbSpline
 62
7
  6
CONTINUOUS
 70
0
 71
3
 72
10
 73
6
 74
0
 42
0.0000001
 43
0.0000001
 44
0.0000000001
 40
0.0
 40
0.0
 40
0.0
 40
0.0
 40
0.319906776
 40
0.6536632146
 40
1.0
 40
1.0
 40
1.0
 40
1.0
 10
52.3230653298
 20
73.5167958584
 30
0.0
 10
52.3344561242
 20
73.5233740796
 30
0.0
 10
52.3571783563
 20
73.5377910945
 30
0.0
 10
52.3901870956
 20
73.5623604726
 30
0.0
 10
52.4114372521
 20
73.5805755816
 30
0.0
 10
52.4219509667
 20
73.5901805601
 30
0.0
  0
SPLINE
  5
566
100
AcDbEntity
  8
0
100
AcDbSpline
 62
7
  6
CONTINUOUS
 70
0
 71
3
 72
11
 73
7
 74
0
 42
0.0000001
 43
0.0000001
 44
0.0000000001
 40
0.0
 40
0.0
 40
0.0
 40
0.0
 40
0.2773282193
 40
0.5000037318
 40
0.7226767689
 40
1.0
 40
1.0
 40
1.0
 40
1.0
 10
51.2624095744
 20
73.3126832313
 30
0.0
 10
51.2624098187
 20
73.2645954179
 30
0.0
 10
51.2741430566
 20
73.1757587331
 30
0.0
 10
51.3584578679
 20
73.0707942985
 30
0.0
 10
51.4915156668
 20
73.05025305
 30
0.0
 10
51.5743167899
 20
73.0845085498
 30
0.0
 10
51.6159614932
 20
73.1085517048
 30
0.0
  0
SPLINE
  5
567
100
AcDbEntity
  8
0
100
AcDbSpline
 62
7
  6
CONTINUOUS
 70
0
 71
3
 72
11
 73
7
 74
0
 42
0.0000001
 43
0.0000001
 44
0.0000000001
 40
0.0
 40
0.0
 40
0.0
 40
0.0
 40
0.2392835627
 40
0.4999987528
 40
0.7607146109
 40
1.0
 40
1.0
 40
1.0
 40
1.0
 10
51.6159614932
 20
78.0075662076
 30
0.0
 10
51.565335044
 20
77.9783368451
 30
0.0
 10
51.4704381194
 20
77.8982380911
 30
0.0
 10
51.3600154308
 20
77.747087762
 30
0.0
 10
51.284327859
 20
77.5758826429
 30
0.0
 10
51.2624098713
 20
77.4536494456
 30
0.0
 10
51.2624095744
 20
77.3951905271
 30
0.0
  0
SPLINE
  5
568
100
AcDbEntity
  8
0
100
AcDbSpline
 62
7
  6
CONTINUOUS
 70
0
 71
3
 72
10
 73
6
 74
0
 42
0.0000001
 43
0.0000001
 44
0.0000000001
 40
0.0
 40
0.0
 40
0.0
 40
0.0
 40
0.3158863252
 40
0.6492033275
 40
1.0
 40
1.0
 40
1.0
 40
1.0
 10
52.4219509667
 20
78.456608276
 30
0.0
 10
52.4109680739
 20
78.4539600035
 30
0.0
 10
52.3886945237
 20
78.4472197142
 30
0.0
 10
52.35562338
 20
78.4334778398
 30
0.0
 10
52.3339314403
 20
78.4220821753
 30
0.0
 10
52.3230653298
 20
78.4158103611
 30
0.0
  0
SPLINE
  5
569
100
AcDbEntity
  8
0
100
AcDbSpline
 62
7
  6
CONTINUOUS
 70
0
 71
3
 72
10
 73
6
 74
0
 42
0.0000001
 43
0.0000001
 44
0.0000000001
 40
0.0
 40
0.0
 40
0.0
 40
0.0
 40
0.315555627
 40
0.6475248223
 40
1.0
 40
1.0
 40
1.0
 40
1.0
 10
55.3575909563
 20
78.5190523049
 30
0.0
 10
55.0545789857
 20
78.5908059314
 30
0.0
 10
54.4180401313
 20
78.6806610935
 30
0.0
 10
53.4279170709
 20
78.655101108
 30
0.0
 10
52.7600972118
 20
78.5380868839
 30
0.0
 10
52.4219509667
 20
78.456608276
 30
0.0
  0
SPLINE
  5
56A
100
AcDbEntity
  8
0
100
AcDbSpline
 62
7
  6
CONTINUOUS
 70
0
 71
3
 72
10
 73
6
 74
0
 42
0.0000001
 43
0.0000001
 44
0.0000000001
 40
0.0
 40
0.0
 40
0.0
 40
0.0
 40
0.3834627647
 40
0.7046811377
 40
1.0
 40
1.0
 40
1.0
 40
1.0
 10
55.7171622453
 20
77.9258741805
 30
0.0
 10
55.7171622453
 20
78.0210993683
 30
0.0
 10
55.6959933326
 20
78.1980470935
 30
0.0
 10
55.5713628622
 20
78.4235213664
 30
0.0
 10
55.428953746
 20
78.5021530235
 30
0.0
 10
55.3575909563
 20
78.5190523049
 30
0.0
  0
SPLINE
  5
56B
100
AcDbEntity
  8
0
100
AcDbSpline
 62
7
  6
CONTINUOUS
 70
0
 71
3
 72
10
 73
6
 74
0
 42
0.0000001
 43
0.0000001
 44
0.0000000001
 40
0.0
 40
0.0
 40
0.0
 40
0.0
 40
0.3511717182
 40
0.6915970416
 40
1.0
 40
1.0
 40
1.0
 40
1.0
 10
55.3575909563
 20
76.9175013735
 30
0.0
 10
55.4317048713
 20
77.0206310102
 30
0.0
 10
55.5590355706
 20
77.2378809894
 30
0.0
 10
55.6832652433
 20
77.5794220141
 30
0.0
 10
55.7171622453
 20
77.8143427525
 30
0.0
 10
55.7171622453
 20
77.9258741805
 30
0.0
  0
SPLINE
  5
56C
100
AcDbEntity
  8
0
100
AcDbSpline
 62
7
  6
CONTINUOUS
 70
0
 71
3
 72
10
 73
6
 74
0
 42
0.0000001
 43
0.0000001
 44
0.0000000001
 40
0.0
 40
0.0
 40
0.0
 40
0.0
 40
0.3246976533
 40
0.6588652087
 40
1.0
 40
1.0
 40
1.0
 40
1.0
 10
52.4219509667
 20
73.5901805601
 30
0.0
 10
52.7770481097
 20
73.9146459343
 30
0.0
 10
53.4727013024
 20
74.6007676007
 30
0.0
 10
54.4525339359
 20
75.7132267878
 30
0.0
 10
55.0626704841
 20
76.5071210291
 30
0.0
 10
55.3575909563
 20
76.9175013735
 30
0.0
  0
SPLINE
  5
56D
100
AcDbEntity
  8
0
100
AcDbSpline
 62
7
  6
CONTINUOUS
 70
0
 71
3
 72
10
 73
6
 74
0
 42
0.0000001
 43
0.0000001
 44
0.0000000001
 40
0.0
 40
0.0
 40
0.0
 40
0.0
 40
0.295538106
 40
0.6165091776
 40
1.0
 40
1.0
 40
1.0
 40
1.0
 10
54.8839015126
 20
78.1147693496
 30
0.0
 10
54.943857681
 20
78.1011579627
 30
0.0
 10
55.063826474
 20
78.0363087179
 30
0.0
 10
55.1690356964
 20
77.8476870922
 30
0.0
 10
55.1868356935
 20
77.6994709056
 30
0.0
 10
55.1868358709
 20
77.6196919995
 30
0.0
  0
SPLINE
  5
56E
100
AcDbEntity
  8
0
100
AcDbSpline
 62
7
  6
CONTINUOUS
 70
0
 71
3
 72
10
 73
6
 74
0
 42
0.0000001
 43
0.0000001
 44
0.0000000001
 40
0.0
 40
0.0
 40
0.0
 40
0.0
 40
0.3481312399
 40
0.6804834848
 40
1.0
 40
1.0
 40
1.0
 40
1.0
 10
52.5477828359
 20
78.1544475524
 30
0.0
 10
52.8167542392
 20
78.1990879134
 30
0.0
 10
53.34795723
 20
78.2576242269
 30
0.0
 10
54.1330433466
 20
78.2465449031
 30
0.0
 10
54.6398707586
 20
78.1701686628
 30
0.0
 10
54.8839015126
 20
78.1147693496
 30
0.0
  0
SPLINE
  5
56F
100
AcDbEntity
  8
0
100
AcDbSpline
 62
7
  6
CONTINUOUS
 70
0
 71
3
 72
10
 73
6
 74
0
 42
0.0000001
 43
0.0000001
 44
0.0000000001
 40
0.0
 40
0.0
 40
0.0
 40
0.0
 40
0.3546399766
 40
0.6878566368
 40
1.0
 40
1.0
 40
1.0
 40
1.0
 10
52.4291309055
 20
78.1096208966
 30
0.0
 10
52.4421785898
 20
78.1171503441
 30
0.0
 10
52.46821459
 20
78.1305513035
 30
0.0
 10
52.5079738965
 20
78.1457459858
 30
0.0
 10
52.5347032319
 20
78.1522727107
 30
0.0
 10
52.5477828359
 20
78.1544475524
 30
0.0
  0
SPLINE
  5
570
100
AcDbEntity
  8
0
100
AcDbSpline
 62
7
  6
CONTINUOUS
 70
0
 71
3
 72
11
 73
7
 74
0
 42
0.0000001
 43
0.0000001
 44
0.0000000001
 40
0.0
 40
0.0
 40
0.0
 40
0.0
 40
0.2392857397
 40
0.5000016181
 40
0.7607166299
 40
1.0
 40
1.0
 40
1.0
 40
1.0
 10
51.3684751497
 20
77.0890034572
 30
0.0
 10
51.3684754467
 20
77.1474622725
 30
0.0
 10
51.3903942261
 20
77.2696950611
 30
0.0
 10
51.466081719
 20
77.4408995118
 30
0.0
 10
51.5765042438
 20
77.5920491337
 30
0.0
 10
51.6714008235
 20
77.6721474982
 30
0.0
 10
51.7220270683
 20
77.7013767427
 30
0.0
  0
SPLINE
  5
571
100
AcDbEntity
  8
0
100
AcDbSpline
 62
7
  6
CONTINUOUS
 70
0
 71
3
 72
11
 73
7
 74
0
 42
0.0000001
 43
0.0000001
 44
0.0000000001
 40
0.0
 40
0.0
 40
0.0
 40
0.0
 40
0.2773235582
 40
0.4999969636
 40
0.7226723831
 40
1.0
 40
1.0
 40
1.0
 40
1.0
 10
51.7220270683
 20
73.5372144157
 30
0.0
 10
51.6803825035
 20
73.5131713406
 30
0.0
 10
51.5975816883
 20
73.4789159518
 30
0.0
 10
51.4645243616
 20
73.4994566111
 30
0.0
 10
51.3802093958
 20
73.6044199269
 30
0.0
 10
51.368475394
 20
73.6932560549
 30
0.0
 10
51.3684751497
 20
73.7413435473
 30
0.0
  0
SPLINE
  5
572
100
AcDbEntity
  8
0
100
AcDbSpline
 62
7
  6
CONTINUOUS
 70
0
 71
3
 72
10
 73
6
 74
0
 42
0.0000001
 43
0.0000001
 44
0.0000000001
 40
0.0
 40
0.0
 40
0.0
 40
0.0
 40
0.3482368183
 40
0.6822228408
 40
1.0
 40
1.0
 40
1.0
 40
1.0
 10
52.5477828359
 20
74.0376385438
 30
0.0
 10
52.5353489461
 20
74.0253486843
 30
0.0
 10
52.5100863924
 20
74.0021606263
 30
0.0
 10
52.4704597648
 20
73.9712528577
 30
0.0
 10
52.4429453747
 20
73.9534381121
 30
0.0
 10
52.4291309055
 20
73.9454585696
 30
0.0
  0
SPLINE
  5
573
100
AcDbEntity
  8
0
100
AcDbSpline
 62
7
  6
CONTINUOUS
 70
0
 71
3
 72
10
 73
6
 74
0
 42
0.0000001
 43
0.0000001
 44
0.0000000001
 40
0.0
 40
0.0
 40
0.0
 40
0.0
 40
0.3391605742
 40
0.6730423409
 40
1.0
 40
1.0
 40
1.0
 40
1.0
 10
54.8839015126
 20
76.7748181369
 30
0.0
 10
54.6451400619
 20
76.4449187191
 30
0.0
 10
54.1542270213
 20
75.8024135116
 30
0.0
 10
53.3748548468
 20
74.8883154637
 30
0.0
 10
52.8269501524
 20
74.3136587247
 30
0.0
 10
52.5477828359
 20
74.0376385438
 30
0.0
  0
SPLINE
  5
574
100
AcDbEntity
  8
0
100
AcDbSpline
 62
7
  6
CONTINUOUS
 70
0
 71
3
 72
10
 73
6
 74
0
 42
0.0000001
 43
0.0000001
 44
0.0000000001
 40
0.0
 40
0.0
 40
0.0
 40
0.0
 40
0.3084297316
 40
0.6489502576
 40
1.0
 40
1.0
 40
1.0
 40
1.0
 10
55.1868358709
 20
77.6196919995
 30
0.0
 10
55.1868356761
 20
77.5261654575
 30
0.0
 10
55.158236609
 20
77.3291496132
 30
0.0
 10
55.0535642591
 20
77.0429416703
 30
0.0
 10
54.9463130769
 20
76.8610531901
 30
0.0
 10
54.8839015126
 20
76.7748181369
 30
0.0
  0
SPLINE
  5
575
100
AcDbEntity
  8
0
100
AcDbSpline
 62
7
  6
CONTINUOUS
 70
0
 71
3
 72
10
 73
6
 74
0
 42
0.0000001
 43
0.0000001
 44
0.0000000001
 40
0.0
 40
0.0
 40
0.0
 40
0.0
 40
0.3834891671
 40
0.7044611987
 40
1.0
 40
1.0
 40
1.0
 40
1.0
 10
56.0490724573
 20
77.1218903412
 30
0.0
 10
56.0490722799
 20
77.2016689252
 30
0.0
 10
56.0312728177
 20
77.3498850268
 30
0.0
 10
55.9260638108
 20
77.5385069369
 30
0.0
 10
55.8060947098
 20
77.6033564996
 30
0.0
 10
55.7461383836
 20
77.6169679223
 30
0.0
  0
SPLINE
  5
576
100
AcDbEntity
  8
0
100
AcDbSpline
 62
7
  6
CONTINUOUS
 70
0
 71
3
 72
10
 73
6
 74
0
 42
0.0000001
 43
0.0000001
 44
0.0000000001
 40
0.0
 40
0.0
 40
0.0
 40
0.0
 40
0.3510507151
 40
0.6915721011
 40
1.0
 40
1.0
 40
1.0
 40
1.0
 10
55.7461383834
 20
76.2770167098
 30
0.0
 10
55.8085501025
 20
76.3632519769
 30
0.0
 10
55.9158014583
 20
76.5451409202
 30
0.0
 10
56.0204737652
 20
76.8313488442
 30
0.0
 10
56.0490722624
 20
77.0283643821
 30
0.0
 10
56.0490724573
 20
77.1218903412
 30
0.0
  0
SPLINE
  5
577
100
AcDbEntity
  8
0
100
AcDbSpline
 62
7
  6
CONTINUOUS
 70
0
 71
3
 72
10
 73
6
 74
0
 42
0.0000001
 43
0.0000001
 44
0.0000000001
 40
0.0
 40
0.0
 40
0.0
 40
0.0
 40
0.3269576486
 40
0.6608394169
 40
1.0
 40
1.0
 40
1.0
 40
1.0
 10
53.4100197064
 20
73.5398371155
 30
0.0
 10
53.689187015
 20
73.8158572885
 30
0.0
 10
54.2370918077
 20
74.3905139207
 30
0.0
 10
55.0164639849
 20
75.3046119809
 30
0.0
 10
55.5073769256
 20
75.9471172822
 30
0.0
 10
55.7461383834
 20
76.2770167098
 30
0.0
  0
SPLINE
  5
578
100
AcDbEntity
  8
0
100
AcDbSpline
 62
7
  6
CONTINUOUS
 70
0
 71
3
 72
10
 73
6
 74
0
 42
0.0000001
 43
0.0000001
 44
0.0000000001
 40
0.0
 40
0.0
 40
0.0
 40
0.0
 40
0.3177483813
 40
0.6517367813
 40
1.0
 40
1.0
 40
1.0
 40
1.0
 10
53.2913677761
 20
73.4476571413
 30
0.0
 10
53.3051811153
 20
73.4556360312
 30
0.0
 10
53.332700583
 20
73.4734406863
 30
0.0
 10
53.3723275365
 20
73.5043500602
 30
0.0
 10
53.3975847651
 20
73.5275462166
 30
0.0
 10
53.4100197064
 20
73.5398371155
 30
0.0
  0
SPLINE
  5
579
100
AcDbEntity
  8
0
100
AcDbSpline
 62
7
  6
CONTINUOUS
 70
0
 71
3
 72
11
 73
7
 74
0
 42
0.0000001
 43
0.0000001
 44
0.0000000001
 40
0.0
 40
0.0
 40
0.0
 40
0.0
 40
0.2773276173
 40
0.5000030364
 40
0.7226764413
 40
1.0
 40
1.0
 40
1.0
 40
1.0
 10
52.2307120208
 20
73.2435421197
 30
0.0
 10
52.2307122651
 20
73.195454627
 30
0.0
 10
52.2424462656
 20
73.1066184984
 30
0.0
 10
52.3267612315
 20
73.0016551815
 30
0.0
 10
52.4598185591
 20
72.9811145224
 30
0.0
 10
52.5426193742
 20
73.0153699124
 30
0.0
 10
52.5842639393
 20
73.0394129877
 30
0.0
  0
SPLINE
  5
57A
100
AcDbEntity
  8
0
100
AcDbSpline
 62
7
  6
CONTINUOUS
 70
0
 71
3
 72
11
 73
7
 74
0
 42
0.0000001
 43
0.0000001
 44
0.0000000001
 40
0.0
 40
0.0
 40
0.0
 40
0.0
 40
0.2392833704
 40
0.4999983821
 40
0.7607142602
 40
1.0
 40
1.0
 40
1.0
 40
1.0
 10
52.5842639393
 20
77.2035753151
 30
0.0
 10
52.5336376945
 20
77.1743460705
 30
0.0
 10
52.4387411152
 20
77.0942477056
 30
0.0
 10
52.3283185904
 20
76.9430980838
 30
0.0
 10
52.2526310977
 20
76.7718936333
 30
0.0
 10
52.2307123178
 20
76.6496608449
 30
0.0
 10
52.2307120208
 20
76.5912020296
 30
0.0
  0
SPLINE
  5
57B
100
AcDbEntity
  8
0
100
AcDbSpline
 62
7
  6
CONTINUOUS
 70
0
 71
3
 72
10
 73
6
 74
0
 42
0.0000001
 43
0.0000001
 44
0.0000000001
 40
0.0
 40
0.0
 40
0.0
 40
0.0
 40
0.3121055424
 40
0.6453217534
 40
1.0
 40
1.0
 40
1.0
 40
1.0
 10
53.410019707
 20
77.6566461246
 30
0.0
 10
53.3969414625
 20
77.6544715091
 30
0.0
 10
53.3702102977
 20
77.6479584155
 30
0.0
 10
53.3304496722
 20
77.6327613652
 30
0.0
 10
53.3044170932
 20
77.6193498584
 30
0.0
 10
53.2913677761
 20
77.6118194687
 30
0.0
  0
SPLINE
  5
57C
100
AcDbEntity
  8
0
100
AcDbSpline
 62
7
  6
CONTINUOUS
 70
0
 71
3
 72
10
 73
6
 74
0
 42
0.0000001
 43
0.0000001
 44
0.0000000001
 40
0.0
 40
0.0
 40
0.0
 40
0.0
 40
0.3195164945
 40
0.6518687363
 40
1.0
 40
1.0
 40
1.0
 40
1.0
 10
55.7461383836
 20
77.6169679223
 30
0.0
 10
55.5021076411
 20
77.6723672329
 30
0.0
 10
54.9952802782
 20
77.7487436994
 30
0.0
 10
54.2101941223
 20
77.7598230035
 30
0.0
 10
53.6789911334
 20
77.7012864896
 30
0.0
 10
53.410019707
 20
77.6566461246
 30
0.0
  0
ELLIPSE
  5
57D
100
AcDbEntity
  8
0
100
AcDbEllipse
 62
7
  6
CONTINUOUS
 10
31.6088731171
 20
35.2207276803
 30
0.0
 11
0.3207739376
 21
0.565349476
 31
0.0
 40
0.5722918721
 41
-4.0954476584
 42
-3.9312925314
  0
ENDSEC
  0
SECTION
  2
OBJECTS
  0
DICTIONARY
  5
C
100
AcDbDictionary
280
0
281
1
  3
ACAD_GROUP
350
D
  3
ACAD_MLINESTYLE
350
17
  3
ACAD_LAYOUT
350
1A
  3
ACAD_PLOTSETTINGS
350
19
  3
ACAD_PLOTSTYLENAME
350
E
  0
DICTIONARY
  5
D
102
{ACAD_REACTORS
330
C
102
}
100
AcDbDictionary
280
0
281
1
  0
ACDBDICTIONARYWDFLT
  5
E
102
{ACAD_REACTORS
330
C
102
}
100
AcDbDictionary
281
1
  3
Normal
350
F
100
AcDbDictionaryWithDefault
340
F
  0
DICTIONARY
  5
17
102
{ACAD_REACTORS
330
C
102
}
100
AcDbDictionary
280
0
281
1
  3
Standard
350
18
  0
DICTIONARY
  5
19
102
{ACAD_REACTORS
330
C
102
}
100
AcDbDictionary
281
1
  0
DICTIONARY
  5
1A
102
{ACAD_REACTORS
330
C
102
}
100
AcDbDictionary
281
1
  3
Model
350
57E
  3
Layout1
350
57F
  0
ACDBPLACEHOLDER
  5
F
102
{ACAD_REACTORS
330
E
102
}
  0
MLINESTYLE
  5
18
102
{ACAD_REACTORS
330
17
102
}
100
AcDbMlineStyle
  2
STANDARD
 70
0
  3

 62
256
 51
90.0
 52
90.0
 71
2
 49
0.5
 62
256
  6
BYLAYER
 49
-0.5
 62
256
  6
BYLAYER
  0
LAYOUT
  5
57E
102
{ACAD_REACTORS
330
1A
102
}
100
AcDbPlotSettings
  1

  2
none_device
  4

  6

 40
0.0
 41
0.0
 42
0.0
 43
0.0
 44
210.0
 45
297.0
 46
0.0
 47
0.0
 48
0.0
 49
0.0
140
0.0
141
0.0
142
1.0
143
1.0
 70
1024
 72
1
 73
0
 74
0
  7

 75
0
147
1.0
148
0.0
149
0.0
100
AcDbLayout
  1
Model
 70
0
 71
0
 10
0.0
 20
0.0
 11
210.0
 21
297.0
 12
0.0
 22
0.0
 32
0.0
 14
0.0
 24
0.0
 34
0.0
 15
0.0
 25
0.0
 35
0.0
146
0.0
 13
0.0
 23
0.0
 33
0.0
 16
1.0
 26
0.0
 36
0.0
 17
0.0
 27
1.0
 37
0.0
 76
0
330
210
345
0
346
0
  0
LAYOUT
  5
57F
102
{ACAD_REACTORS
330
1A
102
}
100
AcDbPlotSettings
  1

  2
none_device
  4

  6

 40
0.0
 41
0.0
 42
0.0
 43
0.0
 44
210.0
 45
297.0
 46
0.0
 47
0.0
 48
0.0
 49
0.0
140
0.0
141
0.0
142
1.0
143
1.0
 70
0
 72
1
 73
0
 74
0
  7

 75
0
147
1.0
148
0.0
149
0.0
100
AcDbLayout
  1
Layout1
 70
0
 71
1
 10
0.0
 20
0.0
 11
210.0
 21
297.0
 12
0.0
 22
0.0
 32
0.0
 14
0.0
 24
0.0
 34
0.0
 15
0.0
 25
0.0
 35
0.0
146
0.0
 13
0.0
 23
0.0
 33
0.0
 16
1.0
 26
0.0
 36
0.0
 17
0.0
 27
1.0
 37
0.0
 76
0
330
211
345
0
346
0
  0
ENDSEC
  0
EOF
