999
DXF file: C:\Users\sesa63760\Dev\_Creo\CAD\MCADID0001566_3D-CAD\drw0001_6.dxf
999
Pro/ENGINEER 2019471 by Parametric Technology Corporation
  0
SECTION
  2
HEADER
  9
$ACADVER
  1
AC1024
  9
$DWGCODEPAGE
  3
ANSI_1252
  9
$EXTMAX
 10
407.4695372668
 20
576.2783455631
 30
0.0
  9
$EXTMIN
 10
0.0
 20
0.0
 30
0.0
  9
$LIMMIN
 10
0.0
 20
0.0
  9
$LIMMAX
 10
407.4695372668
 20
576.2783455631
  9
$VIEWCTR
 10
203.7347686334
 20
288.1391727815
  9
$VIEWSIZE
 40
576.2783455631
  9
$CLAYER
  8
0
  9
$LTSCALE
 40
37.5648106737
  9
$CELTYPE
  6
BYLAYER
  9
$DIMSCALE
 40
1.0
  9
$DIMASZ
 40
4.8508278246
  9
$DIMEXO
 40
1.0
  9
$DIMDLI
 40
25.9538691928
  9
$DIMEXE
 40
1.0
  9
$DIMCEN
 40
6.1469690193
  9
$DIMLFAC
 40
1.0
  9
$DIMBLK
  1
_FILLED
  9
$DIMALT
 70
0
  9
$DIMALTF
 40
0.0393700787
  9
$DIMTXT
 40
6.7911589544
  9
$DIMTOL
 70
1
  9
$DIMLIM
 70
0
  9
$DIMTFAC
 40
1.0
  9
$DIMTP
 40
0.01
  9
$DIMTM
 40
0.01
  9
$DIMGAP
 40
0.625
  9
$DIMDSEP
 70
46
  9
$AUNITS
 70
0
  9
$PDMODE
 70
3
  9
$PDSIZE
 40
0.3125
  9
$HANDSEED
  5
2C5
  9
$TILEMODE
 70
1
  9
$MEASUREMENT
 70
1
  9
$INSUNITS
 70
4
  0
ENDSEC
  0
SECTION
  2
CLASSES
  0
CLASS
  1
ACDBDICTIONARYWDFLT
  2
AcDbDictionaryWithDefault
  3
AutoCAD 2000
 90
0
 91
1
280
0
281
0
  0
CLASS
  1
ACDBPLACEHOLDER
  2
AcDbPlaceHolder
  3
AutoCAD 2000
 90
0
 91
1
280
0
281
0
  0
CLASS
  1
LAYOUT
  2
AcDbLayout
  3
AutoCAD 2000
 90
0
 91
0
280
0
281
0
  0
ENDSEC
  0
SECTION
  2
TABLES
  0
TABLE
  2
VPORT
  5
8
100
AcDbSymbolTable
 70
2
  0
VPORT
  5
1F4
100
AcDbSymbolTableRecord
100
AcDbViewportTableRecord
  2
*ACTIVE
 70
0
 10
0.0
 20
0.0
 11
1.0
 21
1.0
 12
203.7347686334
 22
288.1391727815
 13
0.0
 23
0.0
 14
1.0
 24
1.0
 15
0.0
 25
0.0
 16
0.0
 26
0.0
 36
1.0
 17
0.0
 27
0.0
 37
0.0
 40
576.2783455631
 41
0.7070707071
 42
50.0
 43
0.0
 44
0.0
 50
0.0
 51
0.0
 71
0
 72
100
 73
1
 74
1
 75
0
 76
0
 77
0
 78
0
  0
ENDTAB
  0
TABLE
  2
LTYPE
  5
5
100
AcDbSymbolTable
 70
6
  0
LTYPE
  5
14
100
AcDbSymbolTableRecord
100
AcDbLinetypeTableRecord
  2
BYBLOCK
 70
0
  3

 72
65
 73
0
 40
0.0
  0
LTYPE
  5
15
100
AcDbSymbolTableRecord
100
AcDbLinetypeTableRecord
  2
BYLAYER
 70
0
  3

 72
65
 73
0
 40
0.0
  0
LTYPE
  5
16
100
AcDbSymbolTableRecord
100
AcDbLinetypeTableRecord
  2
CONTINUOUS
 70
64
  3
Solid line
 72
65
 73
0
 40
0.0
  0
LTYPE
  5
1F5
100
AcDbSymbolTableRecord
100
AcDbLinetypeTableRecord
  2
CENTER
 70
64
  3
____ _ ____ _ ____ _ ____ _ ____ _ ____ _ ____
 72
65
 73
4
 40
0.6
 49
0.375
 74
0
 49
-0.075
 74
0
 49
0.075
 74
0
 49
-0.075
 74
0
  0
LTYPE
  5
1F6
100
AcDbSymbolTableRecord
100
AcDbLinetypeTableRecord
  2
HIDDEN
 70
64
  3
- - - - - - - - - - - - - - - - - - - -
 72
65
 73
2
 40
0.2
 49
0.1
 74
0
 49
-0.1
 74
0
  0
LTYPE
  5
1F7
100
AcDbSymbolTableRecord
100
AcDbLinetypeTableRecord
  2
PHANTOM
 70
64
  3
_____ _ _ _____ _ _ _____ _ _ _____
 72
65
 73
6
 40
0.8
 49
0.45
 74
0
 49
-0.05
 74
0
 49
0.1
 74
0
 49
-0.05
 74
0
 49
0.1
 74
0
 49
-0.05
 74
0
  0
LTYPE
  5
1F8
100
AcDbSymbolTableRecord
100
AcDbLinetypeTableRecord
  2
DOT
 70
64
  3
. . . . . . . . . . . . . . . . . . . .
 72
65
 73
2
 40
0.2
 49
0.1
 74
0
 49
-0.1
 74
0
  0
LTYPE
  5
1F9
100
AcDbSymbolTableRecord
100
AcDbLinetypeTableRecord
  2
DASHED
 70
64
  3
- - - - - - - - - - - - - - - - - - - -
 72
65
 73
2
 40
0.2
 49
0.1
 74
0
 49
-0.1
 74
0
  0
ENDTAB
  0
TABLE
  2
LAYER
  5
2
100
AcDbSymbolTable
 70
36
  0
LAYER
  5
10
100
AcDbSymbolTableRecord
100
AcDbLayerTableRecord
  2
0
 70
0
 62
7
  6
CONTINUOUS
370
-3
390
F
  0
LAYER
  5
1FA
100
AcDbSymbolTableRecord
100
AcDbLayerTableRecord
  2
DEFAULT_1
 70
0
 62
7
  6
CENTER
370
-3
390
F
  0
LAYER
  5
1FB
100
AcDbSymbolTableRecord
100
AcDbLayerTableRecord
  2
DEFAULT_2
 70
0
 62
8
  6
HIDDEN
370
-3
390
F
  0
LAYER
  5
1FC
100
AcDbSymbolTableRecord
100
AcDbLayerTableRecord
  2
DEFAULT_3
 70
0
 62
7
  6
PHANTOM
370
-3
390
F
  0
LAYER
  5
1FD
100
AcDbSymbolTableRecord
100
AcDbLayerTableRecord
  2
00_COMPONENTS
 70
0
 62
7
  6
CONTINUOUS
370
-3
390
F
  0
LAYER
  5
1FE
100
AcDbSymbolTableRecord
100
AcDbLayerTableRecord
  2
01_1_DEFAULT_DATUMS
 70
0
 62
7
  6
CONTINUOUS
370
-3
390
F
  0
LAYER
  5
1FF
100
AcDbSymbolTableRecord
100
AcDbLayerTableRecord
  2
01_PLANES
 70
0
 62
7
  6
CONTINUOUS
370
-3
390
F
  0
LAYER
  5
200
100
AcDbSymbolTableRecord
100
AcDbLayerTableRecord
  2
02_COORD_SYS
 70
0
 62
7
  6
CONTINUOUS
370
-3
390
F
  0
LAYER
  5
201
100
AcDbSymbolTableRecord
100
AcDbLayerTableRecord
  2
03_AXES
 70
0
 62
7
  6
CONTINUOUS
370
-3
390
F
  0
LAYER
  5
202
100
AcDbSymbolTableRecord
100
AcDbLayerTableRecord
  2
04_POINTS
 70
0
 62
7
  6
CONTINUOUS
370
-3
390
F
  0
LAYER
  5
203
100
AcDbSymbolTableRecord
100
AcDbLayerTableRecord
  2
05_CURVES
 70
0
 62
7
  6
CONTINUOUS
370
-3
390
F
  0
LAYER
  5
204
100
AcDbSymbolTableRecord
100
AcDbLayerTableRecord
  2
06_SURFS
 70
0
 62
7
  6
CONTINUOUS
370
-3
390
F
  0
LAYER
  5
205
100
AcDbSymbolTableRecord
100
AcDbLayerTableRecord
  2
07_COSMETICS
 70
0
 62
7
  6
CONTINUOUS
370
-3
390
F
  0
LAYER
  5
206
100
AcDbSymbolTableRecord
100
AcDbLayerTableRecord
  2
10_NOTES
 70
0
 62
7
  6
CONTINUOUS
370
-3
390
F
  0
LAYER
  5
207
100
AcDbSymbolTableRecord
100
AcDbLayerTableRecord
  2
11_NOTES_PUB
 70
0
 62
7
  6
CONTINUOUS
370
-3
390
F
  0
LAYER
  5
208
100
AcDbSymbolTableRecord
100
AcDbLayerTableRecord
  2
13_REF_GTOL
 70
0
 62
7
  6
CONTINUOUS
370
-3
390
F
  0
LAYER
  5
209
100
AcDbSymbolTableRecord
100
AcDbLayerTableRecord
  2
16_MISC
 70
0
 62
7
  6
CONTINUOUS
370
-3
390
F
  0
LAYER
  5
20A
100
AcDbSymbolTableRecord
100
AcDbLayerTableRecord
  2
17_NO_PRINT
 70
0
 62
7
  6
CONTINUOUS
370
-3
390
F
  0
LAYER
  5
20B
100
AcDbSymbolTableRecord
100
AcDbLayerTableRecord
  2
18_DATUM_CAMS_JOINTS
 70
0
 62
7
  6
CONTINUOUS
370
-3
390
F
  0
LAYER
  5
20C
100
AcDbSymbolTableRecord
100
AcDbLayerTableRecord
  2
19_DATUM_FUNCTIONAL
 70
0
 62
7
  6
CONTINUOUS
370
-3
390
F
  0
LAYER
  5
20D
100
AcDbSymbolTableRecord
100
AcDbLayerTableRecord
  2
20_DATUM_KINEMATIC_SCHEME
 70
0
 62
7
  6
CONTINUOUS
370
-3
390
F
  0
LAYER
  5
20E
100
AcDbSymbolTableRecord
100
AcDbLayerTableRecord
  2
_1
 70
0
 62
7
  6
CONTINUOUS
370
-3
390
F
  0
ENDTAB
  0
TABLE
  2
STYLE
  5
3
100
AcDbSymbolTable
 70
1
  0
STYLE
  5
11
100
AcDbSymbolTableRecord
100
AcDbTextStyleTableRecord
  2
STANDARD
 70
0
 40
0.0
 41
0.8
 50
0.0
 71
0
 42
0.2
  3
txt
  4

  0
STYLE
  5
20F
100
AcDbSymbolTableRecord
100
AcDbTextStyleTableRecord
  2
TEXTSTYLE_1
 70
0
 40
0.0
 41
0.8
 50
0.0
 71
0
 42
0.2
  3
gdt
  4

  0
ENDTAB
  0
TABLE
  2
VIEW
  5
6
100
AcDbSymbolTable
 70
0
  0
ENDTAB
  0
TABLE
  2
UCS
  5
7
100
AcDbSymbolTable
 70
0
  0
ENDTAB
  0
TABLE
  2
APPID
  5
9
100
AcDbSymbolTable
 70
1
  0
APPID
  5
210
100
AcDbSymbolTableRecord
100
AcDbRegAppTableRecord
  2
ACAD
 70
0
  0
ENDTAB
  0
TABLE
  2
BLOCK_RECORD
  5
1
100
AcDbSymbolTable
 70
0
  0
BLOCK_RECORD
  5
211
100
AcDbSymbolTableRecord
100
AcDbBlockTableRecord
  2
*Model_Space
  0
BLOCK_RECORD
  5
212
100
AcDbSymbolTableRecord
100
AcDbBlockTableRecord
  2
*Paper_Space
  0
BLOCK_RECORD
  5
213
100
AcDbSymbolTableRecord
100
AcDbBlockTableRecord
  2
_FILLED
  0
ENDTAB
  0
TABLE
  2
DIMSTYLE
  5
A
100
AcDbSymbolTable
 70
1
100
AcDbDimStyleTable
 71
0
  0
DIMSTYLE
105
214
100
AcDbSymbolTableRecord
100
AcDbDimStyleTableRecord
  2
STANDARD
 70
0
  3

  4

 40
1.0
 41
4.8508278246
 42
1.0
 43
0.38
 44
1.0
 45
0.0
 46
0.0
 47
0.01
 48
0.01
140
6.7911589544
141
0.09
142
0.0
143
25.4
144
1.0
145
0.0
146
1.0
147
0.625
 71
1
 72
0
 73
0
 74
0
 75
0
 76
0
 77
1
 78
8
 79
2
170
0
171
1
172
0
173
0
174
0
175
0
176
0
177
0
178
0
270
2
179
2
271
2
272
2
273
2
274
2
275
0
280
0
281
0
282
0
283
1
284
8
285
0
286
0
287
3
288
0
340
11
278
46
341
213
342
213
343
213
344
213
  0
ENDTAB
  0
ENDSEC
  0
SECTION
  2
BLOCKS
  0
BLOCK
  5
20
100
AcDbEntity
  8
0
100
AcDbBlockBegin
  2
*Model_Space
 70
0
 10
0.0
 20
0.0
 30
0.0
  3
*Model_Space
  1

  0
ENDBLK
  5
21
100
AcDbEntity
  8
0
100
AcDbBlockEnd
  0
BLOCK
  5
1C
100
AcDbEntity
  8
0
100
AcDbBlockBegin
  2
*Paper_Space
 70
0
 10
0.0
 20
0.0
 30
0.0
  3
*Paper_Space
  1

  0
ENDBLK
  5
1D
100
AcDbEntity
  8
0
100
AcDbBlockEnd
  0
BLOCK
  5
215
100
AcDbEntity
  8
0
100
AcDbBlockBegin
  2
_FILLED
 70
64
 10
0.0
 20
0.0
  3
_FILLED
  1

  0
SOLID
  5
216
100
AcDbEntity
  8
0
  6
BYBLOCK
 62
0
100
AcDbTrace
 10
0.0
 20
0.0
 11
-1.0
 21
0.25
 12
-1.0
 22
-0.25
 13
-1.0
 23
-0.25
  0
ENDBLK
  5
217
100
AcDbEntity
  8
0
  6
BYBLOCK
 62
0
100
AcDbBlockEnd
  0
ENDSEC
  0
SECTION
  2
ENTITIES
  0
LINE
  5
218
100
AcDbEntity
  8
_1
100
AcDbLine
 62
7
  6
CONTINUOUS
 10
46.0870204898
 20
256.1896570658
 11
46.0870204898
 21
280.1886885007
  0
LINE
  5
219
100
AcDbEntity
  8
_1
100
AcDbLine
 62
7
  6
CONTINUOUS
 10
51.0870204898
 20
283.1891727833
 11
51.0870204898
 21
280.1891727833
  0
LINE
  5
21A
100
AcDbEntity
  8
_1
100
AcDbLine
 62
7
  6
CONTINUOUS
 10
55.0870204898
 20
279.5028812823
 11
55.0870204898
 21
283.1891727833
  0
LINE
  5
21B
100
AcDbEntity
  8
_1
100
AcDbLine
 62
7
  6
CONTINUOUS
 10
87.0870204898
 20
283.1891727833
 11
87.0870204898
 21
279.5028812823
  0
LINE
  5
21C
100
AcDbEntity
  8
_1
100
AcDbLine
 62
7
  6
CONTINUOUS
 10
91.0870204898
 20
280.1893524677
 11
91.0870204898
 21
283.1891727833
  0
LINE
  5
21D
100
AcDbEntity
  8
_1
100
AcDbLine
 62
7
  6
CONTINUOUS
 10
92.5870204898
 20
203.1892088675
 11
92.5870204898
 21
333.189136699
  0
LINE
  5
21E
100
AcDbEntity
  8
_1
100
AcDbLine
 62
7
  6
CONTINUOUS
 10
96.0870204898
 20
198.1891727833
 11
96.0870204898
 21
338.1891727833
  0
LINE
  5
21F
100
AcDbEntity
  8
_1
100
AcDbLine
 62
7
  6
CONTINUOUS
 10
100.0870204898
 20
338.6891727833
 11
100.0870204898
 21
338.1891727833
  0
LINE
  5
220
100
AcDbEntity
  8
_1
100
AcDbLine
 62
7
  6
CONTINUOUS
 10
101.5870204898
 20
344.3891727833
 11
101.5870204898
 21
345.9891727833
  0
LINE
  5
221
100
AcDbEntity
  8
_1
100
AcDbLine
 62
7
  6
CONTINUOUS
 10
101.6870204898
 20
345.9891727833
 11
101.6870204898
 21
347.5891727833
  0
LINE
  5
222
100
AcDbEntity
  8
_1
100
AcDbLine
 62
7
  6
CONTINUOUS
 10
101.8135177979
 20
339.3891727833
 11
101.8135177979
 21
344.3891727833
  0
LINE
  5
223
100
AcDbEntity
  8
_1
100
AcDbLine
 62
7
  6
CONTINUOUS
 10
101.8135177979
 20
347.5891727833
 11
101.8135177979
 21
352.5891727833
  0
LINE
  5
224
100
AcDbEntity
  8
_1
100
AcDbLine
 62
7
  6
CONTINUOUS
 10
102.0870204898
 20
339.3891727833
 11
102.0870204898
 21
338.6891727833
  0
LINE
  5
225
100
AcDbEntity
  8
_1
100
AcDbLine
 62
7
  6
CONTINUOUS
 10
104.5870204898
 20
352.5891727833
 11
104.5870204898
 21
358.0891727833
  0
LINE
  5
226
100
AcDbEntity
  8
_1
100
AcDbLine
 62
7
  6
CONTINUOUS
 10
104.7002691438
 20
339.3891727833
 11
104.7002691438
 21
344.3891727833
  0
LINE
  5
227
100
AcDbEntity
  8
_1
100
AcDbLine
 62
7
  6
CONTINUOUS
 10
104.7002691438
 20
347.5891727833
 11
104.7002691438
 21
352.5891727833
  0
LINE
  5
228
100
AcDbEntity
  8
_1
100
AcDbLine
 62
7
  6
CONTINUOUS
 10
107.0870204898
 20
338.1891727833
 11
107.0870204898
 21
338.6891727833
  0
LINE
  5
229
100
AcDbEntity
  8
_1
100
AcDbLine
 62
7
  6
CONTINUOUS
 10
108.0870204898
 20
338.1891727833
 11
108.0870204898
 21
290.0306563516
  0
LINE
  5
22A
100
AcDbEntity
  8
_1
100
AcDbLine
 62
7
  6
CONTINUOUS
 10
108.0870204898
 20
246.3476892149
 11
108.0870204898
 21
198.1891727833
  0
LINE
  5
22B
100
AcDbEntity
  8
_1
100
AcDbLine
 62
7
  6
CONTINUOUS
 10
110.4737718357
 20
339.3891727833
 11
110.4737718357
 21
344.3891727833
  0
LINE
  5
22C
100
AcDbEntity
  8
_1
100
AcDbLine
 62
7
  6
CONTINUOUS
 10
110.4737718357
 20
347.5891727833
 11
110.4737718357
 21
352.5891727833
  0
LINE
  5
22D
100
AcDbEntity
  8
_1
100
AcDbLine
 62
7
  6
CONTINUOUS
 10
110.5870204898
 20
352.5891727833
 11
110.5870204898
 21
358.0891727833
  0
LINE
  5
22E
100
AcDbEntity
  8
_1
100
AcDbLine
 62
7
  6
CONTINUOUS
 10
113.0870204898
 20
339.3891727833
 11
113.0870204898
 21
338.6891727833
  0
LINE
  5
22F
100
AcDbEntity
  8
_1
100
AcDbLine
 62
7
  6
CONTINUOUS
 10
113.3605231817
 20
339.3891727833
 11
113.3605231817
 21
344.3891727833
  0
LINE
  5
230
100
AcDbEntity
  8
_1
100
AcDbLine
 62
7
  6
CONTINUOUS
 10
113.3605231817
 20
347.5891727833
 11
113.3605231817
 21
352.5891727833
  0
LINE
  5
231
100
AcDbEntity
  8
_1
100
AcDbLine
 62
7
  6
CONTINUOUS
 10
113.4870204898
 20
345.9891727833
 11
113.4870204898
 21
347.5891727833
  0
LINE
  5
232
100
AcDbEntity
  8
_1
100
AcDbLine
 62
7
  6
CONTINUOUS
 10
113.5870204898
 20
344.3891727833
 11
113.5870204898
 21
345.9891727833
  0
LINE
  5
233
100
AcDbEntity
  8
_1
100
AcDbLine
 62
7
  6
CONTINUOUS
 10
96.0870204898
 20
198.1891727833
 11
364.1947958133
 21
198.1891727833
  0
LINE
  5
234
100
AcDbEntity
  8
_1
100
AcDbLine
 62
7
  6
CONTINUOUS
 10
108.0870204898
 20
201.3225415772
 11
362.7985944845
 21
201.3225415772
  0
LINE
  5
235
100
AcDbEntity
  8
_1
100
AcDbLine
 62
7
  6
CONTINUOUS
 10
92.5870204898
 20
203.1891727833
 11
96.0870204898
 21
203.1891727833
  0
LINE
  5
236
100
AcDbEntity
  8
_1
100
AcDbLine
 62
7
  6
CONTINUOUS
 10
362.9008096097
 20
203.2572684208
 11
108.0870204898
 21
203.2572684208
  0
LINE
  5
237
100
AcDbEntity
  8
_1
100
AcDbLine
 62
7
  6
CONTINUOUS
 10
126.5870204898
 20
338.6891727833
 11
126.5870204898
 21
338.1891727833
  0
LINE
  5
238
100
AcDbEntity
  8
_1
100
AcDbLine
 62
7
  6
CONTINUOUS
 10
127.5870204898
 20
338.1891727833
 11
127.5870204898
 21
338.6891727833
  0
LINE
  5
239
100
AcDbEntity
  8
_1
100
AcDbLine
 62
7
  6
CONTINUOUS
 10
129.0870204898
 20
338.1891727833
 11
129.0870204898
 21
198.1891727833
  0
LINE
  5
23A
100
AcDbEntity
  8
_1
100
AcDbLine
 62
7
  6
CONTINUOUS
 10
108.0870204898
 20
208.3113442803
 11
362.0870204898
 21
208.3113442803
  0
LINE
  5
23B
100
AcDbEntity
  8
_1
100
AcDbLine
 62
7
  6
CONTINUOUS
 10
108.0870204898
 20
209.0931808928
 11
96.0870204898
 21
209.0931808928
  0
LINE
  5
23C
100
AcDbEntity
  8
_1
100
AcDbLine
 62
7
  6
CONTINUOUS
 10
362.0870204898
 20
220.7803752066
 11
364.6609626988
 21
220.7803752066
  0
LINE
  5
23D
100
AcDbEntity
  8
_1
100
AcDbLine
 62
7
  6
CONTINUOUS
 10
108.0870204898
 20
222.1891727833
 11
362.0870204898
 21
222.1891727833
  0
LINE
  5
23E
100
AcDbEntity
  8
_1
100
AcDbLine
 62
7
  6
CONTINUOUS
 10
362.0870204898
 20
223.7544819072
 11
108.0870204898
 21
223.7544819072
  0
LINE
  5
23F
100
AcDbEntity
  8
_1
100
AcDbLine
 62
7
  6
CONTINUOUS
 10
362.0870204898
 20
224.1582037097
 11
364.0871595862
 21
224.1582037097
  0
LINE
  5
240
100
AcDbEntity
  8
_1
100
AcDbLine
 62
7
  6
CONTINUOUS
 10
362.0870204898
 20
232.1582037097
 11
364.0871595848
 21
232.1582037097
  0
LINE
  5
241
100
AcDbEntity
  8
_1
100
AcDbLine
 62
7
  6
CONTINUOUS
 10
362.0870204898
 20
234.6582037097
 11
364.3316033437
 21
234.6582037097
  0
LINE
  5
242
100
AcDbEntity
  8
_1
100
AcDbLine
 62
7
  6
CONTINUOUS
 10
363.4231940995
 20
236.4041852995
 11
362.0870204898
 21
236.4041852995
  0
LINE
  5
243
100
AcDbEntity
  8
_1
100
AcDbLine
 62
7
  6
CONTINUOUS
 10
363.7893244725
 20
246.3476892149
 11
108.0870204898
 21
246.3476892149
  0
LINE
  5
244
100
AcDbEntity
  8
_1
100
AcDbLine
 62
7
  6
CONTINUOUS
 10
367.4178871212
 20
255.1891727833
 11
368.436107298
 21
255.1891727833
  0
LINE
  5
245
100
AcDbEntity
  8
_1
100
AcDbLine
 62
7
  6
CONTINUOUS
 10
92.5870204898
 20
256.1891727833
 11
46.0870204898
 21
256.1891727833
  0
LINE
  5
246
100
AcDbEntity
  8
_1
100
AcDbLine
 62
7
  6
CONTINUOUS
 10
96.0870204898
 20
268.1891727833
 11
364.1947958133
 21
268.1891727833
  0
LINE
  5
247
100
AcDbEntity
  8
_1
100
AcDbLine
 62
7
  6
CONTINUOUS
 10
87.0870204898
 20
279.5028812823
 11
55.0870204898
 21
279.5028812823
  0
LINE
  5
248
100
AcDbEntity
  8
_1
100
AcDbLine
 62
7
  6
CONTINUOUS
 10
92.5870204898
 20
280.1891727833
 11
91.0870204898
 21
280.1891727833
  0
LINE
  5
249
100
AcDbEntity
  8
_1
100
AcDbLine
 62
7
  6
CONTINUOUS
 10
51.0870204898
 20
280.1891727833
 11
46.0870204898
 21
280.1891727833
  0
LINE
  5
24A
100
AcDbEntity
  8
_1
100
AcDbLine
 62
7
  6
CONTINUOUS
 10
368.436107298
 20
281.1891727833
 11
367.4178871212
 21
281.1891727833
  0
LINE
  5
24B
100
AcDbEntity
  8
_1
100
AcDbLine
 62
7
  6
CONTINUOUS
 10
51.0870204898
 20
283.1891727833
 11
91.0870204898
 21
283.1891727833
  0
LINE
  5
24C
100
AcDbEntity
  8
_1
100
AcDbLine
 62
7
  6
CONTINUOUS
 10
108.0870204898
 20
290.0306563516
 11
363.7893244725
 21
290.0306563516
  0
LINE
  5
24D
100
AcDbEntity
  8
_1
100
AcDbLine
 62
7
  6
CONTINUOUS
 10
108.0870204898
 20
312.6238636594
 11
362.8244338326
 21
312.6238636594
  0
LINE
  5
24E
100
AcDbEntity
  8
_1
100
AcDbLine
 62
7
  6
CONTINUOUS
 10
364.6656275115
 20
314.1891727833
 11
108.0870204898
 21
314.1891727833
  0
LINE
  5
24F
100
AcDbEntity
  8
_1
100
AcDbLine
 62
7
  6
CONTINUOUS
 10
362.0870204898
 20
325.8314595273
 11
364.0871595862
 21
325.8314595273
  0
LINE
  5
250
100
AcDbEntity
  8
_1
100
AcDbLine
 62
7
  6
CONTINUOUS
 10
96.0870204898
 20
327.2851646738
 11
108.0870204898
 21
327.2851646738
  0
LINE
  5
251
100
AcDbEntity
  8
_1
100
AcDbLine
 62
7
  6
CONTINUOUS
 10
362.0870204898
 20
328.0670012863
 11
108.0870204898
 21
328.0670012863
  0
LINE
  5
252
100
AcDbEntity
  8
_1
100
AcDbLine
 62
7
  6
CONTINUOUS
 10
92.5870204898
 20
333.1891727833
 11
96.0870204898
 21
333.1891727833
  0
LINE
  5
253
100
AcDbEntity
  8
_1
100
AcDbLine
 62
7
  6
CONTINUOUS
 10
362.0870204898
 20
333.8314595273
 11
364.0871595848
 21
333.8314595273
  0
LINE
  5
254
100
AcDbEntity
  8
_1
100
AcDbLine
 62
7
  6
CONTINUOUS
 10
108.0870204898
 20
336.2066258543
 11
363.4320841543
 21
336.2066258543
  0
LINE
  5
255
100
AcDbEntity
  8
_1
100
AcDbLine
 62
7
  6
CONTINUOUS
 10
364.1947958133
 20
338.1891727833
 11
96.0870204898
 21
338.1891727833
  0
LINE
  5
256
100
AcDbEntity
  8
_1
100
AcDbLine
 62
7
  6
CONTINUOUS
 10
100.0870204898
 20
338.6891727833
 11
127.5870204898
 21
338.6891727833
  0
LINE
  5
257
100
AcDbEntity
  8
_1
100
AcDbLine
 62
7
  6
CONTINUOUS
 10
317.0870204898
 20
338.6891727833
 11
344.0870204898
 21
338.6891727833
  0
LINE
  5
258
100
AcDbEntity
  8
_1
100
AcDbLine
 62
7
  6
CONTINUOUS
 10
101.8135177979
 20
339.3891727833
 11
113.3605231817
 21
339.3891727833
  0
LINE
  5
259
100
AcDbEntity
  8
_1
100
AcDbLine
 62
7
  6
CONTINUOUS
 10
279.5870204898
 20
342.7891727833
 11
305.5870204898
 21
342.7891727833
  0
LINE
  5
25A
100
AcDbEntity
  8
_1
100
AcDbLine
 62
7
  6
CONTINUOUS
 10
317.5870204898
 20
343.2891727833
 11
343.5870204898
 21
343.2891727833
  0
LINE
  5
25B
100
AcDbEntity
  8
_1
100
AcDbLine
 62
7
  6
CONTINUOUS
 10
113.5870204898
 20
344.3891727833
 11
101.5870204898
 21
344.3891727833
  0
LINE
  5
25C
100
AcDbEntity
  8
_1
100
AcDbLine
 62
7
  6
CONTINUOUS
 10
279.8370204898
 20
344.7891727833
 11
285.3370204898
 21
344.7891727833
  0
LINE
  5
25D
100
AcDbEntity
  8
_1
100
AcDbLine
 62
7
  6
CONTINUOUS
 10
299.8370204898
 20
344.7891727833
 11
305.3370204898
 21
344.7891727833
  0
LINE
  5
25E
100
AcDbEntity
  8
_1
100
AcDbLine
 62
7
  6
CONTINUOUS
 10
280.3371675288
 20
345.2891727833
 11
284.8368734507
 21
345.2891727833
  0
LINE
  5
25F
100
AcDbEntity
  8
_1
100
AcDbLine
 62
7
  6
CONTINUOUS
 10
300.3371675288
 20
345.2891727833
 11
304.8368734507
 21
345.2891727833
  0
LINE
  5
260
100
AcDbEntity
  8
_1
100
AcDbLine
 62
7
  6
CONTINUOUS
 10
317.8370204898
 20
345.2891727833
 11
323.3370204898
 21
345.2891727833
  0
LINE
  5
261
100
AcDbEntity
  8
_1
100
AcDbLine
 62
7
  6
CONTINUOUS
 10
337.8370204898
 20
345.2891727833
 11
343.3370204898
 21
345.2891727833
  0
LINE
  5
262
100
AcDbEntity
  8
_1
100
AcDbLine
 62
7
  6
CONTINUOUS
 10
318.3371645654
 20
345.7891727833
 11
322.8368764142
 21
345.7891727833
  0
LINE
  5
263
100
AcDbEntity
  8
_1
100
AcDbLine
 62
7
  6
CONTINUOUS
 10
338.3371645654
 20
345.7891727833
 11
342.8368764142
 21
345.7891727833
  0
LINE
  5
264
100
AcDbEntity
  8
_1
100
AcDbLine
 62
7
  6
CONTINUOUS
 10
101.5870204898
 20
345.9891727833
 11
113.5870204898
 21
345.9891727833
  0
LINE
  5
265
100
AcDbEntity
  8
_1
100
AcDbLine
 62
7
  6
CONTINUOUS
 10
311.5870204898
 20
346.3891727833
 11
278.5870355676
 21
346.3891727833
  0
LINE
  5
266
100
AcDbEntity
  8
_1
100
AcDbLine
 62
7
  6
CONTINUOUS
 10
347.5870204898
 20
346.8891727833
 11
316.5870357208
 21
346.8891727833
  0
LINE
  5
267
100
AcDbEntity
  8
_1
100
AcDbLine
 62
7
  6
CONTINUOUS
 10
101.6870204898
 20
347.5891727833
 11
113.4870204898
 21
347.5891727833
  0
LINE
  5
268
100
AcDbEntity
  8
_1
100
AcDbLine
 62
7
  6
CONTINUOUS
 10
278.5870204898
 20
346.3891727833
 11
278.5870204898
 21
377.5891727833
  0
LINE
  5
269
100
AcDbEntity
  8
_1
100
AcDbLine
 62
7
  6
CONTINUOUS
 10
279.5870204898
 20
342.7891727833
 11
279.5870204898
 21
338.1891727833
  0
LINE
  5
26A
100
AcDbEntity
  8
_1
100
AcDbLine
 62
7
  6
CONTINUOUS
 10
279.8370204898
 20
342.7891727833
 11
279.8370204898
 21
344.7891727833
  0
LINE
  5
26B
100
AcDbEntity
  8
_1
100
AcDbLine
 62
7
  6
CONTINUOUS
 10
280.5870204898
 20
345.2891727833
 11
280.5870204898
 21
346.3891727833
  0
LINE
  5
26C
100
AcDbEntity
  8
_1
100
AcDbLine
 62
7
  6
CONTINUOUS
 10
282.5870204898
 20
338.1891727833
 11
282.5870204898
 21
342.7891727833
  0
LINE
  5
26D
100
AcDbEntity
  8
_1
100
AcDbLine
 62
7
  6
CONTINUOUS
 10
367.5370204898
 20
352.5891727833
 11
352.5870204898
 21
352.5891727833
  0
LINE
  5
26E
100
AcDbEntity
  8
_1
100
AcDbLine
 62
7
  6
CONTINUOUS
 10
101.8135177979
 20
352.5891727833
 11
113.3605231817
 21
352.5891727833
  0
LINE
  5
26F
100
AcDbEntity
  8
_1
100
AcDbLine
 62
7
  6
CONTINUOUS
 10
104.5870204898
 20
358.0891727833
 11
110.5870204898
 21
358.0891727833
  0
LINE
  5
270
100
AcDbEntity
  8
_1
100
AcDbLine
 62
7
  6
CONTINUOUS
 10
282.8484314754
 20
346.3891727833
 11
282.8484314754
 21
345.2891727833
  0
LINE
  5
271
100
AcDbEntity
  8
_1
100
AcDbLine
 62
7
  6
CONTINUOUS
 10
285.3370204898
 20
342.7891727833
 11
285.3370204898
 21
344.7891727833
  0
LINE
  5
272
100
AcDbEntity
  8
_1
100
AcDbLine
 62
7
  6
CONTINUOUS
 10
285.5756095041
 20
342.7891727833
 11
285.5756095041
 21
346.3891727833
  0
LINE
  5
273
100
AcDbEntity
  8
_1
100
AcDbLine
 62
7
  6
CONTINUOUS
 10
292.5870204898
 20
346.3891727833
 11
292.5870204898
 21
363.6861966569
  0
LINE
  5
274
100
AcDbEntity
  8
_1
100
AcDbLine
 62
7
  6
CONTINUOUS
 10
367.5370204898
 20
375.5891727833
 11
352.5870204898
 21
375.5891727833
  0
LINE
  5
275
100
AcDbEntity
  8
_1
100
AcDbLine
 62
7
  6
CONTINUOUS
 10
299.5984314754
 20
346.3891727833
 11
299.5984314754
 21
342.7891727833
  0
LINE
  5
276
100
AcDbEntity
  8
_1
100
AcDbLine
 62
7
  6
CONTINUOUS
 10
299.8370204898
 20
342.7891727833
 11
299.8370204898
 21
344.7891727833
  0
LINE
  5
277
100
AcDbEntity
  8
_1
100
AcDbLine
 62
7
  6
CONTINUOUS
 10
302.3256095041
 20
345.2891727833
 11
302.3256095041
 21
346.3891727833
  0
LINE
  5
278
100
AcDbEntity
  8
_1
100
AcDbLine
 62
7
  6
CONTINUOUS
 10
302.5870204898
 20
342.7891727833
 11
302.5870204898
 21
338.1891727833
  0
LINE
  5
279
100
AcDbEntity
  8
_1
100
AcDbLine
 62
7
  6
CONTINUOUS
 10
304.5870204898
 20
345.2891727833
 11
304.5870204898
 21
346.3891727833
  0
LINE
  5
27A
100
AcDbEntity
  8
_1
100
AcDbLine
 62
7
  6
CONTINUOUS
 10
305.3370204898
 20
342.7891727833
 11
305.3370204898
 21
344.7891727833
  0
LINE
  5
27B
100
AcDbEntity
  8
_1
100
AcDbLine
 62
7
  6
CONTINUOUS
 10
305.5870204898
 20
338.1891727833
 11
305.5870204898
 21
342.7891727833
  0
LINE
  5
27C
100
AcDbEntity
  8
_1
100
AcDbLine
 62
7
  6
CONTINUOUS
 10
278.5870266304
 20
377.5891727833
 11
294.3072616404
 21
377.5891727833
  0
LINE
  5
27D
100
AcDbEntity
  8
_1
100
AcDbLine
 62
7
  6
CONTINUOUS
 10
316.5870266304
 20
378.0891727833
 11
332.3072616404
 21
378.0891727833
  0
LINE
  5
27E
100
AcDbEntity
  8
_1
100
AcDbLine
 62
7
  6
CONTINUOUS
 10
294.3072616404
 20
377.5891727833
 11
316.5870204898
 21
375.6399464579
  0
LINE
  5
27F
100
AcDbEntity
  8
_1
100
AcDbLine
 62
7
  6
CONTINUOUS
 10
312.5870204898
 20
338.1891727833
 11
312.5870204898
 21
198.1891727833
  0
LINE
  5
280
100
AcDbEntity
  8
_1
100
AcDbLine
 62
7
  6
CONTINUOUS
 10
316.5870204898
 20
346.8891727833
 11
316.5870204898
 21
378.0891727833
  0
LINE
  5
281
100
AcDbEntity
  8
_1
100
AcDbLine
 62
7
  6
CONTINUOUS
 10
317.0870204898
 20
338.6891727833
 11
317.0870204898
 21
338.1891727833
  0
LINE
  5
282
100
AcDbEntity
  8
_1
100
AcDbLine
 62
7
  6
CONTINUOUS
 10
317.5870204898
 20
343.2891727833
 11
317.5870204898
 21
338.6891727833
  0
LINE
  5
283
100
AcDbEntity
  8
_1
100
AcDbLine
 62
7
  6
CONTINUOUS
 10
317.8370204898
 20
343.2891727833
 11
317.8370204898
 21
345.2891727833
  0
LINE
  5
284
100
AcDbEntity
  8
_1
100
AcDbLine
 62
7
  6
CONTINUOUS
 10
318.5870204898
 20
345.7891727833
 11
318.5870204898
 21
346.8891727833
  0
LINE
  5
285
100
AcDbEntity
  8
_1
100
AcDbLine
 62
7
  6
CONTINUOUS
 10
319.0870204898
 20
338.1891727833
 11
319.0870204898
 21
338.6891727833
  0
LINE
  5
286
100
AcDbEntity
  8
_1
100
AcDbLine
 62
7
  6
CONTINUOUS
 10
332.3072616404
 20
378.0891727833
 11
352.5870204898
 21
376.3149237849
  0
LINE
  5
287
100
AcDbEntity
  8
_1
100
AcDbLine
 62
7
  6
CONTINUOUS
 10
320.5870204898
 20
338.6891727833
 11
320.5870204898
 21
343.2891727833
  0
LINE
  5
288
100
AcDbEntity
  8
_1
100
AcDbLine
 62
7
  6
CONTINUOUS
 10
320.8484314754
 20
346.8891727833
 11
320.8484314754
 21
345.7891727833
  0
LINE
  5
289
100
AcDbEntity
  8
_1
100
AcDbLine
 62
7
  6
CONTINUOUS
 10
323.3370204898
 20
343.2891727833
 11
323.3370204898
 21
345.2891727833
  0
LINE
  5
28A
100
AcDbEntity
  8
_1
100
AcDbLine
 62
7
  6
CONTINUOUS
 10
323.5756095041
 20
343.2891727833
 11
323.5756095041
 21
346.8891727833
  0
LINE
  5
28B
100
AcDbEntity
  8
_1
100
AcDbLine
 62
7
  6
CONTINUOUS
 10
330.5870204898
 20
346.8891727833
 11
330.5870204898
 21
364.1861966569
  0
LINE
  5
28C
100
AcDbEntity
  8
_1
100
AcDbLine
 62
7
  6
CONTINUOUS
 10
279.8472900535
 20
377.5891727833
 11
292.5870204898
 21
363.6861966569
  0
LINE
  5
28D
100
AcDbEntity
  8
_1
100
AcDbLine
 62
7
  6
CONTINUOUS
 10
337.5984314754
 20
346.8891727833
 11
337.5984314754
 21
343.2891727833
  0
LINE
  5
28E
100
AcDbEntity
  8
_1
100
AcDbLine
 62
7
  6
CONTINUOUS
 10
337.8370204898
 20
343.2891727833
 11
337.8370204898
 21
345.2891727833
  0
LINE
  5
28F
100
AcDbEntity
  8
_1
100
AcDbLine
 62
7
  6
CONTINUOUS
 10
340.3256095041
 20
345.7891727833
 11
340.3256095041
 21
346.8891727833
  0
LINE
  5
290
100
AcDbEntity
  8
_1
100
AcDbLine
 62
7
  6
CONTINUOUS
 10
340.5870204898
 20
343.2891727833
 11
340.5870204898
 21
338.6891727833
  0
LINE
  5
291
100
AcDbEntity
  8
_1
100
AcDbLine
 62
7
  6
CONTINUOUS
 10
342.0870204898
 20
338.6891727833
 11
342.0870204898
 21
338.1891727833
  0
LINE
  5
292
100
AcDbEntity
  8
_1
100
AcDbLine
 62
7
  6
CONTINUOUS
 10
342.5870204898
 20
345.7891727833
 11
342.5870204898
 21
346.8891727833
  0
LINE
  5
293
100
AcDbEntity
  8
_1
100
AcDbLine
 62
7
  6
CONTINUOUS
 10
343.3370204898
 20
343.2891727833
 11
343.3370204898
 21
345.2891727833
  0
LINE
  5
294
100
AcDbEntity
  8
_1
100
AcDbLine
 62
7
  6
CONTINUOUS
 10
343.5870204898
 20
338.6891727833
 11
343.5870204898
 21
343.2891727833
  0
LINE
  5
295
100
AcDbEntity
  8
_1
100
AcDbLine
 62
7
  6
CONTINUOUS
 10
344.0870204898
 20
338.1891727833
 11
344.0870204898
 21
338.6891727833
  0
LINE
  5
296
100
AcDbEntity
  8
_1
100
AcDbLine
 62
7
  6
CONTINUOUS
 10
352.5870204898
 20
351.8891727833
 11
352.5870204898
 21
376.3149237849
  0
LWPOLYLINE
  5
297
100
AcDbEntity
  8
_1
100
AcDbPolyline
 62
7
  6
CONTINUOUS
 90
3
 70
0
 10
364.0871595862
 20
325.8314595274
 10
364.9364246535
 20
329.8162824614
 10
364.0871595848
 20
333.8314595272
  0
LINE
  5
298
100
AcDbEntity
  8
_1
100
AcDbLine
 62
7
  6
CONTINUOUS
 10
317.8472900535
 20
378.0891727833
 11
330.5870204898
 21
364.1861966569
  0
LINE
  5
299
100
AcDbEntity
  8
_1
100
AcDbLine
 62
7
  6
CONTINUOUS
 10
356.5870204898
 20
338.1891727833
 11
356.5870204898
 21
198.1891727833
  0
LINE
  5
29A
100
AcDbEntity
  8
_1
100
AcDbLine
 62
7
  6
CONTINUOUS
 10
358.0370204898
 20
338.1891727833
 11
358.0370204898
 21
198.1891727833
  0
LINE
  5
29B
100
AcDbEntity
  8
_1
100
AcDbLine
 62
7
  6
CONTINUOUS
 10
362.0870204898
 20
338.1891727833
 11
362.0870204898
 21
314.1891727833
  0
LINE
  5
29C
100
AcDbEntity
  8
_1
100
AcDbLine
 62
7
  6
CONTINUOUS
 10
362.0870204898
 20
236.4041852995
 11
362.0870204898
 21
208.3113442802
  0
LINE
  5
29D
100
AcDbEntity
  8
_1
100
AcDbLine
 62
7
  6
CONTINUOUS
 10
364.0871587649
 20
232.1582037097
 11
364.0871587631
 21
224.1582037097
  0
LINE
  5
29E
100
AcDbEntity
  8
_1
100
AcDbLine
 62
7
  6
CONTINUOUS
 10
364.0871587649
 20
333.8314595273
 11
364.0871587631
 21
325.8314595273
  0
LINE
  5
29F
100
AcDbEntity
  8
_1
100
AcDbLine
 62
7
  6
CONTINUOUS
 10
367.5370204898
 20
375.5889811392
 11
367.5370204898
 21
352.5893644274
  0
LWPOLYLINE
  5
2A0
100
AcDbEntity
  8
_1
100
AcDbPolyline
 62
7
  6
CONTINUOUS
 90
3
 70
0
 10
364.0871595862
 20
224.1582037098
 10
364.9364246535
 20
228.1430266438
 10
364.0871595848
 20
232.1582037096
  0
ARC
  5
2A1
100
AcDbEntity
  8
_1
100
AcDbCircle
 62
7
  6
CONTINUOUS
 10
-732.9585534741
 20
281.7526180851
 40
1097.3191954799
100
AcDbArc
 50
357.6314877403
 51
358.1510346905
  0
ARC
  5
2A2
100
AcDbEntity
  8
_1
100
AcDbCircle
 62
7
  6
CONTINUOUS
 10
-191.4129795102
 20
268.1891727833
 40
560.0
100
AcDbArc
 50
352.8192442185
 51
358.6697999111
  0
ARC
  5
2A3
100
AcDbEntity
  8
_1
100
AcDbCircle
 62
7
  6
CONTINUOUS
 10
-191.4125531323
 20
268.1891985589
 40
559.9995731387
100
AcDbArc
 50
1.3301984651
 51
6.738696156
  0
ARC
  5
2A4
100
AcDbEntity
  8
_1
100
AcDbCircle
 62
7
  6
CONTINUOUS
 10
-191.4107197299
 20
268.1895014519
 40
559.9977168602
100
AcDbArc
 50
6.7386873911
 51
7.1807513187
  0
ARC
  5
2A5
100
AcDbEntity
  8
_1
100
AcDbCircle
 62
7
  6
CONTINUOUS
 10
-191.4129795102
 20
268.1891727833
 40
559.5
100
AcDbArc
 50
358.6686109572
 51
1.3313890428
  0
ARC
  5
2A6
100
AcDbEntity
  8
_1
100
AcDbCircle
 62
7
  6
CONTINUOUS
 10
-191.3719659168
 20
268.4862396929
 40
558.9218055123
100
AcDbArc
 50
6.7139861308
 51
6.95920086
  0
ARC
  5
2A7
100
AcDbEntity
  8
_1
100
AcDbCircle
 62
7
  6
CONTINUOUS
 10
-191.4129795102
 20
268.1891727833
 40
558.6228043143
100
AcDbArc
 50
359.2307309085
 51
0.7692690915
  0
ARC
  5
2A8
100
AcDbEntity
  8
_1
100
AcDbCircle
 62
7
  6
CONTINUOUS
 10
-191.4056917243
 20
267.7859515832
 40
558.0498619046
100
AcDbArc
 50
353.3598937943
 51
355.1681448705
  0
ARC
  5
2A9
100
AcDbEntity
  8
_1
100
AcDbCircle
 62
7
  6
CONTINUOUS
 10
-191.4243854423
 20
267.5793354851
 40
555.6195159286
100
AcDbArc
 50
357.8100481808
 51
0.0628867586
  0
ARC
  5
2AA
100
AcDbEntity
  8
_1
100
AcDbCircle
 62
7
  6
CONTINUOUS
 10
-191.4243854419
 20
268.7990100815
 40
555.6195159282
100
AcDbArc
 50
359.9371132414
 51
2.1899518192
  0
ARC
  5
2AB
100
AcDbEntity
  8
_1
100
AcDbCircle
 62
7
  6
CONTINUOUS
 10
311.5870204898
 20
351.3891727833
 40
5.0
100
AcDbArc
 50
270.0
 51
360.0
  0
ARC
  5
2AC
100
AcDbEntity
  8
_1
100
AcDbCircle
 62
7
  6
CONTINUOUS
 10
347.5870204898
 20
351.8891727833
 40
5.0
100
AcDbArc
 50
270.0
 51
360.0
  0
ARC
  5
2AD
100
AcDbEntity
  8
_1
100
AcDbCircle
 62
7
  6
CONTINUOUS
 10
284.8370204898
 20
344.7891727833
 40
0.5
100
AcDbArc
 50
0.0
 51
90.0
  0
ARC
  5
2AE
100
AcDbEntity
  8
_1
100
AcDbCircle
 62
7
  6
CONTINUOUS
 10
280.3370204898
 20
344.7891727833
 40
0.5
100
AcDbArc
 50
90.0
 51
180.0
  0
ARC
  5
2AF
100
AcDbEntity
  8
_1
100
AcDbCircle
 62
7
  6
CONTINUOUS
 10
304.8370204898
 20
344.7891727833
 40
0.5
100
AcDbArc
 50
0.0
 51
90.0
  0
ARC
  5
2B0
100
AcDbEntity
  8
_1
100
AcDbCircle
 62
7
  6
CONTINUOUS
 10
300.3370204898
 20
344.7891727833
 40
0.5
100
AcDbArc
 50
90.0
 51
180.0
  0
ARC
  5
2B1
100
AcDbEntity
  8
_1
100
AcDbCircle
 62
7
  6
CONTINUOUS
 10
322.8370204898
 20
345.2891727833
 40
0.5
100
AcDbArc
 50
0.0
 51
90.0
  0
ARC
  5
2B2
100
AcDbEntity
  8
_1
100
AcDbCircle
 62
7
  6
CONTINUOUS
 10
318.3370204898
 20
345.2891727833
 40
0.5
100
AcDbArc
 50
90.0
 51
180.0
  0
ARC
  5
2B3
100
AcDbEntity
  8
_1
100
AcDbCircle
 62
7
  6
CONTINUOUS
 10
342.8370204898
 20
345.2891727833
 40
0.5
100
AcDbArc
 50
0.0
 51
90.0
  0
ARC
  5
2B4
100
AcDbEntity
  8
_1
100
AcDbCircle
 62
7
  6
CONTINUOUS
 10
338.3370204898
 20
345.2891727833
 40
0.5
100
AcDbArc
 50
90.0
 51
180.0
  0
SPLINE
  5
2B5
100
AcDbEntity
  8
_1
100
AcDbSpline
 62
7
  6
CONTINUOUS
 70
0
 71
3
 72
17
 73
13
 74
0
 42
0.0000001
 43
0.0000001
 44
0.0000000001
 40
0.0
 40
0.0
 40
0.0
 40
0.0
 40
0.0075274317
 40
0.0228846685
 40
0.0471637335
 40
0.0803810075
 40
0.1726231249
 40
0.2964380529
 40
0.447219082
 40
0.6192119273
 40
0.8058937843
 40
1.0
 40
1.0
 40
1.0
 40
1.0
 10
367.4179019334
 20
281.1891727833
 30
0.0
 10
367.4040234445
 20
281.1891727833
 30
0.0
 10
367.3730213171
 20
281.1485563364
 30
0.0
 10
367.3496797559
 20
281.0697609465
 30
0.0
 10
367.3194192911
 20
280.9362182718
 30
0.0
 10
367.2801733312
 20
280.6642213152
 30
0.0
 10
367.2379558284
 20
280.2053768972
 30
0.0
 10
367.1995953757
 20
279.5305159223
 30
0.0
 10
367.1710184238
 20
278.7074072609
 30
0.0
 10
367.1540157727
 20
277.7682881417
 30
0.0
 10
367.1493681204
 20
276.7490814253
 30
0.0
 10
367.1546317121
 20
276.0470183655
 30
0.0
 10
367.1594365355
 20
275.6891727833
 30
0.0
  0
SPLINE
  5
2B6
100
AcDbEntity
  8
_1
100
AcDbSpline
 62
7
  6
CONTINUOUS
 70
0
 71
3
 72
17
 73
13
 74
0
 42
0.0000001
 43
0.0000001
 44
0.0000000001
 40
0.0
 40
0.0
 40
0.0
 40
0.0
 40
0.1941062472
 40
0.3807881063
 40
0.5527808275
 40
0.7035617363
 40
0.8273765657
 40
0.9196186534
 40
0.9528359537
 40
0.9771150638
 40
0.9924723832
 40
1.0
 40
1.0
 40
1.0
 40
1.0
 10
367.1594355665
 20
260.6891727833
 30
0.0
 10
367.1546275187
 20
260.3313270341
 30
0.0
 10
367.1493609567
 20
259.6292636222
 30
0.0
 10
367.1540039522
 20
258.6100566237
 30
0.0
 10
367.1710038355
 20
257.6709374831
 30
0.0
 10
367.1995804441
 20
256.8478290985
 30
0.0
 10
367.2379421528
 20
256.1729683009
 30
0.0
 10
367.2801619387
 20
255.7141241685
 30
0.0
 10
367.3194101944
 20
255.4421271771
 30
0.0
 10
367.3496721292
 20
255.3085847441
 30
0.0
 10
367.3730148287
 20
255.2297885608
 30
0.0
 10
367.4040182316
 20
255.1891727833
 30
0.0
 10
367.4178970678
 20
255.1891727833
 30
0.0
  0
SPLINE
  5
2B7
100
AcDbEntity
  8
_1
100
AcDbSpline
 62
7
  6
CONTINUOUS
 70
0
 71
3
 72
11
 73
7
 74
0
 42
0.0000001
 43
0.0000001
 44
0.0000000001
 40
0.0
 40
0.0
 40
0.0
 40
0.0
 40
0.3543214885
 40
0.6390250443
 40
0.8540213823
 40
1.0
 40
1.0
 40
1.0
 40
1.0
 10
362.7985944845
 20
201.3225415772
 30
0.0
 10
362.8890532776
 20
200.9452227393
 30
0.0
 10
363.0582942412
 20
200.2662423443
 30
0.0
 10
363.3101246137
 20
199.3650136038
 30
0.0
 10
363.5324716455
 20
198.6942292022
 30
0.0
 10
363.6855941859
 20
198.3276675054
 30
0.0
 10
363.765431011
 20
198.1891727833
 30
0.0
  0
SPLINE
  5
2B8
100
AcDbEntity
  8
_1
100
AcDbSpline
 62
7
  6
CONTINUOUS
 70
0
 71
3
 72
15
 73
11
 74
0
 42
0.0000001
 43
0.0000001
 44
0.0000000001
 40
0.0
 40
0.0
 40
0.0
 40
0.0
 40
0.3819877073
 40
0.554434175
 40
0.7055485571
 40
0.829559259
 40
0.9215717735
 40
0.9783053084
 40
0.993104901
 40
1.0
 40
1.0
 40
1.0
 40
1.0
 10
363.4320841543
 20
336.2066258543
 30
0.0
 10
363.401302549
 20
336.4588065993
 30
0.0
 10
363.3602650727
 20
336.8252592244
 30
0.0
 10
363.3170092652
 20
337.292626983
 30
0.0
 10
363.2939928756
 20
337.5891653732
 30
0.0
 10
363.280682501
 20
337.8337253308
 30
0.0
 10
363.2754325313
 20
338.013355944
 30
0.0
 10
363.2810696692
 20
338.1253057156
 30
0.0
 10
363.2884611602
 20
338.1737821152
 30
0.0
 10
363.2979601207
 20
338.1891727833
 30
0.0
 10
363.3025459139
 20
338.1891727833
 30
0.0
  0
SPLINE
  5
2B9
100
AcDbEntity
  8
_1
100
AcDbSpline
 62
7
  6
CONTINUOUS
 70
0
 71
3
 72
13
 73
9
 74
0
 42
0.0000001
 43
0.0000001
 44
0.0000000001
 40
0.0
 40
0.0
 40
0.0
 40
0.0
 40
0.0294435657
 40
0.0870502643
 40
0.1766997755
 40
0.2969235149
 40
0.6142735498
 40
1.0
 40
1.0
 40
1.0
 40
1.0
 10
363.5631931699
 20
234.6582037097
 30
0.0
 10
363.545748463
 20
234.6582037097
 30
0.0
 10
363.5060110232
 20
234.7058115913
 30
0.0
 10
363.4801672495
 20
234.8027862462
 30
0.0
 10
363.4497163213
 20
234.9607590341
 30
0.0
 10
363.4199873487
 20
235.2707794988
 30
0.0
 10
363.4048574913
 20
235.7594839022
 30
0.0
 10
363.4137437186
 20
236.1758457942
 30
0.0
 10
363.4231940995
 20
236.4041852995
 30
0.0
  0
SPLINE
  5
2BA
100
AcDbEntity
  8
_1
100
AcDbSpline
 62
7
  6
CONTINUOUS
 70
0
 71
3
 72
12
 73
8
 74
0
 42
0.0000001
 43
0.0000001
 44
0.0000000001
 40
0.0
 40
0.0
 40
0.0
 40
0.0
 40
0.0521066654
 40
0.1307709123
 40
0.3592088366
 40
0.6602330067
 40
1.0
 40
1.0
 40
1.0
 40
1.0
 10
362.7985944845
 20
201.3225415772
 30
0.0
 10
362.7907350535
 20
201.3553245858
 30
0.0
 10
362.7822047454
 20
201.439946597
 30
0.0
 10
362.7750258398
 20
201.6720734406
 30
0.0
 10
362.7906881884
 20
202.0657420083
 30
0.0
 10
362.8324273201
 20
202.6264605688
 30
0.0
 10
362.8753907902
 20
203.0389206117
 30
0.0
 10
362.9008096097
 20
203.2572684208
 30
0.0
  0
SPLINE
  5
2BB
100
AcDbEntity
  8
_1
100
AcDbSpline
 62
7
  6
CONTINUOUS
 70
0
 71
3
 72
17
 73
13
 74
0
 42
0.0000001
 43
0.0000001
 44
0.0000000001
 40
0.0
 40
0.0
 40
0.0
 40
0.0
 40
0.0269376662
 40
0.0517382853
 40
0.0850008084
 40
0.1267318954
 40
0.1766769752
 40
0.2344642475
 40
0.2995843555
 40
0.4494065993
 40
0.6205372362
 40
1.0
 40
1.0
 40
1.0
 40
1.0
 10
364.3316033437
 20
234.6582037097
 30
0.0
 10
364.4577180525
 20
234.6582037097
 30
0.0
 10
364.6219128032
 20
234.3913716397
 30
0.0
 10
364.7313312112
 20
234.034608265
 30
0.0
 10
364.831693531
 20
233.5683706877
 30
0.0
 10
364.9108233946
 20
232.9919334944
 30
0.0
 10
364.9766881047
 20
232.2939604831
 30
0.0
 10
365.0248161441
 20
231.4864072694
 30
0.0
 10
365.0679896205
 20
230.2100324894
 30
0.0
 10
365.0705148186
 20
228.4021792146
 30
0.0
 10
364.9780940627
 20
225.1240352419
 30
0.0
 10
364.8106022027
 20
222.5506016484
 30
0.0
 10
364.6609626988
 20
220.7803752066
 30
0.0
  0
SPLINE
  5
2BC
100
AcDbEntity
  8
_1
100
AcDbSpline
 62
7
  6
CONTINUOUS
 70
0
 71
3
 72
9
 73
5
 74
0
 42
0.0000001
 43
0.0000001
 44
0.0000000001
 40
0.0
 40
0.0
 40
0.0
 40
0.0
 40
0.2476792951
 40
1.0
 40
1.0
 40
1.0
 40
1.0
 10
362.8244338326
 20
312.6238636594
 30
0.0
 10
362.9239584625
 20
310.7595086693
 30
0.0
 10
363.3051245459
 20
303.231123363
 30
0.0
 10
363.6063174142
 20
295.6987053761
 30
0.0
 10
363.7893244725
 20
290.0306563516
 30
0.0
  0
SPLINE
  5
2BD
100
AcDbEntity
  8
_1
100
AcDbSpline
 62
7
  6
CONTINUOUS
 70
0
 71
3
 72
20
 73
16
 74
0
 42
0.0000001
 43
0.0000001
 44
0.0000000001
 40
0.0
 40
0.0
 40
0.0
 40
0.0
 40
0.1966286638
 40
0.3841122171
 40
0.5558095432
 40
0.7054898392
 40
0.7703618446
 40
0.8277964427
 40
0.8773127825
 40
0.9185133298
 40
0.951135726
 40
0.9750910905
 40
0.9839079198
 40
0.9907648156
 40
1.0
 40
1.0
 40
1.0
 40
1.0
 10
364.4343919837
 20
327.4084715567
 30
0.0
 10
364.5241234766
 20
326.5385975081
 30
0.0
 10
364.6860724746
 20
324.8378966749
 30
0.0
 10
364.8790404223
 20
322.3733889415
 30
0.0
 10
365.0124525145
 20
320.1140666822
 30
0.0
 10
365.0735364707
 20
318.3970683448
 30
0.0
 10
365.0850593567
 20
317.1874194154
 30
0.0
 10
365.0763967277
 20
316.4232232249
 30
0.0
 10
365.0509731345
 20
315.7647333112
 30
0.0
 10
365.0096510378
 20
315.2175320178
 30
0.0
 10
364.9521250582
 20
314.7862320124
 30
0.0
 10
364.8901499281
 20
314.501446349
 30
0.0
 10
364.8251583967
 20
314.3361764588
 30
0.0
 10
364.7726037473
 20
314.2407155271
 30
0.0
 10
364.7067002391
 20
314.1891727833
 30
0.0
 10
364.6656275115
 20
314.1891727833
 30
0.0
  0
SPLINE
  5
2BE
100
AcDbEntity
  8
_1
100
AcDbSpline
 62
7
  6
CONTINUOUS
 70
0
 71
3
 72
12
 73
8
 74
0
 42
0.0000001
 43
0.0000001
 44
0.0000000001
 40
0.0
 40
0.0
 40
0.0
 40
0.0
 40
0.3917567315
 40
0.7080098936
 40
0.9144307657
 40
0.9708301245
 40
1.0
 40
1.0
 40
1.0
 40
1.0
 10
362.8244338326
 20
312.6238636594
 30
0.0
 10
362.8133488019
 20
312.8315150952
 30
0.0
 10
362.8008882092
 20
313.2080630483
 30
0.0
 10
362.8065559764
 20
313.6909113741
 30
0.0
 10
362.8399040995
 20
314.0025615612
 30
0.0
 10
362.8771329528
 20
314.1479244884
 30
0.0
 10
362.9126698486
 20
314.1891727833
 30
0.0
 10
362.9281534141
 20
314.1891727833
 30
0.0
  0
SPLINE
  5
2BF
100
AcDbEntity
  8
_1
100
AcDbSpline
 62
7
  6
CONTINUOUS
 70
0
 71
3
 72
9
 73
5
 74
0
 42
0.0000001
 43
0.0000001
 44
0.0000000001
 40
0.0
 40
0.0
 40
0.0
 40
0.0
 40
0.7002483976
 40
1.0
 40
1.0
 40
1.0
 40
1.0
 10
55.0870204898
 20
279.5028812823
 30
0.0
 10
54.1372122439
 20
279.5028812823
 30
0.0
 10
52.7770069989
 20
279.6814778266
 30
0.0
 10
51.4712339867
 20
280.0599066777
 30
0.0
 10
51.0870204898
 20
280.1891727833
 30
0.0
  0
SPLINE
  5
2C0
100
AcDbEntity
  8
_1
100
AcDbSpline
 62
7
  6
CONTINUOUS
 70
0
 71
3
 72
22
 73
18
 74
0
 42
0.0000001
 43
0.0000001
 44
0.0000000001
 40
0.0
 40
0.0
 40
0.0
 40
0.0
 40
0.0012883258
 40
0.0051234921
 40
0.0114690489
 40
0.0202885657
 40
0.0315456414
 40
0.0452018222
 40
0.0794796775
 40
0.122618065
 40
0.1741001429
 40
0.2333115909
 40
0.2995884404
 40
0.4506570309
 40
0.6218498663
 40
0.8073163061
 40
1.0
 40
1.0
 40
1.0
 40
1.0
 10
91.0872954559
 20
280.1891725947
 30
0.0
 10
91.0872954559
 20
280.1874221358
 30
0.0
 10
91.0766878668
 20
280.1880577763
 30
0.0
 10
91.065745112
 20
280.1804107167
 30
0.0
 10
91.0390507636
 20
280.1738811569
 30
0.0
 10
91.0058795223
 20
280.1620497587
 30
0.0
 10
90.9619185965
 20
280.1481647979
 30
0.0
 10
90.8855421462
 20
280.1233780533
 30
0.0
 10
90.7674345663
 20
280.0861883237
 30
0.0
 10
90.5999026473
 20
280.0352514947
 30
0.0
 10
90.399121357
 20
279.977102885
 30
0.0
 10
90.1671329848
 20
279.9138390263
 30
0.0
 10
89.8028266575
 20
279.8216909024
 30
0.0
 10
89.2869046111
 20
279.7088611056
 30
0.0
 10
88.6057981774
 20
279.5969675463
 30
0.0
 10
87.8627874372
 20
279.5209948062
 30
0.0
 10
87.3488214073
 20
279.5028812823
 30
0.0
 10
87.0870204898
 20
279.5028812823
 30
0.0
  0
ELLIPSE
  5
2C1
100
AcDbEntity
  8
_1
100
AcDbEllipse
 62
7
  6
CONTINUOUS
 10
693.4945664506
 20
328.6113312633
 30
0.0
 11
400.905684634
 21
-35.1175265754
 31
0.0
 40
0.0347875628
 41
2.7968721812
 42
3.1446398775
  0
ELLIPSE
  5
2C2
100
AcDbEntity
  8
_1
100
AcDbEllipse
 62
7
  6
CONTINUOUS
 10
731.4945664506
 20
329.1113312633
 30
0.0
 11
400.905684634
 21
-35.1175265754
 31
0.0
 40
0.0347875628
 41
2.8118190307
 42
3.1446398775
  0
ENDSEC
  0
SECTION
  2
OBJECTS
  0
DICTIONARY
  5
C
100
AcDbDictionary
280
0
281
1
  3
ACAD_GROUP
350
D
  3
ACAD_MLINESTYLE
350
17
  3
ACAD_LAYOUT
350
1A
  3
ACAD_PLOTSETTINGS
350
19
  3
ACAD_PLOTSTYLENAME
350
E
  0
DICTIONARY
  5
D
102
{ACAD_REACTORS
330
C
102
}
100
AcDbDictionary
280
0
281
1
  0
ACDBDICTIONARYWDFLT
  5
E
102
{ACAD_REACTORS
330
C
102
}
100
AcDbDictionary
281
1
  3
Normal
350
F
100
AcDbDictionaryWithDefault
340
F
  0
DICTIONARY
  5
17
102
{ACAD_REACTORS
330
C
102
}
100
AcDbDictionary
280
0
281
1
  3
Standard
350
18
  0
DICTIONARY
  5
19
102
{ACAD_REACTORS
330
C
102
}
100
AcDbDictionary
281
1
  0
DICTIONARY
  5
1A
102
{ACAD_REACTORS
330
C
102
}
100
AcDbDictionary
281
1
  3
Model
350
2C3
  3
Layout1
350
2C4
  0
ACDBPLACEHOLDER
  5
F
102
{ACAD_REACTORS
330
E
102
}
  0
MLINESTYLE
  5
18
102
{ACAD_REACTORS
330
17
102
}
100
AcDbMlineStyle
  2
STANDARD
 70
0
  3

 62
256
 51
90.0
 52
90.0
 71
2
 49
0.5
 62
256
  6
BYLAYER
 49
-0.5
 62
256
  6
BYLAYER
  0
LAYOUT
  5
2C3
102
{ACAD_REACTORS
330
1A
102
}
100
AcDbPlotSettings
  1

  2
none_device
  4

  6

 40
0.0
 41
0.0
 42
0.0
 43
0.0
 44
210.0
 45
297.0
 46
0.0
 47
0.0
 48
0.0
 49
0.0
140
0.0
141
0.0
142
1.0
143
1.0
 70
1024
 72
1
 73
0
 74
0
  7

 75
0
147
1.0
148
0.0
149
0.0
100
AcDbLayout
  1
Model
 70
0
 71
0
 10
0.0
 20
0.0
 11
210.0
 21
297.0
 12
0.0
 22
0.0
 32
0.0
 14
0.0
 24
0.0
 34
0.0
 15
0.0
 25
0.0
 35
0.0
146
0.0
 13
0.0
 23
0.0
 33
0.0
 16
1.0
 26
0.0
 36
0.0
 17
0.0
 27
1.0
 37
0.0
 76
0
330
211
345
0
346
0
  0
LAYOUT
  5
2C4
102
{ACAD_REACTORS
330
1A
102
}
100
AcDbPlotSettings
  1

  2
none_device
  4

  6

 40
0.0
 41
0.0
 42
0.0
 43
0.0
 44
210.0
 45
297.0
 46
0.0
 47
0.0
 48
0.0
 49
0.0
140
0.0
141
0.0
142
1.0
143
1.0
 70
0
 72
1
 73
0
 74
0
  7

 75
0
147
1.0
148
0.0
149
0.0
100
AcDbLayout
  1
Layout1
 70
0
 71
1
 10
0.0
 20
0.0
 11
210.0
 21
297.0
 12
0.0
 22
0.0
 32
0.0
 14
0.0
 24
0.0
 34
0.0
 15
0.0
 25
0.0
 35
0.0
146
0.0
 13
0.0
 23
0.0
 33
0.0
 16
1.0
 26
0.0
 36
0.0
 17
0.0
 27
1.0
 37
0.0
 76
0
330
212
345
0
346
0
  0
ENDSEC
  0
EOF
