999
DXF file: C:\Users\sesa63760\Dev\_Creo\CAD\MCADID0000664_3D-CAD\drw0001_1.dxf
999
Pro/ENGINEER 2019471 by Parametric Technology Corporation
  0
SECTION
  2
HEADER
  9
$ACADVER
  1
AC1024
  9
$DWGCODEPAGE
  3
ANSI_1252
  9
$EXTMAX
 10
189.4487017382
 20
267.9345924583
 30
0.0
  9
$EXTMIN
 10
0.0
 20
0.0
 30
0.0
  9
$LIMMIN
 10
0.0
 20
0.0
  9
$LIMMAX
 10
189.4487017382
 20
267.9345924583
  9
$VIEWCTR
 10
94.7243508691
 20
133.9672962291
  9
$VIEWSIZE
 40
267.9345924583
  9
$CLAYER
  8
0
  9
$LTSCALE
 40
17.4653660269
  9
$CELTYPE
  6
BYLAYER
  9
$DIMSCALE
 40
1.0
  9
$DIMASZ
 40
2.2553416874
  9
$DIMEXO
 40
1.0
  9
$DIMDLI
 40
12.066980164
  9
$DIMEXE
 40
1.0
  9
$DIMCEN
 40
2.8579689862
  9
$DIMLFAC
 40
1.0
  9
$DIMBLK
  1
_FILLED
  9
$DIMALT
 70
0
  9
$DIMALTF
 40
0.0393700787
  9
$DIMTXT
 40
3.1574783623
  9
$DIMTOL
 70
1
  9
$DIMLIM
 70
0
  9
$DIMTFAC
 40
1.0
  9
$DIMTP
 40
0.01
  9
$DIMTM
 40
0.01
  9
$DIMGAP
 40
0.625
  9
$DIMDSEP
 70
46
  9
$AUNITS
 70
0
  9
$PDMODE
 70
3
  9
$PDSIZE
 40
0.3125
  9
$HANDSEED
  5
425
  9
$TILEMODE
 70
1
  9
$MEASUREMENT
 70
1
  9
$INSUNITS
 70
4
  0
ENDSEC
  0
SECTION
  2
CLASSES
  0
CLASS
  1
ACDBDICTIONARYWDFLT
  2
AcDbDictionaryWithDefault
  3
AutoCAD 2000
 90
0
 91
1
280
0
281
0
  0
CLASS
  1
ACDBPLACEHOLDER
  2
AcDbPlaceHolder
  3
AutoCAD 2000
 90
0
 91
1
280
0
281
0
  0
CLASS
  1
LAYOUT
  2
AcDbLayout
  3
AutoCAD 2000
 90
0
 91
0
280
0
281
0
  0
ENDSEC
  0
SECTION
  2
TABLES
  0
TABLE
  2
VPORT
  5
8
100
AcDbSymbolTable
 70
2
  0
VPORT
  5
1F4
100
AcDbSymbolTableRecord
100
AcDbViewportTableRecord
  2
*ACTIVE
 70
0
 10
0.0
 20
0.0
 11
1.0
 21
1.0
 12
94.7243508691
 22
133.9672962291
 13
0.0
 23
0.0
 14
1.0
 24
1.0
 15
0.0
 25
0.0
 16
0.0
 26
0.0
 36
1.0
 17
0.0
 27
0.0
 37
0.0
 40
267.9345924583
 41
0.7070707071
 42
50.0
 43
0.0
 44
0.0
 50
0.0
 51
0.0
 71
0
 72
100
 73
1
 74
1
 75
0
 76
0
 77
0
 78
0
  0
ENDTAB
  0
TABLE
  2
LTYPE
  5
5
100
AcDbSymbolTable
 70
6
  0
LTYPE
  5
14
100
AcDbSymbolTableRecord
100
AcDbLinetypeTableRecord
  2
BYBLOCK
 70
0
  3

 72
65
 73
0
 40
0.0
  0
LTYPE
  5
15
100
AcDbSymbolTableRecord
100
AcDbLinetypeTableRecord
  2
BYLAYER
 70
0
  3

 72
65
 73
0
 40
0.0
  0
LTYPE
  5
16
100
AcDbSymbolTableRecord
100
AcDbLinetypeTableRecord
  2
CONTINUOUS
 70
64
  3
Solid line
 72
65
 73
0
 40
0.0
  0
LTYPE
  5
1F5
100
AcDbSymbolTableRecord
100
AcDbLinetypeTableRecord
  2
CENTER
 70
64
  3
____ _ ____ _ ____ _ ____ _ ____ _ ____ _ ____
 72
65
 73
4
 40
0.6
 49
0.375
 74
0
 49
-0.075
 74
0
 49
0.075
 74
0
 49
-0.075
 74
0
  0
LTYPE
  5
1F6
100
AcDbSymbolTableRecord
100
AcDbLinetypeTableRecord
  2
HIDDEN
 70
64
  3
- - - - - - - - - - - - - - - - - - - -
 72
65
 73
2
 40
0.2
 49
0.1
 74
0
 49
-0.1
 74
0
  0
LTYPE
  5
1F7
100
AcDbSymbolTableRecord
100
AcDbLinetypeTableRecord
  2
PHANTOM
 70
64
  3
_____ _ _ _____ _ _ _____ _ _ _____
 72
65
 73
6
 40
0.8
 49
0.45
 74
0
 49
-0.05
 74
0
 49
0.1
 74
0
 49
-0.05
 74
0
 49
0.1
 74
0
 49
-0.05
 74
0
  0
LTYPE
  5
1F8
100
AcDbSymbolTableRecord
100
AcDbLinetypeTableRecord
  2
DOT
 70
64
  3
. . . . . . . . . . . . . . . . . . . .
 72
65
 73
2
 40
0.2
 49
0.1
 74
0
 49
-0.1
 74
0
  0
LTYPE
  5
1F9
100
AcDbSymbolTableRecord
100
AcDbLinetypeTableRecord
  2
DASHED
 70
64
  3
- - - - - - - - - - - - - - - - - - - -
 72
65
 73
2
 40
0.2
 49
0.1
 74
0
 49
-0.1
 74
0
  0
ENDTAB
  0
TABLE
  2
LAYER
  5
2
100
AcDbSymbolTable
 70
36
  0
LAYER
  5
10
100
AcDbSymbolTableRecord
100
AcDbLayerTableRecord
  2
0
 70
0
 62
7
  6
CONTINUOUS
370
-3
390
F
  0
LAYER
  5
1FA
100
AcDbSymbolTableRecord
100
AcDbLayerTableRecord
  2
DEFAULT_1
 70
0
 62
7
  6
CENTER
370
-3
390
F
  0
LAYER
  5
1FB
100
AcDbSymbolTableRecord
100
AcDbLayerTableRecord
  2
DEFAULT_2
 70
0
 62
8
  6
HIDDEN
370
-3
390
F
  0
LAYER
  5
1FC
100
AcDbSymbolTableRecord
100
AcDbLayerTableRecord
  2
DEFAULT_3
 70
0
 62
7
  6
PHANTOM
370
-3
390
F
  0
LAYER
  5
1FD
100
AcDbSymbolTableRecord
100
AcDbLayerTableRecord
  2
00_COMPONENTS
 70
0
 62
7
  6
CONTINUOUS
370
-3
390
F
  0
LAYER
  5
1FE
100
AcDbSymbolTableRecord
100
AcDbLayerTableRecord
  2
01_1_DEFAULT_DATUMS
 70
0
 62
7
  6
CONTINUOUS
370
-3
390
F
  0
LAYER
  5
1FF
100
AcDbSymbolTableRecord
100
AcDbLayerTableRecord
  2
01_PLANES
 70
0
 62
7
  6
CONTINUOUS
370
-3
390
F
  0
LAYER
  5
200
100
AcDbSymbolTableRecord
100
AcDbLayerTableRecord
  2
02_COORD_SYS
 70
0
 62
7
  6
CONTINUOUS
370
-3
390
F
  0
LAYER
  5
201
100
AcDbSymbolTableRecord
100
AcDbLayerTableRecord
  2
03_AXES
 70
0
 62
7
  6
CONTINUOUS
370
-3
390
F
  0
LAYER
  5
202
100
AcDbSymbolTableRecord
100
AcDbLayerTableRecord
  2
04_POINTS
 70
0
 62
7
  6
CONTINUOUS
370
-3
390
F
  0
LAYER
  5
203
100
AcDbSymbolTableRecord
100
AcDbLayerTableRecord
  2
05_CURVES
 70
0
 62
7
  6
CONTINUOUS
370
-3
390
F
  0
LAYER
  5
204
100
AcDbSymbolTableRecord
100
AcDbLayerTableRecord
  2
06_SURFS
 70
0
 62
7
  6
CONTINUOUS
370
-3
390
F
  0
LAYER
  5
205
100
AcDbSymbolTableRecord
100
AcDbLayerTableRecord
  2
07_COSMETICS
 70
0
 62
7
  6
CONTINUOUS
370
-3
390
F
  0
LAYER
  5
206
100
AcDbSymbolTableRecord
100
AcDbLayerTableRecord
  2
10_NOTES
 70
0
 62
7
  6
CONTINUOUS
370
-3
390
F
  0
LAYER
  5
207
100
AcDbSymbolTableRecord
100
AcDbLayerTableRecord
  2
11_NOTES_PUB
 70
0
 62
7
  6
CONTINUOUS
370
-3
390
F
  0
LAYER
  5
208
100
AcDbSymbolTableRecord
100
AcDbLayerTableRecord
  2
13_REF_GTOL
 70
0
 62
7
  6
CONTINUOUS
370
-3
390
F
  0
LAYER
  5
209
100
AcDbSymbolTableRecord
100
AcDbLayerTableRecord
  2
16_MISC
 70
0
 62
7
  6
CONTINUOUS
370
-3
390
F
  0
LAYER
  5
20A
100
AcDbSymbolTableRecord
100
AcDbLayerTableRecord
  2
17_NO_PRINT
 70
0
 62
7
  6
CONTINUOUS
370
-3
390
F
  0
LAYER
  5
20B
100
AcDbSymbolTableRecord
100
AcDbLayerTableRecord
  2
18_DATUM_CAMS_JOINTS
 70
0
 62
7
  6
CONTINUOUS
370
-3
390
F
  0
LAYER
  5
20C
100
AcDbSymbolTableRecord
100
AcDbLayerTableRecord
  2
19_DATUM_FUNCTIONAL
 70
0
 62
7
  6
CONTINUOUS
370
-3
390
F
  0
LAYER
  5
20D
100
AcDbSymbolTableRecord
100
AcDbLayerTableRecord
  2
20_DATUM_KINEMATIC_SCHEME
 70
0
 62
7
  6
CONTINUOUS
370
-3
390
F
  0
ENDTAB
  0
TABLE
  2
STYLE
  5
3
100
AcDbSymbolTable
 70
1
  0
STYLE
  5
11
100
AcDbSymbolTableRecord
100
AcDbTextStyleTableRecord
  2
STANDARD
 70
0
 40
0.0
 41
0.8
 50
0.0
 71
0
 42
0.2
  3
txt
  4

  0
STYLE
  5
20E
100
AcDbSymbolTableRecord
100
AcDbTextStyleTableRecord
  2
TEXTSTYLE_1
 70
0
 40
0.0
 41
0.8
 50
0.0
 71
0
 42
0.2
  3
gdt
  4

  0
ENDTAB
  0
TABLE
  2
VIEW
  5
6
100
AcDbSymbolTable
 70
0
  0
ENDTAB
  0
TABLE
  2
UCS
  5
7
100
AcDbSymbolTable
 70
0
  0
ENDTAB
  0
TABLE
  2
APPID
  5
9
100
AcDbSymbolTable
 70
1
  0
APPID
  5
20F
100
AcDbSymbolTableRecord
100
AcDbRegAppTableRecord
  2
ACAD
 70
0
  0
ENDTAB
  0
TABLE
  2
BLOCK_RECORD
  5
1
100
AcDbSymbolTable
 70
0
  0
BLOCK_RECORD
  5
210
100
AcDbSymbolTableRecord
100
AcDbBlockTableRecord
  2
*Model_Space
  0
BLOCK_RECORD
  5
211
100
AcDbSymbolTableRecord
100
AcDbBlockTableRecord
  2
*Paper_Space
  0
BLOCK_RECORD
  5
212
100
AcDbSymbolTableRecord
100
AcDbBlockTableRecord
  2
_FILLED
  0
ENDTAB
  0
TABLE
  2
DIMSTYLE
  5
A
100
AcDbSymbolTable
 70
1
100
AcDbDimStyleTable
 71
0
  0
DIMSTYLE
105
213
100
AcDbSymbolTableRecord
100
AcDbDimStyleTableRecord
  2
STANDARD
 70
0
  3

  4

 40
1.0
 41
2.2553416874
 42
1.0
 43
0.38
 44
1.0
 45
0.0
 46
0.0
 47
0.01
 48
0.01
140
3.1574783623
141
0.09
142
0.0
143
25.4
144
1.0
145
0.0
146
1.0
147
0.625
 71
1
 72
0
 73
0
 74
0
 75
0
 76
0
 77
1
 78
8
 79
2
170
0
171
1
172
0
173
0
174
0
175
0
176
0
177
0
178
0
270
2
179
2
271
2
272
2
273
2
274
2
275
0
280
0
281
0
282
0
283
1
284
8
285
0
286
0
287
3
288
0
340
11
278
46
341
212
342
212
343
212
344
212
  0
ENDTAB
  0
ENDSEC
  0
SECTION
  2
BLOCKS
  0
BLOCK
  5
20
100
AcDbEntity
  8
0
100
AcDbBlockBegin
  2
*Model_Space
 70
0
 10
0.0
 20
0.0
 30
0.0
  3
*Model_Space
  1

  0
ENDBLK
  5
21
100
AcDbEntity
  8
0
100
AcDbBlockEnd
  0
BLOCK
  5
1C
100
AcDbEntity
  8
0
100
AcDbBlockBegin
  2
*Paper_Space
 70
0
 10
0.0
 20
0.0
 30
0.0
  3
*Paper_Space
  1

  0
ENDBLK
  5
1D
100
AcDbEntity
  8
0
100
AcDbBlockEnd
  0
BLOCK
  5
214
100
AcDbEntity
  8
0
100
AcDbBlockBegin
  2
_FILLED
 70
64
 10
0.0
 20
0.0
  3
_FILLED
  1

  0
SOLID
  5
215
100
AcDbEntity
  8
0
  6
BYBLOCK
 62
0
100
AcDbTrace
 10
0.0
 20
0.0
 11
-1.0
 21
0.25
 12
-1.0
 22
-0.25
 13
-1.0
 23
-0.25
  0
ENDBLK
  5
216
100
AcDbEntity
  8
0
  6
BYBLOCK
 62
0
100
AcDbBlockEnd
  0
ENDSEC
  0
SECTION
  2
ENTITIES
  0
LINE
  5
217
100
AcDbEntity
  8
0
100
AcDbLine
 62
7
  6
CONTINUOUS
 10
33.4490753296
 20
235.1773824108
 11
45.7399449551
 21
242.2734769397
  0
LINE
  5
218
100
AcDbEntity
  8
0
100
AcDbLine
 62
7
  6
CONTINUOUS
 10
42.4708093173
 20
232.7451113883
 11
49.8953996072
 21
237.0316750034
  0
LINE
  5
219
100
AcDbEntity
  8
0
100
AcDbLine
 62
7
  6
CONTINUOUS
 10
34.2378058918
 20
226.5048773975
 11
37.5831164182
 21
228.4362818015
  0
LINE
  5
21A
100
AcDbEntity
  8
0
100
AcDbLine
 62
7
  6
CONTINUOUS
 10
57.3473882465
 20
239.8471213484
 11
61.3998026151
 21
242.1867699092
  0
LINE
  5
21B
100
AcDbEntity
  8
0
100
AcDbLine
 62
7
  6
CONTINUOUS
 10
33.4078807033
 20
225.9642598062
 11
33.0462676191
 21
225.755483641
  0
LINE
  5
21C
100
AcDbEntity
  8
0
100
AcDbLine
 62
7
  6
CONTINUOUS
 10
55.5633294387
 20
233.7308110433
 11
48.1387391477
 21
229.4442474276
  0
LINE
  5
21D
100
AcDbEntity
  8
0
100
AcDbLine
 62
7
  6
CONTINUOUS
 10
21.9782290607
 20
104.0499029813
 11
21.9782290607
 21
104.8664053984
  0
LINE
  5
21E
100
AcDbEntity
  8
0
100
AcDbLine
 62
7
  6
CONTINUOUS
 10
56.1294775735
 20
197.4831576402
 11
56.3769639166
 21
197.626043094
  0
LINE
  5
21F
100
AcDbEntity
  8
0
100
AcDbLine
 62
7
  6
CONTINUOUS
 10
58.2378252555
 20
196.255307422
 11
58.4853115985
 21
196.3981928759
  0
LINE
  5
220
100
AcDbEntity
  8
0
100
AcDbLine
 62
7
  6
CONTINUOUS
 10
33.7869565395
 20
81.4454609498
 11
128.2537567973
 21
26.4303027302
  0
LINE
  5
221
100
AcDbEntity
  8
0
100
AcDbLine
 62
7
  6
CONTINUOUS
 10
31.4440566352
 20
213.7809714441
 11
31.4440566356
 21
84.7315359593
  0
LINE
  5
222
100
AcDbEntity
  8
0
100
AcDbLine
 62
7
  6
CONTINUOUS
 10
33.7869565395
 20
81.4454609498
 11
33.786956539
 21
210.4948964351
  0
LINE
  5
223
100
AcDbEntity
  8
0
100
AcDbLine
 62
7
  6
CONTINUOUS
 10
33.0462217195
 20
225.7555337718
 11
33.0410468665
 21
225.5636630497
  0
LINE
  5
224
100
AcDbEntity
  8
0
100
AcDbLine
 62
7
  6
CONTINUOUS
 10
37.9847748926
 20
228.8387960982
 11
38.059872176
 21
230.534936403
  0
LINE
  5
225
100
AcDbEntity
  8
0
100
AcDbLine
 62
7
  6
CONTINUOUS
 10
33.0486782673
 20
226.3259278586
 11
33.4490753296
 21
235.1773824108
  0
LINE
  5
226
100
AcDbEntity
  8
0
100
AcDbLine
 62
7
  6
CONTINUOUS
 10
31.8979987622
 20
223.3596929551
 11
31.4715352791
 21
214.4803048851
  0
LINE
  5
227
100
AcDbEntity
  8
0
100
AcDbLine
 62
7
  6
CONTINUOUS
 10
33.8113356628
 20
211.065139929
 11
34.2377991459
 21
219.944527999
  0
LINE
  5
228
100
AcDbEntity
  8
0
100
AcDbLine
 62
7
  6
CONTINUOUS
 10
31.4440566356
 20
98.5849285171
 11
21.9782290607
 21
104.0499029813
  0
LINE
  5
229
100
AcDbEntity
  8
0
100
AcDbLine
 62
7
  6
CONTINUOUS
 10
31.4440566356
 20
99.4014309342
 11
21.9782290607
 21
104.8664053984
  0
LINE
  5
22A
100
AcDbEntity
  8
0
100
AcDbLine
 62
7
  6
CONTINUOUS
 10
42.4584271156
 20
229.4754717312
 11
42.4708093169
 21
232.7451113881
  0
LWPOLYLINE
  5
22B
100
AcDbEntity
  8
0
100
AcDbPolyline
 62
7
  6
CONTINUOUS
 90
3
 70
0
 10
67.5435694747
 20
179.4881005795
 10
65.1321833366
 20
177.1048369228
 10
62.9995655761
 20
170.954524811
  0
LINE
  5
22C
100
AcDbEntity
  8
0
100
AcDbLine
 62
7
  6
CONTINUOUS
 10
71.0350476969
 20
180.6103298212
 11
69.4348371869
 21
179.6864533672
  0
LINE
  5
22D
100
AcDbEntity
  8
0
100
AcDbLine
 62
7
  6
CONTINUOUS
 10
66.8267806368
 20
179.5933880911
 11
67.2241489044
 21
179.8112903086
  0
LINE
  5
22E
100
AcDbEntity
  8
0
100
AcDbLine
 62
7
  6
CONTINUOUS
 10
69.272427443
 20
180.589320226
 11
69.3232576931
 21
180.6109144161
  0
LINE
  5
22F
100
AcDbEntity
  8
0
100
AcDbLine
 62
7
  6
CONTINUOUS
 10
49.8953996076
 20
237.0316750037
 11
49.8704521051
 21
230.4440464017
  0
LINE
  5
230
100
AcDbEntity
  8
0
100
AcDbLine
 62
7
  6
CONTINUOUS
 10
62.9995655756
 20
170.9545248073
 11
61.0196748314
 21
169.8114411764
  0
LINE
  5
231
100
AcDbEntity
  8
0
100
AcDbLine
 62
7
  6
CONTINUOUS
 10
63.6051286686
 20
170.0878736813
 11
61.6252379244
 21
168.9447900504
  0
LINE
  5
232
100
AcDbEntity
  8
0
100
AcDbLine
 62
7
  6
CONTINUOUS
 10
70.4898195913
 20
173.3649379409
 11
72.1284401367
 21
174.3109903067
  0
LINE
  5
233
100
AcDbEntity
  8
0
100
AcDbLine
 62
7
  6
CONTINUOUS
 10
72.0051506149
 20
174.0305704665
 11
71.9660762598
 21
174.0080110117
  0
LINE
  5
234
100
AcDbEntity
  8
0
100
AcDbLine
 62
7
  6
CONTINUOUS
 10
75.5559722317
 20
175.7002192965
 11
73.5760814875
 21
174.5571356656
  0
LINE
  5
235
100
AcDbEntity
  8
0
100
AcDbLine
 62
7
  6
CONTINUOUS
 10
61.2778675939
 20
167.1157872776
 11
60.7671750988
 21
166.820940588
  0
LINE
  5
236
100
AcDbEntity
  8
0
100
AcDbLine
 62
7
  6
CONTINUOUS
 10
76.0434919718
 20
175.364945701
 11
74.0636012276
 21
174.2218620702
  0
LINE
  5
237
100
AcDbEntity
  8
0
100
AcDbLine
 62
7
  6
CONTINUOUS
 10
66.5752015584
 20
167.9300123783
 11
66.2304697806
 21
167.7309825816
  0
LINE
  5
238
100
AcDbEntity
  8
0
100
AcDbLine
 62
7
  6
CONTINUOUS
 10
75.9945326467
 20
172.9107038534
 11
74.8942454311
 21
172.2754565252
  0
LINE
  5
239
100
AcDbEntity
  8
0
100
AcDbLine
 62
7
  6
CONTINUOUS
 10
69.6999768858
 20
168.6492962647
 11
67.7200861416
 21
167.5062126339
  0
LINE
  5
23A
100
AcDbEntity
  8
0
100
AcDbLine
 62
7
  6
CONTINUOUS
 10
72.0069629816
 20
174.0274313365
 11
71.9744021631
 21
174.0119149412
  0
LINE
  5
23B
100
AcDbEntity
  8
0
100
AcDbLine
 62
7
  6
CONTINUOUS
 10
71.9744021631
 20
174.0119149412
 11
70.4899019358
 21
173.3647952662
  0
LINE
  5
23C
100
AcDbEntity
  8
0
100
AcDbLine
 62
7
  6
CONTINUOUS
 10
55.9520579749
 20
150.6338015681
 11
56.1294775735
 21
197.4831576402
  0
LINE
  5
23D
100
AcDbEntity
  8
0
100
AcDbLine
 62
7
  6
CONTINUOUS
 10
56.3769639166
 20
197.626043094
 11
56.1995479015
 21
150.7776332825
  0
LINE
  5
23E
100
AcDbEntity
  8
0
100
AcDbLine
 62
7
  6
CONTINUOUS
 10
58.2378252555
 20
196.2553074221
 11
58.0604092393
 21
149.4068976188
  0
LINE
  5
23F
100
AcDbEntity
  8
0
100
AcDbLine
 62
7
  6
CONTINUOUS
 10
67.0365876825
 20
165.13153196
 11
67.1559015965
 21
165.3336080061
  0
LINE
  5
240
100
AcDbEntity
  8
0
100
AcDbLine
 62
7
  6
CONTINUOUS
 10
72.6418442283
 20
163.1945039602
 11
72.5452682411
 21
163.0779458869
  0
LINE
  5
241
100
AcDbEntity
  8
0
100
AcDbLine
 62
7
  6
CONTINUOUS
 10
70.0736470329
 20
167.7993363555
 11
68.0937562887
 21
166.6562527246
  0
LINE
  5
242
100
AcDbEntity
  8
0
100
AcDbLine
 62
7
  6
CONTINUOUS
 10
84.862073051
 20
175.8405552592
 11
84.295976276
 21
175.5137210847
  0
LINE
  5
243
100
AcDbEntity
  8
0
100
AcDbLine
 62
7
  6
CONTINUOUS
 10
67.3555964777
 20
165.3157106743
 11
67.0365876825
 21
165.1315319599
  0
LINE
  5
244
100
AcDbEntity
  8
0
100
AcDbLine
 62
7
  6
CONTINUOUS
 10
83.9782619414
 20
171.1967654764
 11
83.5034266309
 21
170.9226208185
  0
LINE
  5
245
100
AcDbEntity
  8
0
100
AcDbLine
 62
7
  6
CONTINUOUS
 10
74.793722073
 20
165.7941581459
 11
75.7277471321
 21
166.3334145463
  0
LINE
  5
246
100
AcDbEntity
  8
0
100
AcDbLine
 62
7
  6
CONTINUOUS
 10
79.0110801295
 20
168.1431187822
 11
77.0311893853
 21
167.0000351514
  0
LINE
  5
247
100
AcDbEntity
  8
0
100
AcDbLine
 62
7
  6
CONTINUOUS
 10
75.6253660797
 20
166.1754336722
 11
75.5915596305
 21
166.1559156261
  0
LINE
  5
248
100
AcDbEntity
  8
0
100
AcDbLine
 62
7
  6
CONTINUOUS
 10
72.9458620085
 20
163.7418755895
 11
72.0798124108
 21
163.2418646058
  0
LINE
  5
249
100
AcDbEntity
  8
0
100
AcDbLine
 62
7
  6
CONTINUOUS
 10
79.5781975384
 20
167.5527566779
 11
77.5983067942
 21
166.4096730471
  0
LINE
  5
24A
100
AcDbEntity
  8
0
100
AcDbLine
 62
7
  6
CONTINUOUS
 10
87.5272390193
 20
170.6166615252
 11
85.5473482751
 21
169.4735778944
  0
LINE
  5
24B
100
AcDbEntity
  8
0
100
AcDbLine
 62
7
  6
CONTINUOUS
 10
87.8390156809
 20
170.0005522324
 11
85.8591249367
 21
168.8574686016
  0
LINE
  5
24C
100
AcDbEntity
  8
0
100
AcDbLine
 62
7
  6
CONTINUOUS
 10
55.9520615584
 20
150.6347478366
 11
56.1995479015
 21
150.7776332904
  0
LINE
  5
24D
100
AcDbEntity
  8
0
100
AcDbLine
 62
7
  6
CONTINUOUS
 10
75.6269406463
 20
166.1727064266
 11
75.5919411649
 21
166.1561152801
  0
LINE
  5
24E
100
AcDbEntity
  8
0
100
AcDbLine
 62
7
  6
CONTINUOUS
 10
75.5919411649
 20
166.1561152801
 11
74.7938231159
 21
165.7939830481
  0
LINE
  5
24F
100
AcDbEntity
  8
0
100
AcDbLine
 62
7
  6
CONTINUOUS
 10
60.8923159526
 20
167.0824224395
 11
60.9692129442
 21
167.1085064261
  0
LINE
  5
250
100
AcDbEntity
  8
0
100
AcDbLine
 62
7
  6
CONTINUOUS
 10
65.4419358201
 20
149.5810518219
 11
65.3404773633
 21
149.4515976395
  0
LINE
  5
251
100
AcDbEntity
  8
0
100
AcDbLine
 62
7
  6
CONTINUOUS
 10
82.9709899366
 20
164.4725511966
 11
82.8881959626
 21
164.3858910242
  0
LINE
  5
252
100
AcDbEntity
  8
0
100
AcDbLine
 62
7
  6
CONTINUOUS
 10
68.422496629
 20
150.7849910499
 11
68.4583643317
 21
150.8097488217
  0
LINE
  5
253
100
AcDbEntity
  8
0
100
AcDbLine
 62
7
  6
CONTINUOUS
 10
85.8912630741
 20
167.5195768997
 11
85.5482270922
 21
167.3215261654
  0
LINE
  5
254
100
AcDbEntity
  8
0
100
AcDbLine
 62
7
  6
CONTINUOUS
 10
83.0962720192
 20
164.7671249586
 11
82.540407197
 21
164.4461981695
  0
LINE
  5
255
100
AcDbEntity
  8
0
100
AcDbLine
 62
7
  6
CONTINUOUS
 10
70.457678523
 20
155.4187899712
 11
68.4777877788
 21
154.2757063404
  0
LINE
  5
256
100
AcDbEntity
  8
0
100
AcDbLine
 62
7
  6
CONTINUOUS
 10
86.5641568377
 20
164.4184254611
 11
84.5842660935
 21
163.2753418303
  0
LINE
  5
257
100
AcDbEntity
  8
0
100
AcDbLine
 62
7
  6
CONTINUOUS
 10
71.1102847196
 20
154.8986517724
 11
69.1303939754
 21
153.7555681415
  0
LINE
  5
258
100
AcDbEntity
  8
0
100
AcDbLine
 62
7
  6
CONTINUOUS
 10
86.8041501504
 20
163.6308880131
 11
84.8242594062
 21
162.4878043823
  0
LINE
  5
259
100
AcDbEntity
  8
0
100
AcDbLine
 62
7
  6
CONTINUOUS
 10
65.8901728576
 20
150.5710259554
 11
64.6971197763
 21
149.8822205494
  0
LINE
  5
25A
100
AcDbEntity
  8
0
100
AcDbLine
 62
7
  6
CONTINUOUS
 10
72.8633683748
 20
154.3367124739
 11
72.630584649
 21
154.2023155293
  0
LINE
  5
25B
100
AcDbEntity
  8
0
100
AcDbLine
 62
7
  6
CONTINUOUS
 10
68.4601178841
 20
150.8067115618
 11
68.4224966287
 21
150.7849910495
  0
LINE
  5
25C
100
AcDbEntity
  8
0
100
AcDbLine
 62
7
  6
CONTINUOUS
 10
71.6051047361
 20
152.1649098993
 11
69.6903130411
 21
151.0594109976
  0
LINE
  5
25D
100
AcDbEntity
  8
0
100
AcDbLine
 62
7
  6
CONTINUOUS
 10
68.3143668887
 20
148.1069313406
 11
66.3344761445
 21
146.9638477098
  0
LINE
  5
25E
100
AcDbEntity
  8
0
100
AcDbLine
 62
7
  6
CONTINUOUS
 10
68.4190307614
 20
147.5957217978
 11
66.4391400172
 21
146.4526381669
  0
LINE
  5
25F
100
AcDbEntity
  8
0
100
AcDbLine
 62
7
  6
CONTINUOUS
 10
69.7331737278
 20
151.6700897699
 11
69.7466624235
 21
151.677573701
  0
LINE
  5
260
100
AcDbEntity
  8
0
100
AcDbLine
 62
7
  6
CONTINUOUS
 10
83.9794189083
 20
171.194761539
 11
83.8585443903
 21
170.856860162
  0
LINE
  5
261
100
AcDbEntity
  8
0
100
AcDbLine
 62
7
  6
CONTINUOUS
 10
78.9657183776
 20
137.2572134643
 11
79.0865928956
 21
137.5951148415
  0
LINE
  5
262
100
AcDbEntity
  8
0
100
AcDbLine
 62
7
  6
CONTINUOUS
 10
81.5432796152
 20
154.1851634265
 11
81.5225657339
 21
154.1393895215
  0
LINE
  5
263
100
AcDbEntity
  8
0
100
AcDbLine
 62
7
  6
CONTINUOUS
 10
81.4018583438
 20
154.2671674537
 11
81.4226299994
 21
154.3124820276
  0
LINE
  5
264
100
AcDbEntity
  8
0
100
AcDbLine
 62
7
  6
CONTINUOUS
 10
85.5482270922
 20
167.3215261653
 11
85.671465298
 21
167.5604639237
  0
LINE
  5
265
100
AcDbEntity
  8
0
100
AcDbLine
 62
7
  6
CONTINUOUS
 10
77.3969101938
 20
141.1304488384
 11
77.2736719879
 21
140.8915110801
  0
LINE
  5
266
100
AcDbEntity
  8
0
100
AcDbLine
 62
7
  6
CONTINUOUS
 10
79.9741473495
 20
143.9794238073
 11
80.0569413233
 21
144.0660839795
  0
LINE
  5
267
100
AcDbEntity
  8
0
100
AcDbLine
 62
7
  6
CONTINUOUS
 10
94.5226406571
 20
157.6669839538
 11
94.4867729542
 21
157.642226182
  0
LINE
  5
268
100
AcDbEntity
  8
0
100
AcDbLine
 62
7
  6
CONTINUOUS
 10
105.6266871516
 20
168.6571911744
 11
105.8741734947
 21
168.8000766282
  0
LINE
  5
269
100
AcDbEntity
  8
0
100
AcDbLine
 62
7
  6
CONTINUOUS
 10
90.8436201649
 20
157.8927035445
 11
88.8637294207
 21
156.7496199137
  0
LINE
  5
26A
100
AcDbEntity
  8
0
100
AcDbLine
 62
7
  6
CONTINUOUS
 10
107.7350348336
 20
167.4293409562
 11
107.9825211766
 21
167.5722264101
  0
LINE
  5
26B
100
AcDbEntity
  8
0
100
AcDbLine
 62
7
  6
CONTINUOUS
 10
91.3184629698
 20
157.4624105835
 11
89.3385722256
 21
156.3193269526
  0
LINE
  5
26C
100
AcDbEntity
  8
0
100
AcDbLine
 62
7
  6
CONTINUOUS
 10
95.6307669943
 20
159.0840382291
 11
93.8511279363
 21
158.0565692731
  0
LINE
  5
26D
100
AcDbEntity
  8
0
100
AcDbLine
 62
7
  6
CONTINUOUS
 10
97.7638037399
 20
159.0213810763
 11
97.5032014657
 21
158.8709231813
  0
LINE
  5
26E
100
AcDbEntity
  8
0
100
AcDbLine
 62
7
  6
CONTINUOUS
 10
90.954458751
 20
154.2271940837
 11
90.0868370264
 21
153.7262754375
  0
LINE
  5
26F
100
AcDbEntity
  8
0
100
AcDbLine
 62
7
  6
CONTINUOUS
 10
97.1115551616
 20
156.6012720955
 11
95.1316644174
 21
155.4581884647
  0
LINE
  5
270
100
AcDbEntity
  8
0
100
AcDbLine
 62
7
  6
CONTINUOUS
 10
97.0649542054
 20
156.065235575
 11
95.0850634612
 21
154.9221519442
  0
LINE
  5
271
100
AcDbEntity
  8
0
100
AcDbLine
 62
7
  6
CONTINUOUS
 10
80.1548892283
 20
144.0823507855
 11
79.9733447443
 21
143.9775366544
  0
LINE
  5
272
100
AcDbEntity
  8
0
100
AcDbLine
 62
7
  6
CONTINUOUS
 10
93.2119635582
 20
156.7818852339
 11
93.198474862
 21
156.7744013025
  0
LINE
  5
273
100
AcDbEntity
  8
0
100
AcDbLine
 62
7
  6
CONTINUOUS
 10
97.5032014657
 20
158.8709231811
 11
97.6046599226
 21
159.0003773636
  0
LINE
  5
274
100
AcDbEntity
  8
0
100
AcDbLine
 62
7
  6
CONTINUOUS
 10
90.3032930582
 20
145.2574710443
 11
90.3998690448
 21
145.3740291169
  0
LINE
  5
275
100
AcDbEntity
  8
0
100
AcDbLine
 62
7
  6
CONTINUOUS
 10
65.0978387072
 20
134.701321413
 11
65.3453250502
 21
134.844206867
  0
LINE
  5
276
100
AcDbEntity
  8
0
100
AcDbLine
 62
7
  6
CONTINUOUS
 10
77.4228867671
 20
141.348183193
 11
76.8476558062
 21
141.0160754252
  0
LINE
  5
277
100
AcDbEntity
  8
0
100
AcDbLine
 62
7
  6
CONTINUOUS
 10
92.8373006472
 20
148.717815648
 11
90.857409903
 21
147.5747320172
  0
LINE
  5
278
100
AcDbEntity
  8
0
100
AcDbLine
 62
7
  6
CONTINUOUS
 10
93.0774444361
 20
148.0810493271
 11
91.0975536919
 21
146.9379656963
  0
LINE
  5
279
100
AcDbEntity
  8
0
100
AcDbLine
 62
7
  6
CONTINUOUS
 10
80.8671930346
 20
140.6984771284
 11
78.8873022904
 21
139.5553934976
  0
LINE
  5
27A
100
AcDbEntity
  8
0
100
AcDbLine
 62
7
  6
CONTINUOUS
 10
90.5427351047
 20
145.3957121488
 11
90.3032930578
 21
145.2574710437
  0
LINE
  5
27B
100
AcDbEntity
  8
0
100
AcDbLine
 62
7
  6
CONTINUOUS
 10
81.2258146808
 20
139.9853112351
 11
79.2459239366
 21
138.8422276043
  0
LINE
  5
27C
100
AcDbEntity
  8
0
100
AcDbLine
 62
7
  6
CONTINUOUS
 10
88.1514152129
 20
142.6578168576
 11
90.1313059571
 21
143.8009004884
  0
LINE
  5
27D
100
AcDbEntity
  8
0
100
AcDbLine
 62
7
  6
CONTINUOUS
 10
79.4405536883
 20
137.5313581223
 11
78.9657183776
 21
137.2572134643
  0
LINE
  5
27E
100
AcDbEntity
  8
0
100
AcDbLine
 62
7
  6
CONTINUOUS
 10
89.1982401993
 20
142.9689124008
 11
87.2183494551
 21
141.82582877
  0
LINE
  5
27F
100
AcDbEntity
  8
0
100
AcDbLine
 62
7
  6
CONTINUOUS
 10
145.7078464368
 20
172.6223813307
 11
153.1324367277
 21
176.9089449464
  0
LINE
  5
280
100
AcDbEntity
  8
0
100
AcDbLine
 62
7
  6
CONTINUOUS
 10
95.9175354014
 20
143.4176406496
 11
95.4702378973
 21
143.1593948567
  0
LINE
  5
281
100
AcDbEntity
  8
0
100
AcDbLine
 62
7
  6
CONTINUOUS
 10
87.3181966396
 20
142.2792685768
 11
87.3531961214
 21
142.2958597236
  0
LINE
  5
282
100
AcDbEntity
  8
0
100
AcDbLine
 62
7
  6
CONTINUOUS
 10
87.3531961214
 20
142.2958597236
 11
88.15131417
 21
142.6579919554
  0
LINE
  5
283
100
AcDbEntity
  8
0
100
AcDbLine
 62
7
  6
CONTINUOUS
 10
98.3325062185
 20
115.3462624237
 11
65.0973989627
 21
134.7015775094
  0
LINE
  5
284
100
AcDbEntity
  8
0
100
AcDbLine
 62
7
  6
CONTINUOUS
 10
65.3453250488
 20
134.8442068676
 11
98.5791657726
 21
115.4896293792
  0
LINE
  5
285
100
AcDbEntity
  8
0
100
AcDbLine
 62
7
  6
CONTINUOUS
 10
65.1070381665
 20
137.1305276908
 11
98.3408788832
 21
117.7759502066
  0
LWPOLYLINE
  5
286
100
AcDbEntity
  8
0
100
AcDbPolyline
 62
7
  6
CONTINUOUS
 90
3
 70
0
 10
68.4190307609
 20
147.5957217985
 10
73.7886936833
 20
139.7938268903
 10
77.8546511961
 20
135.8801179037
  0
LINE
  5
287
100
AcDbEntity
  8
0
100
AcDbLine
 62
7
  6
CONTINUOUS
 10
95.9085496034
 20
143.3204430434
 11
95.7892356894
 21
143.1183669975
  0
LINE
  5
288
100
AcDbEntity
  8
0
100
AcDbLine
 62
7
  6
CONTINUOUS
 10
78.6525918232
 20
132.7580166573
 11
78.2013951517
 21
132.4975196925
  0
LINE
  5
289
100
AcDbEntity
  8
0
100
AcDbLine
 62
7
  6
CONTINUOUS
 10
98.9275278349
 20
144.0896985098
 11
96.9476370907
 21
142.9466148789
  0
LINE
  5
28A
100
AcDbEntity
  8
0
100
AcDbLine
 62
7
  6
CONTINUOUS
 10
99.4011979532
 20
143.2666009465
 11
97.421307209
 21
142.1235173156
  0
LINE
  5
28B
100
AcDbEntity
  8
0
100
AcDbLine
 62
7
  6
CONTINUOUS
 10
96.622089341
 20
140.7436344487
 11
96.3369871375
 21
140.5790315973
  0
LINE
  5
28C
100
AcDbEntity
  8
0
100
AcDbLine
 62
7
  6
CONTINUOUS
 10
88.0594048614
 20
135.5712283417
 11
88.0160609806
 21
135.5462038898
  0
LINE
  5
28D
100
AcDbEntity
  8
0
100
AcDbLine
 62
7
  6
CONTINUOUS
 10
82.5473193661
 20
132.2163356233
 11
80.5674286219
 21
131.0732519925
  0
LINE
  5
28E
100
AcDbEntity
  8
0
100
AcDbLine
 62
7
  6
CONTINUOUS
 10
91.5222468689
 20
137.1701319249
 11
89.5423561247
 21
136.027048294
  0
LINE
  5
28F
100
AcDbEntity
  8
0
100
AcDbLine
 62
7
  6
CONTINUOUS
 10
82.8973742796
 20
131.7809419921
 11
80.9174835354
 21
130.6378583613
  0
LINE
  5
290
100
AcDbEntity
  8
0
100
AcDbLine
 62
7
  6
CONTINUOUS
 10
92.0857638459
 20
136.7797257496
 11
90.1058731017
 21
135.6366421188
  0
LINE
  5
291
100
AcDbEntity
  8
0
100
AcDbLine
 62
7
  6
CONTINUOUS
 10
167.9669357267
 20
180.3873061923
 11
163.8385892092
 21
178.0038184466
  0
LINE
  5
292
100
AcDbEntity
  8
0
100
AcDbLine
 62
7
  6
CONTINUOUS
 10
143.7732578669
 20
166.4191631459
 11
140.5326422646
 21
164.5482040237
  0
LINE
  5
293
100
AcDbEntity
  8
0
100
AcDbLine
 62
7
  6
CONTINUOUS
 10
102.0448919213
 20
141.3832867903
 11
101.9759243418
 21
141.3434685775
  0
LINE
  5
294
100
AcDbEntity
  8
0
100
AcDbLine
 62
7
  6
CONTINUOUS
 10
158.8003665586
 20
173.6080809861
 11
151.3757762676
 21
169.3215173703
  0
LINE
  5
295
100
AcDbEntity
  8
0
100
AcDbLine
 62
7
  6
CONTINUOUS
 10
92.4553176946
 20
135.0870370627
 11
94.4352084388
 21
136.2301206935
  0
LINE
  5
296
100
AcDbEntity
  8
0
100
AcDbLine
 62
7
  6
CONTINUOUS
 10
92.9573097566
 20
134.8125972038
 11
90.9774190124
 21
133.669513573
  0
LINE
  5
297
100
AcDbEntity
  8
0
100
AcDbLine
 62
7
  6
CONTINUOUS
 10
90.9381743044
 20
134.4245436673
 11
90.970735122
 21
134.440060062
  0
LINE
  5
298
100
AcDbEntity
  8
0
100
AcDbLine
 62
7
  6
CONTINUOUS
 10
90.970735122
 20
134.440060062
 11
92.4552353501
 21
135.0871797374
  0
LINE
  5
299
100
AcDbEntity
  8
0
100
AcDbLine
 62
7
  6
CONTINUOUS
 10
102.0528213333
 20
141.369552564
 11
101.9759243418
 21
141.3434685775
  0
LINE
  5
29A
100
AcDbEntity
  8
0
100
AcDbLine
 62
7
  6
CONTINUOUS
 10
79.0865928956
 20
137.5951148415
 11
79.4417106551
 21
137.529354185
  0
LWPOLYLINE
  5
29B
100
AcDbEntity
  8
0
100
AcDbPolyline
 62
7
  6
CONTINUOUS
 90
3
 70
0
 10
82.89737428
 20
131.7809419919
 10
89.5735365546
 20
128.9862029258
 10
93.3025147854
 20
128.984929439
  0
LINE
  5
29C
100
AcDbEntity
  8
0
100
AcDbLine
 62
7
  6
CONTINUOUS
 10
105.4492711363
 20
121.8087813719
 11
105.6266871516
 21
168.6571911744
  0
LINE
  5
29D
100
AcDbEntity
  8
0
100
AcDbLine
 62
7
  6
CONTINUOUS
 10
105.8741734947
 20
168.8000766281
 11
105.6967574794
 21
121.9516668264
  0
LINE
  5
29E
100
AcDbEntity
  8
0
100
AcDbLine
 62
7
  6
CONTINUOUS
 10
168.3049640228
 20
171.4982704104
 11
168.2938836447
 21
171.4913876904
  0
LINE
  5
29F
100
AcDbEntity
  8
0
100
AcDbLine
 62
7
  6
CONTINUOUS
 10
143.7656924721
 20
157.3260472531
 11
140.5448466745
 21
155.4665021649
  0
LINE
  5
2A0
100
AcDbEntity
  8
0
100
AcDbLine
 62
7
  6
CONTINUOUS
 10
168.3185473149
 20
171.4624319281
 11
164.4573686753
 21
169.2331927079
  0
LINE
  5
2A1
100
AcDbEntity
  8
0
100
AcDbLine
 62
7
  6
CONTINUOUS
 10
158.895962781
 20
166.022332684
 11
155.0347662464
 21
163.7930831322
  0
LINE
  5
2A2
100
AcDbEntity
  8
0
100
AcDbLine
 62
7
  6
CONTINUOUS
 10
93.6693529248
 20
127.8684691653
 11
93.6218795944
 21
127.8410605888
  0
LINE
  5
2A3
100
AcDbEntity
  8
0
100
AcDbLine
 62
7
  6
CONTINUOUS
 10
140.5426869237
 20
154.8833186506
 11
145.4947467319
 21
157.7423746477
  0
LINE
  5
2A4
100
AcDbEntity
  8
0
100
AcDbLine
 62
7
  6
CONTINUOUS
 10
96.9491214728
 20
129.679663048
 11
95.3305998481
 21
128.7452147302
  0
LINE
  5
2A5
100
AcDbEntity
  8
0
100
AcDbLine
 62
7
  6
CONTINUOUS
 10
96.1183566491
 20
128.8585869124
 11
95.7209883816
 21
128.6406846951
  0
LINE
  5
2A6
100
AcDbEntity
  8
0
100
AcDbLine
 62
7
  6
CONTINUOUS
 10
93.672709843
 20
127.8626547779
 11
93.6218795924
 21
127.8410605874
  0
LINE
  5
2A7
100
AcDbEntity
  8
0
100
AcDbLine
 62
7
  6
CONTINUOUS
 10
88.0293191922
 20
135.5232398565
 11
87.9267350486
 21
135.4946318468
  0
LINE
  5
2A8
100
AcDbEntity
  8
0
100
AcDbLine
 62
7
  6
CONTINUOUS
 10
107.7350348335
 20
167.4293409562
 11
107.5576170101
 21
120.5804539122
  0
LINE
  5
2A9
100
AcDbEntity
  8
0
100
AcDbLine
 62
7
  6
CONTINUOUS
 10
168.2845332001
 20
171.5093139258
 11
168.2744002572
 21
171.5019622108
  0
LINE
  5
2AA
100
AcDbEntity
  8
0
100
AcDbLine
 62
7
  6
CONTINUOUS
 10
164.4853333043
 20
156.8250107009
 11
168.6863150562
 21
159.3376677265
  0
LINE
  5
2AB
100
AcDbEntity
  8
0
100
AcDbLine
 62
7
  6
CONTINUOUS
 10
168.6576386605
 20
161.9883168893
 11
164.5141723653
 21
159.5944819644
  0
LINE
  5
2AC
100
AcDbEntity
  8
0
100
AcDbLine
 62
7
  6
CONTINUOUS
 10
168.6604949593
 20
162.5582221261
 11
164.5156134328
 21
160.1651879455
  0
LINE
  5
2AD
100
AcDbEntity
  8
0
100
AcDbLine
 62
7
  6
CONTINUOUS
 10
159.1855100792
 20
157.0878697086
 11
155.040633701
 21
154.6948385004
  0
LINE
  5
2AE
100
AcDbEntity
  8
0
100
AcDbLine
 62
7
  6
CONTINUOUS
 10
105.4492711363
 20
121.80878137
 11
105.6967574794
 21
121.9516668239
  0
LINE
  5
2AF
100
AcDbEntity
  8
0
100
AcDbLine
 62
7
  6
CONTINUOUS
 10
98.3316794239
 20
115.3467439288
 11
98.5791657669
 21
115.4896293827
  0
LINE
  5
2B0
100
AcDbEntity
  8
0
100
AcDbLine
 62
7
  6
CONTINUOUS
 10
159.1835558571
 20
156.5174541815
 11
155.0382567922
 21
154.1246560246
  0
LINE
  5
2B1
100
AcDbEntity
  8
0
100
AcDbLine
 62
7
  6
CONTINUOUS
 10
155.0163164371
 20
151.4461177095
 11
159.2613453696
 21
153.8100324579
  0
LINE
  5
2B2
100
AcDbEntity
  8
0
100
AcDbLine
 62
7
  6
CONTINUOUS
 10
90.1739360253
 20
154.2232090786
 11
90.3145526367
 21
154.2496594744
  0
LINE
  5
2B3
100
AcDbEntity
  8
0
100
AcDbLine
 62
7
  6
CONTINUOUS
 10
72.7712012606
 20
154.2287659251
 11
72.6305846476
 21
154.2023155291
  0
LINE
  5
2B4
100
AcDbEntity
  8
0
100
AcDbLine
 62
7
  6
CONTINUOUS
 10
33.0462676191
 20
225.755483641
 11
33.1150861742
 21
225.6862022002
  0
LINE
  5
2B5
100
AcDbEntity
  8
0
100
AcDbLine
 62
7
  6
CONTINUOUS
 10
33.4430629093
 20
225.9288361046
 11
33.0486782672
 21
226.3259278586
  0
LINE
  5
2B6
100
AcDbEntity
  8
0
100
AcDbLine
 62
7
  6
CONTINUOUS
 10
38.059872176
 20
230.534936403
 11
33.4490753297
 21
235.1773824108
  0
LINE
  5
2B7
100
AcDbEntity
  8
0
100
AcDbLine
 62
7
  6
CONTINUOUS
 10
128.2537567973
 20
26.4303027302
 11
129.2290322742
 21
154.9117615872
  0
LINE
  5
2B8
100
AcDbEntity
  8
0
100
AcDbLine
 62
7
  6
CONTINUOUS
 10
129.231192025
 20
155.4949451014
 11
129.3106572262
 21
164.5764164994
  0
LINE
  5
2B9
100
AcDbEntity
  8
0
100
AcDbLine
 62
7
  6
CONTINUOUS
 10
164.486047951
 20
156.8246063507
 11
161.7754867149
 21
157.2405287148
  0
LINE
  5
2BA
100
AcDbEntity
  8
0
100
AcDbLine
 62
7
  6
CONTINUOUS
 10
161.831982786
 20
160.0182590674
 11
164.5134536959
 21
159.5948885907
  0
LINE
  5
2BB
100
AcDbEntity
  8
0
100
AcDbLine
 62
7
  6
CONTINUOUS
 10
164.5156134328
 20
160.1651879455
 11
161.8341425226
 21
160.5885584223
  0
LINE
  5
2BC
100
AcDbEntity
  8
0
100
AcDbLine
 62
7
  6
CONTINUOUS
 10
83.8585443903
 20
170.856860162
 11
83.5034266309
 21
170.9226208185
  0
LINE
  5
2BD
100
AcDbEntity
  8
0
100
AcDbLine
 62
7
  6
CONTINUOUS
 10
129.2290322742
 20
154.9117615872
 11
107.7350348335
 21
167.4293409562
  0
LINE
  5
2BE
100
AcDbEntity
  8
0
100
AcDbLine
 62
7
  6
CONTINUOUS
 10
105.6266871516
 20
168.6571911744
 11
58.2378252555
 21
196.2553074221
  0
LINE
  5
2BF
100
AcDbEntity
  8
0
100
AcDbLine
 62
7
  6
CONTINUOUS
 10
56.1294775735
 20
197.4831576402
 11
33.786956539
 21
210.4948964351
  0
LINE
  5
2C0
100
AcDbEntity
  8
0
100
AcDbLine
 62
7
  6
CONTINUOUS
 10
56.3769639166
 20
197.626043094
 11
58.4853115985
 21
196.3981928759
  0
LINE
  5
2C1
100
AcDbEntity
  8
0
100
AcDbLine
 62
7
  6
CONTINUOUS
 10
105.8741734947
 20
168.8000766282
 11
107.9825211766
 21
167.5722264101
  0
LINE
  5
2C2
100
AcDbEntity
  8
0
100
AcDbLine
 62
7
  6
CONTINUOUS
 10
33.8113356628
 20
211.065139929
 11
129.231192025
 21
155.4949451014
  0
LINE
  5
2C3
100
AcDbEntity
  8
0
100
AcDbLine
 62
7
  6
CONTINUOUS
 10
140.5448466745
 20
155.4665021648
 11
140.5326422646
 21
164.5482040237
  0
LINE
  5
2C4
100
AcDbEntity
  8
0
100
AcDbLine
 62
7
  6
CONTINUOUS
 10
139.5674114469
 20
26.4018597936
 11
140.5426869237
 21
154.8833186506
  0
LINE
  5
2C5
100
AcDbEntity
  8
0
100
AcDbLine
 62
7
  6
CONTINUOUS
 10
74.9158180937
 20
172.9287351469
 11
75.0184022374
 21
172.9573431567
  0
LINE
  5
2C6
100
AcDbEntity
  8
0
100
AcDbLine
 62
7
  6
CONTINUOUS
 10
162.0265132078
 20
169.6169941633
 11
164.4573686753
 21
169.2331927078
  0
LINE
  5
2C7
100
AcDbEntity
  8
0
100
AcDbLine
 62
7
  6
CONTINUOUS
 10
145.4947467319
 20
157.7423746477
 11
155.0382117107
 21
154.1246336358
  0
LINE
  5
2C8
100
AcDbEntity
  8
0
100
AcDbLine
 62
7
  6
CONTINUOUS
 10
155.040633701
 20
154.6948385004
 11
147.52076966
 21
157.5455078312
  0
LINE
  5
2C9
100
AcDbEntity
  8
0
100
AcDbLine
 62
7
  6
CONTINUOUS
 10
155.0163605222
 20
151.4461423107
 11
154.2887146045
 21
151.724603655
  0
LINE
  5
2CA
100
AcDbEntity
  8
0
100
AcDbLine
 62
7
  6
CONTINUOUS
 10
154.2887146045
 20
151.724603655
 11
145.4219149438
 21
155.1555964359
  0
LINE
  5
2CB
100
AcDbEntity
  8
0
100
AcDbLine
 62
7
  6
CONTINUOUS
 10
129.3106572262
 20
164.5764164994
 11
34.2377991459
 21
219.944527999
  0
LINE
  5
2CC
100
AcDbEntity
  8
0
100
AcDbLine
 62
7
  6
CONTINUOUS
 10
143.765692472
 20
157.3260472531
 11
143.7732578669
 21
166.4191631459
  0
LINE
  5
2CD
100
AcDbEntity
  8
0
100
AcDbLine
 62
7
  6
CONTINUOUS
 10
147.5209272722
 20
157.5454486497
 11
147.5284917597
 21
166.6385994794
  0
LINE
  5
2CE
100
AcDbEntity
  8
0
100
AcDbLine
 62
7
  6
CONTINUOUS
 10
145.6954642355
 20
169.3527416739
 11
145.7078464369
 21
172.6223813308
  0
LINE
  5
2CF
100
AcDbEntity
  8
0
100
AcDbLine
 62
7
  6
CONTINUOUS
 10
155.0347700589
 20
163.7930814903
 11
147.5284917597
 21
166.6385994794
  0
LINE
  5
2D0
100
AcDbEntity
  8
0
100
AcDbLine
 62
7
  6
CONTINUOUS
 10
160.2137847079
 20
158.1581775332
 11
161.7754867149
 21
157.2405287148
  0
LINE
  5
2D1
100
AcDbEntity
  8
0
100
AcDbLine
 62
7
  6
CONTINUOUS
 10
155.0406290972
 20
154.6948396785
 11
155.0347700589
 21
163.7930814903
  0
LINE
  5
2D2
100
AcDbEntity
  8
0
100
AcDbLine
 62
7
  6
CONTINUOUS
 10
153.1324367276
 20
176.9089449464
 11
153.1074892251
 21
170.3213163445
  0
LINE
  5
2D3
100
AcDbEntity
  8
0
100
AcDbLine
 62
7
  6
CONTINUOUS
 10
161.831982786
 20
160.0182590674
 11
160.2658079775
 21
160.9303610403
  0
LINE
  5
2D4
100
AcDbEntity
  8
0
100
AcDbLine
 62
7
  6
CONTINUOUS
 10
161.8341425226
 20
160.5885584223
 11
160.2680334954
 21
161.5006220856
  0
LINE
  5
2D5
100
AcDbEntity
  8
0
100
AcDbLine
 62
7
  6
CONTINUOUS
 10
156.7270860205
 20
168.3173029831
 11
158.244618367
 21
167.4335291927
  0
LINE
  5
2D6
100
AcDbEntity
  8
0
100
AcDbLine
 62
7
  6
CONTINUOUS
 10
163.9366316534
 20
175.3860991588
 11
163.8385892092
 21
178.0038184466
  0
LINE
  5
2D7
100
AcDbEntity
  8
0
100
AcDbLine
 62
7
  6
CONTINUOUS
 10
159.185510079
 20
157.0878697085
 11
158.895962781
 21
166.022332684
  0
LINE
  5
2D8
100
AcDbEntity
  8
0
100
AcDbLine
 62
7
  6
CONTINUOUS
 10
164.5156134328
 20
160.1651879455
 11
164.4573686753
 21
169.2331927079
  0
LINE
  5
2D9
100
AcDbEntity
  8
0
100
AcDbLine
 62
7
  6
CONTINUOUS
 10
162.0265132075
 20
169.6169941635
 11
161.8341425229
 21
160.5885584222
  0
LINE
  5
2DA
100
AcDbEntity
  8
0
100
AcDbLine
 62
7
  6
CONTINUOUS
 10
160.5089808614
 20
170.5007679537
 11
160.2679677145
 21
161.5006603948
  0
LINE
  5
2DB
100
AcDbEntity
  8
0
100
AcDbLine
 62
7
  6
CONTINUOUS
 10
162.0265132075
 20
169.6169941635
 11
160.5089808614
 21
170.5007679537
  0
LINE
  5
2DC
100
AcDbEntity
  8
0
100
AcDbLine
 62
7
  6
CONTINUOUS
 10
168.6583352225
 20
161.9879227714
 11
168.2719527053
 21
162.3338984902
  0
LINE
  5
2DD
100
AcDbEntity
  8
0
100
AcDbLine
 62
7
  6
CONTINUOUS
 10
159.1834372011
 20
156.5173821676
 11
158.975964967
 21
156.9668895038
  0
LINE
  5
2DE
100
AcDbEntity
  8
0
100
AcDbLine
 62
7
  6
CONTINUOUS
 10
158.2446183671
 20
167.4335291927
 11
158.8959627808
 21
166.0223326839
  0
LINE
  5
2DF
100
AcDbEntity
  8
0
100
AcDbLine
 62
7
  6
CONTINUOUS
 10
168.6604949594
 20
162.5582221262
 11
168.3185473149
 21
171.4624319281
  0
LINE
  5
2E0
100
AcDbEntity
  8
0
100
AcDbLine
 62
7
  6
CONTINUOUS
 10
170.4417081869
 20
174.7181111262
 11
170.2152076202
 21
183.596393342
  0
LINE
  5
2E1
100
AcDbEntity
  8
0
100
AcDbLine
 62
7
  6
CONTINUOUS
 10
168.0954496039
 20
171.6621987074
 11
167.9669357267
 21
180.3873061923
  0
LINE
  5
2E2
100
AcDbEntity
  8
0
100
AcDbLine
 62
7
  6
CONTINUOUS
 10
167.1444610982
 20
42.3233817946
 11
168.0297106237
 21
158.9449448256
  0
LINE
  5
2E3
100
AcDbEntity
  8
0
100
AcDbLine
 62
7
  6
CONTINUOUS
 10
170.4625657274
 20
174.0586959442
 11
169.4872902506
 21
45.5772370876
  0
LINE
  5
2E4
100
AcDbEntity
  8
0
100
AcDbLine
 62
7
  6
CONTINUOUS
 10
163.4438974884
 20
175.827304569
 11
168.3185473151
 21
171.4624319282
  0
LINE
  5
2E5
100
AcDbEntity
  8
0
100
AcDbLine
 62
7
  6
CONTINUOUS
 10
45.7399449551
 20
242.2734769397
 11
53.726084855
 21
239.5797745199
  0
LINE
  5
2E6
100
AcDbEntity
  8
0
100
AcDbLine
 62
7
  6
CONTINUOUS
 10
72.7134572646
 20
242.1583269727
 11
167.9669422026
 21
186.685022801
  0
LINE
  5
2E7
100
AcDbEntity
  8
0
100
AcDbLine
 62
7
  6
CONTINUOUS
 10
139.5674114469
 20
26.4018597936
 11
167.1444610982
 21
42.3233817946
  0
ARC
  5
2E8
100
AcDbEntity
  8
0
100
AcDbCircle
 62
7
  6
CONTINUOUS
 10
-33.8497780477
 20
163.1888278832
 40
194.1287238122
100
AcDbArc
 50
358.5124567996
 51
359.3334137536
  0
ARC
  5
2E9
100
AcDbEntity
  8
0
100
AcDbCircle
 62
7
  6
CONTINUOUS
 10
-32.1164422707
 20
162.5735225095
 40
193.9652570777
100
AcDbArc
 50
358.4242288486
 51
359.2451738621
  0
ARC
  5
2EA
100
AcDbEntity
  8
0
100
AcDbCircle
 62
7
  6
CONTINUOUS
 10
-24.2401377798
 20
158.5759472916
 40
192.9279565587
100
AcDbArc
 50
0.2262164606
 51
1.0134589881
  0
ARC
  5
2EB
100
AcDbEntity
  8
0
100
AcDbCircle
 62
7
  6
CONTINUOUS
 10
-25.1737467534
 20
154.2614436567
 40
180.212055459
100
AcDbArc
 50
359.1048720002
 51
359.9565103747
  0
ARC
  5
2EC
100
AcDbEntity
  8
0
100
AcDbCircle
 62
7
  6
CONTINUOUS
 10
-32.7280963232
 20
161.4658958286
 40
178.261735649
100
AcDbArc
 50
357.9713589475
 51
358.8031219117
  0
ARC
  5
2ED
100
AcDbEntity
  8
0
100
AcDbCircle
 62
7
  6
CONTINUOUS
 10
-16.4445204143
 20
150.1164882421
 40
175.7446828207
100
AcDbArc
 50
1.2042473981
 51
2.0872862909
  0
ARC
  5
2EE
100
AcDbEntity
  8
0
100
AcDbCircle
 62
7
  6
CONTINUOUS
 10
87.7335277475
 20
166.187881102
 40
26.9737824467
100
AcDbArc
 50
178.6551768421
 51
179.7862278366
  0
ARC
  5
2EF
100
AcDbEntity
  8
0
100
AcDbCircle
 62
7
  6
CONTINUOUS
 10
75.2116095446
 20
142.2640939015
 40
26.9737824406
100
AcDbArc
 50
358.655176842
 51
359.7862278365
  0
ARC
  5
2F0
100
AcDbEntity
  8
0
100
AcDbCircle
 62
7
  6
CONTINUOUS
 10
110.7897722404
 20
145.6788789398
 40
20.7614498879
100
AcDbArc
 50
229.2305990897
 51
229.5209010868
  0
ARC
  5
2F1
100
AcDbEntity
  8
0
100
AcDbCircle
 62
7
  6
CONTINUOUS
 10
87.1980838376
 20
163.8832312318
 40
18.3479826532
100
AcDbArc
 50
178.6451878324
 51
180.0045458937
  0
ARC
  5
2F2
100
AcDbEntity
  8
0
100
AcDbCircle
 62
7
  6
CONTINUOUS
 10
73.85726253
 20
172.0508204084
 40
10.0496149673
100
AcDbArc
 50
128.966553698
 51
130.1254379993
  0
ARC
  5
2F3
100
AcDbEntity
  8
0
100
AcDbCircle
 62
7
  6
CONTINUOUS
 10
76.893057012
 20
167.0886744118
 40
7.2350878526
100
AcDbArc
 50
136.0288273652
 51
138.265475266
  0
ARC
  5
2F4
100
AcDbEntity
  8
0
100
AcDbCircle
 62
7
  6
CONTINUOUS
 10
90.2953852444
 20
143.4941184699
 40
6.9489945415
100
AcDbArc
 50
284.9304123791
 51
290.1554527271
  0
ARC
  5
2F5
100
AcDbEntity
  8
0
100
AcDbCircle
 62
7
  6
CONTINUOUS
 10
76.6901717629
 20
167.2906634222
 40
6.9488347541
100
AcDbArc
 50
129.897218733
 51
136.0659878289
  0
ARC
  5
2F6
100
AcDbEntity
  8
0
100
AcDbCircle
 62
7
  6
CONTINUOUS
 10
92.5863866347
 20
164.0869008041
 40
6.7303993475
100
AcDbArc
 50
271.0009945311
 51
275.7757803803
  0
ARC
  5
2F7
100
AcDbEntity
  8
0
100
AcDbCircle
 62
7
  6
CONTINUOUS
 10
167.6438185832
 20
174.666693777
 40
2.7999928129
100
AcDbArc
 50
348.4985817865
 51
348.9970290939
  0
ARC
  5
2F8
100
AcDbEntity
  8
0
100
AcDbCircle
 62
7
  6
CONTINUOUS
 10
167.7303422932
 20
174.6515601044
 40
2.7121717393
100
AcDbArc
 50
348.9619940211
 51
1.4060603593
  0
ARC
  5
2F9
100
AcDbEntity
  8
0
100
AcDbCircle
 62
7
  6
CONTINUOUS
 10
159.0827199446
 20
158.8962776761
 40
2.3531276388
100
AcDbArc
 50
59.8163957482
 51
63.195348946
  0
ARC
  5
2FA
100
AcDbEntity
  8
0
100
AcDbCircle
 62
7
  6
CONTINUOUS
 10
138.0097397884
 20
182.293056128
 40
1.6332762549
100
AcDbArc
 50
24.6546380486
 51
26.2918563034
  0
ARC
  5
2FB
100
AcDbEntity
  8
0
100
AcDbCircle
 62
7
  6
CONTINUOUS
 10
65.1781314092
 20
224.7084067848
 40
1.6332762551
100
AcDbArc
 50
24.6546380486
 51
26.2918563041
  0
ARC
  5
2FC
100
AcDbEntity
  8
0
100
AcDbCircle
 62
7
  6
CONTINUOUS
 10
133.254034943
 20
182.3132240769
 40
1.6289439484
100
AcDbArc
 50
153.3334091716
 51
155.2789538466
  0
ARC
  5
2FD
100
AcDbEntity
  8
0
100
AcDbCircle
 62
7
  6
CONTINUOUS
 10
60.422426564
 20
224.7285747337
 40
1.6289439485
100
AcDbArc
 50
153.3334091708
 51
155.2789538465
  0
ARC
  5
2FE
100
AcDbEntity
  8
0
100
AcDbCircle
 62
7
  6
CONTINUOUS
 10
133.1717116593
 20
182.3500019927
 40
1.5387849988
100
AcDbArc
 50
155.2409646681
 51
162.1216393507
  0
ARC
  5
2FF
100
AcDbEntity
  8
0
100
AcDbCircle
 62
7
  6
CONTINUOUS
 10
60.3401032803
 20
224.7653526496
 40
1.5387849988
100
AcDbArc
 50
155.2409646682
 51
162.1216393501
  0
ARC
  5
300
100
AcDbEntity
  8
0
100
AcDbCircle
 62
7
  6
CONTINUOUS
 10
81.4139288362
 20
140.6770230058
 40
0.5471565737
100
AcDbArc
 50
177.75284458
 51
180.0127419565
  0
SPLINE
  5
301
100
AcDbEntity
  8
0
100
AcDbSpline
 62
7
  6
CONTINUOUS
 70
0
 71
3
 72
11
 73
7
 74
0
 42
0.0000001
 43
0.0000001
 44
0.0000000001
 40
0.0
 40
0.0
 40
0.0
 40
0.0
 40
0.2182258353
 40
0.4515647843
 40
0.7108082384
 40
1.0
 40
1.0
 40
1.0
 40
1.0
 10
66.8002008834
 20
225.6027647247
 30
0.0
 10
66.7996002164
 20
225.4504054167
 30
0.0
 10
66.7426120408
 20
225.1332546224
 30
0.0
 10
66.5019775711
 20
224.6915297577
 30
0.0
 10
66.122462141
 20
224.2925310835
 30
0.0
 10
65.8050787702
 20
224.0738422365
 30
0.0
 10
65.630221619
 20
223.9728890159
 30
0.0
  0
SPLINE
  5
302
100
AcDbEntity
  8
0
100
AcDbSpline
 62
7
  6
CONTINUOUS
 70
0
 71
3
 72
11
 73
7
 74
0
 42
0.0000001
 43
0.0000001
 44
0.0000000001
 40
0.0
 40
0.0
 40
0.0
 40
0.0
 40
0.2182258353
 40
0.4515647843
 40
0.7108082384
 40
1.0
 40
1.0
 40
1.0
 40
1.0
 10
139.6318092625
 20
183.1874140678
 30
0.0
 10
139.6312085954
 20
183.0350547599
 30
0.0
 10
139.5742204199
 20
182.7179039655
 30
0.0
 10
139.3335859502
 20
182.2761791008
 30
0.0
 10
138.95407052
 20
181.8771804267
 30
0.0
 10
138.6366871492
 20
181.6584915797
 30
0.0
 10
138.4618299981
 20
181.557538359
 30
0.0
  0
SPLINE
  5
303
100
AcDbEntity
  8
0
100
AcDbSpline
 62
7
  6
CONTINUOUS
 70
0
 71
3
 72
11
 73
7
 74
0
 42
0.0000001
 43
0.0000001
 44
0.0000000001
 40
0.0
 40
0.0
 40
0.0
 40
0.0
 40
0.2182258353
 40
0.4515647843
 40
0.7108082384
 40
1.0
 40
1.0
 40
1.0
 40
1.0
 10
44.3570600817
 20
223.197921993
 30
0.0
 10
44.3563253947
 20
223.0115684965
 30
0.0
 10
44.2866220999
 20
222.6236554754
 30
0.0
 10
43.9922976151
 20
222.0833735974
 30
0.0
 10
43.5281052508
 20
221.5953509159
 30
0.0
 10
43.1399077611
 20
221.3278685295
 30
0.0
 10
42.9260367352
 20
221.2043907722
 30
0.0
  0
SPLINE
  5
304
100
AcDbEntity
  8
0
100
AcDbSpline
 62
7
  6
CONTINUOUS
 70
0
 71
3
 72
15
 73
11
 74
0
 42
0.0000001
 43
0.0000001
 44
0.0000000001
 40
0.0
 40
0.0
 40
0.0
 40
0.0
 40
0.1141193283
 40
0.2371918142
 40
0.3667661306
 40
0.4997265056
 40
0.632725052
 40
0.7624103966
 40
0.8856580162
 40
1.0
 40
1.0
 40
1.0
 40
1.0
 10
140.5448466745
 20
155.4665021648
 30
0.0
 10
140.157584191
 20
155.2429487504
 30
0.0
 10
139.3105534101
 20
154.8496758788
 30
0.0
 10
137.9317435981
 20
154.4312895572
 30
0.0
 10
136.4386274672
 20
154.1768887079
 30
0.0
 10
134.8877928882
 20
154.0924679814
 30
0.0
 10
133.3369717699
 20
154.1847361485
 30
0.0
 10
131.8438824146
 20
154.4466917128
 30
0.0
 10
130.4651351564
 20
154.8720483197
 30
0.0
 10
129.6183643257
 20
155.2694967485
 30
0.0
 10
129.231192025
 20
155.4949451014
 30
0.0
  0
SPLINE
  5
305
100
AcDbEntity
  8
0
100
AcDbSpline
 62
7
  6
CONTINUOUS
 70
0
 71
3
 72
11
 73
7
 74
0
 42
0.0000001
 43
0.0000001
 44
0.0000000001
 40
0.0
 40
0.0
 40
0.0
 40
0.0
 40
0.2491725754
 40
0.5117644421
 40
0.7680952369
 40
1.0
 40
1.0
 40
1.0
 40
1.0
 10
147.52076966
 20
157.5455078312
 30
0.0
 10
147.2206844091
 20
157.6592419742
 30
0.0
 10
146.5738685036
 20
157.8154658936
 30
0.0
 10
145.5796102426
 20
157.8539734729
 30
0.0
 10
144.618157503
 20
157.7057935207
 30
0.0
 10
144.0243701909
 20
157.4753555948
 30
0.0
 10
143.7656924721
 20
157.3260472531
 30
0.0
  0
SPLINE
  5
306
100
AcDbEntity
  8
0
100
AcDbSpline
 62
7
  6
CONTINUOUS
 70
0
 71
3
 72
11
 73
7
 74
0
 42
0.0000001
 43
0.0000001
 44
0.0000000001
 40
0.0
 40
0.0
 40
0.0
 40
0.0
 40
0.2182258353
 40
0.4515647843
 40
0.7108082384
 40
1.0
 40
1.0
 40
1.0
 40
1.0
 10
71.9341097331
 20
239.119443994
 30
0.0
 10
71.9333750461
 20
238.9330904975
 30
0.0
 10
71.8636717512
 20
238.5451774764
 30
0.0
 10
71.5693472664
 20
238.0048955984
 30
0.0
 10
71.1051549022
 20
237.5168729169
 30
0.0
 10
70.7169574125
 20
237.2493905305
 30
0.0
 10
70.5030863866
 20
237.1259127732
 30
0.0
  0
SPLINE
  5
307
100
AcDbEntity
  8
0
100
AcDbSpline
 62
7
  6
CONTINUOUS
 70
0
 71
3
 72
9
 73
5
 74
0
 42
0.0000001
 43
0.0000001
 44
0.0000000001
 40
0.0
 40
0.0
 40
0.0
 40
0.0
 40
0.4763737625
 40
1.0
 40
1.0
 40
1.0
 40
1.0
 10
160.2680334954
 20
161.5006220856
 30
0.0
 10
160.0921494364
 20
161.6030472823
 30
0.0
 10
159.6940295348
 20
161.7692014422
 30
0.0
 10
159.273034329
 20
161.8550295345
 30
0.0
 10
159.0508586955
 20
161.8812971297
 30
0.0
  0
SPLINE
  5
308
100
AcDbEntity
  8
0
100
AcDbSpline
 62
7
  6
CONTINUOUS
 70
0
 71
3
 72
11
 73
7
 74
0
 42
0.0000001
 43
0.0000001
 44
0.0000000001
 40
0.0
 40
0.0
 40
0.0
 40
0.0
 40
0.2182258353
 40
0.4515647843
 40
0.7108082384
 40
1.0
 40
1.0
 40
1.0
 40
1.0
 10
167.3930139193
 20
183.5265086671
 30
0.0
 10
167.3922792323
 20
183.3401551706
 30
0.0
 10
167.3225759375
 20
182.9522421495
 30
0.0
 10
167.0282514527
 20
182.4119602715
 30
0.0
 10
166.5640590884
 20
181.92393759
 30
0.0
 10
166.1758615987
 20
181.6564552035
 30
0.0
 10
165.9619905728
 20
181.5329774462
 30
0.0
  0
SPLINE
  5
309
100
AcDbEntity
  8
0
100
AcDbSpline
 62
7
  6
CONTINUOUS
 70
0
 71
3
 72
11
 73
7
 74
0
 42
0.0000001
 43
0.0000001
 44
0.0000000001
 40
0.0
 40
0.0
 40
0.0
 40
0.0
 40
0.2182258353
 40
0.4515647843
 40
0.7108082384
 40
1.0
 40
1.0
 40
1.0
 40
1.0
 10
139.815964268
 20
167.6049866661
 30
0.0
 10
139.815229581
 20
167.4186331696
 30
0.0
 10
139.7455262861
 20
167.0307201485
 30
0.0
 10
139.4512018013
 20
166.4904382705
 30
0.0
 10
138.987009437
 20
166.002415589
 30
0.0
 10
138.5988119473
 20
165.7349332025
 30
0.0
 10
138.3849409214
 20
165.6114554452
 30
0.0
  0
SPLINE
  5
30A
100
AcDbEntity
  8
0
100
AcDbSpline
 62
7
  6
CONTINUOUS
 70
0
 71
3
 72
11
 73
7
 74
0
 42
0.0000001
 43
0.0000001
 44
0.0000000001
 40
0.0
 40
0.0
 40
0.0
 40
0.0
 40
0.2889435763
 40
0.548316093
 40
0.7820169545
 40
1.0
 40
1.0
 40
1.0
 40
1.0
 10
167.9669422026
 20
186.6850228009
 30
0.0
 10
168.2980990817
 20
186.4921383073
 30
0.0
 10
168.899394511
 20
186.0750753313
 30
0.0
 10
169.6229603522
 20
185.3196901567
 30
0.0
 10
170.0874332785
 20
184.4851172231
 30
0.0
 10
170.2077363899
 20
183.8854151752
 30
0.0
 10
170.2151972614
 20
183.5963934153
 30
0.0
  0
SPLINE
  5
30B
100
AcDbEntity
  8
0
100
AcDbSpline
 62
7
  6
CONTINUOUS
 70
0
 71
3
 72
11
 73
7
 74
0
 42
0.0000001
 43
0.0000001
 44
0.0000000001
 40
0.0
 40
0.0
 40
0.0
 40
0.0
 40
0.2182074122
 40
0.4515445603
 40
0.7108704251
 40
1.0
 40
1.0
 40
1.0
 40
1.0
 10
45.3270665573
 20
236.9340308695
 30
0.0
 10
45.3266406556
 20
236.8320519559
 30
0.0
 10
45.2886310163
 20
236.6197476019
 30
0.0
 10
45.127474637
 20
236.3240411924
 30
0.0
 10
44.8733913312
 20
236.0569999854
 30
0.0
 10
44.6609585775
 20
235.9105671286
 30
0.0
 10
44.5439363213
 20
235.8430047007
 30
0.0
  0
SPLINE
  5
30C
100
AcDbEntity
  8
0
100
AcDbSpline
 62
7
  6
CONTINUOUS
 70
0
 71
3
 72
11
 73
7
 74
0
 42
0.0000001
 43
0.0000001
 44
0.0000000001
 40
0.0
 40
0.0
 40
0.0
 40
0.0
 40
0.2182258353
 40
0.4515647843
 40
0.7108082384
 40
1.0
 40
1.0
 40
1.0
 40
1.0
 10
56.7371696987
 20
235.3660654313
 30
0.0
 10
56.7365670494
 20
235.2132033293
 30
0.0
 10
56.6793908098
 20
234.8950059199
 30
0.0
 10
56.4379622331
 20
234.4518233389
 30
0.0
 10
56.0571943813
 20
234.0515079473
 30
0.0
 10
55.738763628
 20
233.8320974151
 30
0.0
 10
55.5633294387
 20
233.7308110433
 30
0.0
  0
SPLINE
  5
30D
100
AcDbEntity
  8
0
100
AcDbSpline
 62
7
  6
CONTINUOUS
 70
0
 71
3
 72
11
 73
7
 74
0
 42
0.0000001
 43
0.0000001
 44
0.0000000001
 40
0.0
 40
0.0
 40
0.0
 40
0.0
 40
0.2182258353
 40
0.4515647843
 40
0.7108082384
 40
1.0
 40
1.0
 40
1.0
 40
1.0
 10
159.9742068186
 20
175.243335374
 30
0.0
 10
159.9736041693
 20
175.090473272
 30
0.0
 10
159.9164279297
 20
174.7722758627
 30
0.0
 10
159.674999353
 20
174.3290932817
 30
0.0
 10
159.2942315012
 20
173.9287778901
 30
0.0
 10
158.9758007479
 20
173.7093673579
 30
0.0
 10
158.8003665586
 20
173.6080809861
 30
0.0
  0
SPLINE
  5
30E
100
AcDbEntity
  8
0
100
AcDbSpline
 62
7
  6
CONTINUOUS
 70
0
 71
3
 72
11
 73
7
 74
0
 42
0.0000001
 43
0.0000001
 44
0.0000000001
 40
0.0
 40
0.0
 40
0.0
 40
0.0
 40
0.2887989914
 40
0.5482928294
 40
0.7820361626
 40
1.0
 40
1.0
 40
1.0
 40
1.0
 10
156.7271607664
 20
168.3172594529
 30
0.0
 10
156.612167011
 20
168.3842327355
 30
0.0
 10
156.4031237044
 20
168.5289205782
 30
0.0
 10
156.1517425322
 20
168.7912957559
 30
0.0
 10
155.9894721198
 20
169.0807850386
 30
0.0
 10
155.9472467959
 20
169.2890450665
 30
0.0
 10
155.9442953715
 20
169.3894368108
 30
0.0
  0
SPLINE
  5
30F
100
AcDbEntity
  8
0
100
AcDbSpline
 62
7
  6
CONTINUOUS
 70
0
 71
3
 72
17
 73
13
 74
0
 42
0.0000001
 43
0.0000001
 44
0.0000000001
 40
0.0
 40
0.0
 40
0.0
 40
0.0
 40
0.1285517712
 40
0.2699766974
 40
0.4169938847
 40
0.5612454888
 40
0.6949006298
 40
0.8122458049
 40
0.8642904155
 40
0.9122349801
 40
0.9569939915
 40
1.0
 40
1.0
 40
1.0
 40
1.0
 10
151.3757762676
 20
169.3215173703
 30
0.0
 10
151.0788710107
 20
169.1501000635
 30
0.0
 10
150.4063968926
 20
168.8731778672
 30
0.0
 10
149.3102917446
 20
168.6560382616
 30
0.0
 10
148.1511517559
 20
168.6271978543
 30
0.0
 10
147.0237021149
 20
168.7898706707
 30
0.0
 10
146.0195059219
 20
169.1302950887
 30
0.0
 10
145.3218625398
 20
169.5599311775
 30
0.0
 10
144.9131368199
 20
169.9746859186
 30
0.0
 10
144.6962716376
 20
170.2972972455
 30
0.0
 10
144.5633071159
 20
170.637279033
 30
0.0
 10
144.5335540095
 20
170.8724346316
 30
0.0
 10
144.5340061767
 20
170.9871269427
 30
0.0
  0
SPLINE
  5
310
100
AcDbEntity
  8
0
100
AcDbSpline
 62
7
  6
CONTINUOUS
 70
0
 71
3
 72
17
 73
13
 74
0
 42
0.0000001
 43
0.0000001
 44
0.0000000001
 40
0.0
 40
0.0
 40
0.0
 40
0.0
 40
0.1285517712
 40
0.2699766974
 40
0.4169938847
 40
0.5612454888
 40
0.6949006298
 40
0.8122458049
 40
0.8642904155
 40
0.9122349801
 40
0.9569939915
 40
1.0
 40
1.0
 40
1.0
 40
1.0
 10
48.1387391477
 20
229.4442474276
 30
0.0
 10
47.8418338908
 20
229.2728301208
 30
0.0
 10
47.1693597727
 20
228.9959079244
 30
0.0
 10
46.0732546247
 20
228.7787683189
 30
0.0
 10
44.914114636
 20
228.7499279116
 30
0.0
 10
43.786664995
 20
228.912600728
 30
0.0
 10
42.782468802
 20
229.2530251459
 30
0.0
 10
42.0848254199
 20
229.6826612348
 30
0.0
 10
41.6760997
 20
230.0974159758
 30
0.0
 10
41.4592345177
 20
230.4200273028
 30
0.0
 10
41.326269996
 20
230.7600090903
 30
0.0
 10
41.2965168896
 20
230.9951646888
 30
0.0
 10
41.2969690569
 20
231.109857
 30
0.0
  0
SPLINE
  5
311
100
AcDbEntity
  8
0
100
AcDbSpline
 62
7
  6
CONTINUOUS
 70
0
 71
3
 72
16
 73
12
 74
0
 42
0.0000001
 43
0.0000001
 44
0.0000000001
 40
0.0
 40
0.0
 40
0.0
 40
0.0
 40
0.128603565
 40
0.2700942734
 40
0.4171695334
 40
0.5614842828
 40
0.6952005336
 40
0.8125974854
 40
0.9121954333
 40
0.956976259
 40
1.0
 40
1.0
 40
1.0
 40
1.0
 10
44.5439363213
 20
235.8430047007
 30
0.0
 10
44.3458506238
 20
235.7286405526
 30
0.0
 10
43.8971785541
 20
235.5438918577
 30
0.0
 10
43.1658964998
 20
235.3989754438
 30
0.0
 10
42.3924868314
 20
235.3797975973
 30
0.0
 10
41.6404286126
 20
235.4881243761
 30
0.0
 10
40.9698984242
 20
235.715896516
 30
0.0
 10
40.4331070244
 20
236.045514777
 30
0.0
 10
40.1212275344
 20
236.4077848759
 30
0.0
 10
39.9986974252
 20
236.7208551772
 30
0.0
 10
39.9788987273
 20
236.8777632437
 30
0.0
 10
39.9792183018
 20
236.9542829358
 30
0.0
  0
SPLINE
  5
312
100
AcDbEntity
  8
0
100
AcDbSpline
 62
7
  6
CONTINUOUS
 70
0
 71
3
 72
17
 73
13
 74
0
 42
0.0000001
 43
0.0000001
 44
0.0000000001
 40
0.0
 40
0.0
 40
0.0
 40
0.0
 40
0.1285517712
 40
0.2699766974
 40
0.4169938847
 40
0.5612454888
 40
0.6949006298
 40
0.8122458049
 40
0.8642904155
 40
0.9122349801
 40
0.9569939915
 40
1.0
 40
1.0
 40
1.0
 40
1.0
 10
138.3849409214
 20
165.6114554452
 30
0.0
 10
138.0229850669
 20
165.4024813826
 30
0.0
 10
137.2031749142
 20
165.0648867868
 30
0.0
 10
135.8669180908
 20
164.8001728767
 30
0.0
 10
134.4538157786
 20
164.7650136668
 30
0.0
 10
133.0793470257
 20
164.9633273607
 30
0.0
 10
131.8551359932
 20
165.3783372274
 30
0.0
 10
131.0046421047
 20
165.9021046381
 30
0.0
 10
130.50636643
 20
166.4077302651
 30
0.0
 10
130.2419870682
 20
166.8010242732
 30
0.0
 10
130.0798906217
 20
167.2154945311
 30
0.0
 10
130.0436187444
 20
167.5021716566
 30
0.0
 10
130.0441699795
 20
167.6419925339
 30
0.0
  0
SPLINE
  5
313
100
AcDbEntity
  8
0
100
AcDbSpline
 62
7
  6
CONTINUOUS
 70
0
 71
3
 72
17
 73
13
 74
0
 42
0.0000001
 43
0.0000001
 44
0.0000000001
 40
0.0
 40
0.0
 40
0.0
 40
0.0
 40
0.1285517712
 40
0.2699766974
 40
0.4169938847
 40
0.5612454888
 40
0.6949006298
 40
0.8122458049
 40
0.8642904155
 40
0.9122349801
 40
0.9569939915
 40
1.0
 40
1.0
 40
1.0
 40
1.0
 10
165.9619905728
 20
181.5329774462
 30
0.0
 10
165.6000347183
 20
181.3240033836
 30
0.0
 10
164.7802245656
 20
180.9864087878
 30
0.0
 10
163.4439677421
 20
180.7216948777
 30
0.0
 10
162.0308654299
 20
180.6865356678
 30
0.0
 10
160.6563966771
 20
180.8848493617
 30
0.0
 10
159.4321856446
 20
181.2998592284
 30
0.0
 10
158.5816917561
 20
181.8236266391
 30
0.0
 10
158.0834160814
 20
182.3292522661
 30
0.0
 10
157.8190367196
 20
182.7225462742
 30
0.0
 10
157.6569402731
 20
183.1370165321
 30
0.0
 10
157.6206683958
 20
183.4236936576
 30
0.0
 10
157.6212196308
 20
183.5635145349
 30
0.0
  0
SPLINE
  5
314
100
AcDbEntity
  8
0
100
AcDbSpline
 62
7
  6
CONTINUOUS
 70
0
 71
3
 72
17
 73
13
 74
0
 42
0.0000001
 43
0.0000001
 44
0.0000000001
 40
0.0
 40
0.0
 40
0.0
 40
0.0
 40
0.1285517712
 40
0.2699766974
 40
0.4169938847
 40
0.5612454888
 40
0.6949006298
 40
0.8122458049
 40
0.8642904155
 40
0.9122349801
 40
0.9569939915
 40
1.0
 40
1.0
 40
1.0
 40
1.0
 10
70.5030863866
 20
237.1259127732
 30
0.0
 10
70.141130532
 20
236.9169387105
 30
0.0
 10
69.3213203793
 20
236.5793441147
 30
0.0
 10
67.9850635559
 20
236.3146302046
 30
0.0
 10
66.5719612437
 20
236.2794709947
 30
0.0
 10
65.1974924909
 20
236.4777846887
 30
0.0
 10
63.9732814583
 20
236.8927945553
 30
0.0
 10
63.1227875698
 20
237.416561966
 30
0.0
 10
62.6245118952
 20
237.9221875931
 30
0.0
 10
62.3601325333
 20
238.3154816012
 30
0.0
 10
62.1980360869
 20
238.7299518591
 30
0.0
 10
62.1617642095
 20
239.0166289846
 30
0.0
 10
62.1623154446
 20
239.1564498619
 30
0.0
  0
SPLINE
  5
315
100
AcDbEntity
  8
0
100
AcDbSpline
 62
7
  6
CONTINUOUS
 70
0
 71
3
 72
17
 73
13
 74
0
 42
0.0000001
 43
0.0000001
 44
0.0000000001
 40
0.0
 40
0.0
 40
0.0
 40
0.0
 40
0.1285517712
 40
0.2699766974
 40
0.4169938847
 40
0.5612454888
 40
0.6949006298
 40
0.8122458049
 40
0.8642904155
 40
0.9122349801
 40
0.9569939915
 40
1.0
 40
1.0
 40
1.0
 40
1.0
 10
42.9260367352
 20
221.2043907722
 30
0.0
 10
42.5640808807
 20
220.9954167095
 30
0.0
 10
41.744270728
 20
220.6578221137
 30
0.0
 10
40.4080139046
 20
220.3931082036
 30
0.0
 10
38.9949115924
 20
220.3579489937
 30
0.0
 10
37.6204428395
 20
220.5562626877
 30
0.0
 10
36.396231807
 20
220.9712725543
 30
0.0
 10
35.5457379185
 20
221.495039965
 30
0.0
 10
35.0474622438
 20
222.0006655921
 30
0.0
 10
34.783082882
 20
222.3939596002
 30
0.0
 10
34.6209864355
 20
222.8084298581
 30
0.0
 10
34.5847145582
 20
223.0951069836
 30
0.0
 10
34.5852657932
 20
223.2349278609
 30
0.0
  0
SPLINE
  5
316
100
AcDbEntity
  8
0
100
AcDbSpline
 62
7
  6
CONTINUOUS
 70
0
 71
3
 72
17
 73
13
 74
0
 42
0.0000001
 43
0.0000001
 44
0.0000000001
 40
0.0
 40
0.0
 40
0.0
 40
0.0
 40
0.1285517712
 40
0.2699766974
 40
0.4169938847
 40
0.5612454888
 40
0.6949006298
 40
0.8122458049
 40
0.8642904155
 40
0.9122349801
 40
0.9569939915
 40
1.0
 40
1.0
 40
1.0
 40
1.0
 10
138.4618299981
 20
181.557538359
 30
0.0
 10
138.165901322
 20
181.3866848781
 30
0.0
 10
137.4956391061
 20
181.1106735343
 30
0.0
 10
136.4031392674
 20
180.8942481444
 30
0.0
 10
135.2478119223
 20
180.865502599
 30
0.0
 10
134.124070689
 20
181.0276403519
 30
0.0
 10
133.1231774983
 20
181.3669450457
 30
0.0
 10
132.4278288051
 20
181.7951679754
 30
0.0
 10
132.0204474659
 20
182.208558505
 30
0.0
 10
131.8042955967
 20
182.5301086987
 30
0.0
 10
131.6717684219
 20
182.868972218
 30
0.0
 10
131.6421131794
 20
183.1033543427
 30
0.0
 10
131.6425638594
 20
183.2176694079
 30
0.0
  0
SPLINE
  5
317
100
AcDbEntity
  8
0
100
AcDbSpline
 62
7
  6
CONTINUOUS
 70
0
 71
3
 72
17
 73
13
 74
0
 42
0.0000001
 43
0.0000001
 44
0.0000000001
 40
0.0
 40
0.0
 40
0.0
 40
0.0
 40
0.1285517712
 40
0.2699766974
 40
0.4169938847
 40
0.5612454888
 40
0.6949006298
 40
0.8122458049
 40
0.8642904155
 40
0.9122349801
 40
0.9569939915
 40
1.0
 40
1.0
 40
1.0
 40
1.0
 10
65.630221619
 20
223.9728890159
 30
0.0
 10
65.3342929429
 20
223.8020355349
 30
0.0
 10
64.664030727
 20
223.5260241911
 30
0.0
 10
63.5715308883
 20
223.3095988012
 30
0.0
 10
62.4162035432
 20
223.2808532558
 30
0.0
 10
61.2924623099
 20
223.4429910087
 30
0.0
 10
60.2915691192
 20
223.7822957026
 30
0.0
 10
59.596220426
 20
224.2105186322
 30
0.0
 10
59.1888390868
 20
224.6239091619
 30
0.0
 10
58.9726872176
 20
224.9454593556
 30
0.0
 10
58.8401600428
 20
225.2843228749
 30
0.0
 10
58.8105048003
 20
225.5187049996
 30
0.0
 10
58.8109554803
 20
225.6330200648
 30
0.0
  0
SPLINE
  5
318
100
AcDbEntity
  8
0
100
AcDbSpline
 62
7
  6
CONTINUOUS
 70
0
 71
3
 72
11
 73
7
 74
0
 42
0.0000001
 43
0.0000001
 44
0.0000000001
 40
0.0
 40
0.0
 40
0.0
 40
0.0
 40
0.2211807966
 40
0.4582945795
 40
0.717136648
 40
1.0
 40
1.0
 40
1.0
 40
1.0
 10
170.3875868949
 20
174.1083970782
 30
0.0
 10
170.3372181484
 20
173.8608546908
 30
0.0
 10
170.1621709092
 20
173.3604869514
 30
0.0
 10
169.7121666021
 20
172.668547839
 30
0.0
 10
169.0832752074
 20
172.0325054043
 30
0.0
 10
168.5792359867
 20
171.6689894914
 30
0.0
 10
168.3049640228
 20
171.4982704104
 30
0.0
  0
SPLINE
  5
319
100
AcDbEntity
  8
0
100
AcDbSpline
 62
7
  6
CONTINUOUS
 70
0
 71
3
 72
11
 73
7
 74
0
 42
0.0000001
 43
0.0000001
 44
0.0000000001
 40
0.0
 40
0.0
 40
0.0
 40
0.0
 40
0.2417239794
 40
0.4999973355
 40
0.7582516662
 40
1.0
 40
1.0
 40
1.0
 40
1.0
 10
137.8095210884
 20
165.4576965072
 30
0.0
 10
137.3718445015
 20
165.6456279623
 30
0.0
 10
136.4172169487
 20
165.9230667247
 30
0.0
 10
134.921882818
 20
166.0619166721
 30
0.0
 10
133.4255435913
 20
165.9336460184
 30
0.0
 10
132.4690129245
 20
165.6627294864
 30
0.0
 10
132.0300344383
 20
165.4777358787
 30
0.0
  0
SPLINE
  5
31A
100
AcDbEntity
  8
0
100
AcDbSpline
 62
7
  6
CONTINUOUS
 70
0
 71
3
 72
11
 73
7
 74
0
 42
0.0000001
 43
0.0000001
 44
0.0000000001
 40
0.0
 40
0.0
 40
0.0
 40
0.0
 40
0.2182258353
 40
0.4515647843
 40
0.7108082384
 40
1.0
 40
1.0
 40
1.0
 40
1.0
 10
58.8109554803
 20
225.6330200648
 30
0.0
 10
58.8115561473
 20
225.7853793727
 30
0.0
 10
58.8685443228
 20
226.102530167
 30
0.0
 10
59.1091787926
 20
226.5442550317
 30
0.0
 10
59.4886942227
 20
226.9432537059
 30
0.0
 10
59.8060775935
 20
227.1619425529
 30
0.0
 10
59.9809347446
 20
227.2628957735
 30
0.0
  0
SPLINE
  5
31B
100
AcDbEntity
  8
0
100
AcDbSpline
 62
7
  6
CONTINUOUS
 70
0
 71
3
 72
11
 73
7
 74
0
 42
0.0000001
 43
0.0000001
 44
0.0000000001
 40
0.0
 40
0.0
 40
0.0
 40
0.0
 40
0.2182258353
 40
0.4515647843
 40
0.7108082384
 40
1.0
 40
1.0
 40
1.0
 40
1.0
 10
130.0441699795
 20
167.6419925339
 30
0.0
 10
130.0449046665
 20
167.8283460304
 30
0.0
 10
130.1146079613
 20
168.2162590515
 30
0.0
 10
130.4089324461
 20
168.7565409295
 30
0.0
 10
130.8731248104
 20
169.244563611
 30
0.0
 10
131.2613223001
 20
169.5120459974
 30
0.0
 10
131.475193326
 20
169.6355237547
 30
0.0
  0
SPLINE
  5
31C
100
AcDbEntity
  8
0
100
AcDbSpline
 62
7
  6
CONTINUOUS
 70
0
 71
3
 72
11
 73
7
 74
0
 42
0.0000001
 43
0.0000001
 44
0.0000000001
 40
0.0
 40
0.0
 40
0.0
 40
0.0
 40
0.2417239794
 40
0.4999973355
 40
0.7582516662
 40
1.0
 40
1.0
 40
1.0
 40
1.0
 10
165.3865707397
 20
181.3792185082
 30
0.0
 10
164.9488941529
 20
181.5671499633
 30
0.0
 10
163.9942666
 20
181.8445887257
 30
0.0
 10
162.4989324693
 20
181.9834386731
 30
0.0
 10
161.0025932426
 20
181.8551680194
 30
0.0
 10
160.0460625758
 20
181.5842514874
 30
0.0
 10
159.6070840897
 20
181.3992578797
 30
0.0
  0
SPLINE
  5
31D
100
AcDbEntity
  8
0
100
AcDbSpline
 62
7
  6
CONTINUOUS
 70
0
 71
3
 72
9
 73
5
 74
0
 42
0.0000001
 43
0.0000001
 44
0.0000000001
 40
0.0
 40
0.0
 40
0.0
 40
0.0
 40
0.2470424256
 40
1.0
 40
1.0
 40
1.0
 40
1.0
 10
139.5688619593
 20
182.7773760746
 30
0.0
 10
139.5638508316
 20
182.7939952032
 30
0.0
 10
139.5423760206
 20
182.8609044595
 30
0.0
 10
139.5161908328
 20
182.9262891721
 30
0.0
 10
139.4941244968
 20
182.9743735008
 30
0.0
  0
SPLINE
  5
31E
100
AcDbEntity
  8
0
100
AcDbSpline
 62
7
  6
CONTINUOUS
 70
0
 71
3
 72
15
 73
11
 74
0
 42
0.0000001
 43
0.0000001
 44
0.0000000001
 40
0.0
 40
0.0
 40
0.0
 40
0.0
 40
0.2012790929
 40
0.2616144932
 40
0.3252965059
 40
0.4604446675
 40
0.6015619794
 40
0.7424747789
 40
0.8770323507
 40
1.0
 40
1.0
 40
1.0
 40
1.0
 10
139.4740526298
 20
183.0165056615
 30
0.0
 10
139.2573440926
 20
183.4552109979
 30
0.0
 10
138.7295985992
 20
183.8977482052
 30
0.0
 10
138.0238421079
 20
184.2458202696
 30
0.0
 10
137.4328344803
 20
184.4694377887
 30
0.0
 10
136.6238694231
 20
184.6555557339
 30
0.0
 10
135.60869129
 20
184.7296114696
 30
0.0
 10
134.5948954132
 20
184.6532831204
 30
0.0
 10
133.6479809103
 20
184.4318635757
 30
0.0
 10
133.0683435664
 20
184.182298636
 30
0.0
 10
132.8094577853
 20
184.0328317528
 30
0.0
  0
SPLINE
  5
31F
100
AcDbEntity
  8
0
100
AcDbSpline
 62
7
  6
CONTINUOUS
 70
0
 71
3
 72
11
 73
7
 74
0
 42
0.0000001
 43
0.0000001
 44
0.0000000001
 40
0.0
 40
0.0
 40
0.0
 40
0.0
 40
0.2182258353
 40
0.4515647843
 40
0.7108082384
 40
1.0
 40
1.0
 40
1.0
 40
1.0
 10
34.5852657932
 20
223.2349278609
 30
0.0
 10
34.5860004803
 20
223.4212813573
 30
0.0
 10
34.6557037751
 20
223.8091943784
 30
0.0
 10
34.9500282599
 20
224.3494762564
 30
0.0
 10
35.4142206242
 20
224.837498938
 30
0.0
 10
35.8024181139
 20
225.1049813244
 30
0.0
 10
36.0162891398
 20
225.2284590817
 30
0.0
  0
SPLINE
  5
320
100
AcDbEntity
  8
0
100
AcDbSpline
 62
7
  6
CONTINUOUS
 70
0
 71
3
 72
11
 73
7
 74
0
 42
0.0000001
 43
0.0000001
 44
0.0000000001
 40
0.0
 40
0.0
 40
0.0
 40
0.0
 40
0.2182258353
 40
0.4515647843
 40
0.7108082384
 40
1.0
 40
1.0
 40
1.0
 40
1.0
 10
144.5340061767
 20
170.9871269427
 30
0.0
 10
144.534608826
 20
171.1399890447
 30
0.0
 10
144.5917850656
 20
171.4581864541
 30
0.0
 10
144.8332136423
 20
171.901369035
 30
0.0
 10
145.2139814942
 20
172.3016844267
 30
0.0
 10
145.5324122475
 20
172.5210949588
 30
0.0
 10
145.7078464368
 20
172.6223813307
 30
0.0
  0
SPLINE
  5
321
100
AcDbEntity
  8
0
100
AcDbSpline
 62
7
  6
CONTINUOUS
 70
0
 71
3
 72
11
 73
7
 74
0
 42
0.0000001
 43
0.0000001
 44
0.0000000001
 40
0.0
 40
0.0
 40
0.0
 40
0.0
 40
0.2417239794
 40
0.4999973355
 40
0.7582516662
 40
1.0
 40
1.0
 40
1.0
 40
1.0
 10
69.9276665535
 20
236.9721538352
 30
0.0
 10
69.4899899666
 20
237.1600852903
 30
0.0
 10
68.5353624138
 20
237.4375240526
 30
0.0
 10
67.0400282831
 20
237.576374
 30
0.0
 10
65.5436890564
 20
237.4481033463
 30
0.0
 10
64.5871583896
 20
237.1771868143
 30
0.0
 10
64.1481799034
 20
236.9921932066
 30
0.0
  0
SPLINE
  5
322
100
AcDbEntity
  8
0
100
AcDbSpline
 62
7
  6
CONTINUOUS
 70
0
 71
3
 72
11
 73
7
 74
0
 42
0.0000001
 43
0.0000001
 44
0.0000000001
 40
0.0
 40
0.0
 40
0.0
 40
0.0
 40
0.2182258353
 40
0.4515647843
 40
0.7108082384
 40
1.0
 40
1.0
 40
1.0
 40
1.0
 10
62.1623154446
 20
239.1564498619
 30
0.0
 10
62.1630501316
 20
239.3428033583
 30
0.0
 10
62.2327534265
 20
239.7307163794
 30
0.0
 10
62.5270779113
 20
240.2709982574
 30
0.0
 10
62.9912702756
 20
240.7590209389
 30
0.0
 10
63.3794677652
 20
241.0265033254
 30
0.0
 10
63.5933387911
 20
241.1499810827
 30
0.0
  0
SPLINE
  5
323
100
AcDbEntity
  8
0
100
AcDbSpline
 62
7
  6
CONTINUOUS
 70
0
 71
3
 72
11
 73
7
 74
0
 42
0.0000001
 43
0.0000001
 44
0.0000000001
 40
0.0
 40
0.0
 40
0.0
 40
0.0
 40
0.2371027375
 40
0.49972399
 40
0.7624950165
 40
1.0
 40
1.0
 40
1.0
 40
1.0
 10
156.7271480701
 20
170.5102409456
 30
0.0
 10
156.9955355121
 20
170.6651935825
 30
0.0
 10
157.619960062
 20
170.8908586571
 30
0.0
 10
158.6183946583
 20
170.9971557361
 30
0.0
 10
159.616799856
 20
170.8857022199
 30
0.0
 10
160.2407953018
 20
170.6569444625
 30
0.0
 10
160.5090556003
 20
170.5007244276
 30
0.0
  0
SPLINE
  5
324
100
AcDbEntity
  8
0
100
AcDbSpline
 62
7
  6
CONTINUOUS
 70
0
 71
3
 72
9
 73
5
 74
0
 42
0.0000001
 43
0.0000001
 44
0.0000000001
 40
0.0
 40
0.0
 40
0.0
 40
0.0
 40
0.2470424256
 40
1.0
 40
1.0
 40
1.0
 40
1.0
 10
66.7372535802
 20
225.1927267315
 30
0.0
 10
66.7322424525
 20
225.20934586
 30
0.0
 10
66.7107676415
 20
225.2762551163
 30
0.0
 10
66.6845824537
 20
225.3416398289
 30
0.0
 10
66.6625161177
 20
225.3897241576
 30
0.0
  0
SPLINE
  5
325
100
AcDbEntity
  8
0
100
AcDbSpline
 62
7
  6
CONTINUOUS
 70
0
 71
3
 72
15
 73
11
 74
0
 42
0.0000001
 43
0.0000001
 44
0.0000000001
 40
0.0
 40
0.0
 40
0.0
 40
0.0
 40
0.2012790929
 40
0.2616144932
 40
0.3252965059
 40
0.4604446675
 40
0.6015619794
 40
0.7424747789
 40
0.8770323507
 40
1.0
 40
1.0
 40
1.0
 40
1.0
 10
66.6424442507
 20
225.4318563183
 30
0.0
 10
66.4257357135
 20
225.8705616547
 30
0.0
 10
65.8979902201
 20
226.313098862
 30
0.0
 10
65.1922337288
 20
226.6611709264
 30
0.0
 10
64.6012261012
 20
226.8847884455
 30
0.0
 10
63.7922610439
 20
227.0709063907
 30
0.0
 10
62.7770829109
 20
227.1449621265
 30
0.0
 10
61.7632870341
 20
227.0686337772
 30
0.0
 10
60.8163725312
 20
226.8472142325
 30
0.0
 10
60.2367351873
 20
226.5976492928
 30
0.0
 10
59.9778494062
 20
226.4481824096
 30
0.0
  0
SPLINE
  5
326
100
AcDbEntity
  8
0
100
AcDbSpline
 62
7
  6
CONTINUOUS
 70
0
 71
3
 72
17
 73
13
 74
0
 42
0.0000001
 43
0.0000001
 44
0.0000000001
 40
0.0
 40
0.0
 40
0.0
 40
0.0
 40
0.1285517712
 40
0.2699766974
 40
0.4169938847
 40
0.5612454888
 40
0.6949006298
 40
0.8122458049
 40
0.8642904155
 40
0.9122349801
 40
0.9569939915
 40
1.0
 40
1.0
 40
1.0
 40
1.0
 10
153.1324367277
 20
176.9089449464
 30
0.0
 10
153.4293419846
 20
177.0803622532
 30
0.0
 10
154.1018161027
 20
177.3572844496
 30
0.0
 10
155.1979212507
 20
177.5744240551
 30
0.0
 10
156.3570612394
 20
177.6032644624
 30
0.0
 10
157.4845108804
 20
177.440591646
 30
0.0
 10
158.4887070734
 20
177.100167228
 30
0.0
 10
159.1863504555
 20
176.6705311392
 30
0.0
 10
159.5950761754
 20
176.2557763982
 30
0.0
 10
159.8119413577
 20
175.9331650712
 30
0.0
 10
159.9449058794
 20
175.5931832837
 30
0.0
 10
159.9746589858
 20
175.3580276852
 30
0.0
 10
159.9742068186
 20
175.243335374
 30
0.0
  0
SPLINE
  5
327
100
AcDbEntity
  8
0
100
AcDbSpline
 62
7
  6
CONTINUOUS
 70
0
 71
3
 72
17
 73
13
 74
0
 42
0.0000001
 43
0.0000001
 44
0.0000000001
 40
0.0
 40
0.0
 40
0.0
 40
0.0
 40
0.1285517712
 40
0.2699766974
 40
0.4169938847
 40
0.5612454888
 40
0.6949006298
 40
0.8122458049
 40
0.8642904155
 40
0.9122349801
 40
0.9569939915
 40
1.0
 40
1.0
 40
1.0
 40
1.0
 10
49.8953996072
 20
237.0316750034
 30
0.0
 10
50.1923048641
 20
237.2030923102
 30
0.0
 10
50.8647789822
 20
237.4800145066
 30
0.0
 10
51.9608841303
 20
237.6971541123
 30
0.0
 10
53.120024119
 20
237.7259945197
 30
0.0
 10
54.2474737601
 20
237.5633217033
 30
0.0
 10
55.2516699533
 20
237.2228972854
 30
0.0
 10
55.9493133355
 20
236.7932611966
 30
0.0
 10
56.3580390554
 20
236.3785064555
 30
0.0
 10
56.5749042377
 20
236.0558951285
 30
0.0
 10
56.7078687595
 20
235.715913341
 30
0.0
 10
56.7376218659
 20
235.4807577424
 30
0.0
 10
56.7371696987
 20
235.3660654313
 30
0.0
  0
SPLINE
  5
328
100
AcDbEntity
  8
0
100
AcDbSpline
 62
7
  6
CONTINUOUS
 70
0
 71
3
 72
11
 73
7
 74
0
 42
0.0000001
 43
0.0000001
 44
0.0000000001
 40
0.0
 40
0.0
 40
0.0
 40
0.0
 40
0.2182258353
 40
0.4515647843
 40
0.7108082384
 40
1.0
 40
1.0
 40
1.0
 40
1.0
 10
157.6212196308
 20
183.5635145349
 30
0.0
 10
157.6219543178
 20
183.7498680314
 30
0.0
 10
157.6916576127
 20
184.1377810525
 30
0.0
 10
157.9859820975
 20
184.6780629305
 30
0.0
 10
158.4501744618
 20
185.166085612
 30
0.0
 10
158.8383719515
 20
185.4335679984
 30
0.0
 10
159.0522429774
 20
185.5570457557
 30
0.0
  0
SPLINE
  5
329
100
AcDbEntity
  8
0
100
AcDbSpline
 62
7
  6
CONTINUOUS
 70
0
 71
3
 72
16
 73
12
 74
0
 42
0.0000001
 43
0.0000001
 44
0.0000000001
 40
0.0
 40
0.0
 40
0.0
 40
0.0
 40
0.128603565
 40
0.2700942734
 40
0.4171695334
 40
0.5614842828
 40
0.6952005336
 40
0.8125974854
 40
0.9121954333
 40
0.956976259
 40
1.0
 40
1.0
 40
1.0
 40
1.0
 10
40.7623485378
 20
238.0453091046
 30
0.0
 10
40.9604342353
 20
238.1596732527
 30
0.0
 10
41.4091063049
 20
238.3444219476
 30
0.0
 10
42.1403883592
 20
238.4893383616
 30
0.0
 10
42.9137980277
 20
238.508516208
 30
0.0
 10
43.6658562464
 20
238.4001894292
 30
0.0
 10
44.3363864348
 20
238.1724172894
 30
0.0
 10
44.8731778347
 20
237.8427990284
 30
0.0
 10
45.1850573247
 20
237.4805289294
 30
0.0
 10
45.3075874339
 20
237.1674586281
 30
0.0
 10
45.3273861318
 20
237.0105505617
 30
0.0
 10
45.3270665573
 20
236.9340308695
 30
0.0
  0
SPLINE
  5
32A
100
AcDbEntity
  8
0
100
AcDbSpline
 62
7
  6
CONTINUOUS
 70
0
 71
3
 72
11
 73
7
 74
0
 42
0.0000001
 43
0.0000001
 44
0.0000000001
 40
0.0
 40
0.0
 40
0.0
 40
0.0
 40
0.2182074122
 40
0.4515445603
 40
0.7108704251
 40
1.0
 40
1.0
 40
1.0
 40
1.0
 10
39.9792183018
 20
236.9542829358
 30
0.0
 10
39.9796442034
 20
237.0562618495
 30
0.0
 10
40.0176538428
 20
237.2685662034
 30
0.0
 10
40.1788102221
 20
237.5642726129
 30
0.0
 10
40.4328935278
 20
237.8313138199
 30
0.0
 10
40.6453262816
 20
237.9777466768
 30
0.0
 10
40.7623485378
 20
238.0453091046
 30
0.0
  0
SPLINE
  5
32B
100
AcDbEntity
  8
0
100
AcDbSpline
 62
7
  6
CONTINUOUS
 70
0
 71
3
 72
17
 73
13
 74
0
 42
0.0000001
 43
0.0000001
 44
0.0000000001
 40
0.0
 40
0.0
 40
0.0
 40
0.0
 40
0.1285517712
 40
0.2699766974
 40
0.4169938847
 40
0.5612454888
 40
0.6949006298
 40
0.8122458049
 40
0.8642904155
 40
0.9122349801
 40
0.9569939915
 40
1.0
 40
1.0
 40
1.0
 40
1.0
 10
131.475193326
 20
169.6355237547
 30
0.0
 10
131.8371491805
 20
169.8444978174
 30
0.0
 10
132.6569593332
 20
170.1820924132
 30
0.0
 10
133.9932161566
 20
170.4468063233
 30
0.0
 10
135.4063184689
 20
170.4819655332
 30
0.0
 10
136.7807872217
 20
170.2836518392
 30
0.0
 10
138.0049982542
 20
169.8686419726
 30
0.0
 10
138.8554921427
 20
169.3448745619
 30
0.0
 10
139.3537678174
 20
168.8392489349
 30
0.0
 10
139.6181471792
 20
168.4459549268
 30
0.0
 10
139.7802436257
 20
168.0314846689
 30
0.0
 10
139.816515503
 20
167.7448075433
 30
0.0
 10
139.815964268
 20
167.6049866661
 30
0.0
  0
SPLINE
  5
32C
100
AcDbEntity
  8
0
100
AcDbSpline
 62
7
  6
CONTINUOUS
 70
0
 71
3
 72
11
 73
7
 74
0
 42
0.0000001
 43
0.0000001
 44
0.0000000001
 40
0.0
 40
0.0
 40
0.0
 40
0.0
 40
0.2182258353
 40
0.4515647843
 40
0.7108082384
 40
1.0
 40
1.0
 40
1.0
 40
1.0
 10
131.6425638594
 20
183.2176694079
 30
0.0
 10
131.6431645264
 20
183.3700287158
 30
0.0
 10
131.7001527019
 20
183.6871795102
 30
0.0
 10
131.9407871717
 20
184.1289043749
 30
0.0
 10
132.3203026018
 20
184.527903049
 30
0.0
 10
132.6376859726
 20
184.746591896
 30
0.0
 10
132.8125431237
 20
184.8475451167
 30
0.0
  0
SPLINE
  5
32D
100
AcDbEntity
  8
0
100
AcDbSpline
 62
7
  6
CONTINUOUS
 70
0
 71
3
 72
17
 73
13
 74
0
 42
0.0000001
 43
0.0000001
 44
0.0000000001
 40
0.0
 40
0.0
 40
0.0
 40
0.0
 40
0.1285517712
 40
0.2699766974
 40
0.4169938847
 40
0.5612454888
 40
0.6949006298
 40
0.8122458049
 40
0.8642904155
 40
0.9122349801
 40
0.9569939915
 40
1.0
 40
1.0
 40
1.0
 40
1.0
 10
159.0522429774
 20
185.5570457557
 30
0.0
 10
159.4141988319
 20
185.7660198184
 30
0.0
 10
160.2340089846
 20
186.1036144142
 30
0.0
 10
161.570265808
 20
186.3683283243
 30
0.0
 10
162.9833681202
 20
186.4034875342
 30
0.0
 10
164.357836873
 20
186.2051738402
 30
0.0
 10
165.5820479056
 20
185.7901639736
 30
0.0
 10
166.4325417941
 20
185.2663965629
 30
0.0
 10
166.9308174687
 20
184.7607709359
 30
0.0
 10
167.1951968306
 20
184.3674769277
 30
0.0
 10
167.3572932771
 20
183.9530066699
 30
0.0
 10
167.3935651544
 20
183.6663295443
 30
0.0
 10
167.3930139193
 20
183.5265086671
 30
0.0
  0
SPLINE
  5
32E
100
AcDbEntity
  8
0
100
AcDbSpline
 62
7
  6
CONTINUOUS
 70
0
 71
3
 72
11
 73
7
 74
0
 42
0.0000001
 43
0.0000001
 44
0.0000000001
 40
0.0
 40
0.0
 40
0.0
 40
0.0
 40
0.2182258353
 40
0.4515647843
 40
0.7108082384
 40
1.0
 40
1.0
 40
1.0
 40
1.0
 10
41.2969690569
 20
231.109857
 30
0.0
 10
41.2975717061
 20
231.262719102
 30
0.0
 10
41.3547479458
 20
231.5809165115
 30
0.0
 10
41.5961765226
 20
232.0240990925
 30
0.0
 10
41.9769443746
 20
232.4244144842
 30
0.0
 10
42.295375128
 20
232.6438250164
 30
0.0
 10
42.4708093173
 20
232.7451113883
 30
0.0
  0
SPLINE
  5
32F
100
AcDbEntity
  8
0
100
AcDbSpline
 62
7
  6
CONTINUOUS
 70
0
 71
3
 72
17
 73
13
 74
0
 42
0.0000001
 43
0.0000001
 44
0.0000000001
 40
0.0
 40
0.0
 40
0.0
 40
0.0
 40
0.1285517712
 40
0.2699766974
 40
0.4169938847
 40
0.5612454888
 40
0.6949006298
 40
0.8122458049
 40
0.8642904155
 40
0.9122349801
 40
0.9569939915
 40
1.0
 40
1.0
 40
1.0
 40
1.0
 10
63.5933387911
 20
241.1499810827
 30
0.0
 10
63.9552946457
 20
241.3589551453
 30
0.0
 10
64.7751047984
 20
241.6965497411
 30
0.0
 10
66.1113616218
 20
241.9612636512
 30
0.0
 10
67.524463934
 20
241.9964228611
 30
0.0
 10
68.8989326868
 20
241.7981091672
 30
0.0
 10
70.1231437193
 20
241.3830993005
 30
0.0
 10
70.9736376078
 20
240.8593318898
 30
0.0
 10
71.4719132825
 20
240.3537062628
 30
0.0
 10
71.7362926444
 20
239.9604122547
 30
0.0
 10
71.8983890908
 20
239.5459419968
 30
0.0
 10
71.9346609682
 20
239.2592648713
 30
0.0
 10
71.9341097331
 20
239.119443994
 30
0.0
  0
SPLINE
  5
330
100
AcDbEntity
  8
0
100
AcDbSpline
 62
7
  6
CONTINUOUS
 70
0
 71
3
 72
17
 73
13
 74
0
 42
0.0000001
 43
0.0000001
 44
0.0000000001
 40
0.0
 40
0.0
 40
0.0
 40
0.0
 40
0.1285517712
 40
0.2699766974
 40
0.4169938847
 40
0.5612454888
 40
0.6949006298
 40
0.8122458049
 40
0.8642904155
 40
0.9122349801
 40
0.9569939915
 40
1.0
 40
1.0
 40
1.0
 40
1.0
 10
36.0162891398
 20
225.2284590817
 30
0.0
 10
36.3782449943
 20
225.4374331443
 30
0.0
 10
37.198055147
 20
225.7750277401
 30
0.0
 10
38.5343119704
 20
226.0397416502
 30
0.0
 10
39.9474142826
 20
226.0749008602
 30
0.0
 10
41.3218830355
 20
225.8765871662
 30
0.0
 10
42.546094068
 20
225.4615772995
 30
0.0
 10
43.3965879565
 20
224.9378098888
 30
0.0
 10
43.8948636312
 20
224.4321842618
 30
0.0
 10
44.159242993
 20
224.0388902537
 30
0.0
 10
44.3213394395
 20
223.6244199958
 30
0.0
 10
44.3576113168
 20
223.3377428703
 30
0.0
 10
44.3570600817
 20
223.197921993
 30
0.0
  0
SPLINE
  5
331
100
AcDbEntity
  8
0
100
AcDbSpline
 62
7
  6
CONTINUOUS
 70
0
 71
3
 72
11
 73
7
 74
0
 42
0.0000001
 43
0.0000001
 44
0.0000000001
 40
0.0
 40
0.0
 40
0.0
 40
0.0
 40
0.2417239794
 40
0.4999973355
 40
0.7582516662
 40
1.0
 40
1.0
 40
1.0
 40
1.0
 10
42.3506169021
 20
221.0506318342
 30
0.0
 10
41.9129403153
 20
221.2385632893
 30
0.0
 10
40.9583127624
 20
221.5160020517
 30
0.0
 10
39.4629786317
 20
221.654851999
 30
0.0
 10
37.966639405
 20
221.5265813453
 30
0.0
 10
37.0101087383
 20
221.2556648133
 30
0.0
 10
36.5711302521
 20
221.0706712056
 30
0.0
  0
SPLINE
  5
332
100
AcDbEntity
  8
0
100
AcDbSpline
 62
7
  6
CONTINUOUS
 70
0
 71
3
 72
17
 73
13
 74
0
 42
0.0000001
 43
0.0000001
 44
0.0000000001
 40
0.0
 40
0.0
 40
0.0
 40
0.0
 40
0.1285517712
 40
0.2699766974
 40
0.4169938847
 40
0.5612454888
 40
0.6949006298
 40
0.8122458049
 40
0.8642904155
 40
0.9122349801
 40
0.9569939915
 40
1.0
 40
1.0
 40
1.0
 40
1.0
 10
132.8125431237
 20
184.8475451167
 30
0.0
 10
133.1084717998
 20
185.0183985976
 30
0.0
 10
133.7787340158
 20
185.2944099414
 30
0.0
 10
134.8712338545
 20
185.5108353314
 30
0.0
 10
136.0265611996
 20
185.5395808768
 30
0.0
 10
137.1503024329
 20
185.3774431238
 30
0.0
 10
138.1511956235
 20
185.03813843
 30
0.0
 10
138.8465443168
 20
184.6099155003
 30
0.0
 10
139.253925656
 20
184.1965249707
 30
0.0
 10
139.4700775252
 20
183.874974777
 30
0.0
 10
139.6026047
 20
183.5361112577
 30
0.0
 10
139.6322599425
 20
183.301729133
 30
0.0
 10
139.6318092625
 20
183.1874140678
 30
0.0
  0
SPLINE
  5
333
100
AcDbEntity
  8
0
100
AcDbSpline
 62
7
  6
CONTINUOUS
 70
0
 71
3
 72
17
 73
13
 74
0
 42
0.0000001
 43
0.0000001
 44
0.0000000001
 40
0.0
 40
0.0
 40
0.0
 40
0.0
 40
0.1285517712
 40
0.2699766974
 40
0.4169938847
 40
0.5612454888
 40
0.6949006298
 40
0.8122458049
 40
0.8642904155
 40
0.9122349801
 40
0.9569939915
 40
1.0
 40
1.0
 40
1.0
 40
1.0
 10
59.9809347446
 20
227.2628957735
 30
0.0
 10
60.2768634207
 20
227.4337492545
 30
0.0
 10
60.9471256367
 20
227.7097605983
 30
0.0
 10
62.0396254754
 20
227.9261859882
 30
0.0
 10
63.1949528205
 20
227.9549315336
 30
0.0
 10
64.3186940537
 20
227.7927937807
 30
0.0
 10
65.3195872444
 20
227.4534890868
 30
0.0
 10
66.0149359377
 20
227.0252661572
 30
0.0
 10
66.4223172768
 20
226.6118756275
 30
0.0
 10
66.6384691461
 20
226.2903254338
 30
0.0
 10
66.7709963209
 20
225.9514619145
 30
0.0
 10
66.8006515634
 20
225.7170797898
 30
0.0
 10
66.8002008834
 20
225.6027647247
 30
0.0
  0
SPLINE
  5
334
100
AcDbEntity
  8
0
100
AcDbSpline
 62
7
  6
CONTINUOUS
 70
0
 71
3
 72
11
 73
7
 74
0
 42
0.0000001
 43
0.0000001
 44
0.0000000001
 40
0.0
 40
0.0
 40
0.0
 40
0.0
 40
0.2491673964
 40
0.5117610036
 40
0.7680965452
 40
1.0
 40
1.0
 40
1.0
 40
1.0
 10
147.5286499994
 20
166.638540061
 30
0.0
 10
147.2285452031
 20
166.7522800286
 30
0.0
 10
146.5816899345
 20
166.9085464957
 30
0.0
 10
145.5873459093
 20
166.9471069249
 30
0.0
 10
144.6258013465
 20
166.7989341383
 30
0.0
 10
144.0319562667
 20
166.5684825763
 30
0.0
 10
143.7732578669
 20
166.4191631458
 30
0.0
  0
SPLINE
  5
335
100
AcDbEntity
  8
0
100
AcDbSpline
 62
7
  6
CONTINUOUS
 70
0
 71
3
 72
11
 73
7
 74
0
 42
0.0000001
 43
0.0000001
 44
0.0000000001
 40
0.0
 40
0.0
 40
0.0
 40
0.0
 40
0.218327008
 40
0.4511511374
 40
0.7101880746
 40
1.0
 40
1.0
 40
1.0
 40
1.0
 10
155.9442953715
 20
169.3894368108
 30
0.0
 10
155.9412339054
 20
169.4935715928
 30
0.0
 10
155.9739216153
 20
169.7114691071
 30
0.0
 10
156.1331516125
 20
170.0162223442
 30
0.0
 10
156.3904905173
 20
170.2910892404
 30
0.0
 10
156.6073848453
 20
170.4410960282
 30
0.0
 10
156.7271480701
 20
170.5102409456
 30
0.0
  0
SPLINE
  5
336
100
AcDbEntity
  8
0
100
AcDbSpline
 62
7
  6
CONTINUOUS
 70
0
 71
3
 72
11
 73
7
 74
0
 42
0.0000001
 43
0.0000001
 44
0.0000000001
 40
0.0
 40
0.0
 40
0.0
 40
0.0
 40
0.2183198582
 40
0.4512272299
 40
0.7102003538
 40
1.0
 40
1.0
 40
1.0
 40
1.0
 10
170.2151972614
 20
183.5963934153
 30
0.0
 10
170.2228991381
 20
183.298035512
 30
0.0
 10
170.1264167943
 20
182.6742452407
 30
0.0
 10
169.6695577339
 20
181.8016903963
 30
0.0
 10
168.9309744275
 20
181.0154365205
 30
0.0
 10
168.3100216216
 20
180.5854135214
 30
0.0
 10
167.9669357266
 20
180.3873061923
 30
0.0
  0
SPLINE
  5
337
100
AcDbEntity
  8
0
100
AcDbSpline
 62
7
  6
CONTINUOUS
 70
0
 71
3
 72
15
 73
11
 74
0
 42
0.0000001
 43
0.0000001
 44
0.0000000001
 40
0.0
 40
0.0
 40
0.0
 40
0.0
 40
0.1141193283
 40
0.2371918142
 40
0.3667661306
 40
0.4997265056
 40
0.632725052
 40
0.7624103966
 40
0.8856580162
 40
1.0
 40
1.0
 40
1.0
 40
1.0
 10
140.5326422646
 20
164.5482040237
 30
0.0
 10
140.1485176002
 20
164.3264619651
 30
0.0
 10
139.3083499403
 20
163.9363756121
 30
0.0
 10
137.9407120232
 20
163.5213792925
 30
0.0
 10
136.4596939613
 20
163.2690397423
 30
0.0
 10
134.9214251187
 20
163.1853030401
 30
0.0
 10
133.3831696279
 20
163.2768235985
 30
0.0
 10
131.9021781246
 20
163.5366566511
 30
0.0
 10
130.5346022544
 20
163.9585667788
 30
0.0
 10
129.6946924386
 20
164.3527948562
 30
0.0
 10
129.3106572263
 20
164.5764164995
 30
0.0
  0
SPLINE
  5
338
100
AcDbEntity
  8
0
100
AcDbSpline
 62
7
  6
CONTINUOUS
 70
0
 71
3
 72
9
 73
5
 74
0
 42
0.0000001
 43
0.0000001
 44
0.0000000001
 40
0.0
 40
0.0
 40
0.0
 40
0.0
 40
0.2780264889
 40
1.0
 40
1.0
 40
1.0
 40
1.0
 10
132.8094577853
 20
184.0328317528
 30
0.0
 10
132.6951431571
 20
183.9668325654
 30
0.0
 10
132.2979417433
 20
183.7091882041
 30
0.0
 10
131.9521646543
 20
183.3506172279
 30
0.0
 10
131.7983564938
 20
183.0442908587
 30
0.0
  0
SPLINE
  5
339
100
AcDbEntity
  8
0
100
AcDbSpline
 62
7
  6
CONTINUOUS
 70
0
 71
3
 72
9
 73
5
 74
0
 42
0.0000001
 43
0.0000001
 44
0.0000000001
 40
0.0
 40
0.0
 40
0.0
 40
0.0
 40
0.2780264889
 40
1.0
 40
1.0
 40
1.0
 40
1.0
 10
59.9778494062
 20
226.4481824096
 30
0.0
 10
59.863534778
 20
226.3821832222
 30
0.0
 10
59.4663333643
 20
226.124538861
 30
0.0
 10
59.1205562752
 20
225.7659678847
 30
0.0
 10
58.9667481147
 20
225.4596415156
 30
0.0
  0
SPLINE
  5
33A
100
AcDbEntity
  8
0
100
AcDbSpline
 62
7
  6
CONTINUOUS
 70
0
 71
3
 72
11
 73
7
 74
0
 42
0.0000001
 43
0.0000001
 44
0.0000000001
 40
0.0
 40
0.0
 40
0.0
 40
0.0
 40
0.2900261359
 40
0.5494106927
 40
0.7824667672
 40
1.0
 40
1.0
 40
1.0
 40
1.0
 10
98.3408788832
 20
117.7759502066
 30
0.0
 10
98.7825703054
 20
117.5187223186
 30
0.0
 10
99.6610811122
 20
117.0965791578
 30
0.0
 10
101.0124800268
 20
116.7657038704
 30
0.0
 10
102.2806674963
 20
116.7943512714
 30
0.0
 10
103.0442821949
 20
117.0707061333
 30
0.0
 10
103.3762970078
 20
117.262387968
 30
0.0
  0
SPLINE
  5
33B
100
AcDbEntity
  8
0
100
AcDbSpline
 62
7
  6
CONTINUOUS
 70
0
 71
3
 72
15
 73
11
 74
0
 42
0.0000001
 43
0.0000001
 44
0.0000000001
 40
0.0
 40
0.0
 40
0.0
 40
0.0
 40
0.1139250135
 40
0.236939395
 40
0.3664692877
 40
0.4994547001
 40
0.6325159534
 40
0.7622673429
 40
0.8856308115
 40
1.0
 40
1.0
 40
1.0
 40
1.0
 10
58.0604092393
 20
149.4068976188
 30
0.0
 10
58.0582971073
 20
148.8485620519
 30
0.0
 10
58.1567231499
 20
147.6858766982
 30
0.0
 10
58.559461193
 20
145.93073156
 30
0.0
 10
59.2087917186
 20
144.1514675631
 30
0.0
 10
60.0799586268
 20
142.4149342283
 30
0.0
 10
61.1407180344
 20
140.7859881625
 30
0.0
 10
62.3512954004
 20
139.3252238612
 30
0.0
 10
63.6663756581
 20
138.0878458327
 30
0.0
 10
64.6226752656
 20
137.4126114655
 30
0.0
 10
65.1070381665
 20
137.1305276908
 30
0.0
  0
SPLINE
  5
33C
100
AcDbEntity
  8
0
100
AcDbSpline
 62
7
  6
CONTINUOUS
 70
0
 71
3
 72
10
 73
6
 74
0
 42
0.0000001
 43
0.0000001
 44
0.0000000001
 40
0.0
 40
0.0
 40
0.0
 40
0.0
 40
0.4222768582
 40
0.722224769
 40
1.0
 40
1.0
 40
1.0
 40
1.0
 10
81.4225685471
 20
154.3125885891
 30
0.0
 10
81.4461200699
 20
154.3261391721
 30
0.0
 10
81.5014029135
 20
154.2931601046
 30
0.0
 10
81.5326079753
 20
154.2405035292
 30
0.0
 10
81.5433473022
 20
154.203036834
 30
0.0
 10
81.5432796152
 20
154.1851634265
 30
0.0
  0
SPLINE
  5
33D
100
AcDbEntity
  8
0
100
AcDbSpline
 62
7
  6
CONTINUOUS
 70
0
 71
3
 72
11
 73
7
 74
0
 42
0.0000001
 43
0.0000001
 44
0.0000000001
 40
0.0
 40
0.0
 40
0.0
 40
0.0
 40
0.232708952
 40
0.4729198348
 40
0.7272023164
 40
1.0
 40
1.0
 40
1.0
 40
1.0
 10
70.4897970304
 20
173.3649769418
 30
0.0
 10
70.0268596797
 20
173.0975828481
 30
0.0
 10
69.1452780607
 20
172.4442827399
 30
0.0
 10
68.045505123
 20
171.1709432816
 30
0.0
 10
67.1761785629
 20
169.6258339539
 30
0.0
 10
66.7727233214
 20
168.4776593041
 30
0.0
 10
66.6081501483
 20
167.8729434059
 30
0.0
  0
SPLINE
  5
33E
100
AcDbEntity
  8
0
100
AcDbSpline
 62
7
  6
CONTINUOUS
 70
0
 71
3
 72
11
 73
7
 74
0
 42
0.0000001
 43
0.0000001
 44
0.0000000001
 40
0.0
 40
0.0
 40
0.0
 40
0.0
 40
0.2895481327
 40
0.5487041384
 40
0.7819842862
 40
1.0
 40
1.0
 40
1.0
 40
1.0
 10
107.5576170101
 20
120.5804539122
 30
0.0
 10
107.5551398981
 20
119.9270586646
 30
0.0
 10
107.4517854661
 20
118.6849597893
 30
0.0
 10
106.9420501397
 20
116.9792468317
 30
0.0
 10
106.0908865843
 20
115.5949805493
 30
0.0
 10
105.293208992
 20
114.9261406492
 30
0.0
 10
104.8671490773
 20
114.6801410758
 30
0.0
  0
SPLINE
  5
33F
100
AcDbEntity
  8
0
100
AcDbSpline
 62
7
  6
CONTINUOUS
 70
0
 71
3
 72
9
 73
5
 74
0
 42
0.0000001
 43
0.0000001
 44
0.0000000001
 40
0.0
 40
0.0
 40
0.0
 40
0.0
 40
0.2484452038
 40
1.0
 40
1.0
 40
1.0
 40
1.0
 10
71.1975746577
 20
172.1391746864
 30
0.0
 10
71.3251209713
 20
172.2128130273
 30
0.0
 10
71.8482452095
 20
172.4920950567
 30
0.0
 10
72.4088150446
 20
172.7004374728
 30
0.0
 10
72.8392641843
 20
172.8153328847
 30
0.0
  0
SPLINE
  5
340
100
AcDbEntity
  8
0
100
AcDbSpline
 62
7
  6
CONTINUOUS
 70
0
 71
3
 72
10
 73
6
 74
0
 42
0.0000001
 43
0.0000001
 44
0.0000000001
 40
0.0
 40
0.0
 40
0.0
 40
0.0
 40
0.2382423199
 40
0.4815807991
 40
1.0
 40
1.0
 40
1.0
 40
1.0
 10
74.7937624827
 20
165.7940880716
 30
0.0
 10
74.5579179882
 20
165.6579364755
 30
0.0
 10
74.1055055663
 20
165.3377803645
 30
0.0
 10
73.3027886907
 20
164.5174691549
 30
0.0
 10
72.8646110053
 20
163.7436173624
 30
0.0
 10
72.6418442283
 20
163.1945039602
 30
0.0
  0
SPLINE
  5
341
100
AcDbEntity
  8
0
100
AcDbSpline
 62
7
  6
CONTINUOUS
 70
0
 71
3
 72
9
 73
5
 74
0
 42
0.0000001
 43
0.0000001
 44
0.0000000001
 40
0.0
 40
0.0
 40
0.0
 40
0.0
 40
0.2661613579
 40
1.0
 40
1.0
 40
1.0
 40
1.0
 10
159.1542963177
 20
158.5090351983
 30
0.0
 10
159.2526236919
 20
158.4948588999
 30
0.0
 10
159.6193269795
 20
158.4265696144
 30
0.0
 10
159.9776319615
 20
158.2969397554
 30
0.0
 10
160.2137847079
 20
158.1581775332
 30
0.0
  0
SPLINE
  5
342
100
AcDbEntity
  8
0
100
AcDbSpline
 62
7
  6
CONTINUOUS
 70
0
 71
3
 72
11
 73
7
 74
0
 42
0.0000001
 43
0.0000001
 44
0.0000000001
 40
0.0
 40
0.0
 40
0.0
 40
0.0
 40
0.2092154469
 40
0.4392172631
 40
0.7027812881
 40
1.0
 40
1.0
 40
1.0
 40
1.0
 10
84.3768003323
 20
176.0290415821
 30
0.0
 10
84.4006267329
 20
176.0428552113
 30
0.0
 10
84.4574514432
 20
176.0610461108
 30
0.0
 10
84.5513764546
 20
176.054697291
 30
0.0
 10
84.6499385998
 20
176.0181128024
 30
0.0
 10
84.7126291808
 20
175.9781791067
 30
0.0
 10
84.7437421357
 20
175.9544553099
 30
0.0
  0
SPLINE
  5
343
100
AcDbEntity
  8
0
100
AcDbSpline
 62
7
  6
CONTINUOUS
 70
0
 71
3
 72
11
 73
7
 74
0
 42
0.0000001
 43
0.0000001
 44
0.0000000001
 40
0.0
 40
0.0
 40
0.0
 40
0.0
 40
0.2023240788
 40
0.4302886038
 40
0.6971686472
 40
1.0
 40
1.0
 40
1.0
 40
1.0
 10
85.6713171505
 20
167.5607205459
 30
0.0
 10
85.698887317
 20
167.5766340668
 30
0.0
 10
85.7667265302
 20
167.5957625341
 30
0.0
 10
85.8774609178
 20
167.5792503141
 30
0.0
 10
85.9917360349
 20
167.5243012053
 30
0.0
 10
86.0627240918
 20
167.468490119
 30
0.0
 10
86.0974814795
 20
167.4358995787
 30
0.0
  0
SPLINE
  5
344
100
AcDbEntity
  8
0
100
AcDbSpline
 62
7
  6
CONTINUOUS
 70
0
 71
3
 72
12
 73
8
 74
0
 42
0.0000001
 43
0.0000001
 44
0.0000000001
 40
0.0
 40
0.0
 40
0.0
 40
0.0
 40
0.1834120748
 40
0.2926241584
 40
0.4155904744
 40
0.6962922913
 40
1.0
 40
1.0
 40
1.0
 40
1.0
 10
97.6046600456
 20
159.0003771508
 30
0.0
 10
97.6494448016
 20
159.0262968052
 30
0.0
 10
97.7394670426
 20
159.0362687267
 30
0.0
 10
97.8514797712
 20
159.0009128689
 30
0.0
 10
97.978960083
 20
158.9302883336
 30
0.0
 10
98.1243838603
 20
158.7891602418
 30
0.0
 10
98.2121992906
 20
158.6475912721
 30
0.0
 10
98.2480175111
 20
158.5697544513
 30
0.0
  0
SPLINE
  5
345
100
AcDbEntity
  8
0
100
AcDbSpline
 62
7
  6
CONTINUOUS
 70
0
 71
3
 72
9
 73
5
 74
0
 42
0.0000001
 43
0.0000001
 44
0.0000000001
 40
0.0
 40
0.0
 40
0.0
 40
0.0
 40
0.4558224012
 40
1.0
 40
1.0
 40
1.0
 40
1.0
 10
96.4463900263
 20
140.7337524989
 30
0.0
 10
96.482821496
 20
140.754798278
 30
0.0
 10
96.5793780406
 20
140.7731809034
 30
0.0
 10
96.6695727044
 20
140.7431147406
 30
0.0
 10
96.714667508
 20
140.7209924209
 30
0.0
  0
SPLINE
  5
346
100
AcDbEntity
  8
0
100
AcDbSpline
 62
7
  6
CONTINUOUS
 70
0
 71
3
 72
11
 73
7
 74
0
 42
0.0000001
 43
0.0000001
 44
0.0000000001
 40
0.0
 40
0.0
 40
0.0
 40
0.0
 40
0.1983855435
 40
0.4254907027
 40
0.6942655338
 40
1.0
 40
1.0
 40
1.0
 40
1.0
 10
90.39987839
 20
145.3740129373
 30
0.0
 10
90.4300504099
 20
145.3914549767
 30
0.0
 10
90.505994841
 20
145.4107545243
 30
0.0
 10
90.6281420862
 20
145.3858326944
 30
0.0
 10
90.7526873985
 20
145.3170199543
 30
0.0
 10
90.8285750357
 20
145.2492779927
 30
0.0
 10
90.865324874
 20
145.2101103988
 30
0.0
  0
SPLINE
  5
347
100
AcDbEntity
  8
0
100
AcDbSpline
 62
7
  6
CONTINUOUS
 70
0
 71
3
 72
9
 73
5
 74
0
 42
0.0000001
 43
0.0000001
 44
0.0000000001
 40
0.0
 40
0.0
 40
0.0
 40
0.0
 40
0.4402259358
 40
1.0
 40
1.0
 40
1.0
 40
1.0
 10
80.0568428121
 20
144.0662549315
 30
0.0
 10
80.1036245707
 20
144.0931104821
 30
0.0
 10
80.237139031
 20
144.1053259329
 30
0.0
 10
80.3487569446
 20
144.0454214014
 30
0.0
 10
80.4047300879
 20
144.0057768346
 30
0.0
  0
SPLINE
  5
348
100
AcDbEntity
  8
0
100
AcDbSpline
 62
7
  6
CONTINUOUS
 70
0
 71
3
 72
11
 73
7
 74
0
 42
0.0000001
 43
0.0000001
 44
0.0000000001
 40
0.0
 40
0.0
 40
0.0
 40
0.0
 40
0.1843582638
 40
0.4148449258
 40
0.6952622142
 40
1.0
 40
1.0
 40
1.0
 40
1.0
 10
68.4577973833
 20
150.8107330021
 30
0.0
 10
68.5019722791
 20
150.8360670828
 30
0.0
 10
68.6257022182
 20
150.8504575176
 30
0.0
 10
68.8036397069
 20
150.7648899538
 30
0.0
 10
68.9696052939
 20
150.6092738464
 30
0.0
 10
69.0575578947
 20
150.4712791586
 30
0.0
 10
69.0940093492
 20
150.3954057311
 30
0.0
  0
SPLINE
  5
349
100
AcDbEntity
  8
0
100
AcDbSpline
 62
7
  6
CONTINUOUS
 70
0
 71
3
 72
9
 73
5
 74
0
 42
0.0000001
 43
0.0000001
 44
0.0000000001
 40
0.0
 40
0.0
 40
0.0
 40
0.0
 40
0.4454271442
 40
1.0
 40
1.0
 40
1.0
 40
1.0
 10
67.1558547818
 20
165.3336890756
 30
0.0
 10
67.1987689268
 20
165.3584805852
 30
0.0
 10
67.3183862999
 20
165.3737248064
 30
0.0
 10
67.422663108
 20
165.3254256827
 30
0.0
 10
67.4748993888
 20
165.2925801469
 30
0.0
  0
SPLINE
  5
34A
100
AcDbEntity
  8
0
100
AcDbSpline
 62
7
  6
CONTINUOUS
 70
0
 71
3
 72
14
 73
10
 74
0
 42
0.0000001
 43
0.0000001
 44
0.0000000001
 40
0.0
 40
0.0
 40
0.0
 40
0.0
 40
0.1080463963
 40
0.2181288697
 40
0.3321032235
 40
0.4515021907
 40
0.5774503923
 40
0.710717544
 40
1.0
 40
1.0
 40
1.0
 40
1.0
 10
66.1170267762
 20
180.8227251012
 30
0.0
 10
65.6135018068
 20
180.5320178795
 30
0.0
 10
64.6453287023
 20
179.8566040759
 30
0.0
 10
63.3662529431
 20
178.5976200571
 30
0.0
 10
62.2660612697
 20
177.1035002783
 30
0.0
 10
61.3552458985
 20
175.3909468859
 30
0.0
 10
60.6405036885
 20
173.4772455562
 30
0.0
 10
59.9380254557
 20
170.6052893752
 30
0.0
 10
59.7562921585
 20
168.3202880419
 30
0.0
 10
59.7562921585
 20
166.7636019371
 30
0.0
  0
SPLINE
  5
34B
100
AcDbEntity
  8
0
100
AcDbSpline
 62
7
  6
CONTINUOUS
 70
0
 71
3
 72
11
 73
7
 74
0
 42
0.0000001
 43
0.0000001
 44
0.0000000001
 40
0.0
 40
0.0
 40
0.0
 40
0.0
 40
0.3050521047
 40
0.5851901964
 40
0.8152088492
 40
1.0
 40
1.0
 40
1.0
 40
1.0
 10
71.9713425925
 20
174.777573382
 30
0.0
 10
72.0181715895
 20
174.7086043498
 30
0.0
 10
72.0909555291
 20
174.5640120295
 30
0.0
 10
72.1412370839
 20
174.3445216979
 30
0.0
 10
72.1246612602
 20
174.1507031766
 30
0.0
 10
72.0518520396
 20
174.050649887
 30
0.0
 10
72.0077001231
 20
174.0261378971
 30
0.0
  0
SPLINE
  5
34C
100
AcDbEntity
  8
0
100
AcDbSpline
 62
7
  6
CONTINUOUS
 70
0
 71
3
 72
9
 73
5
 74
0
 42
0.0000001
 43
0.0000001
 44
0.0000000001
 40
0.0
 40
0.0
 40
0.0
 40
0.0
 40
0.2745771142
 40
1.0
 40
1.0
 40
1.0
 40
1.0
 10
66.6081501483
 20
167.8729434059
 30
0.0
 10
66.6035246435
 20
167.8559790709
 30
0.0
 10
66.5825150745
 20
167.7956416136
 30
0.0
 10
66.5389729734
 20
167.7414601473
 30
0.0
 10
66.4987472597
 20
167.7182225042
 30
0.0
  0
SPLINE
  5
34D
100
AcDbEntity
  8
0
100
AcDbSpline
 62
7
  6
CONTINUOUS
 70
0
 71
3
 72
11
 73
7
 74
0
 42
0.0000001
 43
0.0000001
 44
0.0000000001
 40
0.0
 40
0.0
 40
0.0
 40
0.0
 40
0.2062080863
 40
0.4362652813
 40
0.7008313113
 40
1.0
 40
1.0
 40
1.0
 40
1.0
 10
67.2241489044
 20
179.8112903086
 30
0.0
 10
67.2501174738
 20
179.8244504815
 30
0.0
 10
67.3118260915
 20
179.8399429518
 30
0.0
 10
67.4115603243
 20
179.8267561878
 30
0.0
 10
67.5153789441
 20
179.7819079058
 30
0.0
 10
67.5807601968
 20
179.7355393768
 30
0.0
 10
67.6129789717
 20
179.7082276706
 30
0.0
  0
SPLINE
  5
34E
100
AcDbEntity
  8
0
100
AcDbSpline
 62
7
  6
CONTINUOUS
 70
0
 71
3
 72
9
 73
5
 74
0
 42
0.0000001
 43
0.0000001
 44
0.0000000001
 40
0.0
 40
0.0
 40
0.0
 40
0.0
 40
0.4880409352
 40
1.0
 40
1.0
 40
1.0
 40
1.0
 10
67.6129789717
 20
179.7082276706
 30
0.0
 10
68.4290968113
 20
179.0117170994
 30
0.0
 10
69.9929512787
 20
177.4548204256
 30
0.0
 10
71.3391900323
 20
175.7087865709
 30
0.0
 10
71.9713425925
 20
174.777573382
 30
0.0
  0
SPLINE
  5
34F
100
AcDbEntity
  8
0
100
AcDbSpline
 62
7
  6
CONTINUOUS
 70
0
 71
3
 72
9
 73
5
 74
0
 42
0.0000001
 43
0.0000001
 44
0.0000000001
 40
0.0
 40
0.0
 40
0.0
 40
0.0
 40
0.255436448
 40
1.0
 40
1.0
 40
1.0
 40
1.0
 10
73.4027811612
 20
172.4249267098
 30
0.0
 10
73.6569428872
 20
171.9568647161
 30
0.0
 10
74.5991836083
 20
170.0966491872
 30
0.0
 10
75.3319700571
 20
168.1276106424
 30
0.0
 10
75.7267878308
 20
166.6261462333
 30
0.0
  0
SPLINE
  5
350
100
AcDbEntity
  8
0
100
AcDbSpline
 62
7
  6
CONTINUOUS
 70
0
 71
3
 72
11
 73
7
 74
0
 42
0.0000001
 43
0.0000001
 44
0.0000000001
 40
0.0
 40
0.0
 40
0.0
 40
0.0
 40
0.3040887176
 40
0.5714965761
 40
0.7990659688
 40
1.0
 40
1.0
 40
1.0
 40
1.0
 10
75.7267878308
 20
166.6261462333
 30
0.0
 10
75.7395380111
 20
166.5776147286
 30
0.0
 10
75.7555609051
 20
166.4839519816
 30
0.0
 10
75.7488031195
 20
166.3509159728
 30
0.0
 10
75.7083153536
 20
166.2408053764
 30
0.0
 10
75.6559281736
 20
166.1888123031
 30
0.0
 10
75.6272384577
 20
166.1721911918
 30
0.0
  0
SPLINE
  5
351
100
AcDbEntity
  8
0
100
AcDbSpline
 62
7
  6
CONTINUOUS
 70
0
 71
3
 72
10
 73
6
 74
0
 42
0.0000001
 43
0.0000001
 44
0.0000000001
 40
0.0
 40
0.0
 40
0.0
 40
0.0
 40
0.4204556395
 40
0.6989310875
 40
1.0
 40
1.0
 40
1.0
 40
1.0
 10
72.8392641843
 20
172.8153328847
 30
0.0
 10
72.9367202823
 20
172.8412202093
 30
0.0
 10
73.1172856661
 20
172.7680146941
 30
0.0
 10
73.2879666338
 20
172.6044915944
 30
0.0
 10
73.3682991307
 20
172.4883647218
 30
0.0
 10
73.4027811612
 20
172.4249267098
 30
0.0
  0
SPLINE
  5
352
100
AcDbEntity
  8
0
100
AcDbSpline
 62
7
  6
CONTINUOUS
 70
0
 71
3
 72
11
 73
7
 74
0
 42
0.0000001
 43
0.0000001
 44
0.0000000001
 40
0.0
 40
0.0
 40
0.0
 40
0.0
 40
0.2184598853
 40
0.4553105475
 40
0.7153274974
 40
1.0
 40
1.0
 40
1.0
 40
1.0
 10
69.3232576931
 20
180.6109144161
 30
0.0
 10
70.2631034739
 20
180.8542742853
 30
0.0
 10
72.299495406
 20
181.0868867058
 30
0.0
 10
75.4770262961
 20
180.6919614223
 30
0.0
 10
78.7920381876
 20
179.5966744443
 30
0.0
 10
80.9468202957
 20
178.4715804392
 30
0.0
 10
82.0276537495
 20
177.8141166428
 30
0.0
  0
SPLINE
  5
353
100
AcDbEntity
  8
0
100
AcDbSpline
 62
7
  6
CONTINUOUS
 70
0
 71
3
 72
9
 73
5
 74
0
 42
0.0000001
 43
0.0000001
 44
0.0000000001
 40
0.0
 40
0.0
 40
0.0
 40
0.0
 40
0.4785798339
 40
1.0
 40
1.0
 40
1.0
 40
1.0
 10
82.0276537495
 20
177.8141166428
 30
0.0
 10
82.1044818218
 20
177.7669636437
 30
0.0
 10
82.2437788935
 20
177.6340562317
 30
0.0
 10
82.3404385127
 20
177.4695899818
 30
0.0
 10
82.3777086641
 20
177.3787230107
 30
0.0
  0
SPLINE
  5
354
100
AcDbEntity
  8
0
100
AcDbSpline
 62
7
  6
CONTINUOUS
 70
0
 71
3
 72
9
 73
5
 74
0
 42
0.0000001
 43
0.0000001
 44
0.0000000001
 40
0.0
 40
0.0
 40
0.0
 40
0.0
 40
0.5157616302
 40
1.0
 40
1.0
 40
1.0
 40
1.0
 10
82.3777086641
 20
177.3787230107
 30
0.0
 10
82.7926231882
 20
176.3589496588
 30
0.0
 10
83.4759064957
 20
174.3297210337
 30
0.0
 10
83.8736375558
 20
172.2229951293
 30
0.0
 10
83.9794189083
 20
171.194761539
 30
0.0
  0
SPLINE
  5
355
100
AcDbEntity
  8
0
100
AcDbSpline
 62
7
  6
CONTINUOUS
 70
0
 71
3
 72
9
 73
5
 74
0
 42
0.0000001
 43
0.0000001
 44
0.0000000001
 40
0.0
 40
0.0
 40
0.0
 40
0.0
 40
0.272282741
 40
1.0
 40
1.0
 40
1.0
 40
1.0
 10
84.0578349955
 20
168.8965815059
 30
0.0
 10
84.0411819655
 20
168.4815960066
 30
0.0
 10
83.914358035
 20
166.963407843
 30
0.0
 10
83.4955073953
 20
165.4508110036
 30
0.0
 10
82.9709899366
 20
164.4725511966
 30
0.0
  0
SPLINE
  5
356
100
AcDbEntity
  8
0
100
AcDbSpline
 62
7
  6
CONTINUOUS
 70
0
 71
3
 72
9
 73
5
 74
0
 42
0.0000001
 43
0.0000001
 44
0.0000000001
 40
0.0
 40
0.0
 40
0.0
 40
0.0
 40
0.2341489519
 40
1.0
 40
1.0
 40
1.0
 40
1.0
 10
75.0184022374
 20
172.9573431567
 30
0.0
 10
75.3553669956
 20
172.9669158644
 30
0.0
 10
76.7969931164
 20
172.9216749756
 30
0.0
 10
78.2167075146
 20
172.5515446299
 30
0.0
 10
79.2453641161
 20
172.1546095604
 30
0.0
  0
SPLINE
  5
357
100
AcDbEntity
  8
0
100
AcDbSpline
 62
7
  6
CONTINUOUS
 70
0
 71
3
 72
9
 73
5
 74
0
 42
0.0000001
 43
0.0000001
 44
0.0000000001
 40
0.0
 40
0.0
 40
0.0
 40
0.0
 40
0.2351667298
 40
1.0
 40
1.0
 40
1.0
 40
1.0
 10
79.2453641161
 20
172.1546095604
 30
0.0
 10
79.6212264324
 20
172.0096036665
 30
0.0
 10
81.1934768232
 20
171.3257660686
 30
0.0
 10
82.6543790451
 20
170.4003395916
 30
0.0
 10
83.6992133493
 20
169.6097473993
 30
0.0
  0
SPLINE
  5
358
100
AcDbEntity
  8
0
100
AcDbSpline
 62
7
  6
CONTINUOUS
 70
0
 71
3
 72
9
 73
5
 74
0
 42
0.0000001
 43
0.0000001
 44
0.0000000001
 40
0.0
 40
0.0
 40
0.0
 40
0.0
 40
0.5120999355
 40
1.0
 40
1.0
 40
1.0
 40
1.0
 10
83.6992133493
 20
169.6097473993
 30
0.0
 10
83.8104793176
 20
169.5254602627
 30
0.0
 10
83.9817258921
 20
169.3024424302
 30
0.0
 10
84.0630796367
 20
169.029468388
 30
0.0
 10
84.0578349955
 20
168.8965815059
 30
0.0
  0
SPLINE
  5
359
100
AcDbEntity
  8
0
100
AcDbSpline
 62
7
  6
CONTINUOUS
 70
0
 71
3
 72
10
 73
6
 74
0
 42
0.0000001
 43
0.0000001
 44
0.0000000001
 40
0.0
 40
0.0
 40
0.0
 40
0.0
 40
0.2359548107
 40
0.4840630091
 40
1.0
 40
1.0
 40
1.0
 40
1.0
 10
84.7437421357
 20
175.9544553099
 30
0.0
 10
85.8921427587
 20
175.0793544623
 30
0.0
 10
88.1373697507
 20
173.134762458
 30
0.0
 10
92.3092197679
 20
168.6485603427
 30
0.0
 10
94.9699669469
 20
164.7575234725
 30
0.0
 10
96.5059972688
 20
161.9993368366
 30
0.0
  0
SPLINE
  5
35A
100
AcDbEntity
  8
0
100
AcDbSpline
 62
7
  6
CONTINUOUS
 70
0
 71
3
 72
9
 73
5
 74
0
 42
0.0000001
 43
0.0000001
 44
0.0000000001
 40
0.0
 40
0.0
 40
0.0
 40
0.0
 40
0.542190856
 40
1.0
 40
1.0
 40
1.0
 40
1.0
 10
96.5059972688
 20
161.9993368366
 30
0.0
 10
96.552347443
 20
161.9155713336
 30
0.0
 10
96.6178763822
 20
161.7494557236
 30
0.0
 10
96.6287540101
 20
161.566911276
 30
0.0
 10
96.6106611414
 20
161.4881272936
 30
0.0
  0
SPLINE
  5
35B
100
AcDbEntity
  8
0
100
AcDbSpline
 62
7
  6
CONTINUOUS
 70
0
 71
3
 72
9
 73
5
 74
0
 42
0.0000001
 43
0.0000001
 44
0.0000000001
 40
0.0
 40
0.0
 40
0.0
 40
0.0
 40
0.5267458275
 40
1.0
 40
1.0
 40
1.0
 40
1.0
 10
96.6106611414
 20
161.4881272936
 30
0.0
 10
96.4336143177
 20
160.7353689073
 30
0.0
 10
95.9380878454
 20
159.3334961761
 30
0.0
 10
95.0361915662
 20
158.1349260116
 30
0.0
 10
94.5226406571
 20
157.6669839538
 30
0.0
  0
SPLINE
  5
35C
100
AcDbEntity
  8
0
100
AcDbSpline
 62
7
  6
CONTINUOUS
 70
0
 71
3
 72
9
 73
5
 74
0
 42
0.0000001
 43
0.0000001
 44
0.0000000001
 40
0.0
 40
0.0
 40
0.0
 40
0.0
 40
0.2432183065
 40
1.0
 40
1.0
 40
1.0
 40
1.0
 10
86.0974814795
 20
167.4358995787
 30
0.0
 10
86.4579671059
 20
167.097977961
 30
0.0
 10
87.9021535691
 20
165.6684044951
 30
0.0
 10
89.1971435139
 20
164.0901244931
 30
0.0
 10
90.0892428636
 20
162.8379895365
 30
0.0
  0
SPLINE
  5
35D
100
AcDbEntity
  8
0
100
AcDbSpline
 62
7
  6
CONTINUOUS
 70
0
 71
3
 72
9
 73
5
 74
0
 42
0.0000001
 43
0.0000001
 44
0.0000000001
 40
0.0
 40
0.0
 40
0.0
 40
0.0
 40
0.2494900631
 40
1.0
 40
1.0
 40
1.0
 40
1.0
 10
90.0892428636
 20
162.8379895365
 30
0.0
 10
90.3934514346
 20
162.4110443967
 30
0.0
 10
91.5723890416
 20
160.6713670781
 30
0.0
 10
92.5914414136
 20
158.8232449344
 30
0.0
 10
93.2548242449
 20
157.3925640058
 30
0.0
  0
SPLINE
  5
35E
100
AcDbEntity
  8
0
100
AcDbSpline
 62
7
  6
CONTINUOUS
 70
0
 71
3
 72
11
 73
7
 74
0
 42
0.0000001
 43
0.0000001
 44
0.0000000001
 40
0.0
 40
0.0
 40
0.0
 40
0.0
 40
0.3084337785
 40
0.5823063092
 40
0.8094905833
 40
1.0
 40
1.0
 40
1.0
 40
1.0
 10
93.2548242449
 20
157.3925640058
 30
0.0
 10
93.283370069
 20
157.3309318637
 30
0.0
 10
93.3260551424
 20
157.2087325361
 30
0.0
 10
93.3444132994
 20
157.0295961096
 30
0.0
 10
93.3125885849
 20
156.876673693
 30
0.0
 10
93.248431643
 20
156.8026271119
 30
0.0
 10
93.2121242301
 20
156.7816071965
 30
0.0
  0
SPLINE
  5
35F
100
AcDbEntity
  8
0
100
AcDbSpline
 62
7
  6
CONTINUOUS
 70
0
 71
3
 72
11
 73
7
 74
0
 42
0.0000001
 43
0.0000001
 44
0.0000000001
 40
0.0
 40
0.0
 40
0.0
 40
0.0
 40
0.2666574049
 40
0.5245961151
 40
0.7700524434
 40
1.0
 40
1.0
 40
1.0
 40
1.0
 10
98.2480175111
 20
158.5697544513
 30
0.0
 10
98.8797618846
 20
157.1977812432
 30
0.0
 10
100.0002433437
 20
154.4401113587
 30
0.0
 10
101.2464960659
 20
150.2526013178
 30
0.0
 10
102.0097533291
 20
146.1614481904
 30
0.0
 10
102.1901367938
 20
143.4659425342
 30
0.0
 10
102.1852042402
 20
142.1634541946
 30
0.0
  0
SPLINE
  5
360
100
AcDbEntity
  8
0
100
AcDbSpline
 62
7
  6
CONTINUOUS
 70
0
 71
3
 72
9
 73
5
 74
0
 42
0.0000001
 43
0.0000001
 44
0.0000000001
 40
0.0
 40
0.0
 40
0.0
 40
0.0
 40
0.5480539468
 40
1.0
 40
1.0
 40
1.0
 40
1.0
 10
102.1779621871
 20
141.6310344171
 30
0.0
 10
102.1764440248
 20
141.5763151949
 30
0.0
 10
102.1601395168
 20
141.4745912131
 30
0.0
 10
102.0919477867
 20
141.3920653299
 30
0.0
 10
102.0528366418
 20
141.3695260324
 30
0.0
  0
SPLINE
  5
361
100
AcDbEntity
  8
0
100
AcDbSpline
 62
7
  6
CONTINUOUS
 70
0
 71
3
 72
9
 73
5
 74
0
 42
0.0000001
 43
0.0000001
 44
0.0000000001
 40
0.0
 40
0.0
 40
0.0
 40
0.0
 40
0.5165996962
 40
1.0
 40
1.0
 40
1.0
 40
1.0
 10
90.3145526367
 20
154.2496594744
 30
0.0
 10
90.9234488371
 20
154.18259599
 30
0.0
 10
92.1213992126
 20
154.1747443486
 30
0.0
 10
93.2860132851
 20
154.475013239
 30
0.0
 10
93.8147433105
 20
154.6964068619
 30
0.0
  0
SPLINE
  5
362
100
AcDbEntity
  8
0
100
AcDbSpline
 62
7
  6
CONTINUOUS
 70
0
 71
3
 72
11
 73
7
 74
0
 42
0.0000001
 43
0.0000001
 44
0.0000000001
 40
0.0
 40
0.0
 40
0.0
 40
0.0
 40
0.1850671933
 40
0.4221398327
 40
0.7046362291
 40
1.0
 40
1.0
 40
1.0
 40
1.0
 10
93.8147433105
 20
154.6964068619
 30
0.0
 10
93.8661913746
 20
154.717959451
 30
0.0
 10
94.0042030757
 20
154.7137314793
 30
0.0
 10
94.1892989563
 20
154.6008378838
 30
0.0
 10
94.3555957162
 20
154.4165793037
 30
0.0
 10
94.4372124295
 20
154.2600363333
 30
0.0
 10
94.4673495071
 20
154.1762686633
 30
0.0
  0
SPLINE
  5
363
100
AcDbEntity
  8
0
100
AcDbSpline
 62
7
  6
CONTINUOUS
 70
0
 71
3
 72
9
 73
5
 74
0
 42
0.0000001
 43
0.0000001
 44
0.0000000001
 40
0.0
 40
0.0
 40
0.0
 40
0.0
 40
0.2588626581
 40
1.0
 40
1.0
 40
1.0
 40
1.0
 10
94.4673495071
 20
154.1762686633
 30
0.0
 10
94.6391539664
 20
153.6989110828
 30
0.0
 10
95.2578760061
 20
151.839332159
 30
0.0
 10
95.6946558268
 20
149.9164932491
 30
0.0
 10
95.8855907147
 20
148.4765755198
 30
0.0
  0
SPLINE
  5
364
100
AcDbEntity
  8
0
100
AcDbSpline
 62
7
  6
CONTINUOUS
 70
0
 71
3
 72
9
 73
5
 74
0
 42
0.0000001
 43
0.0000001
 44
0.0000000001
 40
0.0
 40
0.0
 40
0.0
 40
0.0
 40
0.2648681877
 40
1.0
 40
1.0
 40
1.0
 40
1.0
 10
95.8855907147
 20
148.4765755198
 30
0.0
 10
95.9455570734
 20
148.0245233522
 30
0.0
 10
96.1219893998
 20
146.3123559086
 30
0.0
 10
96.0911743709
 20
144.5728428381
 30
0.0
 10
95.9085496034
 20
143.3204430434
 30
0.0
  0
SPLINE
  5
365
100
AcDbEntity
  8
0
100
AcDbSpline
 62
7
  6
CONTINUOUS
 70
0
 71
3
 72
9
 73
5
 74
0
 42
0.0000001
 43
0.0000001
 44
0.0000000001
 40
0.0
 40
0.0
 40
0.0
 40
0.0
 40
0.2715311558
 40
1.0
 40
1.0
 40
1.0
 40
1.0
 10
96.714667508
 20
140.7209924209
 30
0.0
 10
97.1032810985
 20
140.5301658959
 30
0.0
 10
98.561692624
 20
139.8901383877
 30
0.0
 10
100.158474409
 20
139.5198543202
 30
0.0
 10
101.3198993606
 20
139.5071849532
 30
0.0
  0
SPLINE
  5
366
100
AcDbEntity
  8
0
100
AcDbSpline
 62
7
  6
CONTINUOUS
 70
0
 71
3
 72
11
 73
7
 74
0
 42
0.0000001
 43
0.0000001
 44
0.0000000001
 40
0.0
 40
0.0
 40
0.0
 40
0.0
 40
0.2091311331
 40
0.4754051167
 40
0.7564636462
 40
1.0
 40
1.0
 40
1.0
 40
1.0
 10
101.3198993606
 20
139.5071849532
 30
0.0
 10
101.3997384218
 20
139.5063551626
 30
0.0
 10
101.5763483718
 20
139.4263422402
 30
0.0
 10
101.7742713263
 20
139.2117340361
 30
0.0
 10
101.9105684806
 20
138.938190601
 30
0.0
 10
101.9393431406
 20
138.7324706831
 30
0.0
 10
101.9254624546
 20
138.6405338256
 30
0.0
  0
SPLINE
  5
367
100
AcDbEntity
  8
0
100
AcDbSpline
 62
7
  6
CONTINUOUS
 70
0
 71
3
 72
11
 73
7
 74
0
 42
0.0000001
 43
0.0000001
 44
0.0000000001
 40
0.0
 40
0.0
 40
0.0
 40
0.0
 40
0.2799496632
 40
0.5360334924
 40
0.7732581444
 40
1.0
 40
1.0
 40
1.0
 40
1.0
 10
101.9254624546
 20
138.6405338256
 30
0.0
 10
101.7622439847
 20
137.5563702131
 30
0.0
 10
101.2902860408
 20
135.4982031341
 30
0.0
 10
100.0547264294
 20
132.7094695925
 30
0.0
 10
98.3416895233
 20
130.4349884459
 30
0.0
 10
96.8875895862
 20
129.3022373475
 30
0.0
 10
96.1186101151
 20
128.8581479338
 30
0.0
  0
SPLINE
  5
368
100
AcDbEntity
  8
0
100
AcDbSpline
 62
7
  6
CONTINUOUS
 70
0
 71
3
 72
9
 73
5
 74
0
 42
0.0000001
 43
0.0000001
 44
0.0000000001
 40
0.0
 40
0.0
 40
0.0
 40
0.0
 40
0.2608574962
 40
1.0
 40
1.0
 40
1.0
 40
1.0
 10
90.865324874
 20
145.2101103988
 30
0.0
 10
91.1778135232
 20
144.8767464285
 30
0.0
 10
92.408233832
 20
143.6302383267
 30
0.0
 10
93.7720559577
 20
142.5107833249
 30
0.0
 10
94.8513809967
 20
141.7957222792
 30
0.0
  0
SPLINE
  5
369
100
AcDbEntity
  8
0
100
AcDbSpline
 62
7
  6
CONTINUOUS
 70
0
 71
3
 72
11
 73
7
 74
0
 42
0.0000001
 43
0.0000001
 44
0.0000000001
 40
0.0
 40
0.0
 40
0.0
 40
0.0
 40
0.2530391869
 40
0.5266277122
 40
0.7852328176
 40
1.0
 40
1.0
 40
1.0
 40
1.0
 10
94.8513809967
 20
141.7957222792
 30
0.0
 10
94.920108982
 20
141.7501970793
 30
0.0
 10
95.0454054901
 20
141.62841253
 30
0.0
 10
95.1787429202
 20
141.4072120381
 30
0.0
 10
95.2501009621
 20
141.1721929357
 30
0.0
 10
95.2463879968
 20
141.0123993203
 30
0.0
 10
95.2250511443
 20
140.9457623696
 30
0.0
  0
SPLINE
  5
36A
100
AcDbEntity
  8
0
100
AcDbSpline
 62
7
  6
CONTINUOUS
 70
0
 71
3
 72
9
 73
5
 74
0
 42
0.0000001
 43
0.0000001
 44
0.0000000001
 40
0.0
 40
0.0
 40
0.0
 40
0.0
 40
0.5197710827
 40
1.0
 40
1.0
 40
1.0
 40
1.0
 10
95.2250511443
 20
140.9457623696
 30
0.0
 10
95.0129140445
 20
140.2826908509
 30
0.0
 10
94.4863106451
 20
139.039553201
 30
0.0
 10
93.6856079637
 20
137.945967647
 30
0.0
 10
93.238985711
 20
137.4830890666
 30
0.0
  0
SPLINE
  5
36B
100
AcDbEntity
  8
0
100
AcDbSpline
 62
7
  6
CONTINUOUS
 70
0
 71
3
 72
9
 73
5
 74
0
 42
0.0000001
 43
0.0000001
 44
0.0000000001
 40
0.0
 40
0.0
 40
0.0
 40
0.0
 40
0.2531349428
 40
1.0
 40
1.0
 40
1.0
 40
1.0
 10
93.238985711
 20
137.4830890666
 30
0.0
 10
93.127724702
 20
137.3677521458
 30
0.0
 10
92.6731111898
 20
136.9269509711
 30
0.0
 10
92.1570426155
 20
136.5492119081
 30
0.0
 10
91.7475626282
 20
136.3128003172
 30
0.0
  0
SPLINE
  5
36C
100
AcDbEntity
  8
0
100
AcDbSpline
 62
7
  6
CONTINUOUS
 70
0
 71
3
 72
11
 73
7
 74
0
 42
0.0000001
 43
0.0000001
 44
0.0000000001
 40
0.0
 40
0.0
 40
0.0
 40
0.0
 40
0.2839418736
 40
0.4820949791
 40
0.6671210059
 40
1.0
 40
1.0
 40
1.0
 40
1.0
 10
79.4417106551
 20
137.529354185
 30
0.0
 10
80.2208705712
 20
136.9613448928
 30
0.0
 10
81.6035589963
 20
136.0739585938
 30
0.0
 10
83.6560373984
 20
135.101254293
 30
0.0
 10
85.9665578799
 20
134.3368091871
 30
0.0
 10
87.7551101503
 20
134.1353471996
 30
0.0
 10
88.881536057
 20
134.2301129334
 30
0.0
  0
SPLINE
  5
36D
100
AcDbEntity
  8
0
100
AcDbSpline
 62
7
  6
CONTINUOUS
 70
0
 71
3
 72
9
 73
5
 74
0
 42
0.0000001
 43
0.0000001
 44
0.0000000001
 40
0.0
 40
0.0
 40
0.0
 40
0.0
 40
0.4330707193
 40
1.0
 40
1.0
 40
1.0
 40
1.0
 10
88.881536057
 20
134.2301129334
 30
0.0
 10
88.9693506391
 20
134.2374455015
 30
0.0
 10
89.1730043451
 20
134.1482187302
 30
0.0
 10
89.3071011495
 20
133.9921478761
 30
0.0
 10
89.3690558004
 20
133.8948393353
 30
0.0
  0
SPLINE
  5
36E
100
AcDbEntity
  8
0
100
AcDbSpline
 62
7
  6
CONTINUOUS
 70
0
 71
3
 72
9
 73
5
 74
0
 42
0.0000001
 43
0.0000001
 44
0.0000000001
 40
0.0
 40
0.0
 40
0.0
 40
0.0
 40
0.2557825479
 40
1.0
 40
1.0
 40
1.0
 40
1.0
 10
89.3690558004
 20
133.8948393353
 30
0.0
 10
89.6711885821
 20
133.4200508659
 30
0.0
 10
90.9031806587
 20
131.5970220865
 30
0.0
 10
92.3361574222
 20
129.9067997261
 30
0.0
 10
93.5103000998
 20
128.7655216358
 30
0.0
  0
SPLINE
  5
36F
100
AcDbEntity
  8
0
100
AcDbSpline
 62
7
  6
CONTINUOUS
 70
0
 71
3
 72
13
 73
9
 74
0
 42
0.0000001
 43
0.0000001
 44
0.0000000001
 40
0.0
 40
0.0
 40
0.0
 40
0.0
 40
0.2908236465
 40
0.5765662124
 40
0.703883702
 40
0.8157288343
 40
0.9126832689
 40
1.0
 40
1.0
 40
1.0
 40
1.0
 10
93.5103000998
 20
128.7655216358
 30
0.0
 10
93.5812003083
 20
128.6966388154
 30
0.0
 10
93.6989408894
 20
128.5359803887
 30
0.0
 10
93.7845115063
 20
128.3083196947
 30
0.0
 10
93.8017727455
 20
128.12966074
 30
0.0
 10
93.7874831949
 20
128.0151234734
 30
0.0
 10
93.7461706387
 20
127.9212125124
 30
0.0
 10
93.6987527152
 20
127.8769064954
 30
0.0
 10
93.6730794823
 20
127.8620155254
 30
0.0
  0
SPLINE
  5
370
100
AcDbEntity
  8
0
100
AcDbSpline
 62
7
  6
CONTINUOUS
 70
0
 71
3
 72
10
 73
6
 74
0
 42
0.0000001
 43
0.0000001
 44
0.0000000001
 40
0.0
 40
0.0
 40
0.0
 40
0.0
 40
0.2779210771
 40
0.5375914172
 40
1.0
 40
1.0
 40
1.0
 40
1.0
 10
80.4047300879
 20
144.0057768346
 30
0.0
 10
80.8108664522
 20
143.7179385381
 30
0.0
 10
81.6261105148
 20
143.1999545689
 30
0.0
 10
83.2401556479
 20
142.4219300169
 30
0.0
 10
84.5199866923
 20
142.0902670072
 30
0.0
 10
85.3468304918
 20
142.0423019565
 30
0.0
  0
SPLINE
  5
371
100
AcDbEntity
  8
0
100
AcDbSpline
 62
7
  6
CONTINUOUS
 70
0
 71
3
 72
11
 73
7
 74
0
 42
0.0000001
 43
0.0000001
 44
0.0000000001
 40
0.0
 40
0.0
 40
0.0
 40
0.0
 40
0.2020744753
 40
0.4492742277
 40
0.7245447769
 40
1.0
 40
1.0
 40
1.0
 40
1.0
 10
85.3468304918
 20
142.0423019565
 30
0.0
 10
85.4045535123
 20
142.0388961857
 30
0.0
 10
85.5298816286
 20
141.9924476512
 30
0.0
 10
85.6909443637
 20
141.8587113027
 30
0.0
 10
85.8278747238
 20
141.6735063838
 30
0.0
 10
85.8918576335
 20
141.5276023051
 30
0.0
 10
85.913947901
 20
141.4519398512
 30
0.0
  0
SPLINE
  5
372
100
AcDbEntity
  8
0
100
AcDbSpline
 62
7
  6
CONTINUOUS
 70
0
 71
3
 72
9
 73
5
 74
0
 42
0.0000001
 43
0.0000001
 44
0.0000000001
 40
0.0
 40
0.0
 40
0.0
 40
0.0
 40
0.2447576473
 40
1.0
 40
1.0
 40
1.0
 40
1.0
 10
85.913947901
 20
141.4519398512
 30
0.0
 10
86.0439974481
 20
141.0057074554
 30
0.0
 10
86.623720974
 20
139.1968757884
 30
0.0
 10
87.3872782012
 20
137.4479669163
 30
0.0
 10
88.0508918543
 20
136.1765184798
 30
0.0
  0
SPLINE
  5
373
100
AcDbEntity
  8
0
100
AcDbSpline
 62
7
  6
CONTINUOUS
 70
0
 71
3
 72
11
 73
7
 74
0
 42
0.0000001
 43
0.0000001
 44
0.0000000001
 40
0.0
 40
0.0
 40
0.0
 40
0.0
 40
0.3080145881
 40
0.5839821107
 40
0.8115965401
 40
1.0
 40
1.0
 40
1.0
 40
1.0
 10
88.0508918543
 20
136.1765184798
 30
0.0
 10
88.0845248631
 20
136.1120881098
 30
0.0
 10
88.1358954053
 20
135.9827372273
 30
0.0
 10
88.1630931824
 20
135.7911985329
 30
0.0
 10
88.1352564994
 20
135.6259761629
 30
0.0
 10
88.068140775
 20
135.544911168
 30
0.0
 10
88.029603476
 20
135.522746831
 30
0.0
  0
SPLINE
  5
374
100
AcDbEntity
  8
0
100
AcDbSpline
 62
7
  6
CONTINUOUS
 70
0
 71
3
 72
10
 73
6
 74
0
 42
0.0000001
 43
0.0000001
 44
0.0000000001
 40
0.0
 40
0.0
 40
0.0
 40
0.0
 40
0.5102305479
 40
0.7598541611
 40
1.0
 40
1.0
 40
1.0
 40
1.0
 10
69.0940093492
 20
150.3954057311
 30
0.0
 10
70.0889959916
 20
148.3246033823
 30
0.0
 10
71.8659196311
 20
145.3690583679
 30
0.0
 10
74.7149258612
 20
141.8764416102
 30
0.0
 10
76.2786470324
 20
140.3138145609
 30
0.0
 10
77.0860123485
 20
139.5945064026
 30
0.0
  0
SPLINE
  5
375
100
AcDbEntity
  8
0
100
AcDbSpline
 62
7
  6
CONTINUOUS
 70
0
 71
3
 72
9
 73
5
 74
0
 42
0.0000001
 43
0.0000001
 44
0.0000000001
 40
0.0
 40
0.0
 40
0.0
 40
0.0
 40
0.5097578238
 40
1.0
 40
1.0
 40
1.0
 40
1.0
 10
77.0860123485
 20
139.5945064026
 30
0.0
 10
77.1750741078
 20
139.515113063
 30
0.0
 10
77.3167562723
 20
139.32223721
 30
0.0
 10
77.3906068171
 20
139.0929161332
 30
0.0
 10
77.3977890108
 20
138.9783971086
 30
0.0
  0
SPLINE
  5
376
100
AcDbEntity
  8
0
100
AcDbSpline
 62
7
  6
CONTINUOUS
 70
0
 71
3
 72
9
 73
5
 74
0
 42
0.0000001
 43
0.0000001
 44
0.0000000001
 40
0.0
 40
0.0
 40
0.0
 40
0.0
 40
0.483609463
 40
1.0
 40
1.0
 40
1.0
 40
1.0
 10
77.3977890108
 20
138.9783971086
 30
0.0
 10
77.459899923
 20
137.9828401382
 30
0.0
 10
77.7518063826
 20
135.9328997091
 30
0.0
 10
78.3069467537
 20
133.94064677
 30
0.0
 10
78.6508445235
 20
132.9325858468
 30
0.0
  0
SPLINE
  5
377
100
AcDbEntity
  8
0
100
AcDbSpline
 62
7
  6
CONTINUOUS
 70
0
 71
3
 72
11
 73
7
 74
0
 42
0.0000001
 43
0.0000001
 44
0.0000000001
 40
0.0
 40
0.0
 40
0.0
 40
0.0
 40
0.3066702676
 40
0.5766352501
 40
0.8034586909
 40
1.0
 40
1.0
 40
1.0
 40
1.0
 10
78.6508445235
 20
132.9325858468
 30
0.0
 10
78.6690979582
 20
132.879118949
 30
0.0
 10
78.6937493738
 20
132.7748258155
 30
0.0
 10
78.6946271436
 20
132.6253184676
 30
0.0
 10
78.6563249806
 20
132.5003520414
 30
0.0
 10
78.5996613946
 20
132.4410941252
 30
0.0
 10
78.5683369536
 20
132.422933421
 30
0.0
  0
SPLINE
  5
378
100
AcDbEntity
  8
0
100
AcDbSpline
 62
7
  6
CONTINUOUS
 70
0
 71
3
 72
9
 73
5
 74
0
 42
0.0000001
 43
0.0000001
 44
0.0000000001
 40
0.0
 40
0.0
 40
0.0
 40
0.0
 40
0.4796492041
 40
1.0
 40
1.0
 40
1.0
 40
1.0
 10
69.7466624235
 20
151.677573701
 30
0.0
 10
70.3141084694
 20
151.9484210891
 30
0.0
 10
71.6049822473
 20
152.3033576953
 30
0.0
 10
72.9334275979
 20
152.2430251241
 30
0.0
 10
73.6065650591
 20
152.1326480511
 30
0.0
  0
SPLINE
  5
379
100
AcDbEntity
  8
0
100
AcDbSpline
 62
7
  6
CONTINUOUS
 70
0
 71
3
 72
9
 73
5
 74
0
 42
0.0000001
 43
0.0000001
 44
0.0000000001
 40
0.0
 40
0.0
 40
0.0
 40
0.0
 40
0.4485481402
 40
1.0
 40
1.0
 40
1.0
 40
1.0
 10
73.6065650591
 20
152.1326480511
 30
0.0
 10
73.7033910998
 20
152.1167288434
 30
0.0
 10
73.899412071
 20
151.9910370937
 30
0.0
 10
74.0280431922
 20
151.810547629
 30
0.0
 10
74.0814078664
 20
151.7023550878
 30
0.0
  0
SPLINE
  5
37A
100
AcDbEntity
  8
0
100
AcDbSpline
 62
7
  6
CONTINUOUS
 70
0
 71
3
 72
9
 73
5
 74
0
 42
0.0000001
 43
0.0000001
 44
0.0000000001
 40
0.0
 40
0.0
 40
0.0
 40
0.0
 40
0.5069067789
 40
1.0
 40
1.0
 40
1.0
 40
1.0
 10
74.0814078664
 20
151.7023550878
 30
0.0
 10
74.6073211399
 20
150.6355130642
 30
0.0
 10
75.8091036078
 20
148.6083856999
 30
0.0
 10
77.3091030603
 20
146.788612138
 30
0.0
 10
78.1208778781
 20
145.9641706231
 30
0.0
  0
SPLINE
  5
37B
100
AcDbEntity
  8
0
100
AcDbSpline
 62
7
  6
CONTINUOUS
 70
0
 71
3
 72
11
 73
7
 74
0
 42
0.0000001
 43
0.0000001
 44
0.0000000001
 40
0.0
 40
0.0
 40
0.0
 40
0.0
 40
0.2733660785
 40
0.5481460474
 40
0.7963201483
 40
1.0
 40
1.0
 40
1.0
 40
1.0
 10
78.1208778781
 20
145.9641706231
 30
0.0
 10
78.175985493
 20
145.9081510673
 30
0.0
 10
78.2719114995
 20
145.7809456879
 30
0.0
 10
78.3666535273
 20
145.5703866426
 30
0.0
 10
78.4051955392
 20
145.3630882604
 30
0.0
 10
78.3855407841
 20
145.2297317365
 30
0.0
 10
78.3608711926
 20
145.1766331734
 30
0.0
  0
SPLINE
  5
37C
100
AcDbEntity
  8
0
100
AcDbSpline
 62
7
  6
CONTINUOUS
 70
0
 71
3
 72
9
 73
5
 74
0
 42
0.0000001
 43
0.0000001
 44
0.0000000001
 40
0.0
 40
0.0
 40
0.0
 40
0.0
 40
0.2332131346
 40
1.0
 40
1.0
 40
1.0
 40
1.0
 10
78.3608711926
 20
145.1766331734
 30
0.0
 10
78.2238817597
 20
144.882553193
 30
0.0
 10
77.7078896678
 20
143.5882585434
 30
0.0
 10
77.4675003667
 20
142.1947826193
 30
0.0
 10
77.3969101938
 20
141.1304488384
 30
0.0
  0
SPLINE
  5
37D
100
AcDbEntity
  8
0
100
AcDbSpline
 62
7
  6
CONTINUOUS
 70
0
 71
3
 72
9
 73
5
 74
0
 42
0.0000001
 43
0.0000001
 44
0.0000000001
 40
0.0
 40
0.0
 40
0.0
 40
0.0
 40
0.470268821
 40
1.0
 40
1.0
 40
1.0
 40
1.0
 10
60.9692129442
 20
167.1085064261
 30
0.0
 10
61.6938564843
 20
167.20395327
 30
0.0
 10
63.2742590568
 20
167.1353751113
 30
0.0
 10
64.767884895
 20
166.6546523892
 30
0.0
 10
65.5238300769
 20
166.3284576879
 30
0.0
  0
SPLINE
  5
37E
100
AcDbEntity
  8
0
100
AcDbSpline
 62
7
  6
CONTINUOUS
 70
0
 71
3
 72
11
 73
7
 74
0
 42
0.0000001
 43
0.0000001
 44
0.0000000001
 40
0.0
 40
0.0
 40
0.0
 40
0.0
 40
0.2330875083
 40
0.5003518681
 40
0.7674180786
 40
1.0
 40
1.0
 40
1.0
 40
1.0
 10
65.5238300769
 20
166.3284576879
 30
0.0
 10
65.5950920972
 20
166.2977211988
 30
0.0
 10
65.7320010096
 20
166.1953457697
 30
0.0
 10
65.8871642252
 20
165.9893449474
 30
0.0
 10
65.9872755823
 20
165.7518557289
 30
0.0
 10
66.0068651298
 20
165.5822314769
 30
0.0
 10
65.9975001952
 20
165.5053601247
 30
0.0
  0
SPLINE
  5
37F
100
AcDbEntity
  8
0
100
AcDbSpline
 62
7
  6
CONTINUOUS
 70
0
 71
3
 72
11
 73
7
 74
0
 42
0.0000001
 43
0.0000001
 44
0.0000000001
 40
0.0
 40
0.0
 40
0.0
 40
0.0
 40
0.2251938058
 40
0.4687787339
 40
0.7282495897
 40
1.0
 40
1.0
 40
1.0
 40
1.0
 10
65.9975001952
 20
165.5053601247
 30
0.0
 10
65.8865669962
 20
164.5941524776
 30
0.0
 10
65.8145888244
 20
162.6762723523
 30
0.0
 10
66.1046485682
 20
159.7148249552
 30
0.0
 10
66.7790426207
 20
156.622876398
 30
0.0
 10
67.4615041673
 20
154.5633426861
 30
0.0
 10
67.860073825
 20
153.5298230584
 30
0.0
  0
SPLINE
  5
380
100
AcDbEntity
  8
0
100
AcDbSpline
 62
7
  6
CONTINUOUS
 70
0
 71
3
 72
11
 73
7
 74
0
 42
0.0000001
 43
0.0000001
 44
0.0000000001
 40
0.0
 40
0.0
 40
0.0
 40
0.0
 40
0.3038365685
 40
0.574908427
 40
0.8046122136
 40
1.0
 40
1.0
 40
1.0
 40
1.0
 10
67.860073825
 20
153.5298230584
 30
0.0
 10
67.88083926
 20
153.4759369592
 30
0.0
 10
67.9111827053
 20
153.370133217
 30
0.0
 10
67.9216244952
 20
153.2161219684
 30
0.0
 10
67.8929625037
 20
153.0844974559
 30
0.0
 10
67.8429683815
 20
153.0163503712
 30
0.0
 10
67.8134728677
 20
152.993786538
 30
0.0
  0
SPLINE
  5
381
100
AcDbEntity
  8
0
100
AcDbSpline
 62
7
  6
CONTINUOUS
 70
0
 71
3
 72
9
 73
5
 74
0
 42
0.0000001
 43
0.0000001
 44
0.0000000001
 40
0.0
 40
0.0
 40
0.0
 40
0.0
 40
0.479163756
 40
1.0
 40
1.0
 40
1.0
 40
1.0
 10
67.8134728677
 20
152.993786538
 30
0.0
 10
67.2804154596
 20
152.5865884082
 30
0.0
 10
66.3088146694
 20
151.5419011926
 30
0.0
 10
65.6870899476
 20
150.2677313122
 30
0.0
 10
65.4419358201
 20
149.5810518219
 30
0.0
  0
SPLINE
  5
382
100
AcDbEntity
  8
0
100
AcDbSpline
 62
7
  6
CONTINUOUS
 70
0
 71
3
 72
9
 73
5
 74
0
 42
0.0000001
 43
0.0000001
 44
0.0000000001
 40
0.0
 40
0.0
 40
0.0
 40
0.0
 40
0.4822839603
 40
1.0
 40
1.0
 40
1.0
 40
1.0
 10
67.4748993888
 20
165.2925801469
 30
0.0
 10
68.2630099363
 20
164.7963608822
 30
0.0
 10
69.8111115366
 20
163.6279922946
 30
0.0
 10
71.1828162572
 20
162.2607097637
 30
0.0
 10
71.8475835941
 20
161.5140093071
 30
0.0
  0
SPLINE
  5
383
100
AcDbEntity
  8
0
100
AcDbSpline
 62
7
  6
CONTINUOUS
 70
0
 71
3
 72
9
 73
5
 74
0
 42
0.0000001
 43
0.0000001
 44
0.0000000001
 40
0.0
 40
0.0
 40
0.0
 40
0.0
 40
0.5285668491
 40
1.0
 40
1.0
 40
1.0
 40
1.0
 10
71.8475835941
 20
161.5140093071
 30
0.0
 10
71.9288008635
 20
161.4227434967
 30
0.0
 10
72.0502225847
 20
161.2211618889
 30
0.0
 10
72.099010536
 20
160.9856223434
 30
0.0
 10
72.0877273828
 20
160.8772429865
 30
0.0
  0
SPLINE
  5
384
100
AcDbEntity
  8
0
100
AcDbSpline
 62
7
  6
CONTINUOUS
 70
0
 71
3
 72
9
 73
5
 74
0
 42
0.0000001
 43
0.0000001
 44
0.0000000001
 40
0.0
 40
0.0
 40
0.0
 40
0.0
 40
0.2446400394
 40
1.0
 40
1.0
 40
1.0
 40
1.0
 10
72.0877273828
 20
160.8772429865
 30
0.0
 10
72.0779617933
 20
160.7837771891
 30
0.0
 10
72.0431582864
 20
160.4011981233
 30
0.0
 10
72.0283603803
 20
160.0168612021
 30
0.0
 10
72.0272615473
 20
159.7267037627
 30
0.0
  0
SPLINE
  5
385
100
AcDbEntity
  8
0
100
AcDbSpline
 62
7
  6
CONTINUOUS
 70
0
 71
3
 72
9
 73
5
 74
0
 42
0.0000001
 43
0.0000001
 44
0.0000000001
 40
0.0
 40
0.0
 40
0.0
 40
0.0
 40
0.4797727449
 40
1.0
 40
1.0
 40
1.0
 40
1.0
 10
72.0272615473
 20
159.7267037627
 30
0.0
 10
72.0241821069
 20
158.9135478351
 30
0.0
 10
72.1810515413
 20
157.2165961464
 30
0.0
 10
72.591105341
 20
155.5659677234
 30
0.0
 10
72.8583002598
 20
154.7256995649
 30
0.0
  0
SPLINE
  5
386
100
AcDbEntity
  8
0
100
AcDbSpline
 62
7
  6
CONTINUOUS
 70
0
 71
3
 72
11
 73
7
 74
0
 42
0.0000001
 43
0.0000001
 44
0.0000000001
 40
0.0
 40
0.0
 40
0.0
 40
0.0
 40
0.306201951
 40
0.5754661427
 40
0.8024538371
 40
1.0
 40
1.0
 40
1.0
 40
1.0
 10
72.8583002598
 20
154.7256995649
 30
0.0
 10
72.8749593192
 20
154.6732286877
 30
0.0
 10
72.8975435599
 20
154.5714108579
 30
0.0
 10
72.8965928361
 20
154.4256305399
 30
0.0
 10
72.8575762062
 20
154.3042107256
 30
0.0
 10
72.8019848209
 20
154.2464807012
 30
0.0
 10
72.7712057023
 20
154.2287582249
 30
0.0
  0
SPLINE
  5
387
100
AcDbEntity
  8
0
100
AcDbSpline
 62
7
  6
CONTINUOUS
 70
0
 71
3
 72
22
 73
18
 74
0
 42
0.0000001
 43
0.0000001
 44
0.0000000001
 40
0.0
 40
0.0
 40
0.0
 40
0.0
 40
0.0623975591
 40
0.1287628939
 40
0.1983728907
 40
0.270371148
 40
0.4173895024
 40
0.4904362002
 40
0.5617440417
 40
0.6303613461
 40
0.6954677525
 40
0.7564330835
 40
0.812887037
 40
0.8648029983
 40
0.9125919584
 40
0.9571796981
 40
1.0
 40
1.0
 40
1.0
 40
1.0
 10
59.7562921585
 20
166.7636019371
 30
0.0
 10
59.7562921585
 20
165.4895900267
 30
0.0
 10
59.9289829283
 20
162.8587887569
 30
0.0
 10
60.6391031468
 20
158.8644465609
 30
0.0
 10
61.7940814924
 20
154.7710659353
 30
0.0
 10
63.9073900142
 20
149.2636655769
 30
0.0
 10
66.7623098276
 20
143.9885181382
 30
0.0
 10
70.2349328526
 20
139.1514401443
 30
0.0
 10
73.0756999096
 20
135.8509124788
 30
0.0
 10
76.0956903058
 20
132.9424422646
 30
0.0
 10
79.2318090559
 20
130.4872479531
 30
0.0
 10
82.4188309241
 20
128.5374430287
 30
0.0
 10
85.5920602509
 20
127.1349970085
 30
0.0
 10
88.6883353644
 20
126.3123308993
 30
0.0
 10
91.6468532991
 20
126.0945835181
 30
0.0
 10
94.4019394548
 20
126.4983837684
 30
0.0
 10
96.0709509939
 20
127.192108246
 30
0.0
 10
96.8281105097
 20
127.6292499024
 30
0.0
  0
SPLINE
  5
388
100
AcDbEntity
  8
0
100
AcDbSpline
 62
7
  6
CONTINUOUS
 70
0
 71
3
 72
9
 73
5
 74
0
 42
0.0000001
 43
0.0000001
 44
0.0000000001
 40
0.0
 40
0.0
 40
0.0
 40
0.0
 40
0.2615850489
 40
1.0
 40
1.0
 40
1.0
 40
1.0
 10
31.3900991443
 20
112.4268380585
 30
0.0
 10
30.5040799427
 20
111.8562744499
 30
0.0
 10
27.1711343376
 20
109.5937089156
 30
0.0
 10
24.0618093503
 20
106.9896725618
 30
0.0
 10
21.9782290607
 20
104.8664053984
 30
0.0
  0
SPLINE
  5
389
100
AcDbEntity
  8
0
100
AcDbSpline
 62
7
  6
CONTINUOUS
 70
0
 71
3
 72
9
 73
5
 74
0
 42
0.0000001
 43
0.0000001
 44
0.0000000001
 40
0.0
 40
0.0
 40
0.0
 40
0.0
 40
0.4822839603
 40
1.0
 40
1.0
 40
1.0
 40
1.0
 10
95.4702378966
 20
143.159394857
 30
0.0
 10
94.6821273492
 20
143.6556141216
 30
0.0
 10
93.1340257491
 20
144.8239827091
 30
0.0
 10
91.7623210287
 20
146.1912652397
 30
0.0
 10
91.0975536919
 20
146.9379656962
 30
0.0
  0
SPLINE
  5
38A
100
AcDbEntity
  8
0
100
AcDbSpline
 62
7
  6
CONTINUOUS
 70
0
 71
3
 72
9
 73
5
 74
0
 42
0.0000001
 43
0.0000001
 44
0.0000000001
 40
0.0
 40
0.0
 40
0.0
 40
0.0
 40
0.5285668491
 40
1.0
 40
1.0
 40
1.0
 40
1.0
 10
91.0975536919
 20
146.9379656962
 30
0.0
 10
91.0163364225
 20
147.0292315066
 30
0.0
 10
90.8949147013
 20
147.2308131143
 30
0.0
 10
90.8461267499
 20
147.4663526598
 30
0.0
 10
90.857409903
 20
147.5747320167
 30
0.0
  0
SPLINE
  5
38B
100
AcDbEntity
  8
0
100
AcDbSpline
 62
7
  6
CONTINUOUS
 70
0
 71
3
 72
9
 73
5
 74
0
 42
0.0000001
 43
0.0000001
 44
0.0000000001
 40
0.0
 40
0.0
 40
0.0
 40
0.0
 40
0.2446400394
 40
1.0
 40
1.0
 40
1.0
 40
1.0
 10
90.857409903
 20
147.5747320167
 30
0.0
 10
90.8671754925
 20
147.6681978141
 30
0.0
 10
90.9019789995
 20
148.05077688
 30
0.0
 10
90.9167769056
 20
148.4351138013
 30
0.0
 10
90.9178757386
 20
148.7252712408
 30
0.0
  0
SPLINE
  5
38C
100
AcDbEntity
  8
0
100
AcDbSpline
 62
7
  6
CONTINUOUS
 70
0
 71
3
 72
9
 73
5
 74
0
 42
0.0000001
 43
0.0000001
 44
0.0000000001
 40
0.0
 40
0.0
 40
0.0
 40
0.0
 40
0.4797727449
 40
1.0
 40
1.0
 40
1.0
 40
1.0
 10
90.9178757386
 20
148.7252712408
 30
0.0
 10
90.920955179
 20
149.5384271683
 30
0.0
 10
90.7640857446
 20
151.2353788569
 30
0.0
 10
90.354031945
 20
152.8860072798
 30
0.0
 10
90.0868370262
 20
153.7262754382
 30
0.0
  0
SPLINE
  5
38D
100
AcDbEntity
  8
0
100
AcDbSpline
 62
7
  6
CONTINUOUS
 70
0
 71
3
 72
11
 73
7
 74
0
 42
0.0000001
 43
0.0000001
 44
0.0000000001
 40
0.0
 40
0.0
 40
0.0
 40
0.0
 40
0.306201951
 40
0.5754661427
 40
0.8024538372
 40
1.0
 40
1.0
 40
1.0
 40
1.0
 10
90.0868370262
 20
153.7262754382
 30
0.0
 10
90.0701779668
 20
153.7787463154
 30
0.0
 10
90.047593726
 20
153.8805641454
 30
0.0
 10
90.0485444498
 20
154.0263444635
 30
0.0
 10
90.0875610796
 20
154.1477642781
 30
0.0
 10
90.1431524649
 20
154.2054943026
 30
0.0
 10
90.1739315836
 20
154.2232167788
 30
0.0
  0
SPLINE
  5
38E
100
AcDbEntity
  8
0
100
AcDbSpline
 62
7
  6
CONTINUOUS
 70
0
 71
3
 72
8
 73
4
 74
0
 42
0.0000001
 43
0.0000001
 44
0.0000000001
 40
0.0
 40
0.0
 40
0.0
 40
0.0
 40
1.0
 40
1.0
 40
1.0
 40
1.0
 10
62.9995655761
 20
170.954524811
 30
0.0
 10
62.9958517658
 20
170.9299268881
 30
0.0
 10
62.994216495
 20
170.9049633546
 30
0.0
 10
62.994216495
 20
170.8800866547
 30
0.0
  0
SPLINE
  5
38F
100
AcDbEntity
  8
0
100
AcDbSpline
 62
7
  6
CONTINUOUS
 70
0
 71
3
 72
11
 73
7
 74
0
 42
0.0000001
 43
0.0000001
 44
0.0000000001
 40
0.0
 40
0.0
 40
0.0
 40
0.0
 40
0.2552208542
 40
0.5354154772
 40
0.7948906324
 40
1.0
 40
1.0
 40
1.0
 40
1.0
 10
62.994216495
 20
170.8800866547
 30
0.0
 10
62.994216495
 20
170.7888500792
 30
0.0
 10
63.0378901705
 20
170.5975596518
 30
0.0
 10
63.1790185413
 20
170.3471298046
 30
0.0
 10
63.3692081608
 20
170.1567683338
 30
0.0
 10
63.5317347512
 20
170.0886567071
 30
0.0
 10
63.6050534685
 20
170.0878946843
 30
0.0
  0
SPLINE
  5
390
100
AcDbEntity
  8
0
100
AcDbSpline
 62
7
  6
CONTINUOUS
 70
0
 71
3
 72
11
 73
7
 74
0
 42
0.0000001
 43
0.0000001
 44
0.0000000001
 40
0.0
 40
0.0
 40
0.0
 40
0.0
 40
0.3050521047
 40
0.5851901965
 40
0.8152088493
 40
1.0
 40
1.0
 40
1.0
 40
1.0
 10
90.9737946937
 20
133.6744016213
 30
0.0
 10
90.9269656966
 20
133.7433706534
 30
0.0
 10
90.854181757
 20
133.8879629739
 30
0.0
 10
90.803900202
 20
134.1074533056
 30
0.0
 10
90.8204760255
 20
134.3012718271
 30
0.0
 10
90.8932852463
 20
134.4013251168
 30
0.0
 10
90.9374371629
 20
134.4258371066
 30
0.0
  0
SPLINE
  5
391
100
AcDbEntity
  8
0
100
AcDbSpline
 62
7
  6
CONTINUOUS
 70
0
 71
3
 72
9
 73
5
 74
0
 42
0.0000001
 43
0.0000001
 44
0.0000000001
 40
0.0
 40
0.0
 40
0.0
 40
0.0
 40
0.234346754
 40
1.0
 40
1.0
 40
1.0
 40
1.0
 10
63.6050534685
 20
170.0878946843
 30
0.0
 10
63.902151941
 20
170.0846537951
 30
0.0
 10
65.169169812
 20
169.9990816549
 30
0.0
 10
66.4090761039
 20
169.6448118885
 30
0.0
 10
67.3082866476
 20
169.2791051342
 30
0.0
  0
SPLINE
  5
392
100
AcDbEntity
  8
0
100
AcDbSpline
 62
7
  6
CONTINUOUS
 70
0
 71
3
 72
9
 73
5
 74
0
 42
0.0000001
 43
0.0000001
 44
0.0000000001
 40
0.0
 40
0.0
 40
0.0
 40
0.0
 40
0.2745771143
 40
1.0
 40
1.0
 40
1.0
 40
1.0
 10
96.3369871371
 20
140.5790315963
 30
0.0
 10
96.3416126419
 20
140.5959959314
 30
0.0
 10
96.3626222111
 20
140.656333389
 30
0.0
 10
96.4061643123
 20
140.7105148557
 30
0.0
 10
96.4463900263
 20
140.7337524989
 30
0.0
  0
SPLINE
  5
393
100
AcDbEntity
  8
0
100
AcDbSpline
 62
7
  6
CONTINUOUS
 70
0
 71
3
 72
11
 73
7
 74
0
 42
0.0000001
 43
0.0000001
 44
0.0000000001
 40
0.0
 40
0.0
 40
0.0
 40
0.0
 40
0.2062080863
 40
0.4362652813
 40
0.7008313113
 40
1.0
 40
1.0
 40
1.0
 40
1.0
 10
95.7209883816
 20
128.6406846951
 30
0.0
 10
95.6950198122
 20
128.6275245222
 30
0.0
 10
95.6333111945
 20
128.6120320519
 30
0.0
 10
95.5335769617
 20
128.6252188158
 30
0.0
 10
95.4297583419
 20
128.6700670978
 30
0.0
 10
95.3643770892
 20
128.7164356268
 30
0.0
 10
95.3321583143
 20
128.743747333
 30
0.0
  0
SPLINE
  5
394
100
AcDbEntity
  8
0
100
AcDbSpline
 62
7
  6
CONTINUOUS
 70
0
 71
3
 72
9
 73
5
 74
0
 42
0.0000001
 43
0.0000001
 44
0.0000000001
 40
0.0
 40
0.0
 40
0.0
 40
0.0
 40
0.4880409352
 40
1.0
 40
1.0
 40
1.0
 40
1.0
 10
95.3321583143
 20
128.743747333
 30
0.0
 10
94.5160404747
 20
129.4402579041
 30
0.0
 10
92.9521860074
 20
130.9971545779
 30
0.0
 10
91.6059472538
 20
132.7431884324
 30
0.0
 10
90.9737946937
 20
133.6744016213
 30
0.0
  0
SPLINE
  5
395
100
AcDbEntity
  8
0
100
AcDbSpline
 62
7
  6
CONTINUOUS
 70
0
 71
3
 72
9
 73
5
 74
0
 42
0.0000001
 43
0.0000001
 44
0.0000000001
 40
0.0
 40
0.0
 40
0.0
 40
0.0
 40
0.255436448
 40
1.0
 40
1.0
 40
1.0
 40
1.0
 10
89.5423561242
 20
136.0270482947
 30
0.0
 10
89.2881943982
 20
136.4951102883
 30
0.0
 10
88.3459536774
 20
138.3553258166
 30
0.0
 10
87.6131672288
 20
140.3243643609
 30
0.0
 10
87.2183494552
 20
141.8258287697
 30
0.0
  0
SPLINE
  5
396
100
AcDbEntity
  8
0
100
AcDbSpline
 62
7
  6
CONTINUOUS
 70
0
 71
3
 72
11
 73
7
 74
0
 42
0.0000001
 43
0.0000001
 44
0.0000000001
 40
0.0
 40
0.0
 40
0.0
 40
0.0
 40
0.3040887176
 40
0.5714965761
 40
0.7990659688
 40
1.0
 40
1.0
 40
1.0
 40
1.0
 10
87.2183494552
 20
141.8258287697
 30
0.0
 10
87.2055992749
 20
141.8743602744
 30
0.0
 10
87.1895763808
 20
141.9680230214
 30
0.0
 10
87.1963341663
 20
142.1010590304
 30
0.0
 10
87.2368219323
 20
142.211169627
 30
0.0
 10
87.2892091123
 20
142.2631627003
 30
0.0
 10
87.3178988282
 20
142.2797838117
 30
0.0
  0
SPLINE
  5
397
100
AcDbEntity
  8
0
100
AcDbSpline
 62
7
  6
CONTINUOUS
 70
0
 71
3
 72
9
 73
5
 74
0
 42
0.0000001
 43
0.0000001
 44
0.0000000001
 40
0.0
 40
0.0
 40
0.0
 40
0.0
 40
0.2345851173
 40
1.0
 40
1.0
 40
1.0
 40
1.0
 10
69.6999768859
 20
168.6492962649
 30
0.0
 10
69.696723525
 20
168.6391357202
 30
0.0
 10
69.6848828159
 20
168.5951749498
 30
0.0
 10
69.6807252126
 20
168.5493545301
 30
0.0
 10
69.6807252126
 20
168.5145442358
 30
0.0
  0
SPLINE
  5
398
100
AcDbEntity
  8
0
100
AcDbSpline
 62
7
  6
CONTINUOUS
 70
0
 71
3
 72
9
 73
5
 74
0
 42
0.0000001
 43
0.0000001
 44
0.0000000001
 40
0.0
 40
0.0
 40
0.0
 40
0.0
 40
0.4954230949
 40
1.0
 40
1.0
 40
1.0
 40
1.0
 10
69.6807252126
 20
168.5145442358
 30
0.0
 10
69.6807252126
 20
168.3763550846
 30
0.0
 10
69.7722409482
 20
168.1002932624
 30
0.0
 10
69.9563115276
 20
167.8770590228
 30
0.0
 10
70.073647033
 20
167.7993363553
 30
0.0
  0
SPLINE
  5
399
100
AcDbEntity
  8
0
100
AcDbSpline
 62
7
  6
CONTINUOUS
 70
0
 71
3
 72
10
 73
6
 74
0
 42
0.0000001
 43
0.0000001
 44
0.0000000001
 40
0.0
 40
0.0
 40
0.0
 40
0.0
 40
0.4204556395
 40
0.6989310875
 40
1.0
 40
1.0
 40
1.0
 40
1.0
 10
90.1058731021
 20
135.6366421189
 30
0.0
 10
90.0084170039
 20
135.6107547944
 30
0.0
 10
89.8278516197
 20
135.6839603096
 30
0.0
 10
89.6571706518
 20
135.8474834098
 30
0.0
 10
89.5768381547
 20
135.9636102825
 30
0.0
 10
89.5423561242
 20
136.0270482947
 30
0.0
  0
SPLINE
  5
39A
100
AcDbEntity
  8
0
100
AcDbSpline
 62
7
  6
CONTINUOUS
 70
0
 71
3
 72
11
 73
7
 74
0
 42
0.0000001
 43
0.0000001
 44
0.0000000001
 40
0.0
 40
0.0
 40
0.0
 40
0.0
 40
0.2184598853
 40
0.4553105475
 40
0.7153274974
 40
1.0
 40
1.0
 40
1.0
 40
1.0
 10
93.6218795924
 20
127.8410605874
 30
0.0
 10
92.6820338115
 20
127.5977007182
 30
0.0
 10
90.6456418794
 20
127.3650882978
 30
0.0
 10
87.4681109893
 20
127.7600135814
 30
0.0
 10
84.1530990978
 20
128.8553005595
 30
0.0
 10
81.9983169897
 20
129.9803945646
 30
0.0
 10
80.9174835358
 20
130.637858361
 30
0.0
  0
SPLINE
  5
39B
100
AcDbEntity
  8
0
100
AcDbSpline
 62
7
  6
CONTINUOUS
 70
0
 71
3
 72
9
 73
5
 74
0
 42
0.0000001
 43
0.0000001
 44
0.0000000001
 40
0.0
 40
0.0
 40
0.0
 40
0.0
 40
0.478579834
 40
1.0
 40
1.0
 40
1.0
 40
1.0
 10
80.9174835358
 20
130.637858361
 30
0.0
 10
80.8406554635
 20
130.6850113601
 30
0.0
 10
80.701358392
 20
130.8179187722
 30
0.0
 10
80.604698773
 20
130.9823850221
 30
0.0
 10
80.5674286216
 20
131.0732519931
 30
0.0
  0
SPLINE
  5
39C
100
AcDbEntity
  8
0
100
AcDbSpline
 62
7
  6
CONTINUOUS
 70
0
 71
3
 72
9
 73
5
 74
0
 42
0.0000001
 43
0.0000001
 44
0.0000000001
 40
0.0
 40
0.0
 40
0.0
 40
0.0
 40
0.5157616302
 40
1.0
 40
1.0
 40
1.0
 40
1.0
 10
80.5674286216
 20
131.0732519931
 30
0.0
 10
80.1525140976
 20
132.093025345
 30
0.0
 10
79.4692307902
 20
134.1222539699
 30
0.0
 10
79.0714997301
 20
136.2289798741
 30
0.0
 10
78.9657183776
 20
137.2572134643
 30
0.0
  0
SPLINE
  5
39D
100
AcDbEntity
  8
0
100
AcDbSpline
 62
7
  6
CONTINUOUS
 70
0
 71
3
 72
9
 73
5
 74
0
 42
0.0000001
 43
0.0000001
 44
0.0000000001
 40
0.0
 40
0.0
 40
0.0
 40
0.0
 40
0.272282741
 40
1.0
 40
1.0
 40
1.0
 40
1.0
 10
78.8873022904
 20
139.5553934974
 30
0.0
 10
78.9039553204
 20
139.9703789967
 30
0.0
 10
79.0307792509
 20
141.4885671606
 30
0.0
 10
79.4496298908
 20
143.0011640001
 30
0.0
 10
79.9741473495
 20
143.9794238073
 30
0.0
  0
SPLINE
  5
39E
100
AcDbEntity
  8
0
100
AcDbSpline
 62
7
  6
CONTINUOUS
 70
0
 71
3
 72
9
 73
5
 74
0
 42
0.0000001
 43
0.0000001
 44
0.0000000001
 40
0.0
 40
0.0
 40
0.0
 40
0.0
 40
0.2396080251
 40
1.0
 40
1.0
 40
1.0
 40
1.0
 10
70.073647033
 20
167.7993363553
 30
0.0
 10
70.384746306
 20
167.5932307214
 30
0.0
 10
71.6571890439
 20
166.6941244644
 30
0.0
 10
72.8264714179
 20
165.6524942996
 30
0.0
 10
73.655444924
 20
164.806732755
 30
0.0
  0
SPLINE
  5
39F
100
AcDbEntity
  8
0
100
AcDbSpline
 62
7
  6
CONTINUOUS
 70
0
 71
3
 72
9
 73
5
 74
0
 42
0.0000001
 43
0.0000001
 44
0.0000000001
 40
0.0
 40
0.0
 40
0.0
 40
0.0
 40
0.4813406463
 40
1.0
 40
1.0
 40
1.0
 40
1.0
 10
71.4939653203
 20
171.9049286764
 30
0.0
 10
71.0947187129
 20
171.4574400811
 30
0.0
 10
70.378731458
 20
170.4228071923
 30
0.0
 10
69.8968839877
 20
169.2647637679
 30
0.0
 10
69.6999768859
 20
168.6492962649
 30
0.0
  0
SPLINE
  5
3A0
100
AcDbEntity
  8
0
100
AcDbSpline
 62
7
  6
CONTINUOUS
 70
0
 71
3
 72
9
 73
5
 74
0
 42
0.0000001
 43
0.0000001
 44
0.0000000001
 40
0.0
 40
0.0
 40
0.0
 40
0.0
 40
0.2341489519
 40
1.0
 40
1.0
 40
1.0
 40
1.0
 10
87.9267350486
 20
135.4946318468
 30
0.0
 10
87.5897702903
 20
135.4850591391
 30
0.0
 10
86.1481441695
 20
135.530300028
 30
0.0
 10
84.7284297713
 20
135.9004303737
 30
0.0
 10
83.6997731697
 20
136.2973654431
 30
0.0
  0
SPLINE
  5
3A1
100
AcDbEntity
  8
0
100
AcDbSpline
 62
7
  6
CONTINUOUS
 70
0
 71
3
 72
9
 73
5
 74
0
 42
0.0000001
 43
0.0000001
 44
0.0000000001
 40
0.0
 40
0.0
 40
0.0
 40
0.0
 40
0.2351667298
 40
1.0
 40
1.0
 40
1.0
 40
1.0
 10
83.6997731697
 20
136.2973654431
 30
0.0
 10
83.3239108534
 20
136.4423713371
 30
0.0
 10
81.7516604623
 20
137.1262089352
 30
0.0
 10
80.2907582402
 20
138.0516354124
 30
0.0
 10
79.2459239357
 20
138.8422276049
 30
0.0
  0
SPLINE
  5
3A2
100
AcDbEntity
  8
0
100
AcDbSpline
 62
7
  6
CONTINUOUS
 70
0
 71
3
 72
9
 73
5
 74
0
 42
0.0000001
 43
0.0000001
 44
0.0000000001
 40
0.0
 40
0.0
 40
0.0
 40
0.0
 40
0.5120999356
 40
1.0
 40
1.0
 40
1.0
 40
1.0
 10
79.2459239357
 20
138.8422276049
 30
0.0
 10
79.1346579676
 20
138.9265147413
 30
0.0
 10
78.9634113936
 20
139.1495325737
 30
0.0
 10
78.8820576492
 20
139.4225066155
 30
0.0
 10
78.8873022904
 20
139.5553934974
 30
0.0
  0
SPLINE
  5
3A3
100
AcDbEntity
  8
0
100
AcDbSpline
 62
7
  6
CONTINUOUS
 70
0
 71
3
 72
10
 73
6
 74
0
 42
0.0000001
 43
0.0000001
 44
0.0000000001
 40
0.0
 40
0.0
 40
0.0
 40
0.0
 40
0.2359548107
 40
0.4840630091
 40
1.0
 40
1.0
 40
1.0
 40
1.0
 10
78.2013951514
 20
132.4975196927
 30
0.0
 10
77.0529945282
 20
133.3726205403
 30
0.0
 10
74.8077675359
 20
135.3172125449
 30
0.0
 10
70.6359175182
 20
139.8034146606
 30
0.0
 10
67.9751703389
 20
143.6944515313
 30
0.0
 10
66.4391400168
 20
146.4526381675
 30
0.0
  0
SPLINE
  5
3A4
100
AcDbEntity
  8
0
100
AcDbSpline
 62
7
  6
CONTINUOUS
 70
0
 71
3
 72
9
 73
5
 74
0
 42
0.0000001
 43
0.0000001
 44
0.0000000001
 40
0.0
 40
0.0
 40
0.0
 40
0.0
 40
0.542190856
 40
1.0
 40
1.0
 40
1.0
 40
1.0
 10
66.4391400168
 20
146.4526381675
 30
0.0
 10
66.3927898426
 20
146.5364036704
 30
0.0
 10
66.3272609036
 20
146.7025192803
 30
0.0
 10
66.3163832759
 20
146.8850637276
 30
0.0
 10
66.3344761445
 20
146.9638477099
 30
0.0
  0
SPLINE
  5
3A5
100
AcDbEntity
  8
0
100
AcDbSpline
 62
7
  6
CONTINUOUS
 70
0
 71
3
 72
9
 73
5
 74
0
 42
0.0000001
 43
0.0000001
 44
0.0000000001
 40
0.0
 40
0.0
 40
0.0
 40
0.0
 40
0.5267458275
 40
1.0
 40
1.0
 40
1.0
 40
1.0
 10
66.3344761445
 20
146.9638477099
 30
0.0
 10
66.5115229683
 20
147.7166060962
 30
0.0
 10
67.0070494406
 20
149.1184788275
 30
0.0
 10
67.9089457199
 20
150.3170489921
 30
0.0
 10
68.422496629
 20
150.7849910499
 30
0.0
  0
SPLINE
  5
3A6
100
AcDbEntity
  8
0
100
AcDbSpline
 62
7
  6
CONTINUOUS
 70
0
 71
3
 72
9
 73
5
 74
0
 42
0.0000001
 43
0.0000001
 44
0.0000000001
 40
0.0
 40
0.0
 40
0.0
 40
0.0
 40
0.2437277991
 40
1.0
 40
1.0
 40
1.0
 40
1.0
 10
71.6266928218
 20
180.6210519137
 30
0.0
 10
71.9897281897
 20
180.2597511873
 30
0.0
 10
73.4343234822
 20
178.732629156
 30
0.0
 10
74.7027393859
 20
177.0410374447
 30
0.0
 10
75.5559722316
 20
175.7002192966
 30
0.0
  0
SPLINE
  5
3A7
100
AcDbEntity
  8
0
100
AcDbSpline
 62
7
  6
CONTINUOUS
 70
0
 71
3
 72
9
 73
5
 74
0
 42
0.0000001
 43
0.0000001
 44
0.0000000001
 40
0.0
 40
0.0
 40
0.0
 40
0.0
 40
0.566927898
 40
1.0
 40
1.0
 40
1.0
 40
1.0
 10
75.5559722316
 20
175.7002192966
 30
0.0
 10
75.6179267294
 20
175.6029109962
 30
0.0
 10
75.7520234388
 20
175.4468401691
 30
0.0
 10
75.9556771121
 20
175.3576131097
 30
0.0
 10
76.0434919718
 20
175.364945701
 30
0.0
  0
SPLINE
  5
3A8
100
AcDbEntity
  8
0
100
AcDbSpline
 62
7
  6
CONTINUOUS
 70
0
 71
3
 72
11
 73
7
 74
0
 42
0.0000001
 43
0.0000001
 44
0.0000000001
 40
0.0
 40
0.0
 40
0.0
 40
0.0
 40
0.2229577221
 40
0.4627499643
 40
0.7215138635
 40
1.0
 40
1.0
 40
1.0
 40
1.0
 10
76.0434919718
 20
175.364945701
 30
0.0
 10
76.6399894339
 20
175.4151287796
 30
0.0
 10
77.8910952903
 20
175.3894390675
 30
0.0
 10
79.7984464914
 20
175.0076562564
 30
0.0
 10
81.7654468949
 20
174.2924910535
 30
0.0
 10
83.049333542
 20
173.6261751623
 30
0.0
 10
83.6931773641
 20
173.2460377757
 30
0.0
  0
SPLINE
  5
3A9
100
AcDbEntity
  8
0
100
AcDbSpline
 62
7
  6
CONTINUOUS
 70
0
 71
3
 72
9
 73
5
 74
0
 42
0.0000001
 43
0.0000001
 44
0.0000000001
 40
0.0
 40
0.0
 40
0.0
 40
0.0
 40
0.2432183065
 40
1.0
 40
1.0
 40
1.0
 40
1.0
 10
76.8476558055
 20
141.0160754257
 30
0.0
 10
76.4871701791
 20
141.3539970433
 30
0.0
 10
75.0429837163
 20
142.783570509
 30
0.0
 10
73.7479937717
 20
144.3618505106
 30
0.0
 10
72.8558944223
 20
145.6139854671
 30
0.0
  0
SPLINE
  5
3AA
100
AcDbEntity
  8
0
100
AcDbSpline
 62
7
  6
CONTINUOUS
 70
0
 71
3
 72
9
 73
5
 74
0
 42
0.0000001
 43
0.0000001
 44
0.0000000001
 40
0.0
 40
0.0
 40
0.0
 40
0.0
 40
0.2494900631
 40
1.0
 40
1.0
 40
1.0
 40
1.0
 10
72.8558944223
 20
145.6139854671
 30
0.0
 10
72.5516858513
 20
146.0409306067
 30
0.0
 10
71.3727482446
 20
147.780607925
 30
0.0
 10
70.3536958727
 20
149.6287300683
 30
0.0
 10
69.6903130416
 20
151.0594109966
 30
0.0
  0
SPLINE
  5
3AB
100
AcDbEntity
  8
0
100
AcDbSpline
 62
7
  6
CONTINUOUS
 70
0
 71
3
 72
11
 73
7
 74
0
 42
0.0000001
 43
0.0000001
 44
0.0000000001
 40
0.0
 40
0.0
 40
0.0
 40
0.0
 40
0.3084337784
 40
0.5823063093
 40
0.8094905834
 40
1.0
 40
1.0
 40
1.0
 40
1.0
 10
69.6903130416
 20
151.0594109966
 30
0.0
 10
69.6617672174
 20
151.1210431388
 30
0.0
 10
69.6190821437
 20
151.2432424667
 30
0.0
 10
69.6007239864
 20
151.4223788935
 30
0.0
 10
69.6325487008
 20
151.5753013106
 30
0.0
 10
69.6967056428
 20
151.6493478919
 30
0.0
 10
69.7330130559
 20
151.6703678073
 30
0.0
  0
SPLINE
  5
3AC
100
AcDbEntity
  8
0
100
AcDbSpline
 62
7
  6
CONTINUOUS
 70
0
 71
3
 72
9
 73
5
 74
0
 42
0.0000001
 43
0.0000001
 44
0.0000000001
 40
0.0
 40
0.0
 40
0.0
 40
0.0
 40
0.2543314635
 40
1.0
 40
1.0
 40
1.0
 40
1.0
 10
77.2177365968
 20
172.7397525737
 30
0.0
 10
77.4021107191
 20
172.3639620924
 30
0.0
 10
78.0964558707
 20
170.871689137
 30
0.0
 10
78.6677012574
 20
169.3213372408
 30
0.0
 10
79.0110801297
 20
168.1431187818
 30
0.0
  0
SPLINE
  5
3AD
100
AcDbEntity
  8
0
100
AcDbSpline
 62
7
  6
CONTINUOUS
 70
0
 71
3
 72
11
 73
7
 74
0
 42
0.0000001
 43
0.0000001
 44
0.0000000001
 40
0.0
 40
0.0
 40
0.0
 40
0.0
 40
0.2754552231
 40
0.5507257723
 40
0.7979255247
 40
1.0
 40
1.0
 40
1.0
 40
1.0
 10
79.0110801297
 20
168.1431187818
 30
0.0
 10
79.0331703971
 20
168.0674563281
 30
0.0
 10
79.0971533068
 20
167.9215522497
 30
0.0
 10
79.2340836667
 20
167.7363473313
 30
0.0
 10
79.3951464015
 20
167.6026109831
 30
0.0
 10
79.5204745176
 20
167.5561624487
 30
0.0
 10
79.5781975379
 20
167.552756678
 30
0.0
  0
SPLINE
  5
3AE
100
AcDbEntity
  8
0
100
AcDbSpline
 62
7
  6
CONTINUOUS
 70
0
 71
3
 72
9
 73
5
 74
0
 42
0.0000001
 43
0.0000001
 44
0.0000000001
 40
0.0
 40
0.0
 40
0.0
 40
0.0
 40
0.2278308866
 40
1.0
 40
1.0
 40
1.0
 40
1.0
 10
79.5781975379
 20
167.552756678
 30
0.0
 10
79.9032890902
 20
167.5338981792
 30
0.0
 10
81.3239714764
 20
167.3386666106
 30
0.0
 10
82.6674255867
 20
166.7460644796
 30
0.0
 10
83.6149745759
 20
166.1801893278
 30
0.0
  0
SPLINE
  5
3AF
100
AcDbEntity
  8
0
100
AcDbSpline
 62
7
  6
CONTINUOUS
 70
0
 71
3
 72
11
 73
7
 74
0
 42
0.0000001
 43
0.0000001
 44
0.0000000001
 40
0.0
 40
0.0
 40
0.0
 40
0.0
 40
0.2666574049
 40
0.5245961151
 40
0.7700524434
 40
1.0
 40
1.0
 40
1.0
 40
1.0
 10
64.6971197751
 20
149.8822205516
 30
0.0
 10
64.0653754016
 20
151.2541937598
 30
0.0
 10
62.9448939424
 20
154.0118636444
 30
0.0
 10
61.6986412201
 20
158.1993736854
 30
0.0
 10
60.9353839568
 20
162.2905268129
 30
0.0
 10
60.7550004922
 20
164.9860324693
 30
0.0
 10
60.7599330457
 20
166.2885208088
 30
0.0
  0
SPLINE
  5
3B0
100
AcDbEntity
  8
0
100
AcDbSpline
 62
7
  6
CONTINUOUS
 70
0
 71
3
 72
9
 73
5
 74
0
 42
0.0000001
 43
0.0000001
 44
0.0000000001
 40
0.0
 40
0.0
 40
0.0
 40
0.0
 40
0.5480539468
 40
1.0
 40
1.0
 40
1.0
 40
1.0
 10
60.7671750988
 20
166.8209405865
 30
0.0
 10
60.7686932611
 20
166.8756598087
 30
0.0
 10
60.7849977691
 20
166.9773837905
 30
0.0
 10
60.8531894992
 20
167.0599096736
 30
0.0
 10
60.8923006441
 20
167.0824489711
 30
0.0
  0
SPLINE
  5
3B1
100
AcDbEntity
  8
0
100
AcDbSpline
 62
7
  6
CONTINUOUS
 70
0
 71
3
 72
9
 73
5
 74
0
 42
0.0000001
 43
0.0000001
 44
0.0000000001
 40
0.0
 40
0.0
 40
0.0
 40
0.0
 40
0.2574158114
 40
1.0
 40
1.0
 40
1.0
 40
1.0
 10
87.0944295302
 20
173.7088456066
 30
0.0
 10
87.1502860696
 20
173.4466842723
 30
0.0
 10
87.3500214214
 20
172.424717413
 30
0.0
 10
87.4790910894
 20
171.3884100895
 30
0.0
 10
87.5272390194
 20
170.6166615252
 30
0.0
  0
SPLINE
  5
3B2
100
AcDbEntity
  8
0
100
AcDbSpline
 62
7
  6
CONTINUOUS
 70
0
 71
3
 72
9
 73
5
 74
0
 42
0.0000001
 43
0.0000001
 44
0.0000000001
 40
0.0
 40
0.0
 40
0.0
 40
0.0
 40
0.4902407497
 40
1.0
 40
1.0
 40
1.0
 40
1.0
 10
87.5272390194
 20
170.6166615252
 30
0.0
 10
87.5344211922
 20
170.5021428339
 30
0.0
 10
87.6082715797
 20
170.2728217558
 30
0.0
 10
87.7499536724
 20
170.0799457941
 30
0.0
 10
87.839015681
 20
170.0005522323
 30
0.0
  0
SPLINE
  5
3B3
100
AcDbEntity
  8
0
100
AcDbSpline
 62
7
  6
CONTINUOUS
 70
0
 71
3
 72
9
 73
5
 74
0
 42
0.0000001
 43
0.0000001
 44
0.0000000001
 40
0.0
 40
0.0
 40
0.0
 40
0.0
 40
0.5165996963
 40
1.0
 40
1.0
 40
1.0
 40
1.0
 10
72.6305846476
 20
154.2023155291
 30
0.0
 10
72.0216884476
 20
154.2693790137
 30
0.0
 10
70.8237380729
 20
154.2772306554
 30
0.0
 10
69.6591240011
 20
153.9769617649
 30
0.0
 10
69.1303939763
 20
153.7555681418
 30
0.0
  0
SPLINE
  5
3B4
100
AcDbEntity
  8
0
100
AcDbSpline
 62
7
  6
CONTINUOUS
 70
0
 71
3
 72
11
 73
7
 74
0
 42
0.0000001
 43
0.0000001
 44
0.0000000001
 40
0.0
 40
0.0
 40
0.0
 40
0.0
 40
0.1850671933
 40
0.4221398326
 40
0.704636229
 40
1.0
 40
1.0
 40
1.0
 40
1.0
 10
69.1303939763
 20
153.7555681418
 30
0.0
 10
69.0789459121
 20
153.7340155527
 30
0.0
 10
68.9409342109
 20
153.7382435241
 30
0.0
 10
68.7558383299
 20
153.8511371196
 30
0.0
 10
68.5895415697
 20
154.0353957
 30
0.0
 10
68.5079248563
 20
154.1919386706
 30
0.0
 10
68.4777877786
 20
154.2757063408
 30
0.0
  0
SPLINE
  5
3B5
100
AcDbEntity
  8
0
100
AcDbSpline
 62
7
  6
CONTINUOUS
 70
0
 71
3
 72
9
 73
5
 74
0
 42
0.0000001
 43
0.0000001
 44
0.0000000001
 40
0.0
 40
0.0
 40
0.0
 40
0.0
 40
0.2588626581
 40
1.0
 40
1.0
 40
1.0
 40
1.0
 10
68.4777877786
 20
154.2757063408
 30
0.0
 10
68.3059833194
 20
154.7530639213
 30
0.0
 10
67.6872612797
 20
156.6126428451
 30
0.0
 10
67.250481459
 20
158.5354817551
 30
0.0
 10
67.0595465711
 20
159.9753994844
 30
0.0
  0
SPLINE
  5
3B6
100
AcDbEntity
  8
0
100
AcDbSpline
 62
7
  6
CONTINUOUS
 70
0
 71
3
 72
9
 73
5
 74
0
 42
0.0000001
 43
0.0000001
 44
0.0000000001
 40
0.0
 40
0.0
 40
0.0
 40
0.0
 40
0.4893685985
 40
1.0
 40
1.0
 40
1.0
 40
1.0
 10
87.839015681
 20
170.0005522323
 30
0.0
 10
89.466607715
 20
168.5504772722
 30
0.0
 10
92.4590166915
 20
165.2040326311
 30
0.0
 10
94.7786479481
 20
161.3693838178
 30
0.0
 10
95.7714927285
 20
159.3229412662
 30
0.0
  0
SPLINE
  5
3B7
100
AcDbEntity
  8
0
100
AcDbSpline
 62
7
  6
CONTINUOUS
 70
0
 71
3
 72
9
 73
5
 74
0
 42
0.0000001
 43
0.0000001
 44
0.0000000001
 40
0.0
 40
0.0
 40
0.0
 40
0.0
 40
0.2648681877
 40
1.0
 40
1.0
 40
1.0
 40
1.0
 10
67.0595465711
 20
159.9753994844
 30
0.0
 10
66.9995802124
 20
160.4274516519
 30
0.0
 10
66.8231478861
 20
162.1396190952
 30
0.0
 10
66.853962915
 20
163.8791321654
 30
0.0
 10
67.0365876825
 20
165.13153196
 30
0.0
  0
SPLINE
  5
3B8
100
AcDbEntity
  8
0
100
AcDbSpline
 62
7
  6
CONTINUOUS
 70
0
 71
3
 72
22
 73
18
 74
0
 42
0.0000001
 43
0.0000001
 44
0.0000000001
 40
0.0
 40
0.0
 40
0.0
 40
0.0
 40
0.0623975591
 40
0.1287628939
 40
0.1983728907
 40
0.270371148
 40
0.4173895024
 40
0.4904362002
 40
0.5617440417
 40
0.6303613461
 40
0.6954677525
 40
0.7564330835
 40
0.812887037
 40
0.8648029983
 40
0.9125919584
 40
0.9571796981
 40
1.0
 40
1.0
 40
1.0
 40
1.0
 10
103.1888451274
 20
141.6883730664
 30
0.0
 10
103.1888451274
 20
142.9623849769
 30
0.0
 10
103.0161543577
 20
145.5931862466
 30
0.0
 10
102.3060341391
 20
149.5875284426
 30
0.0
 10
101.1510557935
 20
153.6809090683
 30
0.0
 10
99.0377472717
 20
159.1883094267
 30
0.0
 10
96.1828274583
 20
164.4634568654
 30
0.0
 10
92.7102044333
 20
169.3005348593
 30
0.0
 10
89.8694373763
 20
172.6010625248
 30
0.0
 10
86.8494469801
 20
175.509532739
 30
0.0
 10
83.71332823
 20
177.9647270505
 30
0.0
 10
80.5263063619
 20
179.9145319749
 30
0.0
 10
77.353077035
 20
181.316977995
 30
0.0
 10
74.2568019215
 20
182.1396441043
 30
0.0
 10
71.2982839868
 20
182.3573914855
 30
0.0
 10
68.5431978311
 20
181.9535912352
 30
0.0
 10
66.874186292
 20
181.2598667576
 30
0.0
 10
66.1170267762
 20
180.8227251012
 30
0.0
  0
SPLINE
  5
3B9
100
AcDbEntity
  8
0
100
AcDbSpline
 62
7
  6
CONTINUOUS
 70
0
 71
3
 72
9
 73
5
 74
0
 42
0.0000001
 43
0.0000001
 44
0.0000000001
 40
0.0
 40
0.0
 40
0.0
 40
0.0
 40
0.2590822117
 40
1.0
 40
1.0
 40
1.0
 40
1.0
 10
87.2131210317
 20
166.316390772
 30
0.0
 10
87.1731638936
 20
166.1476671607
 30
0.0
 10
87.0041452952
 20
165.5001190683
 30
0.0
 10
86.773536868
 20
164.8679088549
 30
0.0
 10
86.5641568376
 20
164.4184254611
 30
0.0
  0
SPLINE
  5
3BA
100
AcDbEntity
  8
0
100
AcDbSpline
 62
7
  6
CONTINUOUS
 70
0
 71
3
 72
9
 73
5
 74
0
 42
0.0000001
 43
0.0000001
 44
0.0000000001
 40
0.0
 40
0.0
 40
0.0
 40
0.0
 40
0.2297276577
 40
1.0
 40
1.0
 40
1.0
 40
1.0
 10
86.5641568376
 20
164.4184254611
 30
0.0
 10
86.5584904191
 20
164.4062291227
 30
0.0
 10
86.5375202638
 20
164.3514135691
 30
0.0
 10
86.5306236057
 20
164.2919516559
 30
0.0
 10
86.5306236057
 20
164.2468594953
 30
0.0
  0
SPLINE
  5
3BB
100
AcDbEntity
  8
0
100
AcDbSpline
 62
7
  6
CONTINUOUS
 70
0
 71
3
 72
9
 73
5
 74
0
 42
0.0000001
 43
0.0000001
 44
0.0000000001
 40
0.0
 40
0.0
 40
0.0
 40
0.0
 40
0.4817547589
 40
1.0
 40
1.0
 40
1.0
 40
1.0
 10
86.5306236057
 20
164.2468594953
 30
0.0
 10
86.5306236057
 20
164.1368144362
 30
0.0
 10
86.5922695012
 20
163.9092598124
 30
0.0
 10
86.7211322798
 20
163.7152796936
 30
0.0
 10
86.8041501505
 20
163.630888013
 30
0.0
  0
SPLINE
  5
3BC
100
AcDbEntity
  8
0
100
AcDbSpline
 62
7
  6
CONTINUOUS
 70
0
 71
3
 72
9
 73
5
 74
0
 42
0.0000001
 43
0.0000001
 44
0.0000000001
 40
0.0
 40
0.0
 40
0.0
 40
0.0
 40
0.4930932211
 40
1.0
 40
1.0
 40
1.0
 40
1.0
 10
86.8041501505
 20
163.630888013
 30
0.0
 10
87.6159249688
 20
162.8064464976
 30
0.0
 10
89.1159244223
 20
160.9866729346
 30
0.0
 10
90.3177068908
 20
158.9595455691
 30
0.0
 10
90.8436201647
 20
157.8927035448
 30
0.0
  0
SPLINE
  5
3BD
100
AcDbEntity
  8
0
100
AcDbSpline
 62
7
  6
CONTINUOUS
 70
0
 71
3
 72
10
 73
6
 74
0
 42
0.0000001
 43
0.0000001
 44
0.0000000001
 40
0.0
 40
0.0
 40
0.0
 40
0.0
 40
0.422528569
 40
0.7225184709
 40
1.0
 40
1.0
 40
1.0
 40
1.0
 10
81.5225787118
 20
154.1393670322
 30
0.0
 10
81.4989825186
 20
154.1257635534
 30
0.0
 10
81.4435829423
 20
154.1589422219
 30
0.0
 10
81.4123806386
 20
154.2117313573
 30
0.0
 10
81.4017906067
 20
154.2492808231
 30
0.0
 10
81.4018583438
 20
154.2671674537
 30
0.0
  0
SPLINE
  5
3BE
100
AcDbEntity
  8
0
100
AcDbSpline
 62
7
  6
CONTINUOUS
 70
0
 71
3
 72
9
 73
5
 74
0
 42
0.0000001
 43
0.0000001
 44
0.0000000001
 40
0.0
 40
0.0
 40
0.0
 40
0.0
 40
0.5514504011
 40
1.0
 40
1.0
 40
1.0
 40
1.0
 10
90.8436201647
 20
157.8927035448
 30
0.0
 10
90.8969846967
 20
157.7845112918
 30
0.0
 10
91.0256157174
 20
157.6040218376
 30
0.0
 10
91.2216366163
 20
157.4783298426
 30
0.0
 10
91.3184629701
 20
157.4624105835
 30
0.0
  0
SPLINE
  5
3BF
100
AcDbEntity
  8
0
100
AcDbSpline
 62
7
  6
CONTINUOUS
 70
0
 71
3
 72
22
 73
18
 74
0
 42
0.0000001
 43
0.0000001
 44
0.0000000001
 40
0.0
 40
0.0
 40
0.0
 40
0.0
 40
0.0428208383
 40
0.0874092649
 40
0.1351989801
 40
0.1871156196
 40
0.2435699929
 40
0.3045353986
 40
0.3696414748
 40
0.4382580263
 40
0.5095647825
 40
0.5826102943
 40
0.729627081
 40
0.8016252487
 40
0.8712354027
 40
0.9376017525
 40
1.0
 40
1.0
 40
1.0
 40
1.0
 10
66.4705788551
 20
181.0268470842
 30
0.0
 10
67.2277469346
 20
181.4639957599
 30
0.0
 10
68.896785641
 20
182.1577228217
 30
0.0
 10
71.6519133411
 20
182.5615192244
 30
0.0
 10
74.6104740131
 20
182.3437476565
 30
0.0
 10
77.7067783763
 20
181.5210443801
 30
0.0
 10
80.8800193015
 20
180.1185662413
 30
0.0
 10
84.0670327844
 20
178.1687417504
 30
0.0
 10
87.2031244274
 20
175.7135467398
 30
0.0
 10
90.2230727868
 20
172.8050971286
 30
0.0
 10
93.0637912088
 20
169.5046096103
 30
0.0
 10
96.5363653533
 20
164.6675937569
 30
0.0
 10
99.3912649233
 20
159.3925024147
 30
0.0
 10
101.5045698448
 20
153.8851339364
 30
0.0
 10
102.6595683712
 20
149.7917359765
 30
0.0
 10
103.3696962262
 20
145.7973565945
 30
0.0
 10
103.542397046
 20
143.1665210711
 30
0.0
 10
103.542397046
 20
141.8924951433
 30
0.0
  0
SPLINE
  5
3C0
100
AcDbEntity
  8
0
100
AcDbSpline
 62
7
  6
CONTINUOUS
 70
0
 71
3
 72
9
 73
5
 74
0
 42
0.0000001
 43
0.0000001
 44
0.0000000001
 40
0.0
 40
0.0
 40
0.0
 40
0.0
 40
0.2567750655
 40
1.0
 40
1.0
 40
1.0
 40
1.0
 10
91.3184629701
 20
157.4624105835
 30
0.0
 10
91.4359102138
 20
157.4431522837
 30
0.0
 10
91.894775966
 20
157.3776701528
 30
0.0
 10
92.3595332246
 20
157.351417877
 30
0.0
 10
92.703965107
 20
157.3575285689
 30
0.0
  0
SPLINE
  5
3C1
100
AcDbEntity
  8
0
100
AcDbSpline
 62
7
  6
CONTINUOUS
 70
0
 71
3
 72
15
 73
11
 74
0
 42
0.0000001
 43
0.0000001
 44
0.0000000001
 40
0.0
 40
0.0
 40
0.0
 40
0.0
 40
0.1139350456
 40
0.2369327202
 40
0.3664705175
 40
0.4994547573
 40
0.632514811
 40
0.7622741313
 40
0.8856207791
 40
1.0
 40
1.0
 40
1.0
 40
1.0
 10
56.1995479015
 20
150.7776332825
 30
0.0
 10
56.1968063542
 20
150.0529137357
 30
0.0
 10
56.3246130311
 20
148.5439199912
 30
0.0
 10
56.8474987736
 20
146.2659868322
 30
0.0
 10
57.6901082519
 20
143.95671841
 30
0.0
 10
58.8209163336
 20
141.7029239628
 30
0.0
 10
60.197570292
 20
139.5886370735
 30
0.0
 10
61.7688240113
 20
137.692866122
 30
0.0
 10
63.4755194428
 20
136.0867605106
 30
0.0
 10
64.716622233
 20
135.2103514735
 30
0.0
 10
65.3453250488
 20
134.8442068676
 30
0.0
  0
SPLINE
  5
3C2
100
AcDbEntity
  8
0
100
AcDbSpline
 62
7
  6
CONTINUOUS
 70
0
 71
3
 72
9
 73
5
 74
0
 42
0.0000001
 43
0.0000001
 44
0.0000000001
 40
0.0
 40
0.0
 40
0.0
 40
0.0
 40
0.2561418822
 40
1.0
 40
1.0
 40
1.0
 40
1.0
 10
98.4570752553
 20
158.0077130414
 30
0.0
 10
98.3607715846
 20
157.8718436877
 30
0.0
 10
97.9665487102
 20
157.3546875975
 30
0.0
 10
97.4958897068
 20
156.8948620647
 30
0.0
 10
97.1115551614
 20
156.6012720953
 30
0.0
  0
SPLINE
  5
3C3
100
AcDbEntity
  8
0
100
AcDbSpline
 62
7
  6
CONTINUOUS
 70
0
 71
3
 72
9
 73
5
 74
0
 42
0.0000001
 43
0.0000001
 44
0.0000000001
 40
0.0
 40
0.0
 40
0.0
 40
0.0
 40
0.4520936554
 40
1.0
 40
1.0
 40
1.0
 40
1.0
 10
97.1115551614
 20
156.6012720953
 30
0.0
 10
97.0771779804
 20
156.5749738255
 30
0.0
 10
97.0209981539
 20
156.4906735366
 30
0.0
 10
97.0089039708
 20
156.3934413912
 30
0.0
 10
97.0089039708
 20
156.3409857783
 30
0.0
  0
SPLINE
  5
3C4
100
AcDbEntity
  8
0
100
AcDbSpline
 62
7
  6
CONTINUOUS
 70
0
 71
3
 72
9
 73
5
 74
0
 42
0.0000001
 43
0.0000001
 44
0.0000000001
 40
0.0
 40
0.0
 40
0.0
 40
0.0
 40
0.2325678793
 40
1.0
 40
1.0
 40
1.0
 40
1.0
 10
97.0089039708
 20
156.3409857783
 30
0.0
 10
97.0089039708
 20
156.3191012908
 30
0.0
 10
97.0143726119
 20
156.2250151929
 30
0.0
 10
97.0389869965
 20
156.1326202263
 30
0.0
 10
97.0649542054
 20
156.0652355753
 30
0.0
  0
SPLINE
  5
3C5
100
AcDbEntity
  8
0
100
AcDbSpline
 62
7
  6
CONTINUOUS
 70
0
 71
3
 72
11
 73
7
 74
0
 42
0.0000001
 43
0.0000001
 44
0.0000000001
 40
0.0
 40
0.0
 40
0.0
 40
0.0
 40
0.2717504103
 40
0.5312212661
 40
0.7748061942
 40
1.0
 40
1.0
 40
1.0
 40
1.0
 10
97.0649542054
 20
156.0652355753
 30
0.0
 10
97.463523863
 20
155.0317159476
 30
0.0
 10
98.1459854095
 20
152.9721822358
 30
0.0
 10
98.820379462
 20
149.8802336788
 30
0.0
 10
99.1104392057
 20
146.9187862818
 30
0.0
 10
99.0384610338
 20
145.0009061566
 30
0.0
 10
98.9275278348
 20
144.0896985096
 30
0.0
  0
SPLINE
  5
3C6
100
AcDbEntity
  8
0
100
AcDbSpline
 62
7
  6
CONTINUOUS
 70
0
 71
3
 72
8
 73
4
 74
0
 42
0.0000001
 43
0.0000001
 44
0.0000000001
 40
0.0
 40
0.0
 40
0.0
 40
0.0
 40
1.0
 40
1.0
 40
1.0
 40
1.0
 10
98.9275278348
 20
144.0896985096
 30
0.0
 10
98.9250354769
 20
144.0692401795
 30
0.0
 10
98.9239119078
 20
144.0485851592
 30
0.0
 10
98.9239119078
 20
144.0279755712
 30
0.0
  0
SPLINE
  5
3C7
100
AcDbEntity
  8
0
100
AcDbSpline
 62
7
  6
CONTINUOUS
 70
0
 71
3
 72
14
 73
10
 74
0
 42
0.0000001
 43
0.0000001
 44
0.0000000001
 40
0.0
 40
0.0
 40
0.0
 40
0.0
 40
0.1080463963
 40
0.2181288697
 40
0.3321032235
 40
0.4515021907
 40
0.5774503923
 40
0.710717544
 40
1.0
 40
1.0
 40
1.0
 40
1.0
 10
96.8281105097
 20
127.6292499024
 30
0.0
 10
97.3316354791
 20
127.919957124
 30
0.0
 10
98.2998085836
 20
128.5953709276
 30
0.0
 10
99.5788843428
 20
129.8543549465
 30
0.0
 10
100.6790760162
 20
131.3484747252
 30
0.0
 10
101.5898913874
 20
133.0610281176
 30
0.0
 10
102.3046335974
 20
134.9747294474
 30
0.0
 10
103.0071118302
 20
137.8466856283
 30
0.0
 10
103.1888451274
 20
140.1316869616
 30
0.0
 10
103.1888451274
 20
141.6883730664
 30
0.0
  0
SPLINE
  5
3C8
100
AcDbEntity
  8
0
100
AcDbSpline
 62
7
  6
CONTINUOUS
 70
0
 71
3
 72
11
 73
7
 74
0
 42
0.0000001
 43
0.0000001
 44
0.0000000001
 40
0.0
 40
0.0
 40
0.0
 40
0.0
 40
0.2413665002
 40
0.5085120068
 40
0.770949996
 40
1.0
 40
1.0
 40
1.0
 40
1.0
 10
98.9239119078
 20
144.0279755712
 30
0.0
 10
98.9239119078
 20
143.952510743
 30
0.0
 10
98.9544644129
 20
143.7934693025
 30
0.0
 10
99.0585980289
 20
143.5738315214
 30
0.0
 10
99.2080053114
 20
143.3870585614
 30
0.0
 10
99.3354398423
 20
143.2949635084
 30
0.0
 10
99.401197954
 20
143.2666009462
 30
0.0
  0
SPLINE
  5
3C9
100
AcDbEntity
  8
0
100
AcDbSpline
 62
7
  6
CONTINUOUS
 70
0
 71
3
 72
9
 73
5
 74
0
 42
0.0000001
 43
0.0000001
 44
0.0000000001
 40
0.0
 40
0.0
 40
0.0
 40
0.0
 40
0.2637464339
 40
1.0
 40
1.0
 40
1.0
 40
1.0
 10
99.401197954
 20
143.2666009462
 30
0.0
 10
99.6321152113
 20
143.1669588193
 30
0.0
 10
100.5184621793
 20
142.8157969605
 30
0.0
 10
101.4522993762
 20
142.5762599392
 30
0.0
 10
102.1490212
 20
142.4898297158
 30
0.0
  0
SPLINE
  5
3CA
100
AcDbEntity
  8
0
100
AcDbSpline
 62
7
  6
CONTINUOUS
 70
0
 71
3
 72
9
 73
5
 74
0
 42
0.0000001
 43
0.0000001
 44
0.0000000001
 40
0.0
 40
0.0
 40
0.0
 40
0.0
 40
0.2492480069
 40
1.0
 40
1.0
 40
1.0
 40
1.0
 10
164.5141723653
 20
159.5944819644
 30
0.0
 10
164.5133546195
 20
159.3643747921
 30
0.0
 10
164.508772118
 20
158.4411746025
 30
0.0
 10
164.4976753778
 20
157.5180036753
 30
0.0
 10
164.4853333043
 20
156.8250107009
 30
0.0
  0
SPLINE
  5
3CB
100
AcDbEntity
  8
0
100
AcDbSpline
 62
7
  6
CONTINUOUS
 70
0
 71
3
 72
9
 73
5
 74
0
 42
0.0000001
 43
0.0000001
 44
0.0000000001
 40
0.0
 40
0.0
 40
0.0
 40
0.0
 40
0.4558224013
 40
1.0
 40
1.0
 40
1.0
 40
1.0
 10
66.4987472597
 20
167.7182225042
 30
0.0
 10
66.4623157903
 20
167.6971767252
 30
0.0
 10
66.3657592466
 20
167.6787940997
 30
0.0
 10
66.2755645835
 20
167.7088602622
 30
0.0
 10
66.2304697803
 20
167.7309825817
 30
0.0
  0
SPLINE
  5
3CC
100
AcDbEntity
  8
0
100
AcDbSpline
 62
7
  6
CONTINUOUS
 70
0
 71
3
 72
11
 73
7
 74
0
 42
0.0000001
 43
0.0000001
 44
0.0000000001
 40
0.0
 40
0.0
 40
0.0
 40
0.0
 40
0.2895206152
 40
0.5487221848
 40
0.7819803856
 40
1.0
 40
1.0
 40
1.0
 40
1.0
 10
105.6967574794
 20
121.9516668264
 30
0.0
 10
105.6948490609
 20
121.448277571
 30
0.0
 10
105.6150704084
 20
120.4912418422
 30
0.0
 10
105.222456611
 20
119.17694912
 30
0.0
 10
104.5664249061
 20
118.1104681984
 30
0.0
 10
103.9519157184
 20
117.5950780142
 30
0.0
 10
103.6236254877
 20
117.4055468769
 30
0.0
  0
SPLINE
  5
3CD
100
AcDbEntity
  8
0
100
AcDbSpline
 62
7
  6
CONTINUOUS
 70
0
 71
3
 72
9
 73
5
 74
0
 42
0.0000001
 43
0.0000001
 44
0.0000000001
 40
0.0
 40
0.0
 40
0.0
 40
0.0
 40
0.5186956464
 40
1.0
 40
1.0
 40
1.0
 40
1.0
 10
92.2417815114
 20
154.2885037515
 30
0.0
 10
92.4538727772
 20
153.5436230547
 30
0.0
 10
92.7787248089
 20
152.0817880233
 30
0.0
 10
92.9004880316
 20
150.5870060617
 30
0.0
 10
92.8977664828
 20
149.8683548717
 30
0.0
  0
SPLINE
  5
3CE
100
AcDbEntity
  8
0
100
AcDbSpline
 62
7
  6
CONTINUOUS
 70
0
 71
3
 72
9
 73
5
 74
0
 42
0.0000001
 43
0.0000001
 44
0.0000000001
 40
0.0
 40
0.0
 40
0.0
 40
0.0
 40
0.2554073993
 40
1.0
 40
1.0
 40
1.0
 40
1.0
 10
92.8977664828
 20
149.8683548717
 30
0.0
 10
92.8973949405
 20
149.7702455428
 30
0.0
 10
92.8914219562
 20
149.3861552121
 30
0.0
 10
92.8670232378
 20
149.0022885453
 30
0.0
 10
92.8373006428
 20
148.7178155966
 30
0.0
  0
SPLINE
  5
3CF
100
AcDbEntity
  8
0
100
AcDbSpline
 62
7
  6
CONTINUOUS
 70
0
 71
3
 72
9
 73
5
 74
0
 42
0.0000001
 43
0.0000001
 44
0.0000000001
 40
0.0
 40
0.0
 40
0.0
 40
0.0
 40
0.4402259358
 40
1.0
 40
1.0
 40
1.0
 40
1.0
 10
82.8882944738
 20
164.3857200721
 30
0.0
 10
82.8415127151
 20
164.3588645215
 30
0.0
 10
82.7079982546
 20
164.3466490707
 30
0.0
 10
82.5963803408
 20
164.4065536024
 30
0.0
 10
82.5404071975
 20
164.4461981693
 30
0.0
  0
SPLINE
  5
3D0
100
AcDbEntity
  8
0
100
AcDbSpline
 62
7
  6
CONTINUOUS
 70
0
 71
3
 72
8
 73
4
 74
0
 42
0.0000001
 43
0.0000001
 44
0.0000000001
 40
0.0
 40
0.0
 40
0.0
 40
0.0
 40
1.0
 40
1.0
 40
1.0
 40
1.0
 10
92.8373006428
 20
148.7178155966
 30
0.0
 10
92.8354464955
 20
148.7000057446
 30
0.0
 10
92.8345983247
 20
148.6820713949
 30
0.0
 10
92.8345983247
 20
148.6641652872
 30
0.0
  0
SPLINE
  5
3D1
100
AcDbEntity
  8
0
100
AcDbSpline
 62
7
  6
CONTINUOUS
 70
0
 71
3
 72
9
 73
5
 74
0
 42
0.0000001
 43
0.0000001
 44
0.0000000001
 40
0.0
 40
0.0
 40
0.0
 40
0.0
 40
0.4792648369
 40
1.0
 40
1.0
 40
1.0
 40
1.0
 10
92.8345983247
 20
148.6641652872
 30
0.0
 10
92.8345983247
 20
148.5617527982
 30
0.0
 10
92.888721988
 20
148.348638963
 30
0.0
 10
93.0034710683
 20
148.16417499
 30
0.0
 10
93.0774444361
 20
148.0810493271
 30
0.0
  0
SPLINE
  5
3D2
100
AcDbEntity
  8
0
100
AcDbSpline
 62
7
  6
CONTINUOUS
 70
0
 71
3
 72
9
 73
5
 74
0
 42
0.0000001
 43
0.0000001
 44
0.0000000001
 40
0.0
 40
0.0
 40
0.0
 40
0.0
 40
0.25792642
 40
1.0
 40
1.0
 40
1.0
 40
1.0
 10
93.0774444361
 20
148.0810493271
 30
0.0
 10
93.3114027711
 20
147.8182554354
 30
0.0
 10
94.2399232497
 20
146.8188932364
 30
0.0
 10
95.2552435849
 20
145.8985201651
 30
0.0
 10
96.0561684372
 20
145.2794422774
 30
0.0
  0
SPLINE
  5
3D3
100
AcDbEntity
  8
0
100
AcDbSpline
 62
7
  6
CONTINUOUS
 70
0
 71
3
 72
11
 73
7
 74
0
 42
0.0000001
 43
0.0000001
 44
0.0000000001
 40
0.0
 40
0.0
 40
0.0
 40
0.0
 40
0.1843582638
 40
0.4148449258
 40
0.6952622142
 40
1.0
 40
1.0
 40
1.0
 40
1.0
 10
94.4873399026
 20
157.6412420015
 30
0.0
 10
94.4431650067
 20
157.6159079208
 30
0.0
 10
94.3194350675
 20
157.6015174861
 30
0.0
 10
94.1414975786
 20
157.6870850502
 30
0.0
 10
93.9755319916
 20
157.8427011578
 30
0.0
 10
93.8875793907
 20
157.9806958458
 30
0.0
 10
93.8511279361
 20
158.0565692734
 30
0.0
  0
SPLINE
  5
3D4
100
AcDbEntity
  8
0
100
AcDbSpline
 62
7
  6
CONTINUOUS
 70
0
 71
3
 72
11
 73
7
 74
0
 42
0.0000001
 43
0.0000001
 44
0.0000000001
 40
0.0
 40
0.0
 40
0.0
 40
0.0
 40
0.2888429956
 40
0.5484366455
 40
0.7824364646
 40
1.0
 40
1.0
 40
1.0
 40
1.0
 10
98.5791657726
 20
115.4896293792
 30
0.0
 10
99.128968399
 20
115.169440756
 30
0.0
 10
100.2227728257
 20
114.639670014
 30
0.0
 10
101.9042812095
 20
114.2034406219
 30
0.0
 10
103.4895161527
 20
114.1912064532
 30
0.0
 10
104.4601128723
 20
114.4871517906
 30
0.0
 10
104.8886035723
 20
114.7017671528
 30
0.0
  0
SPLINE
  5
3D5
100
AcDbEntity
  8
0
100
AcDbSpline
 62
7
  6
CONTINUOUS
 70
0
 71
3
 72
10
 73
6
 74
0
 42
0.0000001
 43
0.0000001
 44
0.0000000001
 40
0.0
 40
0.0
 40
0.0
 40
0.0
 40
0.5173119332
 40
0.7610351635
 40
1.0
 40
1.0
 40
1.0
 40
1.0
 10
97.7805676507
 20
140.1730906867
 30
0.0
 10
97.4237138563
 20
139.3412434388
 30
0.0
 10
96.7333582413
 20
138.1711264933
 30
0.0
 10
95.492569194
 20
136.9280754364
 30
0.0
 10
94.7972938897
 20
136.4392216851
 30
0.0
 10
94.4352439473
 20
136.2300592997
 30
0.0
  0
SPLINE
  5
3D6
100
AcDbEntity
  8
0
100
AcDbSpline
 62
7
  6
CONTINUOUS
 70
0
 71
3
 72
9
 73
5
 74
0
 42
0.0000001
 43
0.0000001
 44
0.0000000001
 40
0.0
 40
0.0
 40
0.0
 40
0.0
 40
0.4749052587
 40
1.0
 40
1.0
 40
1.0
 40
1.0
 10
92.7931085987
 20
135.294364386
 30
0.0
 10
92.7931085987
 20
135.2138043979
 30
0.0
 10
92.8280872555
 20
135.0444311814
 30
0.0
 10
92.9040528383
 20
134.8906334491
 30
0.0
 10
92.9540888244
 20
134.8169412126
 30
0.0
  0
SPLINE
  5
3D7
100
AcDbEntity
  8
0
100
AcDbSpline
 62
7
  6
CONTINUOUS
 70
0
 71
3
 72
9
 73
5
 74
0
 42
0.0000001
 43
0.0000001
 44
0.0000000001
 40
0.0
 40
0.0
 40
0.0
 40
0.0
 40
0.5116277106
 40
1.0
 40
1.0
 40
1.0
 40
1.0
 10
92.9540888244
 20
134.8169412126
 30
0.0
 10
93.5757160969
 20
133.9012326459
 30
0.0
 10
94.8986085481
 20
132.1820343661
 30
0.0
 10
96.432099075
 20
130.6452067125
 30
0.0
 10
97.2322084236
 20
129.9553213017
 30
0.0
  0
SPLINE
  5
3D8
100
AcDbEntity
  8
0
100
AcDbSpline
 62
7
  6
CONTINUOUS
 70
0
 71
3
 72
9
 73
5
 74
0
 42
0.0000001
 43
0.0000001
 44
0.0000000001
 40
0.0
 40
0.0
 40
0.0
 40
0.0
 40
0.254388748
 40
1.0
 40
1.0
 40
1.0
 40
1.0
 10
91.2998825432
 20
144.7684390479
 30
0.0
 10
91.2151035766
 20
144.6712426949
 30
0.0
 10
90.8672449194
 20
144.3021973369
 30
0.0
 10
90.4586526866
 20
143.9899698735
 30
0.0
 10
90.1312678739
 20
143.8009665341
 30
0.0
  0
SPLINE
  5
3D9
100
AcDbEntity
  8
0
100
AcDbSpline
 62
7
  6
CONTINUOUS
 70
0
 71
3
 72
9
 73
5
 74
0
 42
0.0000001
 43
0.0000001
 44
0.0000000001
 40
0.0
 40
0.0
 40
0.0
 40
0.0
 40
0.2368989678
 40
1.0
 40
1.0
 40
1.0
 40
1.0
 10
89.1734602127
 20
143.1482103235
 30
0.0
 10
89.1734602127
 20
143.1338946428
 30
0.0
 10
89.1757564107
 20
143.0734698456
 30
0.0
 10
89.1865228278
 20
143.0135126854
 30
0.0
 10
89.1982401994
 20
142.9689124004
 30
0.0
  0
SPLINE
  5
3DA
100
AcDbEntity
  8
0
100
AcDbSpline
 62
7
  6
CONTINUOUS
 70
0
 71
3
 72
9
 73
5
 74
0
 42
0.0000001
 43
0.0000001
 44
0.0000000001
 40
0.0
 40
0.0
 40
0.0
 40
0.0
 40
0.2434052087
 40
1.0
 40
1.0
 40
1.0
 40
1.0
 10
89.1982401994
 20
142.9689124004
 30
0.0
 10
89.3273156197
 20
142.4780475949
 30
0.0
 10
89.9241336827
 20
140.4792366001
 30
0.0
 10
90.7693952478
 20
138.556576832
 30
0.0
 10
91.5222468684
 20
137.1701319255
 30
0.0
  0
SPLINE
  5
3DB
100
AcDbEntity
  8
0
100
AcDbSpline
 62
7
  6
CONTINUOUS
 70
0
 71
3
 72
10
 73
6
 74
0
 42
0.0000001
 43
0.0000001
 44
0.0000000001
 40
0.0
 40
0.0
 40
0.0
 40
0.0
 40
0.3010689125
 40
0.5795443605
 40
1.0
 40
1.0
 40
1.0
 40
1.0
 10
91.5222468684
 20
137.1701319255
 30
0.0
 10
91.5567288989
 20
137.1066939133
 30
0.0
 10
91.637061396
 20
136.9905670406
 30
0.0
 10
91.8077423639
 20
136.8270439404
 30
0.0
 10
91.9883077481
 20
136.7538384252
 30
0.0
 10
92.0857638463
 20
136.7797257498
 30
0.0
  0
SPLINE
  5
3DC
100
AcDbEntity
  8
0
100
AcDbSpline
 62
7
  6
CONTINUOUS
 70
0
 71
3
 72
9
 73
5
 74
0
 42
0.0000001
 43
0.0000001
 44
0.0000000001
 40
0.0
 40
0.0
 40
0.0
 40
0.0
 40
0.242689305
 40
1.0
 40
1.0
 40
1.0
 40
1.0
 10
81.2250108076
 20
136.5635707026
 30
0.0
 10
81.2970070787
 20
136.2027868104
 30
0.0
 10
81.6324598745
 20
134.7240507442
 30
0.0
 10
82.114665057
 20
133.2797096664
 30
0.0
 10
82.5473193658
 20
132.216335624
 30
0.0
  0
SPLINE
  5
3DD
100
AcDbEntity
  8
0
100
AcDbSpline
 62
7
  6
CONTINUOUS
 70
0
 71
3
 72
9
 73
5
 74
0
 42
0.0000001
 43
0.0000001
 44
0.0000000001
 40
0.0
 40
0.0
 40
0.0
 40
0.0
 40
0.521420166
 40
1.0
 40
1.0
 40
1.0
 40
1.0
 10
82.5473193658
 20
132.216335624
 30
0.0
 10
82.5845895172
 20
132.1254686529
 30
0.0
 10
82.6812491362
 20
131.961002403
 30
0.0
 10
82.8205462077
 20
131.828094991
 30
0.0
 10
82.89737428
 20
131.7809419919
 30
0.0
  0
SPLINE
  5
3DE
100
AcDbEntity
  8
0
100
AcDbSpline
 62
7
  6
CONTINUOUS
 70
0
 71
3
 72
9
 73
5
 74
0
 42
0.0000001
 43
0.0000001
 44
0.0000000001
 40
0.0
 40
0.0
 40
0.0
 40
0.0
 40
0.2380156108
 40
1.0
 40
1.0
 40
1.0
 40
1.0
 10
81.2930417891
 20
143.4736450351
 30
0.0
 10
81.2313894958
 20
143.2592704652
 30
0.0
 10
81.0036302481
 20
142.3496566214
 30
0.0
 10
80.8958269462
 20
141.4120204361
 30
0.0
 10
80.8671930346
 20
140.6984771281
 30
0.0
  0
SPLINE
  5
3DF
100
AcDbEntity
  8
0
100
AcDbSpline
 62
7
  6
CONTINUOUS
 70
0
 71
3
 72
9
 73
5
 74
0
 42
0.0000001
 43
0.0000001
 44
0.0000000001
 40
0.0
 40
0.0
 40
0.0
 40
0.0
 40
0.4908812339
 40
1.0
 40
1.0
 40
1.0
 40
1.0
 10
80.866772276
 20
140.6769013241
 30
0.0
 10
80.866772276
 20
140.5465017578
 30
0.0
 10
80.9497175304
 20
140.2829752357
 30
0.0
 10
81.1180100924
 20
140.0669762779
 30
0.0
 10
81.2258146801
 20
139.9853112356
 30
0.0
  0
SPLINE
  5
3E0
100
AcDbEntity
  8
0
100
AcDbSpline
 62
7
  6
CONTINUOUS
 70
0
 71
3
 72
9
 73
5
 74
0
 42
0.0000001
 43
0.0000001
 44
0.0000000001
 40
0.0
 40
0.0
 40
0.0
 40
0.0
 40
0.2650383855
 40
1.0
 40
1.0
 40
1.0
 40
1.0
 10
81.2258146801
 20
139.9853112356
 30
0.0
 10
81.587829634
 20
139.7113862746
 30
0.0
 10
82.9831964131
 20
138.7187621355
 30
0.0
 10
84.505159523
 20
137.8935672818
 30
0.0
 10
85.6796639139
 20
137.440449074
 30
0.0
  0
SPLINE
  5
3E1
100
AcDbEntity
  8
0
100
AcDbSpline
 62
7
  6
CONTINUOUS
 70
0
 71
3
 72
9
 73
5
 74
0
 42
0.0000001
 43
0.0000001
 44
0.0000000001
 40
0.0
 40
0.0
 40
0.0
 40
0.0
 40
0.2582043419
 40
1.0
 40
1.0
 40
1.0
 40
1.0
 10
85.6796639139
 20
137.440449074
 30
0.0
 10
85.851218663
 20
137.3742500177
 30
0.0
 10
86.520434898
 20
137.1306712587
 30
0.0
 10
87.2093948854
 20
136.939887536
 30
0.0
 10
87.7272490549
 20
136.835447782
 30
0.0
  0
SPLINE
  5
3E2
100
AcDbEntity
  8
0
100
AcDbSpline
 62
7
  6
CONTINUOUS
 70
0
 71
3
 72
9
 73
5
 74
0
 42
0.0000001
 43
0.0000001
 44
0.0000000001
 40
0.0
 40
0.0
 40
0.0
 40
0.0
 40
0.4454271442
 40
1.0
 40
1.0
 40
1.0
 40
1.0
 10
95.7892825041
 20
143.118285928
 30
0.0
 10
95.7463683591
 20
143.0934944184
 30
0.0
 10
95.6267509857
 20
143.0782501973
 30
0.0
 10
95.5224741775
 20
143.1265493211
 30
0.0
 10
95.4702378966
 20
143.159394857
 30
0.0
  0
SPLINE
  5
3E3
100
AcDbEntity
  8
0
100
AcDbSpline
 62
7
  6
CONTINUOUS
 70
0
 71
3
 72
9
 73
5
 74
0
 42
0.0000001
 43
0.0000001
 44
0.0000000001
 40
0.0
 40
0.0
 40
0.0
 40
0.0
 40
0.2391258062
 40
1.0
 40
1.0
 40
1.0
 40
1.0
 10
69.1400621852
 20
150.3053940704
 30
0.0
 10
69.0494879081
 20
150.1411931784
 30
0.0
 10
68.6974115861
 20
149.4398558548
 30
0.0
 10
68.4509781578
 20
148.6877679594
 30
0.0
 10
68.3143668887
 20
148.1069313408
 30
0.0
  0
SPLINE
  5
3E4
100
AcDbEntity
  8
0
100
AcDbSpline
 62
7
  6
CONTINUOUS
 70
0
 71
3
 72
9
 73
5
 74
0
 42
0.0000001
 43
0.0000001
 44
0.0000000001
 40
0.0
 40
0.0
 40
0.0
 40
0.0
 40
0.2383653954
 40
1.0
 40
1.0
 40
1.0
 40
1.0
 10
68.3143668887
 20
148.1069313408
 30
0.0
 10
68.3124666668
 20
148.0986569731
 30
0.0
 10
68.3056250197
 20
148.0636864515
 30
0.0
 10
68.3031006911
 20
148.0279355719
 30
0.0
 10
68.3031006911
 20
148.0008087568
 30
0.0
  0
SPLINE
  5
3E5
100
AcDbEntity
  8
0
100
AcDbSpline
 62
7
  6
CONTINUOUS
 70
0
 71
3
 72
9
 73
5
 74
0
 42
0.0000001
 43
0.0000001
 44
0.0000000001
 40
0.0
 40
0.0
 40
0.0
 40
0.0
 40
0.2293336435
 40
1.0
 40
1.0
 40
1.0
 40
1.0
 10
68.3031006911
 20
148.0008087568
 30
0.0
 10
68.3031006911
 20
147.9684058239
 30
0.0
 10
68.3151434164
 20
147.8271818171
 30
0.0
 10
68.3663116435
 20
147.6909974573
 30
0.0
 10
68.4190307609
 20
147.5957217985
 30
0.0
  0
SPLINE
  5
3E6
100
AcDbEntity
  8
0
100
AcDbSpline
 62
7
  6
CONTINUOUS
 70
0
 71
3
 72
9
 73
5
 74
0
 42
0.0000001
 43
0.0000001
 44
0.0000000001
 40
0.0
 40
0.0
 40
0.0
 40
0.0
 40
0.2497168479
 40
1.0
 40
1.0
 40
1.0
 40
1.0
 10
71.683431984
 20
152.1740010865
 30
0.0
 10
71.9035046112
 20
151.7005452638
 30
0.0
 10
72.8288621661
 20
149.8253889098
 30
0.0
 10
73.9254998744
 20
148.0346198253
 30
0.0
 10
74.8357851665
 20
146.7570690979
 30
0.0
  0
SPLINE
  5
3E7
100
AcDbEntity
  8
0
100
AcDbSpline
 62
7
  6
CONTINUOUS
 70
0
 71
3
 72
9
 73
5
 74
0
 42
0.0000001
 43
0.0000001
 44
0.0000000001
 40
0.0
 40
0.0
 40
0.0
 40
0.0
 40
0.2539185195
 40
1.0
 40
1.0
 40
1.0
 40
1.0
 10
74.8357851665
 20
146.7570690979
 30
0.0
 10
75.0589921032
 20
146.4437797674
 30
0.0
 10
75.9592371623
 20
145.2252663539
 30
0.0
 10
76.9440705229
 20
144.0687260154
 30
0.0
 10
77.7250706543
 20
143.2516936449
 30
0.0
  0
SPLINE
  5
3E8
100
AcDbEntity
  8
0
100
AcDbSpline
 62
7
  6
CONTINUOUS
 70
0
 71
3
 72
10
 73
6
 74
0
 42
0.0000001
 43
0.0000001
 44
0.0000000001
 40
0.0
 40
0.0
 40
0.0
 40
0.0
 40
0.2311150954
 40
0.476821789
 40
1.0
 40
1.0
 40
1.0
 40
1.0
 10
62.7405846431
 20
167.0971831566
 30
0.0
 10
62.7508670496
 20
165.8587406507
 30
0.0
 10
62.940486172
 20
163.3030160547
 30
0.0
 10
63.9279437316
 20
158.0289932272
 30
0.0
 10
65.2969721435
 20
154.1086922302
 30
0.0
 10
66.4397464146
 20
151.5485948012
 30
0.0
  0
SPLINE
  5
3E9
100
AcDbEntity
  8
0
100
AcDbSpline
 62
7
  6
CONTINUOUS
 70
0
 71
3
 72
11
 73
7
 74
0
 42
0.0000001
 43
0.0000001
 44
0.0000000001
 40
0.0
 40
0.0
 40
0.0
 40
0.0
 40
0.295363771
 40
0.5778601674
 40
0.8149328067
 40
1.0
 40
1.0
 40
1.0
 40
1.0
 10
70.4576785228
 20
155.4187899716
 30
0.0
 10
70.4878156005
 20
155.3350223014
 30
0.0
 10
70.5694323139
 20
155.1784793308
 30
0.0
 10
70.7357290741
 20
154.9942207505
 30
0.0
 10
70.9208249551
 20
154.881327155
 30
0.0
 10
71.0588366563
 20
154.8770991836
 30
0.0
 10
71.1102847205
 20
154.8986517727
 30
0.0
  0
SPLINE
  5
3EA
100
AcDbEntity
  8
0
100
AcDbSpline
 62
7
  6
CONTINUOUS
 70
0
 71
3
 72
9
 73
5
 74
0
 42
0.0000001
 43
0.0000001
 44
0.0000000001
 40
0.0
 40
0.0
 40
0.0
 40
0.0
 40
0.2463713005
 40
1.0
 40
1.0
 40
1.0
 40
1.0
 10
71.1102847205
 20
154.8986517727
 30
0.0
 10
71.2347296066
 20
154.9507602267
 30
0.0
 10
71.746846246
 20
155.1453055367
 30
0.0
 10
72.2846400976
 20
155.2707568909
 30
0.0
 10
72.6933769261
 20
155.3277468473
 30
0.0
  0
SPLINE
  5
3EB
100
AcDbEntity
  8
0
100
AcDbSpline
 62
7
  6
CONTINUOUS
 70
0
 71
3
 72
9
 73
5
 74
0
 42
0.0000001
 43
0.0000001
 44
0.0000000001
 40
0.0
 40
0.0
 40
0.0
 40
0.0
 40
0.2429693101
 40
1.0
 40
1.0
 40
1.0
 40
1.0
 10
68.8501012421
 20
163.881775488
 30
0.0
 10
68.8501012421
 20
163.6573594604
 30
0.0
 10
68.8667096762
 20
162.7337546632
 30
0.0
 10
68.9474882851
 20
161.8116343969
 30
0.0
 10
69.0394373153
 20
161.1184831154
 30
0.0
  0
SPLINE
  5
3EC
100
AcDbEntity
  8
0
100
AcDbSpline
 62
7
  6
CONTINUOUS
 70
0
 71
3
 72
9
 73
5
 74
0
 42
0.0000001
 43
0.0000001
 44
0.0000000001
 40
0.0
 40
0.0
 40
0.0
 40
0.0
 40
0.2405844279
 40
1.0
 40
1.0
 40
1.0
 40
1.0
 10
69.0394373153
 20
161.1184831154
 30
0.0
 10
69.1014208929
 20
160.6510397195
 30
0.0
 10
69.4177210944
 20
158.7160431025
 30
0.0
 10
69.9536361414
 20
156.8192684734
 30
0.0
 10
70.4576785228
 20
155.4187899716
 30
0.0
  0
SPLINE
  5
3ED
100
AcDbEntity
  8
0
100
AcDbSpline
 62
7
  6
CONTINUOUS
 70
0
 71
3
 72
11
 73
7
 74
0
 42
0.0000001
 43
0.0000001
 44
0.0000000001
 40
0.0
 40
0.0
 40
0.0
 40
0.0
 40
0.232708952
 40
0.4729198348
 40
0.7272023164
 40
1.0
 40
1.0
 40
1.0
 40
1.0
 10
92.4553402555
 20
135.0869980617
 30
0.0
 10
92.9182776061
 20
135.3543921554
 30
0.0
 10
93.799859225
 20
136.0076922634
 30
0.0
 10
94.8996321625
 20
137.2810317214
 30
0.0
 10
95.7689587225
 20
138.8261410487
 30
0.0
 10
96.1724139641
 20
139.9743156982
 30
0.0
 10
96.3369871371
 20
140.5790315963
 30
0.0
  0
SPLINE
  5
3EE
100
AcDbEntity
  8
0
100
AcDbSpline
 62
7
  6
CONTINUOUS
 70
0
 71
3
 72
9
 73
5
 74
0
 42
0.0000001
 43
0.0000001
 44
0.0000000001
 40
0.0
 40
0.0
 40
0.0
 40
0.0
 40
0.2715309874
 40
1.0
 40
1.0
 40
1.0
 40
1.0
 10
66.2304697803
 20
167.7309825817
 30
0.0
 10
65.8418506876
 20
167.9218118085
 30
0.0
 10
64.3834170041
 20
168.5618470978
 30
0.0
 10
62.7866125983
 20
168.9321407521
 30
0.0
 10
61.6251702139
 20
168.9448103093
 30
0.0
  0
SPLINE
  5
3EF
100
AcDbEntity
  8
0
100
AcDbSpline
 62
7
  6
CONTINUOUS
 70
0
 71
3
 72
11
 73
7
 74
0
 42
0.0000001
 43
0.0000001
 44
0.0000000001
 40
0.0
 40
0.0
 40
0.0
 40
0.0
 40
0.2091360083
 40
0.4754151275
 40
0.7564687065
 40
1.0
 40
1.0
 40
1.0
 40
1.0
 10
61.6251702139
 20
168.9448103093
 30
0.0
 10
61.5453342443
 20
168.9456400677
 30
0.0
 10
61.3687380625
 20
169.0256742652
 30
0.0
 10
61.1708427391
 20
169.2402795852
 30
0.0
 10
61.0345629976
 20
169.5138090674
 30
0.0
 10
61.0057952948
 20
169.7195119339
 30
0.0
 10
61.0196748313
 20
169.8114411781
 30
0.0
  0
SPLINE
  5
3F0
100
AcDbEntity
  8
0
100
AcDbSpline
 62
7
  6
CONTINUOUS
 70
0
 71
3
 72
11
 73
7
 74
0
 42
0.0000001
 43
0.0000001
 44
0.0000000001
 40
0.0
 40
0.0
 40
0.0
 40
0.0
 40
0.2799496632
 40
0.5360334924
 40
0.7732581444
 40
1.0
 40
1.0
 40
1.0
 40
1.0
 10
61.0196748313
 20
169.8114411781
 30
0.0
 10
61.1828933012
 20
170.8956047906
 30
0.0
 10
61.6548512452
 20
172.9537718696
 30
0.0
 10
62.8904108566
 20
175.7425054112
 30
0.0
 10
64.6034477627
 20
178.0169865577
 30
0.0
 10
66.0575476997
 20
179.1497376561
 30
0.0
 10
66.8265271708
 20
179.5938270698
 30
0.0
  0
SPLINE
  5
3F1
100
AcDbEntity
  8
0
100
AcDbSpline
 62
7
  6
CONTINUOUS
 70
0
 71
3
 72
15
 73
11
 74
0
 42
0.0000001
 43
0.0000001
 44
0.0000000001
 40
0.0
 40
0.0
 40
0.0
 40
0.0
 40
0.1143774807
 40
0.2377237354
 40
0.367482845
 40
0.5005429794
 40
0.6335276934
 40
0.7630664402
 40
0.8860655233
 40
1.0
 40
1.0
 40
1.0
 40
1.0
 10
65.0973989627
 20
134.7015775094
 30
0.0
 10
64.4687480025
 20
135.0676919156
 30
0.0
 10
63.2276900433
 20
135.9439611354
 30
0.0
 10
61.521121071
 20
137.549956476
 30
0.0
 10
59.9499484178
 20
139.4455718791
 30
0.0
 10
58.5733620681
 20
141.5597034923
 30
0.0
 10
57.4425910663
 20
143.8133380929
 30
0.0
 10
56.6000052976
 20
146.1224554425
 30
0.0
 10
56.0770701009
 20
148.4002316095
 30
0.0
 10
55.9493166258
 20
149.909134389
 30
0.0
 10
55.9520579749
 20
150.6338015681
 30
0.0
  0
SPLINE
  5
3F2
100
AcDbEntity
  8
0
100
AcDbSpline
 62
7
  6
CONTINUOUS
 70
0
 71
3
 72
9
 73
5
 74
0
 42
0.0000001
 43
0.0000001
 44
0.0000000001
 40
0.0
 40
0.0
 40
0.0
 40
0.0
 40
0.2484452038
 40
1.0
 40
1.0
 40
1.0
 40
1.0
 10
91.7475626282
 20
136.3128003172
 30
0.0
 10
91.6200163147
 20
136.2391619763
 30
0.0
 10
91.0968920766
 20
135.9598799469
 30
0.0
 10
90.5363222417
 20
135.7515375308
 30
0.0
 10
90.1058731021
 20
135.6366421189
 30
0.0
  0
SPLINE
  5
3F3
100
AcDbEntity
  8
0
100
AcDbSpline
 62
7
  6
CONTINUOUS
 70
0
 71
3
 72
9
 73
5
 74
0
 42
0.0000001
 43
0.0000001
 44
0.0000000001
 40
0.0
 40
0.0
 40
0.0
 40
0.0
 40
0.2608574962
 40
1.0
 40
1.0
 40
1.0
 40
1.0
 10
72.0798124104
 20
163.2418646061
 30
0.0
 10
71.7673237613
 20
163.5752285764
 30
0.0
 10
70.5369034529
 20
164.8217366777
 30
0.0
 10
69.1730813275
 20
165.9411916791
 30
0.0
 10
68.0937562888
 20
166.6562527245
 30
0.0
  0
SPLINE
  5
3F4
100
AcDbEntity
  8
0
100
AcDbSpline
 62
7
  6
CONTINUOUS
 70
0
 71
3
 72
11
 73
7
 74
0
 42
0.0000001
 43
0.0000001
 44
0.0000000001
 40
0.0
 40
0.0
 40
0.0
 40
0.0
 40
0.253039187
 40
0.5266277123
 40
0.7852328176
 40
1.0
 40
1.0
 40
1.0
 40
1.0
 10
68.0937562888
 20
166.6562527245
 30
0.0
 10
68.0250283035
 20
166.7017779245
 30
0.0
 10
67.8997317955
 20
166.8235624738
 30
0.0
 10
67.7663943655
 20
167.0447629657
 30
0.0
 10
67.6950363237
 20
167.279782068
 30
0.0
 10
67.6987492892
 20
167.4395756834
 30
0.0
 10
67.7200861416
 20
167.506212634
 30
0.0
  0
SPLINE
  5
3F5
100
AcDbEntity
  8
0
100
AcDbSpline
 62
7
  6
CONTINUOUS
 70
0
 71
3
 72
9
 73
5
 74
0
 42
0.0000001
 43
0.0000001
 44
0.0000000001
 40
0.0
 40
0.0
 40
0.0
 40
0.0
 40
0.5197710827
 40
1.0
 40
1.0
 40
1.0
 40
1.0
 10
67.7200861416
 20
167.506212634
 30
0.0
 10
67.9322232414
 20
168.1692841527
 30
0.0
 10
68.4588266408
 20
169.4124218025
 30
0.0
 10
69.2595293221
 20
170.5060073564
 30
0.0
 10
69.7061515747
 20
170.9688859368
 30
0.0
  0
SPLINE
  5
3F6
100
AcDbEntity
  8
0
100
AcDbSpline
 62
7
  6
CONTINUOUS
 70
0
 71
3
 72
9
 73
5
 74
0
 42
0.0000001
 43
0.0000001
 44
0.0000000001
 40
0.0
 40
0.0
 40
0.0
 40
0.0
 40
0.2531349428
 40
1.0
 40
1.0
 40
1.0
 40
1.0
 10
69.7061515747
 20
170.9688859368
 30
0.0
 10
69.8174125837
 20
171.0842228575
 30
0.0
 10
70.272026096
 20
171.5250240323
 30
0.0
 10
70.7880946704
 20
171.9027630954
 30
0.0
 10
71.1975746577
 20
172.1391746864
 30
0.0
  0
SPLINE
  5
3F7
100
AcDbEntity
  8
0
100
AcDbSpline
 62
7
  6
CONTINUOUS
 70
0
 71
3
 72
11
 73
7
 74
0
 42
0.0000001
 43
0.0000001
 44
0.0000000001
 40
0.0
 40
0.0
 40
0.0
 40
0.0
 40
0.2839418736
 40
0.4820949791
 40
0.6671210059
 40
1.0
 40
1.0
 40
1.0
 40
1.0
 10
83.5034266309
 20
170.9226208185
 30
0.0
 10
82.7242667148
 20
171.4906301108
 30
0.0
 10
81.3415782894
 20
172.37801641
 30
0.0
 10
79.289099887
 20
173.3507207109
 30
0.0
 10
76.9785794051
 20
174.1151658167
 30
0.0
 10
75.1900271344
 20
174.3166278041
 30
0.0
 10
74.0636012276
 20
174.2218620702
 30
0.0
  0
SPLINE
  5
3F8
100
AcDbEntity
  8
0
100
AcDbSpline
 62
7
  6
CONTINUOUS
 70
0
 71
3
 72
9
 73
5
 74
0
 42
0.0000001
 43
0.0000001
 44
0.0000000001
 40
0.0
 40
0.0
 40
0.0
 40
0.0
 40
0.4330707193
 40
1.0
 40
1.0
 40
1.0
 40
1.0
 10
74.0636012276
 20
174.2218620702
 30
0.0
 10
73.9757866461
 20
174.2145295021
 30
0.0
 10
73.7721329415
 20
174.3037562729
 30
0.0
 10
73.6380361378
 20
174.4598271257
 30
0.0
 10
73.5760814874
 20
174.5571356658
 30
0.0
  0
SPLINE
  5
3F9
100
AcDbEntity
  8
0
100
AcDbSpline
 62
7
  6
CONTINUOUS
 70
0
 71
3
 72
9
 73
5
 74
0
 42
0.0000001
 43
0.0000001
 44
0.0000000001
 40
0.0
 40
0.0
 40
0.0
 40
0.0
 40
0.2557825479
 40
1.0
 40
1.0
 40
1.0
 40
1.0
 10
73.5760814874
 20
174.5571356658
 30
0.0
 10
73.2739487056
 20
175.0319241354
 30
0.0
 10
72.0419566287
 20
176.8549529155
 30
0.0
 10
70.6089798647
 20
178.5451752766
 30
0.0
 10
69.4348371868
 20
179.6864533673
 30
0.0
  0
SPLINE
  5
3FA
100
AcDbEntity
  8
0
100
AcDbSpline
 62
7
  6
CONTINUOUS
 70
0
 71
3
 72
13
 73
9
 74
0
 42
0.0000001
 43
0.0000001
 44
0.0000000001
 40
0.0
 40
0.0
 40
0.0
 40
0.0
 40
0.2908236464
 40
0.5765662124
 40
0.703883702
 40
0.8157288343
 40
0.9126832689
 40
1.0
 40
1.0
 40
1.0
 40
1.0
 10
69.4348371868
 20
179.6864533673
 30
0.0
 10
69.3639369781
 20
179.7553361878
 30
0.0
 10
69.2461963969
 20
179.9159946145
 30
0.0
 10
69.1606257798
 20
180.1436553087
 30
0.0
 10
69.1433645405
 20
180.3223142635
 30
0.0
 10
69.1576540911
 20
180.4368515303
 30
0.0
 10
69.1989666472
 20
180.5307624914
 30
0.0
 10
69.2463845707
 20
180.5750685084
 30
0.0
 10
69.2720578037
 20
180.5899594783
 30
0.0
  0
SPLINE
  5
3FB
100
AcDbEntity
  8
0
100
AcDbSpline
 62
7
  6
CONTINUOUS
 70
0
 71
3
 72
10
 73
6
 74
0
 42
0.0000001
 43
0.0000001
 44
0.0000000001
 40
0.0
 40
0.0
 40
0.0
 40
0.0
 40
0.2382423199
 40
0.4815807991
 40
1.0
 40
1.0
 40
1.0
 40
1.0
 10
88.1513748032
 20
142.6578869319
 30
0.0
 10
88.3872192978
 20
142.794038528
 30
0.0
 10
88.8396317199
 20
143.1141946392
 30
0.0
 10
89.6423485956
 20
143.9345058491
 30
0.0
 10
90.0805262811
 20
144.7083576419
 30
0.0
 10
90.3032930582
 20
145.2574710443
 30
0.0
  0
SPLINE
  5
3FC
100
AcDbEntity
  8
0
100
AcDbSpline
 62
7
  6
CONTINUOUS
 70
0
 71
3
 72
9
 73
5
 74
0
 42
0.0000001
 43
0.0000001
 44
0.0000000001
 40
0.0
 40
0.0
 40
0.0
 40
0.0
 40
0.238082281
 40
1.0
 40
1.0
 40
1.0
 40
1.0
 10
89.1859995011
 20
143.2591395265
 30
0.0
 10
89.1838872861
 20
143.2505228738
 30
0.0
 10
89.1762820389
 20
143.2140232799
 30
0.0
 10
89.1734602127
 20
143.176601989
 30
0.0
 10
89.1734602127
 20
143.1482103235
 30
0.0
  0
SPLINE
  5
3FD
100
AcDbEntity
  8
0
100
AcDbSpline
 62
7
  6
CONTINUOUS
 70
0
 71
3
 72
10
 73
6
 74
0
 42
0.0000001
 43
0.0000001
 44
0.0000000001
 40
0.0
 40
0.0
 40
0.0
 40
0.0
 40
0.2779210771
 40
0.5375914172
 40
1.0
 40
1.0
 40
1.0
 40
1.0
 10
82.5404071975
 20
164.4461981693
 30
0.0
 10
82.1342708331
 20
164.7340364658
 30
0.0
 10
81.3190267706
 20
165.252020435
 30
0.0
 10
79.7049816375
 20
166.0300449868
 30
0.0
 10
78.4251505932
 20
166.3617079964
 30
0.0
 10
77.5983067937
 20
166.4096730472
 30
0.0
  0
SPLINE
  5
3FE
100
AcDbEntity
  8
0
100
AcDbSpline
 62
7
  6
CONTINUOUS
 70
0
 71
3
 72
11
 73
7
 74
0
 42
0.0000001
 43
0.0000001
 44
0.0000000001
 40
0.0
 40
0.0
 40
0.0
 40
0.0
 40
0.2020744753
 40
0.4492742277
 40
0.7245447769
 40
1.0
 40
1.0
 40
1.0
 40
1.0
 10
77.5983067937
 20
166.4096730472
 30
0.0
 10
77.5405837734
 20
166.4130788179
 30
0.0
 10
77.4152556573
 20
166.4595273523
 30
0.0
 10
77.2541929225
 20
166.5932637005
 30
0.0
 10
77.1172625626
 20
166.7784686188
 30
0.0
 10
77.0532796529
 20
166.9243726972
 30
0.0
 10
77.0311893855
 20
167.000035151
 30
0.0
  0
SPLINE
  5
3FF
100
AcDbEntity
  8
0
100
AcDbSpline
 62
7
  6
CONTINUOUS
 70
0
 71
3
 72
9
 73
5
 74
0
 42
0.0000001
 43
0.0000001
 44
0.0000000001
 40
0.0
 40
0.0
 40
0.0
 40
0.0
 40
0.2447576473
 40
1.0
 40
1.0
 40
1.0
 40
1.0
 10
77.0311893855
 20
167.000035151
 30
0.0
 10
76.9011398384
 20
167.4462675471
 30
0.0
 10
76.3214163126
 20
169.2550992152
 30
0.0
 10
75.5578590848
 20
171.0040080883
 30
0.0
 10
74.894245431
 20
172.2754565254
 30
0.0
  0
SPLINE
  5
400
100
AcDbEntity
  8
0
100
AcDbSpline
 62
7
  6
CONTINUOUS
 70
0
 71
3
 72
11
 73
7
 74
0
 42
0.0000001
 43
0.0000001
 44
0.0000000001
 40
0.0
 40
0.0
 40
0.0
 40
0.0
 40
0.3080145882
 40
0.5839821107
 40
0.81159654
 40
1.0
 40
1.0
 40
1.0
 40
1.0
 10
74.894245431
 20
172.2754565254
 30
0.0
 10
74.8606124222
 20
172.3398868953
 30
0.0
 10
74.8092418803
 20
172.4692377775
 30
0.0
 10
74.7820441035
 20
172.6607764714
 30
0.0
 10
74.8098807867
 20
172.8259988409
 30
0.0
 10
74.876996511
 20
172.9070638355
 30
0.0
 10
74.9155338099
 20
172.9292281724
 30
0.0
  0
SPLINE
  5
401
100
AcDbEntity
  8
0
100
AcDbSpline
 62
7
  6
CONTINUOUS
 70
0
 71
3
 72
14
 73
10
 74
0
 42
0.0000001
 43
0.0000001
 44
0.0000000001
 40
0.0
 40
0.0
 40
0.0
 40
0.0
 40
0.2892795749
 40
0.4225456558
 40
0.5484940765
 40
0.6678936315
 40
0.7818685672
 40
0.8919521363
 40
1.0
 40
1.0
 40
1.0
 40
1.0
 10
103.542397046
 20
141.8924951433
 30
0.0
 10
103.542397046
 20
140.3358243903
 30
0.0
 10
103.3606660566
 20
138.0508450588
 30
0.0
 10
102.6582044211
 20
135.1789048364
 30
0.0
 10
101.9434638967
 20
133.2652048744
 30
0.0
 10
101.0326631534
 20
131.5526344523
 30
0.0
 10
99.9324596146
 20
130.0585080064
 30
0.0
 10
98.6533816936
 20
128.7995016399
 30
0.0
 10
97.6851935276
 20
128.1240843063
 30
0.0
 10
97.181662268
 20
127.8333720732
 30
0.0
  0
SPLINE
  5
402
100
AcDbEntity
  8
0
100
AcDbSpline
 62
7
  6
CONTINUOUS
 70
0
 71
3
 72
11
 73
7
 74
0
 42
0.0000001
 43
0.0000001
 44
0.0000000001
 40
0.0
 40
0.0
 40
0.0
 40
0.0
 40
0.2092154469
 40
0.4392172631
 40
0.7027812881
 40
1.0
 40
1.0
 40
1.0
 40
1.0
 10
78.5683369536
 20
132.422933421
 30
0.0
 10
78.5445105531
 20
132.4091197919
 30
0.0
 10
78.4876858429
 20
132.3909288924
 30
0.0
 10
78.3937608318
 20
132.397277712
 30
0.0
 10
78.2951986869
 20
132.4338622004
 30
0.0
 10
78.2325081061
 20
132.4737958959
 30
0.0
 10
78.2013951514
 20
132.4975196927
 30
0.0
  0
SPLINE
  5
403
100
AcDbEntity
  8
0
100
AcDbSpline
 62
7
  6
CONTINUOUS
 70
0
 71
3
 72
10
 73
6
 74
0
 42
0.0000001
 43
0.0000001
 44
0.0000000001
 40
0.0
 40
0.0
 40
0.0
 40
0.0
 40
0.5102305479
 40
0.7598541611
 40
1.0
 40
1.0
 40
1.0
 40
1.0
 10
93.8511279361
 20
158.0565692734
 30
0.0
 10
92.8561412938
 20
160.1273716222
 30
0.0
 10
91.0792176542
 20
163.0829166364
 30
0.0
 10
88.2302114241
 20
166.5755333939
 30
0.0
 10
86.6664902528
 20
168.1381604432
 30
0.0
 10
85.8591249368
 20
168.8574686015
 30
0.0
  0
SPLINE
  5
404
100
AcDbEntity
  8
0
100
AcDbSpline
 62
7
  6
CONTINUOUS
 70
0
 71
3
 72
9
 73
5
 74
0
 42
0.0000001
 43
0.0000001
 44
0.0000000001
 40
0.0
 40
0.0
 40
0.0
 40
0.0
 40
0.5097578238
 40
1.0
 40
1.0
 40
1.0
 40
1.0
 10
85.8591249368
 20
168.8574686015
 30
0.0
 10
85.7700631776
 20
168.9368619409
 30
0.0
 10
85.6283810136
 20
169.1297377936
 30
0.0
 10
85.5545304689
 20
169.35905887
 30
0.0
 10
85.5473482752
 20
169.4735778943
 30
0.0
  0
SPLINE
  5
405
100
AcDbEntity
  8
0
100
AcDbSpline
 62
7
  6
CONTINUOUS
 70
0
 71
3
 72
9
 73
5
 74
0
 42
0.0000001
 43
0.0000001
 44
0.0000000001
 40
0.0
 40
0.0
 40
0.0
 40
0.0
 40
0.483609463
 40
1.0
 40
1.0
 40
1.0
 40
1.0
 10
85.5473482752
 20
169.4735778943
 30
0.0
 10
85.485237363
 20
170.4691348649
 30
0.0
 10
85.1933309033
 20
172.5190752944
 30
0.0
 10
84.6381905321
 20
174.5113282338
 30
0.0
 10
84.2942927622
 20
175.5193891572
 30
0.0
  0
SPLINE
  5
406
100
AcDbEntity
  8
0
100
AcDbSpline
 62
7
  6
CONTINUOUS
 70
0
 71
3
 72
11
 73
7
 74
0
 42
0.0000001
 43
0.0000001
 44
0.0000000001
 40
0.0
 40
0.0
 40
0.0
 40
0.0
 40
0.1983855434
 40
0.4254907027
 40
0.6942655339
 40
1.0
 40
1.0
 40
1.0
 40
1.0
 10
72.5452588959
 20
163.0779620665
 30
0.0
 10
72.5150868759
 20
163.0605200271
 30
0.0
 10
72.4391424445
 20
163.0412204794
 30
0.0
 10
72.3169951989
 20
163.0661423097
 30
0.0
 10
72.1924498863
 20
163.1349550502
 30
0.0
 10
72.1165622488
 20
163.2026970121
 30
0.0
 10
72.0798124104
 20
163.2418646061
 30
0.0
  0
SPLINE
  5
407
100
AcDbEntity
  8
0
100
AcDbSpline
 62
7
  6
CONTINUOUS
 70
0
 71
3
 72
11
 73
7
 74
0
 42
0.0000001
 43
0.0000001
 44
0.0000000001
 40
0.0
 40
0.0
 40
0.0
 40
0.0
 40
0.3066702676
 40
0.5766352501
 40
0.8034586908
 40
1.0
 40
1.0
 40
1.0
 40
1.0
 10
84.2942927622
 20
175.5193891572
 30
0.0
 10
84.2760393276
 20
175.572856055
 30
0.0
 10
84.2513879121
 20
175.6771491883
 30
0.0
 10
84.2505101423
 20
175.8266565359
 30
0.0
 10
84.2888123055
 20
175.9516229619
 30
0.0
 10
84.3454758914
 20
176.010880878
 30
0.0
 10
84.3768003323
 20
176.0290415821
 30
0.0
  0
SPLINE
  5
408
100
AcDbEntity
  8
0
100
AcDbSpline
 62
7
  6
CONTINUOUS
 70
0
 71
3
 72
11
 73
7
 74
0
 42
0.0000001
 43
0.0000001
 44
0.0000000001
 40
0.0
 40
0.0
 40
0.0
 40
0.0
 40
0.2023240788
 40
0.4302886038
 40
0.6971686473
 40
1.0
 40
1.0
 40
1.0
 40
1.0
 10
77.2738201354
 20
140.8912544579
 30
0.0
 10
77.2462499689
 20
140.875340937
 30
0.0
 10
77.1784107555
 20
140.8562124697
 30
0.0
 10
77.0676763676
 20
140.8727246899
 30
0.0
 10
76.9534012503
 20
140.9276737988
 30
0.0
 10
76.8824131932
 20
140.9834848854
 30
0.0
 10
76.8476558055
 20
141.0160754257
 30
0.0
  0
SPLINE
  5
409
100
AcDbEntity
  8
0
100
AcDbSpline
 62
7
  6
CONTINUOUS
 70
0
 71
3
 72
12
 73
8
 74
0
 42
0.0000001
 43
0.0000001
 44
0.0000000001
 40
0.0
 40
0.0
 40
0.0
 40
0.0
 40
0.1834120748
 40
0.2926241584
 40
0.4155904744
 40
0.6962922913
 40
1.0
 40
1.0
 40
1.0
 40
1.0
 10
65.3404772403
 20
149.4515978524
 30
0.0
 10
65.2956924843
 20
149.4256781979
 30
0.0
 10
65.2056702433
 20
149.4157062765
 30
0.0
 10
65.0936575148
 20
149.4510621342
 30
0.0
 10
64.966177203
 20
149.5216866694
 30
0.0
 10
64.8207534257
 20
149.6628147611
 30
0.0
 10
64.7329379955
 20
149.8043837309
 30
0.0
 10
64.6971197751
 20
149.8822205516
 30
0.0
  0
SPLINE
  5
40A
100
AcDbEntity
  8
0
100
AcDbSpline
 62
7
  6
CONTINUOUS
 70
0
 71
3
 72
9
 73
5
 74
0
 42
0.0000001
 43
0.0000001
 44
0.0000000001
 40
0.0
 40
0.0
 40
0.0
 40
0.0
 40
0.2638030016
 40
1.0
 40
1.0
 40
1.0
 40
1.0
 10
159.0560757657
 20
161.3099937283
 30
0.0
 10
159.1551774602
 20
161.2980945331
 30
0.0
 10
159.5287468364
 20
161.2389415647
 30
0.0
 10
159.8953112923
 20
161.1223072603
 30
0.0
 10
160.1438628438
 20
160.9965599029
 30
0.0
  0
SPLINE
  5
40B
100
AcDbEntity
  8
0
100
AcDbSpline
 62
7
  6
CONTINUOUS
 70
0
 71
3
 72
9
 73
5
 74
0
 42
0.0000001
 43
0.0000001
 44
0.0000000001
 40
0.0
 40
0.0
 40
0.0
 40
0.0
 40
0.4796492041
 40
1.0
 40
1.0
 40
1.0
 40
1.0
 10
93.198474862
 20
156.7744013025
 30
0.0
 10
92.631028816
 20
156.5035539144
 30
0.0
 10
91.3401550379
 20
156.1486173082
 30
0.0
 10
90.0117096872
 20
156.2089498796
 30
0.0
 10
89.3385722259
 20
156.3193269526
 30
0.0
  0
SPLINE
  5
40C
100
AcDbEntity
  8
0
100
AcDbSpline
 62
7
  6
CONTINUOUS
 70
0
 71
3
 72
9
 73
5
 74
0
 42
0.0000001
 43
0.0000001
 44
0.0000000001
 40
0.0
 40
0.0
 40
0.0
 40
0.0
 40
0.4485481402
 40
1.0
 40
1.0
 40
1.0
 40
1.0
 10
89.3385722259
 20
156.3193269526
 30
0.0
 10
89.2417461856
 20
156.3352461602
 30
0.0
 10
89.0457252153
 20
156.4609379094
 30
0.0
 10
88.9170940945
 20
156.6414273732
 30
0.0
 10
88.8637294205
 20
156.749619914
 30
0.0
  0
SPLINE
  5
40D
100
AcDbEntity
  8
0
100
AcDbSpline
 62
7
  6
CONTINUOUS
 70
0
 71
3
 72
9
 73
5
 74
0
 42
0.0000001
 43
0.0000001
 44
0.0000000001
 40
0.0
 40
0.0
 40
0.0
 40
0.0
 40
0.5069067789
 40
1.0
 40
1.0
 40
1.0
 40
1.0
 10
88.8637294205
 20
156.749619914
 30
0.0
 10
88.3378161466
 20
157.8164619382
 30
0.0
 10
87.1360336781
 20
159.8435893038
 30
0.0
 10
85.6360342246
 20
161.6633628667
 30
0.0
 10
84.8242594063
 20
162.4878043822
 30
0.0
  0
SPLINE
  5
40E
100
AcDbEntity
  8
0
100
AcDbSpline
 62
7
  6
CONTINUOUS
 70
0
 71
3
 72
11
 73
7
 74
0
 42
0.0000001
 43
0.0000001
 44
0.0000000001
 40
0.0
 40
0.0
 40
0.0
 40
0.0
 40
0.2733660787
 40
0.5481460475
 40
0.7963201484
 40
1.0
 40
1.0
 40
1.0
 40
1.0
 10
84.8242594063
 20
162.4878043822
 30
0.0
 10
84.7691517915
 20
162.5438239379
 30
0.0
 10
84.6732257853
 20
162.6710293171
 30
0.0
 10
84.5784837581
 20
162.8815883622
 30
0.0
 10
84.5399417467
 20
163.0888867439
 30
0.0
 10
84.5595965021
 20
163.2222432674
 30
0.0
 10
84.5842660935
 20
163.2753418303
 30
0.0
  0
SPLINE
  5
40F
100
AcDbEntity
  8
0
100
AcDbSpline
 62
7
  6
CONTINUOUS
 70
0
 71
3
 72
9
 73
5
 74
0
 42
0.0000001
 43
0.0000001
 44
0.0000000001
 40
0.0
 40
0.0
 40
0.0
 40
0.0
 40
0.2332131346
 40
1.0
 40
1.0
 40
1.0
 40
1.0
 10
84.5842660935
 20
163.2753418303
 30
0.0
 10
84.7212555264
 20
163.5694218107
 30
0.0
 10
85.2372476182
 20
164.8637164604
 30
0.0
 10
85.4776369193
 20
166.2571923844
 30
0.0
 10
85.5482270922
 20
167.3215261653
 30
0.0
  0
SPLINE
  5
410
100
AcDbEntity
  8
0
100
AcDbSpline
 62
7
  6
CONTINUOUS
 70
0
 71
3
 72
9
 73
5
 74
0
 42
0.0000001
 43
0.0000001
 44
0.0000000001
 40
0.0
 40
0.0
 40
0.0
 40
0.0
 40
0.470268821
 40
1.0
 40
1.0
 40
1.0
 40
1.0
 10
101.9759243418
 20
141.3434685775
 30
0.0
 10
101.2512808018
 20
141.2480217336
 30
0.0
 10
99.6708782295
 20
141.3165998922
 30
0.0
 10
98.1772523916
 20
141.7973226142
 30
0.0
 10
97.4213072098
 20
142.1235173154
 30
0.0
  0
SPLINE
  5
411
100
AcDbEntity
  8
0
100
AcDbSpline
 62
7
  6
CONTINUOUS
 70
0
 71
3
 72
11
 73
7
 74
0
 42
0.0000001
 43
0.0000001
 44
0.0000000001
 40
0.0
 40
0.0
 40
0.0
 40
0.0
 40
0.2330875082
 40
0.5003518679
 40
0.7674180785
 40
1.0
 40
1.0
 40
1.0
 40
1.0
 10
97.4213072098
 20
142.1235173154
 30
0.0
 10
97.3500451895
 20
142.1542538045
 30
0.0
 10
97.213136277
 20
142.2566292334
 30
0.0
 10
97.0579730611
 20
142.4626300555
 30
0.0
 10
96.9578617039
 20
142.700119274
 30
0.0
 10
96.9382721561
 20
142.8697435261
 30
0.0
 10
96.9476370906
 20
142.9466148784
 30
0.0
  0
SPLINE
  5
412
100
AcDbEntity
  8
0
100
AcDbSpline
 62
7
  6
CONTINUOUS
 70
0
 71
3
 72
11
 73
7
 74
0
 42
0.0000001
 43
0.0000001
 44
0.0000000001
 40
0.0
 40
0.0
 40
0.0
 40
0.0
 40
0.2251938058
 40
0.4687787339
 40
0.7282495897
 40
1.0
 40
1.0
 40
1.0
 40
1.0
 10
96.9476370906
 20
142.9466148784
 30
0.0
 10
97.0585702896
 20
143.8578225254
 30
0.0
 10
97.1305484615
 20
145.7757026506
 30
0.0
 10
96.8404887178
 20
148.7371500477
 30
0.0
 10
96.1660946654
 20
151.8290986047
 30
0.0
 10
95.4836331189
 20
153.8886323165
 30
0.0
 10
95.0850634612
 20
154.9221519442
 30
0.0
  0
SPLINE
  5
413
100
AcDbEntity
  8
0
100
AcDbSpline
 62
7
  6
CONTINUOUS
 70
0
 71
3
 72
11
 73
7
 74
0
 42
0.0000001
 43
0.0000001
 44
0.0000000001
 40
0.0
 40
0.0
 40
0.0
 40
0.0
 40
0.3038365683
 40
0.5749084269
 40
0.8046122137
 40
1.0
 40
1.0
 40
1.0
 40
1.0
 10
95.0850634612
 20
154.9221519442
 30
0.0
 10
95.0642980262
 20
154.9760380433
 30
0.0
 10
95.0339545808
 20
155.0818417855
 30
0.0
 10
95.0235127907
 20
155.235853034
 30
0.0
 10
95.0521747816
 20
155.3674775465
 30
0.0
 10
95.1021689036
 20
155.4356246314
 30
0.0
 10
95.1316644174
 20
155.4581884646
 30
0.0
  0
SPLINE
  5
414
100
AcDbEntity
  8
0
100
AcDbSpline
 62
7
  6
CONTINUOUS
 70
0
 71
3
 72
9
 73
5
 74
0
 42
0.0000001
 43
0.0000001
 44
0.0000000001
 40
0.0
 40
0.0
 40
0.0
 40
0.0
 40
0.479163756
 40
1.0
 40
1.0
 40
1.0
 40
1.0
 10
95.1316644174
 20
155.4581884646
 30
0.0
 10
95.6647218255
 20
155.8653865945
 30
0.0
 10
96.6363226161
 20
156.9100738101
 30
0.0
 10
97.2580473381
 20
158.1842436907
 30
0.0
 10
97.5032014657
 20
158.8709231811
 30
0.0
  0
SPLINE
  5
415
100
AcDbEntity
  8
0
100
AcDbSpline
 62
7
  6
CONTINUOUS
 70
0
 71
3
 72
11
 73
7
 74
0
 42
0.0000001
 43
0.0000001
 44
0.0000000001
 40
0.0
 40
0.0
 40
0.0
 40
0.0
 40
0.2175358813
 40
0.4506150093
 40
0.7099518316
 40
1.0
 40
1.0
 40
1.0
 40
1.0
 10
104.8671490773
 20
114.6801410758
 30
0.0
 10
104.4362885723
 20
114.4313697251
 30
0.0
 10
103.4452965873
 20
114.0725957706
 30
0.0
 10
101.7995815045
 20
114.0355737394
 30
0.0
 10
100.0457748446
 20
114.4645921282
 30
0.0
 10
98.9057454956
 20
115.0124249954
 30
0.0
 10
98.3325062185
 20
115.3462624237
 30
0.0
  0
SPLINE
  5
416
100
AcDbEntity
  8
0
100
AcDbSpline
 62
7
  6
CONTINUOUS
 70
0
 71
3
 72
11
 73
7
 74
0
 42
0.0000001
 43
0.0000001
 44
0.0000000001
 40
0.0
 40
0.0
 40
0.0
 40
0.0
 40
0.2180153791
 40
0.4512718488
 40
0.7104754743
 40
1.0
 40
1.0
 40
1.0
 40
1.0
 10
103.3762970078
 20
117.262387968
 30
0.0
 10
103.7045943098
 20
117.4519235753
 30
0.0
 10
104.3191102904
 20
117.9673453729
 30
0.0
 10
104.975125818
 20
119.0338901589
 30
0.0
 10
105.3676767403
 20
120.34827538
 30
0.0
 10
105.4473626128
 20
121.3053644375
 30
0.0
 10
105.4492711363
 20
121.8087813719
 30
0.0
  0
ELLIPSE
  5
417
100
AcDbEntity
  8
0
100
AcDbEllipse
 62
7
  6
CONTINUOUS
 10
39.4778263208
 20
214.3310688745
 30
0.0
 11
8.0093713012
 21
-0.0303117626
 31
0.0
 40
0.5794794746
 41
3.1159644504
 42
3.9286546838
  0
ELLIPSE
  5
418
100
AcDbEntity
  8
0
100
AcDbEllipse
 62
7
  6
CONTINUOUS
 10
55.2257704726
 20
241.0842943151
 30
0.0
 11
3.0013996452
 21
-0.0116433681
 31
0.0
 40
0.5801663379
 41
-2.0917528567
 42
-0.7834761846
  0
ELLIPSE
  5
419
100
AcDbEntity
  8
0
100
AcDbEllipse
 62
7
  6
CONTINUOUS
 10
67.0566265611
 20
238.8867723054
 30
0.0
 11
8.0041746717
 21
-0.030331947
 31
0.0
 40
0.5802321394
 41
0.7881249575
 42
2.3578640935
  0
ELLIPSE
  5
41A
100
AcDbEntity
  8
0
100
AcDbEllipse
 62
7
  6
CONTINUOUS
 10
39.9042898038
 20
223.2104569445
 30
0.0
 11
8.0093713012
 21
-0.0303117626
 31
0.0
 40
0.5794794746
 41
8.6421008549
 42
10.211839991
  0
ELLIPSE
  5
41B
100
AcDbEntity
  8
0
100
AcDbEllipse
 62
7
  6
CONTINUOUS
 10
165.9630836253
 20
176.7682702415
 30
0.0
 11
3.0031281888
 21
-0.0115767135
 31
0.0
 40
0.5795290334
 41
2.3588791794
 42
3.7194522571
  0
ELLIPSE
  5
41C
100
AcDbEntity
  8
0
100
AcDbEllipse
 62
7
  6
CONTINUOUS
 10
35.4587487259
 20
229.6718671116
 30
0.0
 11
3.0030090635
 21
-0.011636678
 31
0.0
 40
0.5795446607
 41
5.5004635274
 42
6.8087401996
  0
ELLIPSE
  5
41D
100
AcDbEntity
  8
0
100
AcDbEllipse
 62
7
  6
CONTINUOUS
 10
133.9105336389
 20
29.6967140984
 30
0.0
 11
8.0005010739
 21
-0.0303646152
 31
0.0
 40
0.5798556606
 41
-2.3539150131
 42
-0.7832583037
  0
ELLIPSE
  5
41E
100
AcDbEntity
  8
0
100
AcDbEllipse
 62
7
  6
CONTINUOUS
 10
161.4868472998
 20
45.6178111776
 30
0.0
 11
8.0005010739
 21
-0.0303646152
 31
0.0
 40
0.5798556606
 41
-0.7831282056
 42
-0.0022007512
  0
ELLIPSE
  5
41F
100
AcDbEntity
  8
0
100
AcDbEllipse
 62
7
  6
CONTINUOUS
 10
39.4445770839
 20
84.711380966
 30
0.0
 11
8.0005010739
 21
-0.0303646152
 31
0.0
 40
0.5798556606
 41
-3.1393919081
 42
-2.3540641498
  0
ELLIPSE
  5
420
100
AcDbEntity
  8
0
100
AcDbEllipse
 62
7
  6
CONTINUOUS
 10
162.4621227766
 20
174.0992700342
 30
0.0
 11
8.0005010739
 21
-0.0303646152
 31
0.0
 40
0.5798556606
 41
5.5437013184
 42
6.3743307768
  0
ELLIPSE
  5
421
100
AcDbEntity
  8
0
100
AcDbEllipse
 62
7
  6
CONTINUOUS
 10
39.4445770834
 20
213.7608164509
 30
0.0
 11
8.0005010739
 21
-0.0303646152
 31
0.0
 40
0.5798556606
 41
3.0436258126
 42
3.9291211574
  0
ELLIPSE
  5
422
100
AcDbEntity
  8
0
100
AcDbEllipse
 62
7
  6
CONTINUOUS
 10
134.8858091157
 20
158.178172955
 30
0.0
 11
8.0005010739
 21
-0.0303646152
 31
0.0
 40
0.5798556606
 41
-2.3539150131
 42
-0.7832583037
  0
ENDSEC
  0
SECTION
  2
OBJECTS
  0
DICTIONARY
  5
C
100
AcDbDictionary
280
0
281
1
  3
ACAD_GROUP
350
D
  3
ACAD_MLINESTYLE
350
17
  3
ACAD_LAYOUT
350
1A
  3
ACAD_PLOTSETTINGS
350
19
  3
ACAD_PLOTSTYLENAME
350
E
  0
DICTIONARY
  5
D
102
{ACAD_REACTORS
330
C
102
}
100
AcDbDictionary
280
0
281
1
  0
ACDBDICTIONARYWDFLT
  5
E
102
{ACAD_REACTORS
330
C
102
}
100
AcDbDictionary
281
1
  3
Normal
350
F
100
AcDbDictionaryWithDefault
340
F
  0
DICTIONARY
  5
17
102
{ACAD_REACTORS
330
C
102
}
100
AcDbDictionary
280
0
281
1
  3
Standard
350
18
  0
DICTIONARY
  5
19
102
{ACAD_REACTORS
330
C
102
}
100
AcDbDictionary
281
1
  0
DICTIONARY
  5
1A
102
{ACAD_REACTORS
330
C
102
}
100
AcDbDictionary
281
1
  3
Model
350
423
  3
Layout1
350
424
  0
ACDBPLACEHOLDER
  5
F
102
{ACAD_REACTORS
330
E
102
}
  0
MLINESTYLE
  5
18
102
{ACAD_REACTORS
330
17
102
}
100
AcDbMlineStyle
  2
STANDARD
 70
0
  3

 62
256
 51
90.0
 52
90.0
 71
2
 49
0.5
 62
256
  6
BYLAYER
 49
-0.5
 62
256
  6
BYLAYER
  0
LAYOUT
  5
423
102
{ACAD_REACTORS
330
1A
102
}
100
AcDbPlotSettings
  1

  2
none_device
  4

  6

 40
0.0
 41
0.0
 42
0.0
 43
0.0
 44
210.0
 45
297.0
 46
0.0
 47
0.0
 48
0.0
 49
0.0
140
0.0
141
0.0
142
1.0
143
1.0
 70
1024
 72
1
 73
0
 74
0
  7

 75
0
147
1.0
148
0.0
149
0.0
100
AcDbLayout
  1
Model
 70
0
 71
0
 10
0.0
 20
0.0
 11
210.0
 21
297.0
 12
0.0
 22
0.0
 32
0.0
 14
0.0
 24
0.0
 34
0.0
 15
0.0
 25
0.0
 35
0.0
146
0.0
 13
0.0
 23
0.0
 33
0.0
 16
1.0
 26
0.0
 36
0.0
 17
0.0
 27
1.0
 37
0.0
 76
0
330
210
345
0
346
0
  0
LAYOUT
  5
424
102
{ACAD_REACTORS
330
1A
102
}
100
AcDbPlotSettings
  1

  2
none_device
  4

  6

 40
0.0
 41
0.0
 42
0.0
 43
0.0
 44
210.0
 45
297.0
 46
0.0
 47
0.0
 48
0.0
 49
0.0
140
0.0
141
0.0
142
1.0
143
1.0
 70
0
 72
1
 73
0
 74
0
  7

 75
0
147
1.0
148
0.0
149
0.0
100
AcDbLayout
  1
Layout1
 70
0
 71
1
 10
0.0
 20
0.0
 11
210.0
 21
297.0
 12
0.0
 22
0.0
 32
0.0
 14
0.0
 24
0.0
 34
0.0
 15
0.0
 25
0.0
 35
0.0
146
0.0
 13
0.0
 23
0.0
 33
0.0
 16
1.0
 26
0.0
 36
0.0
 17
0.0
 27
1.0
 37
0.0
 76
0
330
211
345
0
346
0
  0
ENDSEC
  0
EOF
