999
DXF file: C:\Gen2D\CAD\LC2D09BNE_3D-CAD\drw0001_1.dxf
999
Pro/ENGINEER 2019471 by Parametric Technology Corporation
  0
SECTION
  2
HEADER
  9
$ACADVER
  1
AC1024
  9
$DWGCODEPAGE
  3
ANSI_1252
  9
$EXTMAX
 10
157.8906981079
 20
223.3025587525
 30
0.0
  9
$EXTMIN
 10
0.0
 20
0.0
 30
0.0
  9
$LIMMIN
 10
0.0
 20
0.0
  9
$LIMMAX
 10
157.8906981079
 20
223.3025587525
  9
$VIEWCTR
 10
78.9453490539
 20
111.6512793763
  9
$VIEWSIZE
 40
223.3025587525
  9
$CLAYER
  8
0
  9
$LTSCALE
 40
14.5560186446
  9
$CELTYPE
  6
BYLAYER
  9
$DIMSCALE
 40
1.0
  9
$DIMASZ
 40
1.879651168
  9
$DIMEXO
 40
1.0
  9
$DIMDLI
 40
10.056885609
  9
$DIMEXE
 40
1.0
  9
$DIMCEN
 40
2.38189396
  9
$DIMLFAC
 40
1.0
  9
$DIMBLK
  1
_FILLED
  9
$DIMALT
 70
0
  9
$DIMALTF
 40
0.0393700787
  9
$DIMTXT
 40
2.6315116351
  9
$DIMTOL
 70
1
  9
$DIMLIM
 70
0
  9
$DIMTFAC
 40
1.0
  9
$DIMTP
 40
0.01
  9
$DIMTM
 40
0.01
  9
$DIMGAP
 40
0.625
  9
$DIMDSEP
 70
46
  9
$AUNITS
 70
0
  9
$PDMODE
 70
3
  9
$PDSIZE
 40
0.3125
  9
$HANDSEED
  5
5CC
  9
$TILEMODE
 70
1
  9
$MEASUREMENT
 70
1
  9
$INSUNITS
 70
4
  0
ENDSEC
  0
SECTION
  2
CLASSES
  0
CLASS
  1
ACDBDICTIONARYWDFLT
  2
AcDbDictionaryWithDefault
  3
AutoCAD 2000
 90
0
 91
1
280
0
281
0
  0
CLASS
  1
ACDBPLACEHOLDER
  2
AcDbPlaceHolder
  3
AutoCAD 2000
 90
0
 91
1
280
0
281
0
  0
CLASS
  1
LAYOUT
  2
AcDbLayout
  3
AutoCAD 2000
 90
0
 91
0
280
0
281
0
  0
ENDSEC
  0
SECTION
  2
TABLES
  0
TABLE
  2
VPORT
  5
8
100
AcDbSymbolTable
 70
2
  0
VPORT
  5
1F4
100
AcDbSymbolTableRecord
100
AcDbViewportTableRecord
  2
*ACTIVE
 70
0
 10
0.0
 20
0.0
 11
1.0
 21
1.0
 12
78.9453490539
 22
111.6512793763
 13
0.0
 23
0.0
 14
1.0
 24
1.0
 15
0.0
 25
0.0
 16
0.0
 26
0.0
 36
1.0
 17
0.0
 27
0.0
 37
0.0
 40
223.3025587525
 41
0.7070707071
 42
50.0
 43
0.0
 44
0.0
 50
0.0
 51
0.0
 71
0
 72
100
 73
1
 74
1
 75
0
 76
0
 77
0
 78
0
  0
ENDTAB
  0
TABLE
  2
LTYPE
  5
5
100
AcDbSymbolTable
 70
6
  0
LTYPE
  5
14
100
AcDbSymbolTableRecord
100
AcDbLinetypeTableRecord
  2
BYBLOCK
 70
0
  3

 72
65
 73
0
 40
0.0
  0
LTYPE
  5
15
100
AcDbSymbolTableRecord
100
AcDbLinetypeTableRecord
  2
BYLAYER
 70
0
  3

 72
65
 73
0
 40
0.0
  0
LTYPE
  5
16
100
AcDbSymbolTableRecord
100
AcDbLinetypeTableRecord
  2
CONTINUOUS
 70
64
  3
Solid line
 72
65
 73
0
 40
0.0
  0
LTYPE
  5
1F5
100
AcDbSymbolTableRecord
100
AcDbLinetypeTableRecord
  2
CENTER
 70
64
  3
____ _ ____ _ ____ _ ____ _ ____ _ ____ _ ____
 72
65
 73
4
 40
0.6
 49
0.375
 74
0
 49
-0.075
 74
0
 49
0.075
 74
0
 49
-0.075
 74
0
  0
LTYPE
  5
1F6
100
AcDbSymbolTableRecord
100
AcDbLinetypeTableRecord
  2
HIDDEN
 70
64
  3
- - - - - - - - - - - - - - - - - - - -
 72
65
 73
2
 40
0.2
 49
0.1
 74
0
 49
-0.1
 74
0
  0
LTYPE
  5
1F7
100
AcDbSymbolTableRecord
100
AcDbLinetypeTableRecord
  2
PHANTOM
 70
64
  3
_____ _ _ _____ _ _ _____ _ _ _____
 72
65
 73
6
 40
0.8
 49
0.45
 74
0
 49
-0.05
 74
0
 49
0.1
 74
0
 49
-0.05
 74
0
 49
0.1
 74
0
 49
-0.05
 74
0
  0
LTYPE
  5
1F8
100
AcDbSymbolTableRecord
100
AcDbLinetypeTableRecord
  2
DOT
 70
64
  3
. . . . . . . . . . . . . . . . . . . .
 72
65
 73
2
 40
0.2
 49
0.1
 74
0
 49
-0.1
 74
0
  0
LTYPE
  5
1F9
100
AcDbSymbolTableRecord
100
AcDbLinetypeTableRecord
  2
DASHED
 70
64
  3
- - - - - - - - - - - - - - - - - - - -
 72
65
 73
2
 40
0.2
 49
0.1
 74
0
 49
-0.1
 74
0
  0
ENDTAB
  0
TABLE
  2
LAYER
  5
2
100
AcDbSymbolTable
 70
36
  0
LAYER
  5
10
100
AcDbSymbolTableRecord
100
AcDbLayerTableRecord
  2
0
 70
0
 62
7
  6
CONTINUOUS
370
-3
390
F
  0
LAYER
  5
1FA
100
AcDbSymbolTableRecord
100
AcDbLayerTableRecord
  2
DEFAULT_1
 70
0
 62
7
  6
CENTER
370
-3
390
F
  0
LAYER
  5
1FB
100
AcDbSymbolTableRecord
100
AcDbLayerTableRecord
  2
DEFAULT_2
 70
0
 62
8
  6
HIDDEN
370
-3
390
F
  0
LAYER
  5
1FC
100
AcDbSymbolTableRecord
100
AcDbLayerTableRecord
  2
DEFAULT_3
 70
0
 62
7
  6
PHANTOM
370
-3
390
F
  0
LAYER
  5
1FD
100
AcDbSymbolTableRecord
100
AcDbLayerTableRecord
  2
00_COMPONENTS
 70
0
 62
7
  6
CONTINUOUS
370
-3
390
F
  0
LAYER
  5
1FE
100
AcDbSymbolTableRecord
100
AcDbLayerTableRecord
  2
01_1_DEFAULT_DATUMS
 70
0
 62
7
  6
CONTINUOUS
370
-3
390
F
  0
LAYER
  5
1FF
100
AcDbSymbolTableRecord
100
AcDbLayerTableRecord
  2
01_PLANES
 70
0
 62
7
  6
CONTINUOUS
370
-3
390
F
  0
LAYER
  5
200
100
AcDbSymbolTableRecord
100
AcDbLayerTableRecord
  2
02_COORD_SYS
 70
0
 62
7
  6
CONTINUOUS
370
-3
390
F
  0
LAYER
  5
201
100
AcDbSymbolTableRecord
100
AcDbLayerTableRecord
  2
03_AXES
 70
0
 62
7
  6
CONTINUOUS
370
-3
390
F
  0
LAYER
  5
202
100
AcDbSymbolTableRecord
100
AcDbLayerTableRecord
  2
04_POINTS
 70
0
 62
7
  6
CONTINUOUS
370
-3
390
F
  0
LAYER
  5
203
100
AcDbSymbolTableRecord
100
AcDbLayerTableRecord
  2
05_CURVES
 70
0
 62
7
  6
CONTINUOUS
370
-3
390
F
  0
LAYER
  5
204
100
AcDbSymbolTableRecord
100
AcDbLayerTableRecord
  2
06_SURFS
 70
0
 62
7
  6
CONTINUOUS
370
-3
390
F
  0
LAYER
  5
205
100
AcDbSymbolTableRecord
100
AcDbLayerTableRecord
  2
07_COSMETICS
 70
0
 62
7
  6
CONTINUOUS
370
-3
390
F
  0
LAYER
  5
206
100
AcDbSymbolTableRecord
100
AcDbLayerTableRecord
  2
10_NOTES
 70
0
 62
7
  6
CONTINUOUS
370
-3
390
F
  0
LAYER
  5
207
100
AcDbSymbolTableRecord
100
AcDbLayerTableRecord
  2
11_NOTES_PUB
 70
0
 62
7
  6
CONTINUOUS
370
-3
390
F
  0
LAYER
  5
208
100
AcDbSymbolTableRecord
100
AcDbLayerTableRecord
  2
13_REF_GTOL
 70
0
 62
7
  6
CONTINUOUS
370
-3
390
F
  0
LAYER
  5
209
100
AcDbSymbolTableRecord
100
AcDbLayerTableRecord
  2
16_MISC
 70
0
 62
7
  6
CONTINUOUS
370
-3
390
F
  0
LAYER
  5
20A
100
AcDbSymbolTableRecord
100
AcDbLayerTableRecord
  2
17_NO_PRINT
 70
0
 62
7
  6
CONTINUOUS
370
-3
390
F
  0
LAYER
  5
20B
100
AcDbSymbolTableRecord
100
AcDbLayerTableRecord
  2
18_DATUM_CAMS_JOINTS
 70
0
 62
7
  6
CONTINUOUS
370
-3
390
F
  0
LAYER
  5
20C
100
AcDbSymbolTableRecord
100
AcDbLayerTableRecord
  2
19_DATUM_FUNCTIONAL
 70
0
 62
7
  6
CONTINUOUS
370
-3
390
F
  0
LAYER
  5
20D
100
AcDbSymbolTableRecord
100
AcDbLayerTableRecord
  2
20_DATUM_KINEMATIC_SCHEME
 70
0
 62
7
  6
CONTINUOUS
370
-3
390
F
  0
LAYER
  5
20E
100
AcDbSymbolTableRecord
100
AcDbLayerTableRecord
  2
INTFCLR_74
 70
0
 62
7
  6
CONTINUOUS
370
-3
390
F
  0
LAYER
  5
20F
100
AcDbSymbolTableRecord
100
AcDbLayerTableRecord
  2
INTFCLR_76
 70
0
 62
7
  6
CONTINUOUS
370
-3
390
F
  0
ENDTAB
  0
TABLE
  2
STYLE
  5
3
100
AcDbSymbolTable
 70
1
  0
STYLE
  5
11
100
AcDbSymbolTableRecord
100
AcDbTextStyleTableRecord
  2
STANDARD
 70
0
 40
0.0
 41
0.8
 50
0.0
 71
0
 42
0.2
  3
txt
  4

  0
STYLE
  5
210
100
AcDbSymbolTableRecord
100
AcDbTextStyleTableRecord
  2
TEXTSTYLE_1
 70
0
 40
0.0
 41
0.8
 50
0.0
 71
0
 42
0.2
  3
gdt
  4

  0
ENDTAB
  0
TABLE
  2
VIEW
  5
6
100
AcDbSymbolTable
 70
0
  0
ENDTAB
  0
TABLE
  2
UCS
  5
7
100
AcDbSymbolTable
 70
0
  0
ENDTAB
  0
TABLE
  2
APPID
  5
9
100
AcDbSymbolTable
 70
1
  0
APPID
  5
211
100
AcDbSymbolTableRecord
100
AcDbRegAppTableRecord
  2
ACAD
 70
0
  0
ENDTAB
  0
TABLE
  2
BLOCK_RECORD
  5
1
100
AcDbSymbolTable
 70
0
  0
BLOCK_RECORD
  5
212
100
AcDbSymbolTableRecord
100
AcDbBlockTableRecord
  2
*Model_Space
  0
BLOCK_RECORD
  5
213
100
AcDbSymbolTableRecord
100
AcDbBlockTableRecord
  2
*Paper_Space
  0
BLOCK_RECORD
  5
214
100
AcDbSymbolTableRecord
100
AcDbBlockTableRecord
  2
_FILLED
  0
ENDTAB
  0
TABLE
  2
DIMSTYLE
  5
A
100
AcDbSymbolTable
 70
1
100
AcDbDimStyleTable
 71
0
  0
DIMSTYLE
105
215
100
AcDbSymbolTableRecord
100
AcDbDimStyleTableRecord
  2
STANDARD
 70
0
  3

  4

 40
1.0
 41
1.879651168
 42
1.0
 43
0.38
 44
1.0
 45
0.0
 46
0.0
 47
0.01
 48
0.01
140
2.6315116351
141
0.09
142
0.0
143
25.4
144
1.0
145
0.0
146
1.0
147
0.625
 71
1
 72
0
 73
0
 74
0
 75
0
 76
0
 77
1
 78
8
 79
2
170
0
171
1
172
0
173
0
174
0
175
0
176
0
177
0
178
0
270
2
179
2
271
2
272
2
273
2
274
2
275
0
280
0
281
0
282
0
283
1
284
8
285
0
286
0
287
3
288
0
340
11
278
46
341
214
342
214
343
214
344
214
  0
ENDTAB
  0
ENDSEC
  0
SECTION
  2
BLOCKS
  0
BLOCK
  5
20
100
AcDbEntity
  8
0
100
AcDbBlockBegin
  2
*Model_Space
 70
0
 10
0.0
 20
0.0
 30
0.0
  3
*Model_Space
  1

  0
ENDBLK
  5
21
100
AcDbEntity
  8
0
100
AcDbBlockEnd
  0
BLOCK
  5
1C
100
AcDbEntity
  8
0
100
AcDbBlockBegin
  2
*Paper_Space
 70
0
 10
0.0
 20
0.0
 30
0.0
  3
*Paper_Space
  1

  0
ENDBLK
  5
1D
100
AcDbEntity
  8
0
100
AcDbBlockEnd
  0
BLOCK
  5
216
100
AcDbEntity
  8
0
100
AcDbBlockBegin
  2
_FILLED
 70
64
 10
0.0
 20
0.0
  3
_FILLED
  1

  0
SOLID
  5
217
100
AcDbEntity
  8
0
  6
BYBLOCK
 62
0
100
AcDbTrace
 10
0.0
 20
0.0
 11
-1.0
 21
0.25
 12
-1.0
 22
-0.25
 13
-1.0
 23
-0.25
  0
ENDBLK
  5
218
100
AcDbEntity
  8
0
  6
BYBLOCK
 62
0
100
AcDbBlockEnd
  0
ENDSEC
  0
SECTION
  2
ENTITIES
  0
LINE
  5
219
100
AcDbEntity
  8
0
100
AcDbLine
 62
7
  6
CONTINUOUS
 10
18.3171375561
 20
98.1556744215
 11
18.3171375561
 21
115.7104763898
  0
LINE
  5
21A
100
AcDbEntity
  8
0
100
AcDbLine
 62
7
  6
CONTINUOUS
 10
22.9844790923
 20
121.9155806301
 11
22.9844790923
 21
119.6905698941
  0
LINE
  5
21B
100
AcDbEntity
  8
INTFCLR_74
100
AcDbLine
 62
7
420
48875
  6
CONTINUOUS
 10
22.9844790923
 20
80.396432719
 11
22.9844790923
 21
92.3578071569
  0
LINE
  5
21C
100
AcDbEntity
  8
INTFCLR_74
100
AcDbLine
 62
7
420
48875
  6
CONTINUOUS
 10
22.9844790923
 20
119.6905698941
 11
22.9844790923
 21
139.1846067524
  0
LINE
  5
21D
100
AcDbEntity
  8
0
100
AcDbLine
 62
7
  6
CONTINUOUS
 10
24.3986867667
 20
89.4187703189
 11
24.3986867667
 21
91.5413324466
  0
LINE
  5
21E
100
AcDbEntity
  8
0
100
AcDbLine
 62
7
  6
CONTINUOUS
 10
24.3986867667
 20
122.7320689378
 11
24.3986867667
 21
131.795245768
  0
LINE
  5
21F
100
AcDbEntity
  8
0
100
AcDbLine
 62
7
  6
CONTINUOUS
 10
36.3133858349
 20
150.1051918496
 11
55.6880309746
 21
161.2910816657
  0
LINE
  5
220
100
AcDbEntity
  8
INTFCLR_74
100
AcDbLine
 62
7
420
48875
  6
CONTINUOUS
 10
74.072731331
 20
170.7623280333
 11
78.3153543542
 21
173.2117929565
  0
LINE
  5
221
100
AcDbEntity
  8
0
100
AcDbLine
 62
7
  6
CONTINUOUS
 10
35.9619175051
 20
146.6770895893
 11
34.7931131737
 21
146.002284122
  0
LINE
  5
222
100
AcDbEntity
  8
INTFCLR_74
100
AcDbLine
 62
7
420
48875
  6
CONTINUOUS
 10
22.9844790923
 20
139.1846067524
 11
35.9619175051
 21
146.6770895893
  0
LINE
  5
223
100
AcDbEntity
  8
INTFCLR_74
100
AcDbLine
 62
7
420
48875
  6
CONTINUOUS
 10
59.3296860377
 20
160.1683965097
 11
73.7191794123
 21
168.4761247926
  0
LINE
  5
224
100
AcDbEntity
  8
0
100
AcDbLine
 62
7
  6
CONTINUOUS
 10
29.207003458
 20
131.8360763021
 11
29.207003458
 21
131.9585297952
  0
LINE
  5
225
100
AcDbEntity
  8
0
100
AcDbLine
 62
7
  6
CONTINUOUS
 10
29.2777032435
 20
134.6121304297
 11
29.2777032435
 21
133.4690270457
  0
LINE
  5
226
100
AcDbEntity
  8
0
100
AcDbLine
 62
7
  6
CONTINUOUS
 10
31.1451576291
 20
132.9701385483
 11
31.1451576291
 21
133.5339795285
  0
LINE
  5
227
100
AcDbEntity
  8
0
100
AcDbLine
 62
7
  6
CONTINUOUS
 10
74.1328784416
 20
166.3996561385
 11
79.0826053021
 21
169.2573652156
  0
LINE
  5
228
100
AcDbEntity
  8
0
100
AcDbLine
 62
7
  6
CONTINUOUS
 10
74.7621758315
 20
166.4572430378
 11
79.711902692
 21
169.3149521149
  0
LINE
  5
229
100
AcDbEntity
  8
0
100
AcDbLine
 62
7
  6
CONTINUOUS
 10
52.1172066441
 20
152.2893269673
 11
49.2887912952
 21
150.6563503518
  0
LINE
  5
22A
100
AcDbEntity
  8
0
100
AcDbLine
 62
7
  6
CONTINUOUS
 10
63.3215697587
 20
157.8637335072
 11
73.7191794123
 21
163.8667604065
  0
LINE
  5
22B
100
AcDbEntity
  8
0
100
AcDbLine
 62
7
  6
CONTINUOUS
 10
52.1172066441
 20
149.1457926614
 11
50.5970031067
 21
148.2681079789
  0
LINE
  5
22C
100
AcDbEntity
  8
0
100
AcDbLine
 62
7
  6
CONTINUOUS
 10
34.7931131737
 20
137.7964348299
 11
34.7931131737
 21
146.002284122
  0
LINE
  5
22D
100
AcDbEntity
  8
0
100
AcDbLine
 62
7
  6
CONTINUOUS
 10
35.9619175051
 20
146.4717686383
 11
35.9619175051
 21
149.6153029442
  0
LINE
  5
22E
100
AcDbEntity
  8
0
100
AcDbLine
 62
7
  6
CONTINUOUS
 10
36.3133929005
 20
149.1254099596
 11
36.3133929005
 21
145.9818756536
  0
LINE
  5
22F
100
AcDbEntity
  8
0
100
AcDbLine
 62
7
  6
CONTINUOUS
 10
51.8748091901
 20
142.8793593748
 11
51.7283748992
 21
142.6752389976
  0
LINE
  5
230
100
AcDbEntity
  8
0
100
AcDbLine
 62
7
  6
CONTINUOUS
 10
51.7283748992
 20
141.6137858553
 11
51.8748091901
 21
141.8179062325
  0
LINE
  5
231
100
AcDbEntity
  8
0
100
AcDbLine
 62
7
  6
CONTINUOUS
 10
65.6936365294
 20
156.1676856773
 11
68.1684999596
 21
157.5965402159
  0
LINE
  5
232
100
AcDbEntity
  8
0
100
AcDbLine
 62
7
  6
CONTINUOUS
 10
34.7931131737
 20
137.7964348299
 11
29.2777032435
 21
134.6121304297
  0
LINE
  5
233
100
AcDbEntity
  8
0
100
AcDbLine
 62
7
  6
CONTINUOUS
 10
25.1057906039
 20
132.2034899218
 11
24.3986867667
 21
131.795245768
  0
LINE
  5
234
100
AcDbEntity
  8
0
100
AcDbLine
 62
7
  6
CONTINUOUS
 10
68.8756096848
 20
157.1882994614
 11
66.7542981732
 21
155.9635669997
  0
LINE
  5
235
100
AcDbEntity
  8
0
100
AcDbLine
 62
7
  6
CONTINUOUS
 10
26.095761326
 20
131.631942989
 11
29.2777032435
 21
133.4690270457
  0
LINE
  5
236
100
AcDbEntity
  8
0
100
AcDbLine
 62
7
  6
CONTINUOUS
 10
83.367995732
 20
164.4161095613
 11
82.9247438011
 21
164.1601994672
  0
LINE
  5
237
100
AcDbEntity
  8
0
100
AcDbLine
 62
7
  6
CONTINUOUS
 10
54.4506922888
 20
147.6761928438
 11
57.2791076377
 21
149.3091694593
  0
LINE
  5
238
100
AcDbEntity
  8
0
100
AcDbLine
 62
7
  6
CONTINUOUS
 10
46.4250725683
 20
142.8793474771
 11
48.8999359986
 21
144.3082020156
  0
LINE
  5
239
100
AcDbEntity
  8
0
100
AcDbLine
 62
7
  6
CONTINUOUS
 10
68.1685176234
 20
155.1470854907
 11
70.2898291351
 21
156.3718179523
  0
LINE
  5
23A
100
AcDbEntity
  8
0
100
AcDbLine
 62
7
  6
CONTINUOUS
 10
70.2968086192
 20
156.3597302927
 11
78.508932425
 21
161.1014577748
  0
LINE
  5
23B
100
AcDbEntity
  8
0
100
AcDbLine
 62
7
  6
CONTINUOUS
 10
49.2534938051
 20
143.6958391842
 11
47.1321822935
 21
142.4711067226
  0
LINE
  5
23C
100
AcDbEntity
  8
0
100
AcDbLine
 62
7
  6
CONTINUOUS
 10
27.3685588313
 20
130.8971096309
 11
29.207003458
 21
131.9585297952
  0
LINE
  5
23D
100
AcDbEntity
  8
0
100
AcDbLine
 62
7
  6
CONTINUOUS
 10
70.9969388602
 20
155.9635771978
 11
68.52207543
 21
154.5347226592
  0
LINE
  5
23E
100
AcDbEntity
  8
0
100
AcDbLine
 62
7
  6
CONTINUOUS
 10
27.4746081831
 20
130.8358833942
 11
31.1712686124
 21
132.9701385483
  0
LINE
  5
23F
100
AcDbEntity
  8
0
100
AcDbLine
 62
7
  6
CONTINUOUS
 10
65.4461699109
 20
152.2281226381
 11
62.7591753295
 21
150.6767948534
  0
LINE
  5
240
100
AcDbEntity
  8
0
100
AcDbLine
 62
7
  6
CONTINUOUS
 10
61.1328365039
 20
149.7378332995
 11
57.7387380853
 21
147.7782613609
  0
LINE
  5
241
100
AcDbEntity
  8
0
100
AcDbLine
 62
7
  6
CONTINUOUS
 10
45.4704638411
 20
140.6951578826
 11
44.9263199316
 21
140.3809981252
  0
LINE
  5
242
100
AcDbEntity
  8
0
100
AcDbLine
 62
7
  6
CONTINUOUS
 10
45.3230826309
 20
140.1201748245
 11
45.8947296762
 21
140.4502134299
  0
LINE
  5
243
100
AcDbEntity
  8
0
100
AcDbLine
 62
7
  6
CONTINUOUS
 10
68.52207543
 20
153.473269517
 11
69.7241519532
 21
154.1672845786
  0
LINE
  5
244
100
AcDbEntity
  8
0
100
AcDbLine
 62
7
  6
CONTINUOUS
 10
48.5464017438
 20
141.6546252135
 11
50.6677132554
 21
142.8793576751
  0
LINE
  5
245
100
AcDbEntity
  8
0
100
AcDbLine
 62
7
  6
CONTINUOUS
 10
51.7283748992
 20
142.6752389976
 11
49.2535114689
 21
141.246384459
  0
LINE
  5
246
100
AcDbEntity
  8
0
100
AcDbLine
 62
7
  6
CONTINUOUS
 10
46.4250725683
 20
139.531672752
 11
46.3239874875
 21
139.4733116018
  0
LINE
  5
247
100
AcDbEntity
  8
0
100
AcDbLine
 62
7
  6
CONTINUOUS
 10
59.5772233707
 20
146.7168353991
 11
62.9713217893
 21
148.6764073377
  0
LINE
  5
248
100
AcDbEntity
  8
0
100
AcDbLine
 62
7
  6
CONTINUOUS
 10
64.5976606149
 20
149.6153688916
 11
67.2846551963
 21
151.1666966763
  0
LINE
  5
249
100
AcDbEntity
  8
0
100
AcDbLine
 62
7
  6
CONTINUOUS
 10
51.7283748992
 20
141.6137858553
 11
50.5262983759
 21
140.9197707937
  0
LINE
  5
24A
100
AcDbEntity
  8
0
100
AcDbLine
 62
7
  6
CONTINUOUS
 10
78.7047654718
 20
60.1884125854
 11
52.6831275864
 21
75.2116723517
  0
LINE
  5
24B
100
AcDbEntity
  8
0
100
AcDbLine
 62
7
  6
CONTINUOUS
 10
47.0262497852
 20
78.4775983879
 11
21.0046118998
 21
93.5008581542
  0
LINE
  5
24C
100
AcDbEntity
  8
0
100
AcDbLine
 62
7
  6
CONTINUOUS
 10
91.6447638945
 20
56.2288303084
 11
92.6347346166
 21
55.6572833756
  0
LINE
  5
24D
100
AcDbEntity
  8
0
100
AcDbLine
 62
7
  6
CONTINUOUS
 10
86.3415104654
 20
61.0870872363
 11
84.4145670971
 21
62.1995833407
  0
LINE
  5
24E
100
AcDbEntity
  8
0
100
AcDbLine
 62
7
  6
CONTINUOUS
 10
41.2278337523
 20
127.5495582357
 11
41.2278337523
 21
131.0196255573
  0
LINE
  5
24F
100
AcDbEntity
  8
0
100
AcDbLine
 62
7
  6
CONTINUOUS
 10
42.2507625754
 20
126.0172512457
 11
42.2507625754
 21
125.2007663373
  0
LINE
  5
250
100
AcDbEntity
  8
0
100
AcDbLine
 62
7
  6
CONTINUOUS
 10
42.7127862549
 20
125.2349351025
 11
42.7127862549
 21
126.2839991492
  0
LINE
  5
251
100
AcDbEntity
  8
0
100
AcDbLine
 62
7
  6
CONTINUOUS
 10
42.8592313923
 20
125.3298470012
 11
42.8592313923
 21
126.4881195264
  0
LINE
  5
252
100
AcDbEntity
  8
0
100
AcDbLine
 62
7
  6
CONTINUOUS
 10
42.8592205458
 20
126.4881195264
 11
42.7127862549
 21
126.2839991492
  0
LINE
  5
253
100
AcDbEntity
  8
0
100
AcDbLine
 62
7
  6
CONTINUOUS
 10
65.5472022384
 20
155.9635653001
 11
65.6936365294
 21
156.1676856773
  0
LINE
  5
254
100
AcDbEntity
  8
0
100
AcDbLine
 62
7
  6
CONTINUOUS
 10
47.1321822935
 20
138.2661192743
 11
48.5464017438
 21
139.0826143808
  0
LINE
  5
255
100
AcDbEntity
  8
0
100
AcDbLine
 62
7
  6
CONTINUOUS
 10
62.0167427962
 20
146.573956404
 11
59.1883274473
 21
144.9409797886
  0
LINE
  5
256
100
AcDbEntity
  8
0
100
AcDbLine
 62
7
  6
CONTINUOUS
 10
73.9097868007
 20
151.7507618417
 11
74.3556753159
 21
152.0081941594
  0
LINE
  5
257
100
AcDbEntity
  8
0
100
AcDbLine
 62
7
  6
CONTINUOUS
 10
24.3986867667
 20
122.7320689378
 11
22.9844790923
 21
121.9155806301
  0
LINE
  5
258
100
AcDbEntity
  8
0
100
AcDbLine
 62
7
  6
CONTINUOUS
 10
50.5262983759
 20
137.7762364878
 11
49.2535114689
 21
137.0413970108
  0
LINE
  5
259
100
AcDbEntity
  8
0
100
AcDbLine
 62
7
  6
CONTINUOUS
 10
62.0167427962
 20
143.4304220981
 11
60.4965392588
 21
142.5527374156
  0
LINE
  5
25A
100
AcDbEntity
  8
0
100
AcDbLine
 62
7
  6
CONTINUOUS
 10
41.2278337523
 20
131.0196255573
 11
33.5055398839
 21
126.5611837269
  0
LINE
  5
25B
100
AcDbEntity
  8
0
100
AcDbLine
 62
7
  6
CONTINUOUS
 10
23.8418926958
 20
120.1855949139
 11
19.1042969864
 21
117.450359083
  0
LINE
  5
25C
100
AcDbEntity
  8
0
100
AcDbLine
 62
7
  6
CONTINUOUS
 10
34.1711402546
 20
126.1289635691
 11
37.407066846
 21
127.9972155058
  0
LINE
  5
25D
100
AcDbEntity
  8
0
100
AcDbLine
 62
7
  6
CONTINUOUS
 10
25.7422076091
 20
119.9973706193
 11
21.0046118998
 21
117.2621347884
  0
LINE
  5
25E
100
AcDbEntity
  8
0
100
AcDbLine
 62
7
  6
CONTINUOUS
 10
106.2243009737
 20
51.5157650318
 11
107.3556765339
 21
50.8625798246
  0
LINE
  5
25F
100
AcDbEntity
  8
0
100
AcDbLine
 62
7
  6
CONTINUOUS
 10
105.9314716269
 20
51.9323575984
 11
107.0628471871
 21
51.2791723911
  0
LINE
  5
260
100
AcDbEntity
  8
0
100
AcDbLine
 62
7
  6
CONTINUOUS
 10
46.4250725683
 20
142.8793474771
 11
46.4250725683
 21
138.6743600289
  0
LINE
  5
261
100
AcDbEntity
  8
0
100
AcDbLine
 62
7
  6
CONTINUOUS
 10
47.1321822935
 20
142.4711067226
 11
47.1321822935
 21
138.2661192743
  0
LINE
  5
262
100
AcDbEntity
  8
0
100
AcDbLine
 62
7
  6
CONTINUOUS
 10
48.5464017438
 20
141.6546252135
 11
48.5464017438
 21
137.4496377653
  0
LINE
  5
263
100
AcDbEntity
  8
0
100
AcDbLine
 62
7
  6
CONTINUOUS
 10
48.7231968389
 20
123.2222062377
 11
48.7231968389
 21
126.6922735593
  0
LINE
  5
264
100
AcDbEntity
  8
0
100
AcDbLine
 62
7
  6
CONTINUOUS
 10
49.2534938051
 20
143.6958391842
 11
49.2534938051
 21
142.0628625686
  0
LINE
  5
265
100
AcDbEntity
  8
0
100
AcDbLine
 62
7
  6
CONTINUOUS
 10
49.2535114689
 20
141.246384459
 11
49.2535114689
 21
137.0413970108
  0
LINE
  5
266
100
AcDbEntity
  8
0
100
AcDbLine
 62
7
  6
CONTINUOUS
 10
49.2887912952
 20
150.6563503518
 11
49.2887912952
 21
149.0233805351
  0
LINE
  5
267
100
AcDbEntity
  8
0
100
AcDbLine
 62
7
  6
CONTINUOUS
 10
49.5724172587
 20
127.6316368399
 11
49.5724172587
 21
128.4481392571
  0
LINE
  5
268
100
AcDbEntity
  8
0
100
AcDbLine
 62
7
  6
CONTINUOUS
 10
49.7137241288
 20
97.5840587547
 11
49.7137241288
 21
80.0292567865
  0
LINE
  5
269
100
AcDbEntity
  8
0
100
AcDbLine
 62
7
  6
CONTINUOUS
 10
49.7461256619
 20
121.6898992478
 11
49.7461256619
 21
120.8734143394
  0
LINE
  5
26A
100
AcDbEntity
  8
0
100
AcDbLine
 62
7
  6
CONTINUOUS
 10
49.9956532427
 20
79.866488619
 11
49.9956532427
 21
97.4212905873
  0
LINE
  5
26B
100
AcDbEntity
  8
0
100
AcDbLine
 62
7
  6
CONTINUOUS
 10
50.2081493414
 20
120.9075831045
 11
50.2081493414
 21
121.9566471513
  0
LINE
  5
26C
100
AcDbEntity
  8
0
100
AcDbLine
 62
7
  6
CONTINUOUS
 10
50.3545944789
 20
121.0024950033
 11
50.3545944789
 21
122.1607675285
  0
LINE
  5
26D
100
AcDbEntity
  8
0
100
AcDbLine
 62
7
  6
CONTINUOUS
 10
50.5262983759
 20
140.9197707937
 11
50.5262983759
 21
137.7762364878
  0
LINE
  5
26E
100
AcDbEntity
  8
0
100
AcDbLine
 62
7
  6
CONTINUOUS
 10
51.7283748992
 20
141.6137858553
 11
51.7283748992
 21
142.6752389976
  0
LINE
  5
26F
100
AcDbEntity
  8
0
100
AcDbLine
 62
7
  6
CONTINUOUS
 10
51.8748200366
 20
141.8179062325
 11
51.8748200366
 21
142.8793593748
  0
LINE
  5
270
100
AcDbEntity
  8
0
100
AcDbLine
 62
7
  6
CONTINUOUS
 10
50.3545836324
 20
122.1607675285
 11
50.2081493414
 21
121.9566471513
  0
LINE
  5
271
100
AcDbEntity
  8
0
100
AcDbLine
 62
7
  6
CONTINUOUS
 10
64.3502284409
 20
141.9608222806
 11
67.1786437897
 21
143.593798896
  0
LINE
  5
272
100
AcDbEntity
  8
0
100
AcDbLine
 62
7
  6
CONTINUOUS
 10
77.3963024806
 20
149.41130119
 11
79.8711659108
 21
150.8401557286
  0
LINE
  5
273
100
AcDbEntity
  8
0
100
AcDbLine
 62
7
  6
CONTINUOUS
 10
40.4500351344
 20
127.5903695636
 11
39.9880114549
 21
127.3236216602
  0
LINE
  5
274
100
AcDbEntity
  8
0
100
AcDbLine
 62
7
  6
CONTINUOUS
 10
80.578275636
 20
150.431914974
 11
78.4569641243
 21
149.2071825124
  0
LINE
  5
275
100
AcDbEntity
  8
0
100
AcDbLine
 62
7
  6
CONTINUOUS
 10
53.4961686422
 20
134.7552494653
 11
53.9452149011
 21
135.0145048962
  0
LINE
  5
276
100
AcDbEntity
  8
0
100
AcDbLine
 62
7
  6
CONTINUOUS
 10
54.981095754
 20
135.204316207
 11
53.9452149011
 21
134.6062536877
  0
LINE
  5
277
100
AcDbEntity
  8
0
100
AcDbLine
 62
7
  6
CONTINUOUS
 10
54.5568515588
 20
134.1428777516
 11
55.0517970841
 21
134.4286329782
  0
LINE
  5
278
100
AcDbEntity
  8
0
100
AcDbLine
 62
7
  6
CONTINUOUS
 10
79.8711835746
 20
148.3907010034
 11
81.9924950863
 21
149.615433465
  0
LINE
  5
279
100
AcDbEntity
  8
0
100
AcDbLine
 62
7
  6
CONTINUOUS
 10
42.2507625754
 20
126.0172512457
 11
42.7127862549
 21
126.2839991492
  0
LINE
  5
27A
100
AcDbEntity
  8
0
100
AcDbLine
 62
7
  6
CONTINUOUS
 10
82.6996048114
 20
149.2071927105
 11
80.2247413812
 21
147.7783381719
  0
LINE
  5
27B
100
AcDbEntity
  8
0
100
AcDbLine
 62
7
  6
CONTINUOUS
 10
56.2185281311
 20
133.7550357329
 11
55.7235826058
 21
133.4692805064
  0
LINE
  5
27C
100
AcDbEntity
  8
0
100
AcDbLine
 62
7
  6
CONTINUOUS
 10
48.8653075335
 20
128.8563800116
 11
43.6922604466
 21
125.8697377112
  0
LINE
  5
27D
100
AcDbEntity
  8
0
100
AcDbLine
 62
7
  6
CONTINUOUS
 10
56.4307045502
 20
133.0610326972
 11
57.2791927188
 21
133.5509046457
  0
LINE
  5
27E
100
AcDbEntity
  8
0
100
AcDbLine
 62
7
  6
CONTINUOUS
 10
80.2247413812
 20
146.7168850297
 11
81.4268179044
 21
147.4109000912
  0
LINE
  5
27F
100
AcDbEntity
  8
0
100
AcDbLine
 62
7
  6
CONTINUOUS
 10
39.2861570297
 20
122.9584540543
 11
41.1153608039
 21
124.0145390418
  0
LINE
  5
280
100
AcDbEntity
  8
0
100
AcDbLine
 62
7
  6
CONTINUOUS
 10
57.2791927188
 20
133.1426746011
 11
56.7842471935
 21
132.8569193746
  0
LINE
  5
281
100
AcDbEntity
  8
0
100
AcDbLine
 62
7
  6
CONTINUOUS
 10
57.5306050304
 20
133.1653746189
 11
56.8902953229
 21
132.7956938436
  0
LINE
  5
282
100
AcDbEntity
  8
0
100
AcDbLine
 62
7
  6
CONTINUOUS
 10
49.5724172587
 20
128.4481392571
 11
44.3993701717
 21
125.4614969567
  0
LINE
  5
283
100
AcDbEntity
  8
0
100
AcDbLine
 62
7
  6
CONTINUOUS
 10
58.3752224347
 20
133.2447605853
 11
57.9141752734
 21
132.9785764715
  0
LINE
  5
284
100
AcDbEntity
  8
0
100
AcDbLine
 62
7
  6
CONTINUOUS
 10
71.9162789482
 20
140.8585858408
 11
69.0878635994
 21
139.2256092253
  0
LINE
  5
285
100
AcDbEntity
  8
0
100
AcDbLine
 62
7
  6
CONTINUOUS
 10
98.2172918769
 20
155.8430490495
 11
97.7791631851
 21
155.5900968413
  0
LINE
  5
286
100
AcDbEntity
  8
0
100
AcDbLine
 62
7
  6
CONTINUOUS
 10
40.5914994725
 20
122.4465324894
 11
49.5724172587
 21
127.6316368399
  0
LINE
  5
287
100
AcDbEntity
  8
0
100
AcDbLine
 62
7
  6
CONTINUOUS
 10
48.7231968389
 20
126.6922735593
 11
40.7710874525
 21
122.1011484698
  0
LINE
  5
288
100
AcDbEntity
  8
0
100
AcDbLine
 62
7
  6
CONTINUOUS
 10
141.0688434737
 20
83.7809639416
 11
141.3188338088
 21
83.8057184905
  0
LINE
  5
289
100
AcDbEntity
  8
0
100
AcDbLine
 62
7
  6
CONTINUOUS
 10
138.2611404415
 20
87.9402028725
 11
138.5611288437
 21
87.9699083312
  0
LINE
  5
28A
100
AcDbEntity
  8
0
100
AcDbLine
 62
7
  6
CONTINUOUS
 10
52.1172066441
 20
149.1457926614
 11
52.1172066441
 21
152.2893269673
  0
LINE
  5
28B
100
AcDbEntity
  8
0
100
AcDbLine
 62
7
  6
CONTINUOUS
 10
53.1426794301
 20
109.9093257069
 11
53.1426794301
 21
110.5701698552
  0
LINE
  5
28C
100
AcDbEntity
  8
0
100
AcDbLine
 62
7
  6
CONTINUOUS
 10
53.9452149011
 20
134.6062536877
 11
53.9452149011
 21
135.0145048962
  0
LINE
  5
28D
100
AcDbEntity
  8
0
100
AcDbLine
 62
7
  6
CONTINUOUS
 10
54.5863103737
 20
115.2002624961
 11
54.5863103737
 21
115.2172363295
  0
LINE
  5
28E
100
AcDbEntity
  8
0
100
AcDbLine
 62
7
  6
CONTINUOUS
 10
54.9454663795
 20
115.2204704205
 11
54.9454663795
 21
114.9759348197
  0
LINE
  5
28F
100
AcDbEntity
  8
0
100
AcDbLine
 62
7
  6
CONTINUOUS
 10
54.9456337688
 20
152.289333766
 11
54.9456337688
 21
149.1457994601
  0
LINE
  5
290
100
AcDbEntity
  8
0
100
AcDbLine
 62
7
  6
CONTINUOUS
 10
55.0517970841
 20
134.4286329782
 11
55.0517970841
 21
135.1634976984
  0
LINE
  5
291
100
AcDbEntity
  8
0
100
AcDbLine
 62
7
  6
CONTINUOUS
 10
56.0772024533
 20
113.5060599654
 11
56.0772024533
 21
104.4428831353
  0
LINE
  5
292
100
AcDbEntity
  8
0
100
AcDbLine
 62
7
  6
CONTINUOUS
 10
56.0772024533
 20
73.252146644
 11
56.0772024533
 21
71.1295845164
  0
LINE
  5
293
100
AcDbEntity
  8
0
100
AcDbLine
 62
7
  6
CONTINUOUS
 10
56.2185281311
 20
133.7550357329
 11
56.2185281311
 21
134.4899004532
  0
LINE
  5
294
100
AcDbEntity
  8
0
100
AcDbLine
 62
7
  6
CONTINUOUS
 10
56.2185599254
 20
118.8948542398
 11
56.2185599254
 21
122.3649215614
  0
LINE
  5
295
100
AcDbEntity
  8
0
100
AcDbLine
 62
7
  6
CONTINUOUS
 10
57.2414887485
 20
117.3625472499
 11
57.2414887485
 21
116.5460623415
  0
LINE
  5
296
100
AcDbEntity
  8
0
100
AcDbLine
 62
7
  6
CONTINUOUS
 10
57.2790958618
 20
149.3091694593
 11
57.2790958618
 21
150.9421392761
  0
LINE
  5
297
100
AcDbEntity
  8
0
100
AcDbLine
 62
7
  6
CONTINUOUS
 10
57.2791927188
 20
133.1426746011
 11
57.2791927188
 21
133.8775393214
  0
LINE
  5
298
100
AcDbEntity
  8
0
100
AcDbLine
 62
7
  6
CONTINUOUS
 10
57.4122678361
 20
123.5031736004
 11
57.4122678361
 21
124.3196760175
  0
LINE
  5
299
100
AcDbEntity
  8
0
100
AcDbLine
 62
7
  6
CONTINUOUS
 10
57.703512428
 20
116.567562703
 11
57.703512428
 21
117.6292951533
  0
LINE
  5
29A
100
AcDbEntity
  8
0
100
AcDbLine
 62
7
  6
CONTINUOUS
 10
77.2498681896
 20
149.2071808127
 11
77.3963024806
 21
149.41130119
  0
LINE
  5
29B
100
AcDbEntity
  8
0
100
AcDbLine
 62
7
  6
CONTINUOUS
 10
41.4907856165
 20
121.7001615011
 11
44.9024299326
 21
123.6698635079
  0
LINE
  5
29C
100
AcDbEntity
  8
0
100
AcDbLine
 62
7
  6
CONTINUOUS
 10
101.7859245926
 20
156.2189642813
 11
103.3190481649
 21
157.1041083049
  0
LINE
  5
29D
100
AcDbEntity
  8
0
100
AcDbLine
 62
7
  6
CONTINUOUS
 10
98.4129286835
 20
154.2715118166
 11
99.7068199233
 21
155.018535813
  0
LINE
  5
29E
100
AcDbEntity
  8
0
100
AcDbLine
 62
7
  6
CONTINUOUS
 10
99.6999871836
 20
154.9440549675
 11
99.73763695
 21
154.9657919405
  0
LINE
  5
29F
100
AcDbEntity
  8
0
100
AcDbLine
 62
7
  6
CONTINUOUS
 10
99.7654201095
 20
154.9818324594
 11
104.3899919514
 21
157.6518143196
  0
LINE
  5
2A0
100
AcDbEntity
  8
0
100
AcDbLine
 62
7
  6
CONTINUOUS
 10
100.4736852056
 20
155.0157449898
 11
105.030637535
 21
157.6466869392
  0
LINE
  5
2A1
100
AcDbEntity
  8
0
100
AcDbLine
 62
7
  6
CONTINUOUS
 10
71.9162789482
 20
137.7150515348
 11
70.3960754108
 21
136.8373668523
  0
LINE
  5
2A2
100
AcDbEntity
  8
0
100
AcDbLine
 62
7
  6
CONTINUOUS
 10
106.2702624623
 20
157.0723843574
 11
102.027639439
 21
154.6229194341
  0
LINE
  5
2A3
100
AcDbEntity
  8
0
100
AcDbLine
 62
7
  6
CONTINUOUS
 10
47.945398221
 20
123.2630175657
 11
47.4833745414
 21
122.9962696623
  0
LINE
  5
2A4
100
AcDbEntity
  8
0
100
AcDbLine
 62
7
  6
CONTINUOUS
 10
102.4047351281
 20
154.4052080618
 11
106.6473581514
 21
156.854672985
  0
LINE
  5
2A5
100
AcDbEntity
  8
0
100
AcDbLine
 62
7
  6
CONTINUOUS
 10
101.9166215997
 20
153.2424918713
 11
101.40251632
 21
152.9456638834
  0
LINE
  5
2A6
100
AcDbEntity
  8
0
100
AcDbLine
 62
7
  6
CONTINUOUS
 10
74.2497645929
 20
136.2454517173
 11
77.0781799418
 21
137.8784283328
  0
LINE
  5
2A7
100
AcDbEntity
  8
0
100
AcDbLine
 62
7
  6
CONTINUOUS
 10
49.7461256619
 20
121.6898992478
 11
50.2081493414
 21
121.9566471513
  0
LINE
  5
2A8
100
AcDbEntity
  8
0
100
AcDbLine
 62
7
  6
CONTINUOUS
 10
56.6456687157
 20
124.6935707587
 11
51.1876235331
 21
121.5423857133
  0
LINE
  5
2A9
100
AcDbEntity
  8
0
100
AcDbLine
 62
7
  6
CONTINUOUS
 10
104.5140808735
 20
152.1864219882
 11
109.2007685844
 21
154.892266248
  0
LINE
  5
2AA
100
AcDbEntity
  8
0
100
AcDbLine
 62
7
  6
CONTINUOUS
 10
47.0113356342
 20
118.7637853155
 11
48.6107238905
 21
119.6871870439
  0
LINE
  5
2AB
100
AcDbEntity
  8
0
100
AcDbLine
 62
7
  6
CONTINUOUS
 10
118.8521775032
 20
59.6485806204
 11
118.6233722686
 21
59.7806783957
  0
LINE
  5
2AC
100
AcDbEntity
  8
0
100
AcDbLine
 62
7
  6
CONTINUOUS
 10
21.0046118998
 20
117.2621347884
 11
47.0262497852
 21
102.238875022
  0
LINE
  5
2AD
100
AcDbEntity
  8
0
100
AcDbLine
 62
7
  6
CONTINUOUS
 10
52.6831275864
 20
98.9729489859
 11
78.7047654718
 21
83.9496892195
  0
LINE
  5
2AE
100
AcDbEntity
  8
0
100
AcDbLine
 62
7
  6
CONTINUOUS
 10
118.1120495819
 20
62.1606809345
 11
118.8521775032
 21
61.7333775468
  0
LINE
  5
2AF
100
AcDbEntity
  8
0
100
AcDbLine
 62
7
  6
CONTINUOUS
 10
61.8044095168
 20
114.1998807718
 11
61.8044298395
 21
114.0774206699
  0
LINE
  5
2B0
100
AcDbEntity
  8
0
100
AcDbLine
 62
7
  6
CONTINUOUS
 10
57.8499575654
 20
116.4830706188
 11
57.8499575654
 21
117.8334155306
  0
LINE
  5
2B1
100
AcDbEntity
  8
0
100
AcDbLine
 62
7
  6
CONTINUOUS
 10
58.0217247578
 20
116.3841721908
 11
58.0217247578
 21
116.4658224325
  0
LINE
  5
2B2
100
AcDbEntity
  8
0
100
AcDbLine
 62
7
  6
CONTINUOUS
 10
59.1883274473
 20
144.9409797886
 11
59.1883274473
 21
143.3080099718
  0
LINE
  5
2B3
100
AcDbEntity
  8
0
100
AcDbLine
 62
7
  6
CONTINUOUS
 10
59.2588357029
 20
112.7302018179
 11
59.2588357029
 21
112.6077299827
  0
LINE
  5
2B4
100
AcDbEntity
  8
0
100
AcDbLine
 62
7
  6
CONTINUOUS
 10
59.8248433698
 20
115.8330264504
 11
59.8248433698
 21
116.9761298344
  0
LINE
  5
2B5
100
AcDbEntity
  8
0
100
AcDbLine
 62
7
  6
CONTINUOUS
 10
61.1328365039
 20
149.7378332995
 11
61.1328365039
 21
147.6149636993
  0
LINE
  5
2B6
100
AcDbEntity
  8
0
100
AcDbLine
 62
7
  6
CONTINUOUS
 10
62.0167427962
 20
143.4304220981
 11
62.0167427962
 21
146.573956404
  0
LINE
  5
2B7
100
AcDbEntity
  8
0
100
AcDbLine
 62
7
  6
CONTINUOUS
 10
62.8236733157
 20
114.6809527458
 11
62.8236733157
 21
115.244793726
  0
LINE
  5
2B8
100
AcDbEntity
  8
0
100
AcDbLine
 62
7
  6
CONTINUOUS
 10
58.4811699439
 20
116.1187140086
 11
58.4813460791
 21
116.200465942
  0
LINE
  5
2B9
100
AcDbEntity
  8
0
100
AcDbLine
 62
7
  6
CONTINUOUS
 10
57.8499467189
 20
117.8334155306
 11
57.703512428
 21
117.6292951533
  0
LINE
  5
2BA
100
AcDbEntity
  8
0
100
AcDbLine
 62
7
  6
CONTINUOUS
 10
99.0233126331
 20
154.1482227569
 11
99.1357242253
 21
154.2523829622
  0
LINE
  5
2BB
100
AcDbEntity
  8
0
100
AcDbLine
 62
7
  6
CONTINUOUS
 10
57.4122678361
 20
124.3196760175
 11
51.8947332583
 21
121.1341449588
  0
LINE
  5
2BC
100
AcDbEntity
  8
0
100
AcDbLine
 62
7
  6
CONTINUOUS
 10
48.0868625591
 20
118.1191804915
 11
57.4122678361
 21
123.5031736004
  0
LINE
  5
2BD
100
AcDbEntity
  8
0
100
AcDbLine
 62
7
  6
CONTINUOUS
 10
56.2185599254
 20
122.3649215614
 11
48.6100213373
 21
117.9721559807
  0
LINE
  5
2BE
100
AcDbEntity
  8
0
100
AcDbLine
 62
7
  6
CONTINUOUS
 10
110.3153528567
 20
153.0029177129
 11
105.3976950989
 21
150.1637247108
  0
LINE
  5
2BF
100
AcDbEntity
  8
0
100
AcDbLine
 62
7
  6
CONTINUOUS
 10
49.3832605723
 20
117.6020807792
 11
52.3977930192
 21
119.3425115099
  0
LINE
  5
2C0
100
AcDbEntity
  8
0
100
AcDbLine
 62
7
  6
CONTINUOUS
 10
101.5085916106
 20
147.431009408
 11
91.4503729378
 21
141.6239288133
  0
LINE
  5
2C1
100
AcDbEntity
  8
0
100
AcDbLine
 62
7
  6
CONTINUOUS
 10
105.8113941282
 20
148.110470336
 11
110.7611209887
 21
150.9681794131
  0
LINE
  5
2C2
100
AcDbEntity
  8
0
100
AcDbLine
 62
7
  6
CONTINUOUS
 10
55.4407613075
 20
118.9356655678
 11
54.978737628
 21
118.6689176643
  0
LINE
  5
2C3
100
AcDbEntity
  8
0
100
AcDbLine
 62
7
  6
CONTINUOUS
 10
106.4406915181
 20
148.1680572353
 11
111.3904183786
 21
151.0257663124
  0
LINE
  5
2C4
100
AcDbEntity
  8
0
100
AcDbLine
 62
7
  6
CONTINUOUS
 10
25.7422076091
 20
119.9973706193
 11
51.7638454945
 21
104.974110853
  0
LINE
  5
2C5
100
AcDbEntity
  8
0
100
AcDbLine
 62
7
  6
CONTINUOUS
 10
57.4207232957
 20
101.7081848168
 11
83.4423611811
 21
86.6849250505
  0
LINE
  5
2C6
100
AcDbEntity
  8
0
100
AcDbLine
 62
7
  6
CONTINUOUS
 10
22.9844790923
 20
121.9155806301
 11
86.3415104654
 21
85.3372090251
  0
LINE
  5
2C7
100
AcDbEntity
  8
0
100
AcDbLine
 62
7
  6
CONTINUOUS
 10
42.7127833109
 20
126.6922416034
 11
42.8592205458
 21
126.4881195264
  0
LINE
  5
2C8
100
AcDbEntity
  8
0
100
AcDbLine
 62
7
  6
CONTINUOUS
 10
50.2081463975
 20
122.3648896055
 11
50.3545836324
 21
122.1607675285
  0
LINE
  5
2C9
100
AcDbEntity
  8
0
100
AcDbLine
 62
7
  6
CONTINUOUS
 10
64.8451699209
 20
146.5739632027
 11
64.8451699209
 21
143.4304288968
  0
LINE
  5
2CA
100
AcDbEntity
  8
0
100
AcDbLine
 62
7
  6
CONTINUOUS
 10
65.4461699109
 20
152.2281226381
 11
65.4461699109
 21
150.1052530379
  0
LINE
  5
2CB
100
AcDbEntity
  8
0
100
AcDbLine
 62
7
  6
CONTINUOUS
 10
65.547191392
 20
154.9021121578
 11
65.547191392
 21
155.9635653001
  0
LINE
  5
2CC
100
AcDbEntity
  8
0
100
AcDbLine
 62
7
  6
CONTINUOUS
 10
65.6936394734
 20
155.7594432231
 11
65.6936394734
 21
154.6979900809
  0
LINE
  5
2CD
100
AcDbEntity
  8
0
100
AcDbLine
 62
7
  6
CONTINUOUS
 10
66.4716288603
 20
127.7130983195
 11
66.4716288603
 21
119.5072490274
  0
LINE
  5
2CE
100
AcDbEntity
  8
0
100
AcDbLine
 62
7
  6
CONTINUOUS
 10
67.1786320139
 20
143.593798896
 11
67.1786320139
 21
145.2267687128
  0
LINE
  5
2CF
100
AcDbEntity
  8
0
100
AcDbLine
 62
7
  6
CONTINUOUS
 10
67.8149686488
 20
153.4732678173
 11
67.8149686488
 21
154.5347209596
  0
LINE
  5
2D0
100
AcDbEntity
  8
0
100
AcDbLine
 62
7
  6
CONTINUOUS
 10
68.52207543
 20
154.5347226592
 11
68.52207543
 21
153.473269517
  0
LINE
  5
2D1
100
AcDbEntity
  8
0
100
AcDbLine
 62
7
  6
CONTINUOUS
 10
68.8756096848
 20
157.1882994614
 11
68.8756096848
 21
155.5553228458
  0
LINE
  5
2D2
100
AcDbEntity
  8
0
100
AcDbLine
 62
7
  6
CONTINUOUS
 10
69.0878635994
 20
139.2256092253
 11
69.0878635994
 21
137.5926394085
  0
LINE
  5
2D3
100
AcDbEntity
  8
0
100
AcDbLine
 62
7
  6
CONTINUOUS
 10
95.0000854453
 20
139.5745477047
 11
105.3976950989
 21
145.577574604
  0
LINE
  5
2D4
100
AcDbEntity
  8
0
100
AcDbLine
 62
7
  6
CONTINUOUS
 10
57.2414887485
 20
117.3625472499
 11
57.703512428
 21
117.6292951533
  0
LINE
  5
2D5
100
AcDbEntity
  8
0
100
AcDbLine
 62
7
  6
CONTINUOUS
 10
54.5569106563
 20
115.2002624961
 11
54.5863103737
 21
115.2172363295
  0
LINE
  5
2D6
100
AcDbEntity
  8
0
100
AcDbLine
 62
7
  6
CONTINUOUS
 10
54.9454663795
 20
115.2204704205
 11
57.4910401934
 21
116.6901493744
  0
LINE
  5
2D7
100
AcDbEntity
  8
0
100
AcDbLine
 62
7
  6
CONTINUOUS
 10
58.3487801746
 20
116.8381793616
 11
57.8499575654
 21
116.550185713
  0
LINE
  5
2D8
100
AcDbEntity
  8
0
100
AcDbLine
 62
7
  6
CONTINUOUS
 10
58.0217247578
 20
116.4658224325
 11
62.2289925892
 21
118.894875148
  0
LINE
  5
2D9
100
AcDbEntity
  8
0
100
AcDbLine
 62
7
  6
CONTINUOUS
 10
58.4813460791
 20
116.200465942
 11
59.8248433698
 21
116.9761298344
  0
LINE
  5
2DA
100
AcDbEntity
  8
0
100
AcDbLine
 62
7
  6
CONTINUOUS
 10
97.513574161
 20
137.7968517239
 11
99.9884375913
 21
139.2257062625
  0
LINE
  5
2DB
100
AcDbEntity
  8
0
100
AcDbLine
 62
7
  6
CONTINUOUS
 10
59.4003797525
 20
115.5879637295
 11
59.8248433698
 21
115.8330264504
  0
LINE
  5
2DC
100
AcDbEntity
  8
0
100
AcDbLine
 62
7
  6
CONTINUOUS
 10
100.6955473164
 20
138.8174655079
 11
98.5742358048
 21
137.5927330463
  0
LINE
  5
2DD
100
AcDbEntity
  8
0
100
AcDbLine
 62
7
  6
CONTINUOUS
 10
115.0465114186
 20
146.1269237588
 11
114.6032594877
 21
145.8710136647
  0
LINE
  5
2DE
100
AcDbEntity
  8
0
100
AcDbLine
 62
7
  6
CONTINUOUS
 10
78.2450102
 20
124.5085135237
 11
80.7198736302
 21
125.9373680622
  0
LINE
  5
2DF
100
AcDbEntity
  8
0
100
AcDbLine
 62
7
  6
CONTINUOUS
 10
53.1426794301
 20
109.9093257069
 11
53.2794570398
 21
109.9882938253
  0
LINE
  5
2E0
100
AcDbEntity
  8
0
100
AcDbLine
 62
7
  6
CONTINUOUS
 10
100.6955473164
 20
137.3315939014
 11
110.1874481115
 21
142.8122719723
  0
LINE
  5
2E1
100
AcDbEntity
  8
0
100
AcDbLine
 62
7
  6
CONTINUOUS
 10
99.9884552551
 20
136.7762515373
 11
102.1097667667
 21
138.0009839989
  0
LINE
  5
2E2
100
AcDbEntity
  8
0
100
AcDbLine
 62
7
  6
CONTINUOUS
 10
81.0734314367
 20
125.3250052308
 11
78.9521199251
 21
124.1002727692
  0
LINE
  5
2E3
100
AcDbEntity
  8
0
100
AcDbLine
 62
7
  6
CONTINUOUS
 10
61.8044095168
 20
114.1998807718
 11
59.2588357029
 21
112.7302018179
  0
LINE
  5
2E4
100
AcDbEntity
  8
0
100
AcDbLine
 62
7
  6
CONTINUOUS
 10
59.1531238697
 20
112.5466975917
 11
62.849784299
 21
114.6809527458
  0
LINE
  5
2E5
100
AcDbEntity
  8
0
100
AcDbLine
 62
7
  6
CONTINUOUS
 10
102.8168764918
 20
137.5927432444
 11
100.3420130616
 21
136.1638887058
  0
LINE
  5
2E6
100
AcDbEntity
  8
0
100
AcDbLine
 62
7
  6
CONTINUOUS
 10
136.0324883485
 20
75.2105390718
 11
129.0291524699
 21
77.9555750268
  0
LINE
  5
2E7
100
AcDbEntity
  8
0
100
AcDbLine
 62
7
  6
CONTINUOUS
 10
130.2526578732
 20
69.2924958057
 11
122.1383461418
 21
73.9771898862
  0
LINE
  5
2E8
100
AcDbEntity
  8
0
100
AcDbLine
 62
7
  6
CONTINUOUS
 10
37.5129698534
 20
122.7666773795
 11
37.3238333909
 21
122.8793613867
  0
LINE
  5
2E9
100
AcDbEntity
  8
0
100
AcDbLine
 62
7
  6
CONTINUOUS
 10
69.19148554
 20
104.4774915769
 11
69.0023490774
 21
104.5901755842
  0
LINE
  5
2EA
100
AcDbEntity
  8
0
100
AcDbLine
 62
7
  6
CONTINUOUS
 10
37.5416958255
 20
122.7827799717
 11
37.3547631528
 21
122.8966322518
  0
LINE
  5
2EB
100
AcDbEntity
  8
0
100
AcDbLine
 62
7
  6
CONTINUOUS
 10
69.2202115121
 20
104.4935941692
 11
69.0332788394
 21
104.6074464493
  0
LINE
  5
2EC
100
AcDbEntity
  8
0
100
AcDbLine
 62
7
  6
CONTINUOUS
 10
118.8521775032
 20
59.6485806204
 11
118.7258106285
 21
59.7615476233
  0
LINE
  5
2ED
100
AcDbEntity
  8
0
100
AcDbLine
 62
7
  6
CONTINUOUS
 10
57.703509484
 20
118.0375376075
 11
57.8499467189
 21
117.8334155306
  0
LINE
  5
2EE
100
AcDbEntity
  8
0
100
AcDbLine
 62
7
  6
CONTINUOUS
 10
105.9314716269
 20
51.9323575984
 11
106.2244394882
 21
51.516004528
  0
LINE
  5
2EF
100
AcDbEntity
  8
0
100
AcDbLine
 62
7
  6
CONTINUOUS
 10
107.3558147717
 20
50.8628188409
 11
107.0628471871
 21
51.2791723912
  0
LINE
  5
2F0
100
AcDbEntity
  8
0
100
AcDbLine
 62
7
  6
CONTINUOUS
 10
70.9969388602
 20
155.9635771978
 11
70.9969388602
 21
153.4324573392
  0
LINE
  5
2F1
100
AcDbEntity
  8
0
100
AcDbLine
 62
7
  6
CONTINUOUS
 10
71.9162789482
 20
137.7150515348
 11
71.9162789482
 21
140.8585858408
  0
LINE
  5
2F2
100
AcDbEntity
  8
0
100
AcDbLine
 62
7
  6
CONTINUOUS
 10
72.9063494389
 20
109.2603724332
 11
72.9063494389
 21
112.7304397548
  0
LINE
  5
2F3
100
AcDbEntity
  8
0
100
AcDbLine
 62
7
  6
CONTINUOUS
 10
73.7191794123
 20
165.4852444533
 11
73.7191794123
 21
163.8667604065
  0
LINE
  5
2F4
100
AcDbEntity
  8
INTFCLR_74
100
AcDbLine
 62
7
420
48875
  6
CONTINUOUS
 10
73.7191794123
 20
168.4761247926
 11
73.7191794123
 21
170.1499547478
  0
LINE
  5
2F5
100
AcDbEntity
  8
0
100
AcDbLine
 62
7
  6
CONTINUOUS
 10
73.9292782619
 20
107.7280654432
 11
73.9292782619
 21
106.9115805348
  0
LINE
  5
2F6
100
AcDbEntity
  8
0
100
AcDbLine
 62
7
  6
CONTINUOUS
 10
74.0021204533
 20
152.1659874284
 11
74.0021204533
 21
151.8040703827
  0
LINE
  5
2F7
100
AcDbEntity
  8
0
100
AcDbLine
 62
7
  6
CONTINUOUS
 10
74.3913019414
 20
106.9457493
 11
74.3913019414
 21
107.9948133467
  0
LINE
  5
2F8
100
AcDbEntity
  8
0
100
AcDbLine
 62
7
  6
CONTINUOUS
 10
74.5377470789
 20
107.0406611987
 11
74.5377470789
 21
108.1989337239
  0
LINE
  5
2F9
100
AcDbEntity
  8
0
100
AcDbLine
 62
7
  6
CONTINUOUS
 10
74.7447060729
 20
140.8585926395
 11
74.7447060729
 21
137.7150583335
  0
LINE
  5
2FA
100
AcDbEntity
  8
0
100
AcDbLine
 62
7
  6
CONTINUOUS
 10
99.1357242253
 20
154.2523829622
 11
99.4754880356
 21
154.7358198946
  0
LINE
  5
2FB
100
AcDbEntity
  8
0
100
AcDbLine
 62
7
  6
CONTINUOUS
 10
77.1489795277
 20
122.4059720801
 11
76.6048356182
 21
122.0918123227
  0
LINE
  5
2FC
100
AcDbEntity
  8
0
100
AcDbLine
 62
7
  6
CONTINUOUS
 10
97.2661075426
 20
133.8572886847
 11
94.5791129612
 21
132.3059609
  0
LINE
  5
2FD
100
AcDbEntity
  8
0
100
AcDbLine
 62
7
  6
CONTINUOUS
 10
92.9527741356
 20
131.3669993461
 11
89.5586757169
 21
129.4074274075
  0
LINE
  5
2FE
100
AcDbEntity
  8
0
100
AcDbLine
 62
7
  6
CONTINUOUS
 10
77.0015983175
 20
121.8309890219
 11
77.5732453628
 21
122.1610276274
  0
LINE
  5
2FF
100
AcDbEntity
  8
0
100
AcDbLine
 62
7
  6
CONTINUOUS
 10
100.3420130616
 20
135.1024355636
 11
101.5440895849
 21
135.7964506251
  0
LINE
  5
300
100
AcDbEntity
  8
0
100
AcDbLine
 62
7
  6
CONTINUOUS
 10
80.3663393754
 20
123.2837912601
 11
82.487650887
 21
124.5085237217
  0
LINE
  5
301
100
AcDbEntity
  8
0
100
AcDbLine
 62
7
  6
CONTINUOUS
 10
78.2450102
 20
121.3241364602
 11
78.0025031741
 21
121.1841257993
  0
LINE
  5
302
100
AcDbEntity
  8
0
100
AcDbLine
 62
7
  6
CONTINUOUS
 10
83.5483125308
 20
124.3044050441
 11
81.0734491005
 21
122.8755505056
  0
LINE
  5
303
100
AcDbEntity
  8
0
100
AcDbLine
 62
7
  6
CONTINUOUS
 10
91.3971610023
 20
128.3460014457
 11
94.7912594209
 21
130.3055733843
  0
LINE
  5
304
100
AcDbEntity
  8
0
100
AcDbLine
 62
7
  6
CONTINUOUS
 10
96.4175982465
 20
131.2445349382
 11
99.1045928279
 21
132.7958627229
  0
LINE
  5
305
100
AcDbEntity
  8
0
100
AcDbLine
 62
7
  6
CONTINUOUS
 10
47.0262497852
 20
102.238875022
 11
51.7638454945
 21
104.974110853
  0
LINE
  5
306
100
AcDbEntity
  8
0
100
AcDbLine
 62
7
  6
CONTINUOUS
 10
83.5483125308
 20
123.2429519019
 11
82.3462360075
 21
122.5489368403
  0
LINE
  5
307
100
AcDbEntity
  8
0
100
AcDbLine
 62
7
  6
CONTINUOUS
 10
78.9521199251
 20
119.8952853209
 11
80.3663393754
 21
120.7117804274
  0
LINE
  5
308
100
AcDbEntity
  8
0
100
AcDbLine
 62
7
  6
CONTINUOUS
 10
105.5883024872
 20
133.4615760392
 11
106.0341910025
 21
133.7190083568
  0
LINE
  5
309
100
AcDbEntity
  8
0
100
AcDbLine
 62
7
  6
CONTINUOUS
 10
82.3462360075
 20
119.4054025343
 11
81.0734491005
 21
118.6705630574
  0
LINE
  5
30A
100
AcDbEntity
  8
0
100
AcDbLine
 62
7
  6
CONTINUOUS
 10
139.5510742158
 20
90.5010559477
 11
142.025937646
 21
89.9288864702
  0
LINE
  5
30B
100
AcDbEntity
  8
0
100
AcDbLine
 62
7
  6
CONTINUOUS
 10
56.0772024533
 20
113.5060599654
 11
55.7459359738
 21
113.6444783942
  0
LINE
  5
30C
100
AcDbEntity
  8
0
100
AcDbLine
 62
7
  6
CONTINUOUS
 10
56.0772024533
 20
113.5060599654
 11
55.7520077748
 21
113.6493071444
  0
LINE
  5
30D
100
AcDbEntity
  8
0
100
AcDbLine
 62
7
  6
CONTINUOUS
 10
79.7653782457
 20
99.829994689
 11
79.0582685205
 21
100.2382354435
  0
LINE
  5
30E
100
AcDbEntity
  8
0
100
AcDbLine
 62
7
  6
CONTINUOUS
 10
72.2700151591
 20
104.1573466869
 11
71.562905434
 21
104.5655874415
  0
LINE
  5
30F
100
AcDbEntity
  8
0
100
AcDbLine
 62
7
  6
CONTINUOUS
 10
48.0868625591
 20
118.1191804915
 11
47.379752834
 21
118.527421246
  0
LINE
  5
310
100
AcDbEntity
  8
0
100
AcDbLine
 62
7
  6
CONTINUOUS
 10
40.5914994725
 20
122.4465324894
 11
39.8843897474
 21
122.854773244
  0
LINE
  5
311
100
AcDbEntity
  8
0
100
AcDbLine
 62
7
  6
CONTINUOUS
 10
25.1057906039
 20
132.2034899218
 11
27.4746081831
 21
130.8358833942
  0
LINE
  5
312
100
AcDbEntity
  8
0
100
AcDbLine
 62
7
  6
CONTINUOUS
 10
54.5569106563
 20
115.2002624961
 11
59.1531238697
 21
112.5466975917
  0
LINE
  5
313
100
AcDbEntity
  8
0
100
AcDbLine
 62
7
  6
CONTINUOUS
 10
86.2354263429
 20
96.9110766935
 11
88.4628219771
 21
95.6251183168
  0
LINE
  5
314
100
AcDbEntity
  8
0
100
AcDbLine
 62
7
  6
CONTINUOUS
 10
59.2588357029
 20
112.7302018179
 11
54.9454663795
 21
115.2204704205
  0
LINE
  5
315
100
AcDbEntity
  8
0
100
AcDbLine
 62
7
  6
CONTINUOUS
 10
29.207003458
 20
131.9585297952
 11
29.3130528099
 21
131.8973035585
  0
LINE
  5
316
100
AcDbEntity
  8
0
100
AcDbLine
 62
7
  6
CONTINUOUS
 10
89.0638416917
 20
97.7275508919
 11
89.7002404443
 21
97.3601342128
  0
LINE
  5
317
100
AcDbEntity
  8
0
100
AcDbLine
 62
7
  6
CONTINUOUS
 10
85.2430397522
 20
100.3797284625
 11
84.0763087057
 21
101.0533257074
  0
LINE
  5
318
100
AcDbEntity
  8
0
100
AcDbLine
 62
7
  6
CONTINUOUS
 10
81.6411139096
 20
102.4592542722
 11
81.4246472364
 21
102.5842285369
  0
LINE
  5
319
100
AcDbEntity
  8
0
100
AcDbLine
 62
7
  6
CONTINUOUS
 10
77.7476766657
 20
104.7070804604
 11
76.5809456192
 21
105.3806777054
  0
LINE
  5
31A
100
AcDbEntity
  8
0
100
AcDbLine
 62
7
  6
CONTINUOUS
 10
74.145750823
 20
106.7866062701
 11
73.9292841499
 21
106.9115805348
  0
LINE
  5
31B
100
AcDbEntity
  8
0
100
AcDbLine
 62
7
  6
CONTINUOUS
 10
70.2523135791
 20
109.0344324583
 11
69.0855825326
 21
109.7080297033
  0
LINE
  5
31C
100
AcDbEntity
  8
0
100
AcDbLine
 62
7
  6
CONTINUOUS
 10
53.5645240656
 20
118.668914265
 11
52.3977930192
 21
119.3425115099
  0
LINE
  5
31D
100
AcDbEntity
  8
0
100
AcDbLine
 62
7
  6
CONTINUOUS
 10
49.962598223
 20
120.7484400747
 11
49.7461315499
 21
120.8734143394
  0
LINE
  5
31E
100
AcDbEntity
  8
0
100
AcDbLine
 62
7
  6
CONTINUOUS
 10
46.0691609791
 20
122.9962662629
 11
44.9024299326
 21
123.6698635079
  0
LINE
  5
31F
100
AcDbEntity
  8
0
100
AcDbLine
 62
7
  6
CONTINUOUS
 10
42.4672351365
 20
125.0757920726
 11
42.2507684633
 21
125.2007663373
  0
LINE
  5
320
100
AcDbEntity
  8
0
100
AcDbLine
 62
7
  6
CONTINUOUS
 10
38.5737978925
 20
127.3236182608
 11
37.407066846
 21
127.9972155058
  0
LINE
  5
321
100
AcDbEntity
  8
0
100
AcDbLine
 62
7
  6
CONTINUOUS
 10
88.920010323
 20
98.256876539
 11
89.7002404443
 21
97.8064206591
  0
LINE
  5
322
100
AcDbEntity
  8
0
100
AcDbLine
 62
7
  6
CONTINUOUS
 10
57.4910401934
 20
116.6901493744
 11
61.8044095168
 21
114.1998807718
  0
LINE
  5
323
100
AcDbEntity
  8
0
100
AcDbLine
 62
7
  6
CONTINUOUS
 10
58.0217247578
 20
116.4658224325
 11
58.4813460791
 21
116.200465942
  0
LINE
  5
324
100
AcDbEntity
  8
0
100
AcDbLine
 62
7
  6
CONTINUOUS
 10
89.7002404443
 20
98.17663663
 11
90.1598617657
 21
97.9112801395
  0
LINE
  5
325
100
AcDbEntity
  8
0
100
AcDbLine
 62
7
  6
CONTINUOUS
 10
29.2777032435
 20
133.4690270457
 11
30.6565501006
 21
132.6729674508
  0
LINE
  5
326
100
AcDbEntity
  8
0
100
AcDbLine
 62
7
  6
CONTINUOUS
 10
59.8248433698
 20
115.8330264504
 11
62.3350657871
 21
114.3837816483
  0
LINE
  5
327
100
AcDbEntity
  8
0
100
AcDbLine
 62
7
  6
CONTINUOUS
 10
91.5033590564
 20
97.5438406479
 11
92.6347346166
 21
96.8906554407
  0
LINE
  5
328
100
AcDbEntity
  8
0
100
AcDbLine
 62
7
  6
CONTINUOUS
 10
43.6922604466
 20
125.8697377112
 11
44.3993701717
 21
125.4614969567
  0
LINE
  5
329
100
AcDbEntity
  8
0
100
AcDbLine
 62
7
  6
CONTINUOUS
 10
51.1876235331
 20
121.5423857133
 11
51.8947332583
 21
121.1341449588
  0
LINE
  5
32A
100
AcDbEntity
  8
0
100
AcDbLine
 62
7
  6
CONTINUOUS
 10
75.3707761331
 20
107.5805519087
 11
76.0778858583
 21
107.1723111542
  0
LINE
  5
32B
100
AcDbEntity
  8
0
100
AcDbLine
 62
7
  6
CONTINUOUS
 10
82.8661392197
 20
103.2531999108
 11
83.5732489448
 21
102.8449591563
  0
LINE
  5
32C
100
AcDbEntity
  8
0
100
AcDbLine
 62
7
  6
CONTINUOUS
 10
89.3820251706
 20
99.748351805
 11
87.8263837753
 21
100.646481465
  0
LINE
  5
32D
100
AcDbEntity
  8
0
100
AcDbLine
 62
7
  6
CONTINUOUS
 10
81.886662084
 20
104.0757038029
 11
80.3310206887
 21
104.9738334629
  0
LINE
  5
32E
100
AcDbEntity
  8
0
100
AcDbLine
 62
7
  6
CONTINUOUS
 10
74.3912989975
 20
108.4030558009
 11
72.8356576022
 21
109.3011854608
  0
LINE
  5
32F
100
AcDbEntity
  8
0
100
AcDbLine
 62
7
  6
CONTINUOUS
 10
57.703509484
 20
118.0375376075
 11
56.1478680887
 21
118.9356672675
  0
LINE
  5
330
100
AcDbEntity
  8
0
100
AcDbLine
 62
7
  6
CONTINUOUS
 10
50.2081463975
 20
122.3648896055
 11
48.6525050021
 21
123.2630192654
  0
LINE
  5
331
100
AcDbEntity
  8
0
100
AcDbLine
 62
7
  6
CONTINUOUS
 10
42.7127833109
 20
126.6922416034
 11
41.1571419156
 21
127.5903712633
  0
LINE
  5
332
100
AcDbEntity
  8
0
100
AcDbLine
 62
7
  6
CONTINUOUS
 10
62.8236733157
 20
115.244793726
 11
59.8248433698
 21
116.9761298344
  0
LINE
  5
333
100
AcDbEntity
  8
0
100
AcDbLine
 62
7
  6
CONTINUOUS
 10
31.1451576291
 20
133.5339795285
 11
29.2777032435
 21
134.6121304297
  0
LINE
  5
334
100
AcDbEntity
  8
0
100
AcDbLine
 62
7
  6
CONTINUOUS
 10
91.5033590564
 20
98.6869440319
 11
92.6347346166
 21
98.0337588247
  0
LINE
  5
335
100
AcDbEntity
  8
0
100
AcDbLine
 62
7
  6
CONTINUOUS
 10
74.3912989975
 20
108.4030558009
 11
74.5377362324
 21
108.1989337239
  0
LINE
  5
336
100
AcDbEntity
  8
0
100
AcDbLine
 62
7
  6
CONTINUOUS
 10
77.0781681659
 20
137.8784283328
 11
77.0781681659
 21
139.5113981495
  0
LINE
  5
337
100
AcDbEntity
  8
0
100
AcDbLine
 62
7
  6
CONTINUOUS
 10
77.2498573432
 20
148.1457276705
 11
77.2498573432
 21
149.2071808127
  0
LINE
  5
338
100
AcDbEntity
  8
0
100
AcDbLine
 62
7
  6
CONTINUOUS
 10
77.3963054245
 20
149.0030587358
 11
77.3963054245
 21
147.9416055935
  0
LINE
  5
339
100
AcDbEntity
  8
0
100
AcDbLine
 62
7
  6
CONTINUOUS
 10
78.2450102
 20
124.5085135237
 11
78.2450102
 21
120.3035260755
  0
LINE
  5
33A
100
AcDbEntity
  8
INTFCLR_74
100
AcDbLine
 62
7
420
48875
  6
CONTINUOUS
 10
78.6689062728
 20
171.1006073765
 11
78.6689062728
 21
169.0185173954
  0
LINE
  5
33B
100
AcDbEntity
  8
0
100
AcDbLine
 62
7
  6
CONTINUOUS
 10
78.9521199251
 20
124.1002727692
 11
78.9521199251
 21
119.8952853209
  0
LINE
  5
33C
100
AcDbEntity
  8
0
100
AcDbLine
 62
7
  6
CONTINUOUS
 10
79.5176346
 20
146.71688333
 11
79.5176346
 21
147.7783364723
  0
LINE
  5
33D
100
AcDbEntity
  8
0
100
AcDbLine
 62
7
  6
CONTINUOUS
 10
80.2247413812
 20
147.7783381719
 11
80.2247413812
 21
146.7168850297
  0
LINE
  5
33E
100
AcDbEntity
  8
0
100
AcDbLine
 62
7
  6
CONTINUOUS
 10
80.3663393754
 20
123.2837912601
 11
80.3663393754
 21
119.0788038119
  0
LINE
  5
33F
100
AcDbEntity
  8
0
100
AcDbLine
 62
7
  6
CONTINUOUS
 10
80.4017125255
 20
104.9330204352
 11
80.4017125255
 21
108.4030877568
  0
LINE
  5
340
100
AcDbEntity
  8
0
100
AcDbLine
 62
7
  6
CONTINUOUS
 10
80.578275636
 20
150.431914974
 11
80.578275636
 21
148.7989383585
  0
LINE
  5
341
100
AcDbEntity
  8
0
100
AcDbLine
 62
7
  6
CONTINUOUS
 10
83.6947468218
 20
124.5085254214
 11
83.5483125308
 21
124.3044050441
  0
LINE
  5
342
100
AcDbEntity
  8
0
100
AcDbLine
 62
7
  6
CONTINUOUS
 10
83.5483125308
 20
123.2429519019
 11
83.6947468218
 21
123.4470722791
  0
LINE
  5
343
100
AcDbEntity
  8
0
100
AcDbLine
 62
7
  6
CONTINUOUS
 10
74.5377362324
 20
108.1989337239
 11
74.3913019414
 21
107.9948133467
  0
LINE
  5
344
100
AcDbEntity
  8
0
100
AcDbLine
 62
7
  6
CONTINUOUS
 10
97.3671398701
 20
137.5927313466
 11
97.513574161
 21
137.7968517239
  0
LINE
  5
345
100
AcDbEntity
  8
0
100
AcDbLine
 62
7
  6
CONTINUOUS
 10
72.9063494389
 20
112.7304397548
 11
65.1840555704
 21
108.2719979243
  0
LINE
  5
346
100
AcDbEntity
  8
0
100
AcDbLine
 62
7
  6
CONTINUOUS
 10
55.5204083824
 20
101.8964091114
 11
50.782812673
 21
99.1611732805
  0
LINE
  5
347
100
AcDbEntity
  8
0
100
AcDbLine
 62
7
  6
CONTINUOUS
 10
65.8496559412
 20
107.8397777666
 11
69.0855825326
 21
109.7080297033
  0
LINE
  5
348
100
AcDbEntity
  8
0
100
AcDbLine
 62
7
  6
CONTINUOUS
 10
50.0657554637
 20
97.7873029275
 11
49.7137241288
 21
97.5840587547
  0
LINE
  5
349
100
AcDbEntity
  8
0
100
AcDbLine
 62
7
  6
CONTINUOUS
 10
57.4207232957
 20
101.7081848168
 11
52.6831275864
 21
98.9729489859
  0
LINE
  5
34A
100
AcDbEntity
  8
0
100
AcDbLine
 62
7
  6
CONTINUOUS
 10
109.2869510847
 20
130.9996431611
 11
111.761814515
 21
132.4284976997
  0
LINE
  5
34B
100
AcDbEntity
  8
0
100
AcDbLine
 62
7
  6
CONTINUOUS
 10
72.128550821
 20
109.3011837611
 11
71.6665271415
 21
109.0344358577
  0
LINE
  5
34C
100
AcDbEntity
  8
0
100
AcDbLine
 62
7
  6
CONTINUOUS
 10
85.1746843288
 20
116.4660636628
 11
85.6237305877
 21
116.7253190937
  0
LINE
  5
34D
100
AcDbEntity
  8
INTFCLR_74
100
AcDbLine
 62
7
420
48875
  6
CONTINUOUS
 10
30.6500109317
 20
84.8221031723
 11
22.9844790923
 21
80.396432719
  0
LINE
  5
34E
100
AcDbEntity
  8
0
100
AcDbLine
 62
7
  6
CONTINUOUS
 10
112.4689242401
 20
132.0202569452
 11
110.3476127285
 21
130.7955244836
  0
LINE
  5
34F
100
AcDbEntity
  8
0
100
AcDbLine
 62
7
  6
CONTINUOUS
 10
86.6596114405
 20
116.9151304045
 11
85.6237305877
 21
116.3170678852
  0
LINE
  5
350
100
AcDbEntity
  8
0
100
AcDbLine
 62
7
  6
CONTINUOUS
 10
86.2353672454
 20
115.8536919491
 11
86.7303127707
 21
116.1394471757
  0
LINE
  5
351
100
AcDbEntity
  8
0
100
AcDbLine
 62
7
  6
CONTINUOUS
 10
111.7618321788
 20
129.9790429745
 11
113.8831436904
 21
131.2037754361
  0
LINE
  5
352
100
AcDbEntity
  8
0
100
AcDbLine
 62
7
  6
CONTINUOUS
 10
73.9292782619
 20
107.7280654432
 11
74.3913019414
 21
107.9948133467
  0
LINE
  5
353
100
AcDbEntity
  8
0
100
AcDbLine
 62
7
  6
CONTINUOUS
 10
41.2278337523
 20
131.0196255573
 11
46.9200548205
 21
127.733294538
  0
LINE
  5
354
100
AcDbEntity
  8
0
100
AcDbLine
 62
7
  6
CONTINUOUS
 10
48.7231968389
 20
126.6922735593
 11
54.4154179071
 21
123.4059425401
  0
LINE
  5
355
100
AcDbEntity
  8
0
100
AcDbLine
 62
7
  6
CONTINUOUS
 10
56.2185599254
 20
122.3649215614
 11
62.2289925892
 21
118.894875148
  0
LINE
  5
356
100
AcDbEntity
  8
0
100
AcDbLine
 62
7
  6
CONTINUOUS
 10
72.9063494389
 20
112.7304397548
 11
78.5985705071
 21
109.4441087355
  0
LINE
  5
357
100
AcDbEntity
  8
0
100
AcDbLine
 62
7
  6
CONTINUOUS
 10
80.4017125255
 20
108.4030877568
 11
86.0939335937
 21
105.1167567376
  0
LINE
  5
358
100
AcDbEntity
  8
0
100
AcDbLine
 62
7
  6
CONTINUOUS
 10
87.897075612
 20
104.0757357589
 11
93.9075082758
 21
100.6056893455
  0
LINE
  5
359
100
AcDbEntity
  8
0
100
AcDbLine
 62
7
  6
CONTINUOUS
 10
51.7283719552
 20
143.0834814517
 11
51.8748091901
 21
142.8793593748
  0
LINE
  5
35A
100
AcDbEntity
  8
0
100
AcDbLine
 62
7
  6
CONTINUOUS
 10
81.886662084
 20
104.0757038029
 11
82.033099319
 21
103.871581726
  0
LINE
  5
35B
100
AcDbEntity
  8
0
100
AcDbLine
 62
7
  6
CONTINUOUS
 10
89.3820251706
 20
99.748351805
 11
89.5284624055
 21
99.5442297281
  0
LINE
  5
35C
100
AcDbEntity
  8
0
100
AcDbLine
 62
7
  6
CONTINUOUS
 10
81.0734314367
 20
125.3250052308
 11
81.0734314367
 21
123.6920286152
  0
LINE
  5
35D
100
AcDbEntity
  8
0
100
AcDbLine
 62
7
  6
CONTINUOUS
 10
81.0734491005
 20
122.8755505056
 11
81.0734491005
 21
118.6705630574
  0
LINE
  5
35E
100
AcDbEntity
  8
0
100
AcDbLine
 62
7
  6
CONTINUOUS
 10
81.2509329453
 20
109.3424510374
 11
81.2509329453
 21
110.1589534545
  0
LINE
  5
35F
100
AcDbEntity
  8
0
100
AcDbLine
 62
7
  6
CONTINUOUS
 10
81.3922398154
 20
79.2948729522
 11
81.3922398154
 21
61.740070984
  0
LINE
  5
360
100
AcDbEntity
  8
0
100
AcDbLine
 62
7
  6
CONTINUOUS
 10
81.4246413485
 20
103.4007134453
 11
81.4246413485
 21
102.5842285369
  0
LINE
  5
361
100
AcDbEntity
  8
0
100
AcDbLine
 62
7
  6
CONTINUOUS
 10
81.886665028
 20
102.618397302
 11
81.886665028
 21
103.6674613487
  0
LINE
  5
362
100
AcDbEntity
  8
0
100
AcDbLine
 62
7
  6
CONTINUOUS
 10
82.0331101654
 20
102.7133092008
 11
82.0331101654
 21
103.871581726
  0
LINE
  5
363
100
AcDbEntity
  8
0
100
AcDbLine
 62
7
  6
CONTINUOUS
 10
82.3462360075
 20
122.5489368403
 11
82.3462360075
 21
119.4054025343
  0
LINE
  5
364
100
AcDbEntity
  8
0
100
AcDbLine
 62
7
  6
CONTINUOUS
 10
82.6996048114
 20
149.2071927105
 11
82.6996048114
 21
146.6760728519
  0
LINE
  5
365
100
AcDbEntity
  8
0
100
AcDbLine
 62
7
  6
CONTINUOUS
 10
83.5483125308
 20
123.2429519019
 11
83.5483125308
 21
124.3044050441
  0
LINE
  5
366
100
AcDbEntity
  8
0
100
AcDbLine
 62
7
  6
CONTINUOUS
 10
83.6947576682
 20
123.4470722791
 11
83.6947576682
 21
124.5085254214
  0
LINE
  5
367
100
AcDbEntity
  8
0
100
AcDbLine
 62
7
  6
CONTINUOUS
 10
84.5612840149
 20
164.0268199334
 11
84.5612840149
 21
164.0436159601
  0
LINE
  5
368
100
AcDbEntity
  8
0
100
AcDbLine
 62
7
  6
CONTINUOUS
 10
84.8211951167
 20
60.5192237886
 11
84.8211951167
 21
59.8581958781
  0
LINE
  5
369
100
AcDbEntity
  8
0
100
AcDbLine
 62
7
  6
CONTINUOUS
 10
84.8211951167
 20
91.6201399044
 11
84.8211951167
 21
92.2809840527
  0
LINE
  5
36A
100
AcDbEntity
  8
0
100
AcDbLine
 62
7
  6
CONTINUOUS
 10
85.6237305877
 20
116.3170678852
 11
85.6237305877
 21
116.7253190937
  0
LINE
  5
36B
100
AcDbEntity
  8
0
100
AcDbLine
 62
7
  6
CONTINUOUS
 10
86.1298355248
 20
82.0301087832
 11
86.1298355248
 21
64.4753068149
  0
LINE
  5
36C
100
AcDbEntity
  8
0
100
AcDbLine
 62
7
  6
CONTINUOUS
 10
86.2648260603
 20
96.9110766935
 11
86.2648260603
 21
96.928050527
  0
LINE
  5
36D
100
AcDbEntity
  8
0
100
AcDbLine
 62
7
  6
CONTINUOUS
 10
86.3415104654
 20
85.3372090251
 11
86.3415104654
 21
61.0870872363
  0
LINE
  5
36E
100
AcDbEntity
  8
0
100
AcDbLine
 62
7
  6
CONTINUOUS
 10
86.7303127707
 20
116.1394471757
 11
86.7303127707
 21
116.8743118959
  0
LINE
  5
36F
100
AcDbEntity
  8
0
100
AcDbLine
 62
7
  6
CONTINUOUS
 10
82.033099319
 20
103.871581726
 11
81.886665028
 21
103.6674613487
  0
LINE
  5
370
100
AcDbEntity
  8
0
100
AcDbLine
 62
7
  6
CONTINUOUS
 10
87.8970438177
 20
115.4658499304
 11
87.4020982924
 21
115.1800947039
  0
LINE
  5
371
100
AcDbEntity
  8
0
100
AcDbLine
 62
7
  6
CONTINUOUS
 10
114.5902534155
 20
130.7955346816
 11
112.1153899853
 21
129.3666801431
  0
LINE
  5
372
100
AcDbEntity
  8
0
100
AcDbLine
 62
7
  6
CONTINUOUS
 10
80.5438232201
 20
110.5671942091
 11
75.3707761331
 21
107.5805519087
  0
LINE
  5
373
100
AcDbEntity
  8
0
100
AcDbLine
 62
7
  6
CONTINUOUS
 10
88.1092202368
 20
114.7718468947
 11
88.9577084054
 21
115.2617188432
  0
LINE
  5
374
100
AcDbEntity
  8
0
100
AcDbLine
 62
7
  6
CONTINUOUS
 10
70.9646727163
 20
104.6692682518
 11
72.7938764905
 21
105.7253532393
  0
LINE
  5
375
100
AcDbEntity
  8
0
100
AcDbLine
 62
7
  6
CONTINUOUS
 10
112.1153899853
 20
128.3052270008
 11
113.3174665086
 21
128.9992420624
  0
LINE
  5
376
100
AcDbEntity
  8
0
100
AcDbLine
 62
7
  6
CONTINUOUS
 10
88.9577084054
 20
114.8534887986
 11
88.4627628801
 21
114.5677335721
  0
LINE
  5
377
100
AcDbEntity
  8
0
100
AcDbLine
 62
7
  6
CONTINUOUS
 10
89.209120717
 20
114.8761888164
 11
88.5688110095
 21
114.5065080411
  0
LINE
  5
378
100
AcDbEntity
  8
0
100
AcDbLine
 62
7
  6
CONTINUOUS
 10
81.2509329453
 20
110.1589534545
 11
76.0778858583
 21
107.1723111542
  0
LINE
  5
379
100
AcDbEntity
  8
0
100
AcDbLine
 62
7
  6
CONTINUOUS
 10
90.0537381213
 20
114.9555747828
 11
89.59269096
 21
114.689390669
  0
LINE
  5
37A
100
AcDbEntity
  8
0
100
AcDbLine
 62
7
  6
CONTINUOUS
 10
129.8958075635
 20
137.553863247
 11
129.4576788717
 21
137.3009110388
  0
LINE
  5
37B
100
AcDbEntity
  8
0
100
AcDbLine
 62
7
  6
CONTINUOUS
 10
72.2700151591
 20
104.1573466869
 11
81.2509329453
 21
109.3424510374
  0
LINE
  5
37C
100
AcDbEntity
  8
0
100
AcDbLine
 62
7
  6
CONTINUOUS
 10
80.4017125255
 20
108.4030877568
 11
72.4496031391
 21
103.8119626673
  0
LINE
  5
37D
100
AcDbEntity
  8
INTFCLR_76
100
AcDbLine
 62
7
420
3604575
  6
CONTINUOUS
 10
41.5814990136
 20
85.8673754059
 11
40.8743951764
 21
85.459131252
  0
LINE
  5
37E
100
AcDbEntity
  8
0
100
AcDbLine
 62
7
  6
CONTINUOUS
 10
73.1693013031
 20
103.4109756986
 11
76.5809456192
 21
105.3806777054
  0
LINE
  5
37F
100
AcDbEntity
  8
0
100
AcDbLine
 62
7
  6
CONTINUOUS
 10
133.4644402792
 20
137.9297784788
 11
134.9975638515
 21
138.8149225024
  0
LINE
  5
380
100
AcDbEntity
  8
0
100
AcDbLine
 62
7
  6
CONTINUOUS
 10
130.0914443701
 20
135.9823260141
 11
131.3853356098
 21
136.7293500105
  0
LINE
  5
381
100
AcDbEntity
  8
0
100
AcDbLine
 62
7
  6
CONTINUOUS
 10
131.3785028702
 20
136.654869165
 11
131.4161526366
 21
136.676606138
  0
LINE
  5
382
100
AcDbEntity
  8
0
100
AcDbLine
 62
7
  6
CONTINUOUS
 10
131.4439357961
 20
136.6926466569
 11
136.068507638
 21
139.362628517
  0
LINE
  5
383
100
AcDbEntity
  8
0
100
AcDbLine
 62
7
  6
CONTINUOUS
 10
132.1522008922
 20
136.7265591873
 11
136.7091532215
 21
139.3575011367
  0
LINE
  5
384
100
AcDbEntity
  8
0
100
AcDbLine
 62
7
  6
CONTINUOUS
 10
137.9487781489
 20
138.7831985548
 11
133.7061551256
 21
136.3337336316
  0
LINE
  5
385
100
AcDbEntity
  8
0
100
AcDbLine
 62
7
  6
CONTINUOUS
 10
79.6239139075
 20
104.9738317632
 11
79.161890228
 21
104.7070838597
  0
LINE
  5
386
100
AcDbEntity
  8
0
100
AcDbLine
 62
7
  6
CONTINUOUS
 10
134.0832508147
 20
136.1160222593
 11
138.325873838
 21
138.5654871825
  0
LINE
  5
387
100
AcDbEntity
  8
0
100
AcDbLine
 62
7
  6
CONTINUOUS
 10
140.9652773635
 20
84.0098397816
 11
141.3188338088
 21
83.8057184905
  0
LINE
  5
388
100
AcDbEntity
  8
0
100
AcDbLine
 62
7
  6
CONTINUOUS
 10
81.0734491005
 20
118.6705630574
 11
80.3663393754
 21
119.0788038119
  0
LINE
  5
389
100
AcDbEntity
  8
0
100
AcDbLine
 62
7
  6
CONTINUOUS
 10
78.9521199251
 20
119.8952853209
 11
78.2450102
 21
120.3035260755
  0
LINE
  5
38A
100
AcDbEntity
  8
0
100
AcDbLine
 62
7
  6
CONTINUOUS
 10
49.2535114689
 20
137.0413970108
 11
48.5464017438
 21
137.4496377653
  0
LINE
  5
38B
100
AcDbEntity
  8
0
100
AcDbLine
 62
7
  6
CONTINUOUS
 10
47.1321822935
 20
138.2661192743
 11
46.4250725683
 21
138.6743600289
  0
LINE
  5
38C
100
AcDbEntity
  8
0
100
AcDbLine
 62
7
  6
CONTINUOUS
 10
88.5688110095
 20
114.5065080411
 11
85.1746843288
 21
116.4660636628
  0
LINE
  5
38D
100
AcDbEntity
  8
0
100
AcDbLine
 62
7
  6
CONTINUOUS
 10
56.8902953229
 20
132.7956938436
 11
53.4961686422
 21
134.7552494653
  0
LINE
  5
38E
100
AcDbEntity
  8
0
100
AcDbLine
 62
7
  6
CONTINUOUS
 10
87.7557181399
 20
95.2168741629
 11
87.7557181399
 21
86.1536973328
  0
LINE
  5
38F
100
AcDbEntity
  8
0
100
AcDbLine
 62
7
  6
CONTINUOUS
 10
87.7557181399
 20
61.9035755441
 11
87.7557181399
 21
52.8403987139
  0
LINE
  5
390
100
AcDbEntity
  8
0
100
AcDbLine
 62
7
  6
CONTINUOUS
 10
87.8970438177
 20
115.4658499304
 11
87.8970438177
 21
116.2007146507
  0
LINE
  5
391
100
AcDbEntity
  8
0
100
AcDbLine
 62
7
  6
CONTINUOUS
 10
87.897075612
 20
100.6056684373
 11
87.897075612
 21
104.0757357589
  0
LINE
  5
392
100
AcDbEntity
  8
0
100
AcDbLine
 62
7
  6
CONTINUOUS
 10
88.4628219771
 20
95.6251183168
 11
88.4628219771
 21
94.4820149328
  0
LINE
  5
393
100
AcDbEntity
  8
0
100
AcDbLine
 62
7
  6
CONTINUOUS
 10
88.4628219771
 20
53.2486428678
 11
88.4628219771
 21
54.3917462518
  0
LINE
  5
394
100
AcDbEntity
  8
0
100
AcDbLine
 62
7
  6
CONTINUOUS
 10
88.9200044351
 20
99.0733614474
 11
88.9200044351
 21
98.256876539
  0
LINE
  5
395
100
AcDbEntity
  8
0
100
AcDbLine
 62
7
  6
CONTINUOUS
 10
88.9577084054
 20
114.8534887986
 11
88.9577084054
 21
115.5883535189
  0
LINE
  5
396
100
AcDbEntity
  8
0
100
AcDbLine
 62
7
  6
CONTINUOUS
 10
89.0638416917
 20
96.135393048
 11
89.0638416917
 21
97.7275508919
  0
LINE
  5
397
100
AcDbEntity
  8
0
100
AcDbLine
 62
7
  6
CONTINUOUS
 10
89.0907835227
 20
105.2139877979
 11
89.0907835227
 21
106.030490215
  0
LINE
  5
398
100
AcDbEntity
  8
0
100
AcDbLine
 62
7
  6
CONTINUOUS
 10
89.3820281146
 20
97.9901364771
 11
89.3820281146
 21
99.3401093508
  0
LINE
  5
399
100
AcDbEntity
  8
0
100
AcDbLine
 62
7
  6
CONTINUOUS
 10
89.528473252
 20
97.9055882503
 11
89.528473252
 21
99.5442297281
  0
LINE
  5
39A
100
AcDbEntity
  8
0
100
AcDbLine
 62
7
  6
CONTINUOUS
 10
89.7002404443
 20
97.3601342128
 11
89.7002404443
 21
98.17663663
  0
LINE
  5
39B
100
AcDbEntity
  8
0
100
AcDbLine
 62
7
  6
CONTINUOUS
 10
90.1598617657
 20
96.7681767555
 11
90.1598617657
 21
97.9112801395
  0
LINE
  5
39C
100
AcDbEntity
  8
0
100
AcDbLine
 62
7
  6
CONTINUOUS
 10
91.5033590564
 20
97.5438406479
 11
91.5033590564
 21
98.6869440319
  0
LINE
  5
39D
100
AcDbEntity
  8
0
100
AcDbLine
 62
7
  6
CONTINUOUS
 10
133.5951372863
 20
134.9533060688
 11
133.0810320065
 21
134.6564780809
  0
LINE
  5
39E
100
AcDbEntity
  8
0
100
AcDbLine
 62
7
  6
CONTINUOUS
 10
81.4246413485
 20
103.4007134453
 11
81.886665028
 21
103.6674613487
  0
LINE
  5
39F
100
AcDbEntity
  8
0
100
AcDbLine
 62
7
  6
CONTINUOUS
 10
119.1864842928
 20
124.6310619098
 11
99.8118391531
 21
113.4451720937
  0
LINE
  5
3A0
100
AcDbEntity
  8
0
100
AcDbLine
 62
7
  6
CONTINUOUS
 10
88.3241844023
 20
106.4043849562
 11
82.8661392197
 21
103.2531999108
  0
LINE
  5
3A1
100
AcDbEntity
  8
0
100
AcDbLine
 62
7
  6
CONTINUOUS
 10
136.1925965601
 20
133.8972361857
 11
140.879284271
 21
136.6030804455
  0
LINE
  5
3A2
100
AcDbEntity
  8
0
100
AcDbLine
 62
7
  6
CONTINUOUS
 10
78.6898513207
 20
100.474599513
 11
80.2892395771
 21
101.3980012414
  0
LINE
  5
3A3
100
AcDbEntity
  8
0
100
AcDbLine
 62
7
  6
CONTINUOUS
 10
89.0907835227
 20
106.030490215
 11
83.5732489448
 21
102.8449591563
  0
LINE
  5
3A4
100
AcDbEntity
  8
0
100
AcDbLine
 62
7
  6
CONTINUOUS
 10
79.7653782457
 20
99.829994689
 11
89.0907835227
 21
105.2139877979
  0
LINE
  5
3A5
100
AcDbEntity
  8
0
100
AcDbLine
 62
7
  6
CONTINUOUS
 10
87.897075612
 20
104.0757357589
 11
80.2885370239
 21
99.6829701782
  0
LINE
  5
3A6
100
AcDbEntity
  8
0
100
AcDbLine
 62
7
  6
CONTINUOUS
 10
121.5199263668
 20
122.9163818025
 11
119.4548884076
 21
121.7241386975
  0
LINE
  5
3A7
100
AcDbEntity
  8
0
100
AcDbLine
 62
7
  6
CONTINUOUS
 10
99.4020130933
 20
110.146674845
 11
98.1501445469
 21
109.423912517
  0
LINE
  5
3A8
100
AcDbEntity
  8
0
100
AcDbLine
 62
7
  6
CONTINUOUS
 10
141.9938685432
 20
134.7137319104
 11
137.0762107855
 21
131.8745389083
  0
LINE
  5
3A9
100
AcDbEntity
  8
0
100
AcDbLine
 62
7
  6
CONTINUOUS
 10
119.1864842928
 20
121.4875276038
 11
99.8118391531
 21
110.3016377878
  0
LINE
  5
3AA
100
AcDbEntity
  8
0
100
AcDbLine
 62
7
  6
CONTINUOUS
 10
81.0617762589
 20
99.3128949767
 11
84.0763087057
 21
101.0533257074
  0
LINE
  5
3AB
100
AcDbEntity
  8
0
100
AcDbLine
 62
7
  6
CONTINUOUS
 10
133.1871072972
 20
129.1418236055
 11
121.5199263668
 21
122.4058137632
  0
LINE
  5
3AC
100
AcDbEntity
  8
0
100
AcDbLine
 62
7
  6
CONTINUOUS
 10
89.209120717
 20
114.8761888164
 11
89.3698246875
 21
114.7979262178
  0
LINE
  5
3AD
100
AcDbEntity
  8
0
100
AcDbLine
 62
7
  6
CONTINUOUS
 10
57.5306050304
 20
133.1653746189
 11
57.6913090009
 21
133.0871120203
  0
LINE
  5
3AE
100
AcDbEntity
  8
0
100
AcDbLine
 62
7
  6
CONTINUOUS
 10
89.209120717
 20
114.8761888164
 11
89.3687007435
 21
114.7971683517
  0
LINE
  5
3AF
100
AcDbEntity
  8
0
100
AcDbLine
 62
7
  6
CONTINUOUS
 10
57.5306050304
 20
133.1653746189
 11
57.6901850569
 21
133.0863541542
  0
LINE
  5
3B0
100
AcDbEntity
  8
0
100
AcDbLine
 62
7
  6
CONTINUOUS
 10
141.0688352156
 20
84.4399408858
 11
142.025937646
 21
83.8873616776
  0
LINE
  5
3B1
100
AcDbEntity
  8
0
100
AcDbLine
 62
7
  6
CONTINUOUS
 10
55.0517970841
 20
134.4286329782
 11
56.2185281311
 21
133.7550357329
  0
LINE
  5
3B2
100
AcDbEntity
  8
0
100
AcDbLine
 62
7
  6
CONTINUOUS
 10
57.2791927188
 20
133.1426746011
 11
57.3852408482
 21
133.0814490702
  0
LINE
  5
3B3
100
AcDbEntity
  8
0
100
AcDbLine
 62
7
  6
CONTINUOUS
 10
86.7303127707
 20
116.1394471757
 11
87.8970438177
 21
115.4658499304
  0
LINE
  5
3B4
100
AcDbEntity
  8
0
100
AcDbLine
 62
7
  6
CONTINUOUS
 10
88.9577084054
 20
114.8534887986
 11
89.0637565348
 21
114.7922632677
  0
LINE
  5
3B5
100
AcDbEntity
  8
0
100
AcDbLine
 62
7
  6
CONTINUOUS
 10
98.1147828783
 20
110.3016337085
 11
82.3462360075
 21
119.4054025343
  0
LINE
  5
3B6
100
AcDbEntity
  8
0
100
AcDbLine
 62
7
  6
CONTINUOUS
 10
78.2450102
 20
121.7731927918
 11
50.5262983759
 21
137.7762364878
  0
LINE
  5
3B7
100
AcDbEntity
  8
0
100
AcDbLine
 62
7
  6
CONTINUOUS
 10
46.4250725683
 20
140.1440267452
 11
36.3133929005
 21
145.9818756536
  0
LINE
  5
3B8
100
AcDbEntity
  8
0
100
AcDbLine
 62
7
  6
CONTINUOUS
 10
138.1368611093
 20
88.2148538804
 11
138.5611288437
 21
87.9699083312
  0
LINE
  5
3B9
100
AcDbEntity
  8
0
100
AcDbLine
 62
7
  6
CONTINUOUS
 10
138.6318392274
 20
88.0107327466
 11
138.1368665413
 21
88.2964988952
  0
LINE
  5
3BA
100
AcDbEntity
  8
0
100
AcDbLine
 62
7
  6
CONTINUOUS
 10
138.1368665413
 20
89.2762892509
 11
139.0561015297
 21
88.7455806892
  0
LINE
  5
3BB
100
AcDbEntity
  8
0
100
AcDbLine
 62
7
  6
CONTINUOUS
 10
81.0734491005
 20
122.8755505056
 11
80.3663393754
 21
123.2837912601
  0
LINE
  5
3BC
100
AcDbEntity
  8
0
100
AcDbLine
 62
7
  6
CONTINUOUS
 10
78.9521199251
 20
124.1002727692
 11
78.2450102
 21
124.5085135237
  0
LINE
  5
3BD
100
AcDbEntity
  8
0
100
AcDbLine
 62
7
  6
CONTINUOUS
 10
49.2535114689
 20
141.246384459
 11
48.5464017438
 21
141.6546252135
  0
LINE
  5
3BE
100
AcDbEntity
  8
0
100
AcDbLine
 62
7
  6
CONTINUOUS
 10
47.1321822935
 20
142.4711067226
 11
46.4250725683
 21
142.8793474771
  0
LINE
  5
3BF
100
AcDbEntity
  8
0
100
AcDbLine
 62
7
  6
CONTINUOUS
 10
98.1147828783
 20
113.4451680145
 11
82.3462360075
 21
122.5489368403
  0
LINE
  5
3C0
100
AcDbEntity
  8
0
100
AcDbLine
 62
7
  6
CONTINUOUS
 10
78.5985385792
 20
124.7126220103
 11
50.5262983759
 21
140.9197707937
  0
LINE
  5
3C1
100
AcDbEntity
  8
0
100
AcDbLine
 62
7
  6
CONTINUOUS
 10
46.7786009476
 20
143.0834559637
 11
36.3133929005
 21
149.1254099596
  0
LINE
  5
3C2
100
AcDbEntity
  8
0
100
AcDbLine
 62
7
  6
CONTINUOUS
 10
139.0561015297
 20
89.8886840732
 11
138.1368665413
 21
90.4193926349
  0
LINE
  5
3C3
100
AcDbEntity
  8
0
100
AcDbLine
 62
7
  6
CONTINUOUS
 10
139.3389430646
 20
90.3785827016
 11
138.1368665413
 21
91.0725862054
  0
LINE
  5
3C4
100
AcDbEntity
  8
0
100
AcDbLine
 62
7
  6
CONTINUOUS
 10
139.5510742158
 20
90.5010559477
 11
138.1368665413
 21
91.3175306581
  0
LINE
  5
3C5
100
AcDbEntity
  8
0
100
AcDbLine
 62
7
  6
CONTINUOUS
 10
142.025937646
 20
89.9288864702
 11
138.1368665413
 21
92.1741919238
  0
LINE
  5
3C6
100
AcDbEntity
  8
0
100
AcDbLine
 62
7
  6
CONTINUOUS
 10
82.487650887
 20
124.5085237217
 11
81.0734314367
 21
125.3250052308
  0
LINE
  5
3C7
100
AcDbEntity
  8
0
100
AcDbLine
 62
7
  6
CONTINUOUS
 10
50.6677132554
 20
142.8793576751
 11
49.2534938051
 21
143.6958391842
  0
LINE
  5
3C8
100
AcDbEntity
  8
0
100
AcDbLine
 62
7
  6
CONTINUOUS
 10
83.5483095868
 20
124.7126474983
 11
83.6947468218
 21
124.5085254214
  0
LINE
  5
3C9
100
AcDbEntity
  8
INTFCLR_74
100
AcDbLine
 62
7
420
48875
  6
CONTINUOUS
 10
78.3153543542
 20
173.2117929565
 11
78.6689062728
 21
171.1006073765
  0
LINE
  5
3CA
100
AcDbEntity
  8
0
100
AcDbLine
 62
7
  6
CONTINUOUS
 10
92.6347346166
 20
98.0337588247
 11
92.6347346166
 21
96.8906554407
  0
LINE
  5
3CB
100
AcDbEntity
  8
0
100
AcDbLine
 62
7
  6
CONTINUOUS
 10
92.6347346166
 20
55.6572833756
 11
92.6347346166
 21
56.8003867596
  0
LINE
  5
3CC
100
AcDbEntity
  8
0
100
AcDbLine
 62
7
  6
CONTINUOUS
 10
92.9527741356
 20
131.3669993461
 11
92.9527741356
 21
129.2441297458
  0
LINE
  5
3CD
100
AcDbEntity
  8
0
100
AcDbLine
 62
7
  6
CONTINUOUS
 10
97.2661075426
 20
133.8572886847
 11
97.2661075426
 21
131.7344190845
  0
LINE
  5
3CE
100
AcDbEntity
  8
0
100
AcDbLine
 62
7
  6
CONTINUOUS
 10
97.3671290236
 20
136.5312782044
 11
97.3671290236
 21
137.5927313466
  0
LINE
  5
3CF
100
AcDbEntity
  8
0
100
AcDbLine
 62
7
  6
CONTINUOUS
 10
97.513577105
 20
137.3886092697
 11
97.513577105
 21
136.3271561274
  0
LINE
  5
3D0
100
AcDbEntity
  8
0
100
AcDbLine
 62
7
  6
CONTINUOUS
 10
98.1147828783
 20
110.3016337085
 11
98.1147828783
 21
113.4451680145
  0
LINE
  5
3D1
100
AcDbEntity
  8
0
100
AcDbLine
 62
7
  6
CONTINUOUS
 10
98.1501445469
 20
109.423912517
 11
98.1501445469
 21
101.2180632248
  0
LINE
  5
3D2
100
AcDbEntity
  8
0
100
AcDbLine
 62
7
  6
CONTINUOUS
 10
98.1501445469
 20
58.8415877758
 11
98.1501445469
 21
50.6357384837
  0
LINE
  5
3D3
100
AcDbEntity
  8
0
100
AcDbLine
 62
7
  6
CONTINUOUS
 10
101.785809795
 20
156.2188346422
 11
101.8164483692
 21
156.4767907342
  0
LINE
  5
3D4
100
AcDbEntity
  8
0
100
AcDbLine
 62
7
  6
CONTINUOUS
 10
109.1405167937
 20
130.7955227839
 11
109.2869510847
 21
130.9996431611
  0
LINE
  5
3D5
100
AcDbEntity
  8
0
100
AcDbLine
 62
7
  6
CONTINUOUS
 10
89.5284624055
 20
99.5442297281
 11
89.3820281146
 21
99.3401093508
  0
LINE
  5
3D6
100
AcDbEntity
  8
0
100
AcDbLine
 62
7
  6
CONTINUOUS
 10
130.7018283196
 20
135.8590369544
 11
130.8142399119
 21
135.9631971597
  0
LINE
  5
3D7
100
AcDbEntity
  8
0
100
AcDbLine
 62
7
  6
CONTINUOUS
 10
49.7137241288
 20
80.0292567865
 11
49.9956532427
 21
80.1920276646
  0
LINE
  5
3D8
100
AcDbEntity
  8
0
100
AcDbLine
 62
7
  6
CONTINUOUS
 10
87.1192769941
 20
100.6464797653
 11
86.6572533146
 21
100.3797318618
  0
LINE
  5
3D9
100
AcDbEntity
  8
0
100
AcDbLine
 62
7
  6
CONTINUOUS
 10
50.133699291
 20
78.986309415
 11
48.9265646986
 21
78.2893740932
  0
LINE
  5
3DA
100
AcDbEntity
  8
0
100
AcDbLine
 62
7
  6
CONTINUOUS
 10
88.9200044351
 20
99.0733614474
 11
89.3820281146
 21
99.3401093508
  0
LINE
  5
3DB
100
AcDbEntity
  8
0
100
AcDbLine
 62
7
  6
CONTINUOUS
 10
86.2354263429
 20
96.9110766935
 11
86.2648260603
 21
96.928050527
  0
LINE
  5
3DC
100
AcDbEntity
  8
0
100
AcDbLine
 62
7
  6
CONTINUOUS
 10
90.0272958612
 20
98.5489935591
 11
89.528473252
 21
98.2609999105
  0
LINE
  5
3DD
100
AcDbEntity
  8
0
100
AcDbLine
 62
7
  6
CONTINUOUS
 10
89.7002404443
 20
98.17663663
 11
93.9075082758
 21
100.6056893455
  0
LINE
  5
3DE
100
AcDbEntity
  8
0
100
AcDbLine
 62
7
  6
CONTINUOUS
 10
86.9425482872
 20
96.5028288844
 11
89.0638416917
 21
97.7275508919
  0
LINE
  5
3DF
100
AcDbEntity
  8
0
100
AcDbLine
 62
7
  6
CONTINUOUS
 10
90.1598617657
 20
97.9112801395
 11
91.5033590564
 21
98.6869440319
  0
LINE
  5
3E0
100
AcDbEntity
  8
0
100
AcDbLine
 62
7
  6
CONTINUOUS
 10
88.321417139
 20
95.7067565912
 11
91.5033590564
 21
97.5438406479
  0
LINE
  5
3E1
100
AcDbEntity
  8
0
100
AcDbLine
 62
7
  6
CONTINUOUS
 10
49.6070427798
 20
144.3082037153
 11
51.7283719552
 21
143.0834814517
  0
LINE
  5
3E2
100
AcDbEntity
  8
0
100
AcDbLine
 62
7
  6
CONTINUOUS
 10
81.4269804114
 20
125.9373697619
 11
83.5483095868
 21
124.7126474983
  0
LINE
  5
3E3
100
AcDbEntity
  8
0
100
AcDbLine
 62
7
  6
CONTINUOUS
 10
49.2888030711
 20
149.0233805351
 11
51.6222651641
 21
147.6761860451
  0
LINE
  5
3E4
100
AcDbEntity
  8
0
100
AcDbLine
 62
7
  6
CONTINUOUS
 10
59.1883392232
 20
143.3080099718
 11
61.5218013162
 21
141.9608154819
  0
LINE
  5
3E5
100
AcDbEntity
  8
0
100
AcDbLine
 62
7
  6
CONTINUOUS
 10
69.0878753752
 20
137.5926394085
 11
71.4213374682
 21
136.2454449186
  0
LINE
  5
3E6
100
AcDbEntity
  8
0
100
AcDbLine
 62
7
  6
CONTINUOUS
 10
51.2686820394
 20
148.6558996767
 11
53.4835734524
 21
147.3771604522
  0
LINE
  5
3E7
100
AcDbEntity
  8
0
100
AcDbLine
 62
7
  6
CONTINUOUS
 10
61.1682181915
 20
142.9405291135
 11
63.3831096045
 21
141.6617898889
  0
LINE
  5
3E8
100
AcDbEntity
  8
0
100
AcDbLine
 62
7
  6
CONTINUOUS
 10
71.0677543436
 20
137.2251585502
 11
73.2826457565
 21
135.9464193256
  0
LINE
  5
3E9
100
AcDbEntity
  8
0
100
AcDbLine
 62
7
  6
CONTINUOUS
 10
65.5472022384
 20
154.9021121578
 11
65.6936394734
 21
154.6979900809
  0
LINE
  5
3EA
100
AcDbEntity
  8
0
100
AcDbLine
 62
7
  6
CONTINUOUS
 10
65.6936394734
 20
155.7594432231
 11
65.5472022384
 21
155.9635653001
  0
LINE
  5
3EB
100
AcDbEntity
  8
0
100
AcDbLine
 62
7
  6
CONTINUOUS
 10
99.410588243
 20
155.0688110007
 11
99.410588243
 21
155.4705601152
  0
LINE
  5
3EC
100
AcDbEntity
  8
0
100
AcDbLine
 62
7
  6
CONTINUOUS
 10
99.6349062804
 20
135.1024338639
 11
99.6349062804
 21
136.1638870062
  0
LINE
  5
3ED
100
AcDbEntity
  8
0
100
AcDbLine
 62
7
  6
CONTINUOUS
 10
99.8118391531
 20
113.4451720937
 11
99.8118391531
 21
110.3016377878
  0
LINE
  5
3EE
100
AcDbEntity
  8
0
100
AcDbLine
 62
7
  6
CONTINUOUS
 10
100.3420130616
 20
136.1638887058
 11
100.3420130616
 21
135.1024355636
  0
LINE
  5
3EF
100
AcDbEntity
  8
0
100
AcDbLine
 62
7
  6
CONTINUOUS
 10
100.6955473164
 20
138.8174655079
 11
100.6955473164
 21
137.1844888924
  0
LINE
  5
3F0
100
AcDbEntity
  8
0
100
AcDbLine
 62
7
  6
CONTINUOUS
 10
101.5085916106
 20
143.3322130611
 11
101.5085916106
 21
147.431009408
  0
LINE
  5
3F1
100
AcDbEntity
  8
0
100
AcDbLine
 62
7
  6
CONTINUOUS
 10
102.3573932425
 20
53.0647801512
 11
102.3573932425
 21
52.6564830872
  0
LINE
  5
3F2
100
AcDbEntity
  8
0
100
AcDbLine
 62
7
  6
CONTINUOUS
 10
102.8168764918
 20
137.5927432444
 11
102.8168764918
 21
135.0616233858
  0
LINE
  5
3F3
100
AcDbEntity
  8
0
100
AcDbLine
 62
7
  6
CONTINUOUS
 10
142.025937646
 20
121.4898808334
 11
137.6418938553
 21
118.9561842324
  0
LINE
  5
3F4
100
AcDbEntity
  8
0
100
AcDbLine
 62
7
  6
CONTINUOUS
 10
98.1501445469
 20
101.2180632248
 11
92.6347346166
 21
98.0337588247
  0
LINE
  5
3F5
100
AcDbEntity
  8
0
100
AcDbLine
 62
7
  6
CONTINUOUS
 10
88.4628219771
 20
95.6251183168
 11
87.7557181399
 21
95.2168741629
  0
LINE
  5
3F6
100
AcDbEntity
  8
0
100
AcDbLine
 62
7
  6
CONTINUOUS
 10
88.4628219771
 20
94.4820149328
 11
92.6347346166
 21
96.8906554407
  0
LINE
  5
3F7
100
AcDbEntity
  8
0
100
AcDbLine
 62
7
  6
CONTINUOUS
 10
84.8211951167
 20
91.6201399044
 11
84.9579727264
 21
91.6991080228
  0
LINE
  5
3F8
100
AcDbEntity
  8
0
100
AcDbLine
 62
7
  6
CONTINUOUS
 10
121.5199263668
 20
111.5299697526
 11
133.1871072972
 21
118.2659795949
  0
LINE
  5
3F9
100
AcDbEntity
  8
0
100
AcDbLine
 62
7
  6
CONTINUOUS
 10
121.5199263668
 20
110.2644410943
 11
135.6973468215
 21
118.4497297506
  0
LINE
  5
3FA
100
AcDbEntity
  8
0
100
AcDbLine
 62
7
  6
CONTINUOUS
 10
137.6418938553
 20
118.6703582982
 11
138.6671735171
 21
119.2623002535
  0
LINE
  5
3FB
100
AcDbEntity
  8
0
100
AcDbLine
 62
7
  6
CONTINUOUS
 10
121.5199263668
 20
108.6722888942
 11
137.0762107855
 21
117.6536602793
  0
LINE
  5
3FC
100
AcDbEntity
  8
0
100
AcDbLine
 62
7
  6
CONTINUOUS
 10
78.7047654718
 20
83.9496892195
 11
83.4423611811
 21
86.6849250505
  0
LINE
  5
3FD
100
AcDbEntity
  8
0
100
AcDbLine
 62
7
  6
CONTINUOUS
 10
75.7699681303
 20
137.1231363997
 11
74.7447060729
 21
137.7150583335
  0
LINE
  5
3FE
100
AcDbEntity
  8
0
100
AcDbLine
 62
7
  6
CONTINUOUS
 10
65.8704319783
 20
142.838506963
 11
64.8451699209
 21
143.4304288968
  0
LINE
  5
3FF
100
AcDbEntity
  8
0
100
AcDbLine
 62
7
  6
CONTINUOUS
 10
55.9708958262
 20
148.5538775263
 11
54.9456337688
 21
149.1457994601
  0
LINE
  5
400
100
AcDbEntity
  8
0
100
AcDbLine
 62
7
  6
CONTINUOUS
 10
57.7387380853
 20
147.7782613609
 11
59.5772233707
 21
146.7168353991
  0
LINE
  5
401
100
AcDbEntity
  8
0
100
AcDbLine
 62
7
  6
CONTINUOUS
 10
89.5586757169
 20
129.4074274075
 11
91.3971610023
 21
128.3460014457
  0
LINE
  5
402
100
AcDbEntity
  8
0
100
AcDbLine
 62
7
  6
CONTINUOUS
 10
77.0781681659
 20
139.5113981495
 11
74.7447060729
 21
140.8585926395
  0
LINE
  5
403
100
AcDbEntity
  8
0
100
AcDbLine
 62
7
  6
CONTINUOUS
 10
67.1786320139
 20
145.2267687128
 11
64.8451699209
 21
146.5739632027
  0
LINE
  5
404
100
AcDbEntity
  8
0
100
AcDbLine
 62
7
  6
CONTINUOUS
 10
57.2790958618
 20
150.9421392761
 11
54.9456337688
 21
152.289333766
  0
LINE
  5
405
100
AcDbEntity
  8
0
100
AcDbLine
 62
7
  6
CONTINUOUS
 10
94.7912594209
 20
130.3055733843
 11
92.9527741356
 21
131.3669993461
  0
LINE
  5
406
100
AcDbEntity
  8
0
100
AcDbLine
 62
7
  6
CONTINUOUS
 10
62.9713217893
 20
148.6764073377
 11
61.1328365039
 21
149.7378332995
  0
LINE
  5
407
100
AcDbEntity
  8
0
100
AcDbLine
 62
7
  6
CONTINUOUS
 10
77.2498681896
 20
148.1457276705
 11
77.3963054245
 21
147.9416055935
  0
LINE
  5
408
100
AcDbEntity
  8
0
100
AcDbLine
 62
7
  6
CONTINUOUS
 10
77.3963054245
 20
149.0030587358
 11
77.2498681896
 21
149.2071808127
  0
LINE
  5
409
100
AcDbEntity
  8
0
100
AcDbLine
 62
7
  6
CONTINUOUS
 10
105.3976950989
 20
147.1959819052
 11
105.3976950989
 21
150.1637247108
  0
LINE
  5
40A
100
AcDbEntity
  8
0
100
AcDbLine
 62
7
  6
CONTINUOUS
 10
105.6806361399
 20
133.8768016258
 11
105.6806361399
 21
133.5148845802
  0
LINE
  5
40B
100
AcDbEntity
  8
0
100
AcDbLine
 62
7
  6
CONTINUOUS
 10
109.1405059473
 20
129.7340696416
 11
109.1405059473
 21
130.7955227839
  0
LINE
  5
40C
100
AcDbEntity
  8
0
100
AcDbLine
 62
7
  6
CONTINUOUS
 10
109.2869540287
 20
130.5914007069
 11
109.2869540287
 21
129.5299475647
  0
LINE
  5
40D
100
AcDbEntity
  8
0
100
AcDbLine
 62
7
  6
CONTINUOUS
 10
130.8142399119
 20
135.9631971597
 11
131.1540037222
 21
136.4466340921
  0
LINE
  5
40E
100
AcDbEntity
  8
0
100
AcDbLine
 62
7
  6
CONTINUOUS
 10
138.0226420753
 20
116.7265007561
 11
137.6418938553
 21
116.506676981
  0
LINE
  5
40F
100
AcDbEntity
  8
0
100
AcDbLine
 62
7
  6
CONTINUOUS
 10
87.7557181399
 20
86.1536973328
 11
86.3415104654
 21
85.3372090251
  0
LINE
  5
410
100
AcDbEntity
  8
0
100
AcDbLine
 62
7
  6
CONTINUOUS
 10
86.1298355248
 20
82.0301087832
 11
81.3922398154
 21
79.2948729522
  0
LINE
  5
411
100
AcDbEntity
  8
0
100
AcDbLine
 62
7
  6
CONTINUOUS
 10
62.7591753295
 20
150.6767948534
 11
64.5976606149
 21
149.6153688916
  0
LINE
  5
412
100
AcDbEntity
  8
0
100
AcDbLine
 62
7
  6
CONTINUOUS
 10
94.5791129612
 20
132.3059609
 11
96.4175982465
 21
131.2445349382
  0
LINE
  5
413
100
AcDbEntity
  8
0
100
AcDbLine
 62
7
  6
CONTINUOUS
 10
99.1045928279
 20
132.7958627229
 11
97.2661075426
 21
133.8572886847
  0
LINE
  5
414
100
AcDbEntity
  8
0
100
AcDbLine
 62
7
  6
CONTINUOUS
 10
67.2846551963
 20
151.1666966763
 11
65.4461699109
 21
152.2281226381
  0
LINE
  5
415
100
AcDbEntity
  8
0
100
AcDbLine
 62
7
  6
CONTINUOUS
 10
97.3671398701
 20
136.5312782044
 11
97.513577105
 21
136.3271561274
  0
LINE
  5
416
100
AcDbEntity
  8
0
100
AcDbLine
 62
7
  6
CONTINUOUS
 10
97.513577105
 20
137.3886092697
 11
97.3671398701
 21
137.5927313466
  0
LINE
  5
417
100
AcDbEntity
  8
0
100
AcDbLine
 62
7
  6
CONTINUOUS
 10
110.3474219594
 20
150.7293315929
 11
110.3474219594
 21
152.8114215739
  0
LINE
  5
418
100
AcDbEntity
  8
0
100
AcDbLine
 62
7
  6
CONTINUOUS
 10
111.4082832041
 20
128.3052253011
 11
111.4082832041
 21
129.3666784434
  0
LINE
  5
419
100
AcDbEntity
  8
0
100
AcDbLine
 62
7
  6
CONTINUOUS
 10
112.1153899853
 20
129.3666801431
 11
112.1153899853
 21
128.3052270008
  0
LINE
  5
41A
100
AcDbEntity
  8
0
100
AcDbLine
 62
7
  6
CONTINUOUS
 10
112.4689242401
 20
132.0202569452
 11
112.4689242401
 21
130.3872803296
  0
LINE
  5
41B
100
AcDbEntity
  8
0
100
AcDbLine
 62
7
  6
CONTINUOUS
 10
114.5902534155
 20
130.7955346816
 11
114.5902534155
 21
128.264414823
  0
LINE
  5
41C
100
AcDbEntity
  8
0
100
AcDbLine
 62
7
  6
CONTINUOUS
 10
119.4548884076
 20
121.7241386975
 11
119.5378997449
 21
121.9774164717
  0
LINE
  5
41D
100
AcDbEntity
  8
INTFCLR_76
100
AcDbLine
 62
7
420
3604575
  6
CONTINUOUS
 10
73.2600147002
 20
67.5781896033
 11
72.552910863
 21
67.1699454495
  0
LINE
  5
41E
100
AcDbEntity
  8
0
100
AcDbLine
 62
7
  6
CONTINUOUS
 10
111.4082832041
 20
128.3052253011
 11
109.2869540287
 21
129.5299475647
  0
LINE
  5
41F
100
AcDbEntity
  8
0
100
AcDbLine
 62
7
  6
CONTINUOUS
 10
99.6349062804
 20
135.1024338639
 11
97.513577105
 21
136.3271561274
  0
LINE
  5
420
100
AcDbEntity
  8
0
100
AcDbLine
 62
7
  6
CONTINUOUS
 10
79.5176346
 20
146.71688333
 11
77.3963054245
 21
147.9416055935
  0
LINE
  5
421
100
AcDbEntity
  8
0
100
AcDbLine
 62
7
  6
CONTINUOUS
 10
67.8149686488
 20
153.4732678173
 11
65.6936394734
 21
154.6979900809
  0
LINE
  5
422
100
AcDbEntity
  8
0
100
AcDbLine
 62
7
  6
CONTINUOUS
 10
119.5379526226
 20
124.0606489904
 11
121.5199263668
 21
122.9163818025
  0
LINE
  5
423
100
AcDbEntity
  8
0
100
AcDbLine
 62
7
  6
CONTINUOUS
 10
111.4082832041
 20
129.3666784434
 11
109.2869540287
 21
130.5914007069
  0
LINE
  5
424
100
AcDbEntity
  8
0
100
AcDbLine
 62
7
  6
CONTINUOUS
 10
99.6349062804
 20
136.1638870062
 11
97.513577105
 21
137.3886092697
  0
LINE
  5
425
100
AcDbEntity
  8
0
100
AcDbLine
 62
7
  6
CONTINUOUS
 10
79.5176346
 20
147.7783364723
 11
77.3963054245
 21
149.0030587358
  0
LINE
  5
426
100
AcDbEntity
  8
0
100
AcDbLine
 62
7
  6
CONTINUOUS
 10
67.8149686488
 20
154.5347209596
 11
65.6936394734
 21
155.7594432231
  0
LINE
  5
427
100
AcDbEntity
  8
0
100
AcDbLine
 62
7
  6
CONTINUOUS
 10
57.3850872494
 20
161.2910857449
 11
65.976454525
 21
156.3309697485
  0
LINE
  5
428
100
AcDbEntity
  8
0
100
AcDbLine
 62
7
  6
CONTINUOUS
 10
69.7241519532
 20
154.1672845786
 11
77.6791204761
 21
149.5745852612
  0
LINE
  5
429
100
AcDbEntity
  8
0
100
AcDbLine
 62
7
  6
CONTINUOUS
 10
81.4268179044
 20
147.4109000912
 11
97.7963921566
 21
137.9601357951
  0
LINE
  5
42A
100
AcDbEntity
  8
0
100
AcDbLine
 62
7
  6
CONTINUOUS
 10
101.5440895849
 20
135.7964506251
 11
109.5697690803
 21
131.1629272323
  0
LINE
  5
42B
100
AcDbEntity
  8
0
100
AcDbLine
 62
7
  6
CONTINUOUS
 10
113.3174665086
 20
128.9992420624
 11
119.1864772273
 21
125.6108437999
  0
LINE
  5
42C
100
AcDbEntity
  8
0
100
AcDbLine
 62
7
  6
CONTINUOUS
 10
66.7542981732
 20
155.9635669997
 11
68.1685176234
 21
155.1470854907
  0
LINE
  5
42D
100
AcDbEntity
  8
0
100
AcDbLine
 62
7
  6
CONTINUOUS
 10
78.4569641243
 20
149.2071825124
 11
79.8711835746
 21
148.3907010034
  0
LINE
  5
42E
100
AcDbEntity
  8
0
100
AcDbLine
 62
7
  6
CONTINUOUS
 10
98.5742358048
 20
137.5927330463
 11
99.9884552551
 21
136.7762515373
  0
LINE
  5
42F
100
AcDbEntity
  8
0
100
AcDbLine
 62
7
  6
CONTINUOUS
 10
110.3476127285
 20
130.7955244836
 11
111.7618321788
 21
129.9790429745
  0
LINE
  5
430
100
AcDbEntity
  8
0
100
AcDbLine
 62
7
  6
CONTINUOUS
 10
134.2831029327
 20
117.6332205347
 11
133.1871072972
 21
118.2659795949
  0
LINE
  5
431
100
AcDbEntity
  8
0
100
AcDbLine
 62
7
  6
CONTINUOUS
 10
137.6418938553
 20
116.9463208705
 11
138.0226420753
 21
116.7265007561
  0
LINE
  5
432
100
AcDbEntity
  8
0
100
AcDbLine
 62
7
  6
CONTINUOUS
 10
137.0762107855
 20
117.6536602793
 11
135.6973468215
 21
118.4497297506
  0
LINE
  5
433
100
AcDbEntity
  8
0
100
AcDbLine
 62
7
  6
CONTINUOUS
 10
68.1684999596
 20
157.5965402159
 11
68.8756096848
 21
157.1882994614
  0
LINE
  5
434
100
AcDbEntity
  8
0
100
AcDbLine
 62
7
  6
CONTINUOUS
 10
70.2898291351
 20
156.3718179523
 11
70.9969388602
 21
155.9635771978
  0
LINE
  5
435
100
AcDbEntity
  8
0
100
AcDbLine
 62
7
  6
CONTINUOUS
 10
79.8711659108
 20
150.8401557286
 11
80.578275636
 21
150.431914974
  0
LINE
  5
436
100
AcDbEntity
  8
0
100
AcDbLine
 62
7
  6
CONTINUOUS
 10
81.9924950863
 20
149.615433465
 11
82.6996048114
 21
149.2071927105
  0
LINE
  5
437
100
AcDbEntity
  8
0
100
AcDbLine
 62
7
  6
CONTINUOUS
 10
99.9884375913
 20
139.2257062625
 11
100.6955473164
 21
138.8174655079
  0
LINE
  5
438
100
AcDbEntity
  8
0
100
AcDbLine
 62
7
  6
CONTINUOUS
 10
102.1097667667
 20
138.0009839989
 11
102.8168764918
 21
137.5927432444
  0
LINE
  5
439
100
AcDbEntity
  8
0
100
AcDbLine
 62
7
  6
CONTINUOUS
 10
111.761814515
 20
132.4284976997
 11
112.4689242401
 21
132.0202569452
  0
LINE
  5
43A
100
AcDbEntity
  8
0
100
AcDbLine
 62
7
  6
CONTINUOUS
 10
113.8831436904
 20
131.2037754361
 11
114.5902534155
 21
130.7955346816
  0
LINE
  5
43B
100
AcDbEntity
  8
0
100
AcDbLine
 62
7
  6
CONTINUOUS
 10
109.1405167937
 20
129.7340696416
 11
109.2869540287
 21
129.5299475647
  0
LINE
  5
43C
100
AcDbEntity
  8
0
100
AcDbLine
 62
7
  6
CONTINUOUS
 10
109.2869540287
 20
130.5914007069
 11
109.1405167937
 21
130.7955227839
  0
LINE
  5
43D
100
AcDbEntity
  8
0
100
AcDbLine
 62
7
  6
CONTINUOUS
 10
116.2397997015
 20
145.7376341309
 11
116.2397997015
 21
145.7544301576
  0
LINE
  5
43E
100
AcDbEntity
  8
0
100
AcDbLine
 62
7
  6
CONTINUOUS
 10
118.8521775032
 20
61.7333775468
 11
118.8521775032
 21
62.5879914384
  0
LINE
  5
43F
100
AcDbEntity
  8
0
100
AcDbLine
 62
7
  6
CONTINUOUS
 10
119.1864842928
 20
121.4875276038
 11
119.1864842928
 21
124.6310619098
  0
LINE
  5
440
100
AcDbEntity
  8
0
100
AcDbLine
 62
7
  6
CONTINUOUS
 10
119.5379526226
 20
121.9774165093
 11
119.5379526226
 21
125.1209508152
  0
LINE
  5
441
100
AcDbEntity
  8
0
100
AcDbLine
 62
7
  6
CONTINUOUS
 10
121.5199263668
 20
122.9163818025
 11
121.5199263668
 21
108.6722888942
  0
LINE
  5
442
100
AcDbEntity
  8
0
100
AcDbLine
 62
7
  6
CONTINUOUS
 10
121.5199263668
 20
78.3723006774
 11
121.5199263668
 21
64.1282077691
  0
LINE
  5
443
100
AcDbEntity
  8
0
100
AcDbLine
 62
7
  6
CONTINUOUS
 10
110.3153528567
 20
153.0029177129
 11
110.3474219594
 21
152.8114215739
  0
LINE
  5
444
100
AcDbEntity
  8
0
100
AcDbLine
 62
7
  6
CONTINUOUS
 10
138.9153529697
 20
119.692162061
 11
138.6671735171
 21
119.2623002535
  0
LINE
  5
445
100
AcDbEntity
  8
0
100
AcDbLine
 62
7
  6
CONTINUOUS
 10
81.3922398154
 20
61.740070984
 11
86.1298355248
 21
64.4753068149
  0
LINE
  5
446
100
AcDbEntity
  8
0
100
AcDbLine
 62
7
  6
CONTINUOUS
 10
85.3426760945
 20
62.7354241217
 11
80.6050803851
 21
60.0001882907
  0
LINE
  5
447
100
AcDbEntity
  8
0
100
AcDbLine
 62
7
  6
CONTINUOUS
 10
87.7557181399
 20
61.9035755441
 11
86.3415104654
 21
61.0870872363
  0
LINE
  5
448
100
AcDbEntity
  8
0
100
AcDbLine
 62
7
  6
CONTINUOUS
 10
105.3976950989
 20
145.577574604
 11
110.1874481115
 21
142.8122719723
  0
LINE
  5
449
100
AcDbEntity
  8
0
100
AcDbLine
 62
7
  6
CONTINUOUS
 10
135.7569091766
 20
134.3332650502
 11
131.5969467505
 21
136.734966143
  0
LINE
  5
44A
100
AcDbEntity
  8
0
100
AcDbLine
 62
7
  6
CONTINUOUS
 10
104.07839349
 20
152.6224508528
 11
99.9184310639
 21
155.0241519456
  0
LINE
  5
44B
100
AcDbEntity
  8
0
100
AcDbLine
 62
7
  6
CONTINUOUS
 10
78.5160230708
 20
161.095606536
 11
73.7191794123
 21
163.8667604065
  0
LINE
  5
44C
100
AcDbEntity
  8
0
100
AcDbLine
 62
7
  6
CONTINUOUS
 10
138.1368665413
 20
88.2148632892
 11
138.2611404415
 21
87.9402028725
  0
LINE
  5
44D
100
AcDbEntity
  8
0
100
AcDbLine
 62
7
  6
CONTINUOUS
 10
140.9652818902
 20
84.0098476222
 11
141.0688434737
 21
83.7809639416
  0
LINE
  5
44E
100
AcDbEntity
  8
0
100
AcDbLine
 62
7
  6
CONTINUOUS
 10
130.2526578732
 20
66.2306117415
 11
130.2526578732
 21
69.2924958057
  0
LINE
  5
44F
100
AcDbEntity
  8
0
100
AcDbLine
 62
7
  6
CONTINUOUS
 10
131.0891039296
 20
136.7796251982
 11
131.0891039296
 21
137.1813743127
  0
LINE
  5
450
100
AcDbEntity
  8
0
100
AcDbLine
 62
7
  6
CONTINUOUS
 10
133.1871072972
 20
85.1083105197
 11
133.1871072972
 21
80.3561570361
  0
LINE
  5
451
100
AcDbEntity
  8
0
100
AcDbLine
 62
7
  6
CONTINUOUS
 10
133.1871072972
 20
118.2659795949
 11
133.1871072972
 21
129.1418236055
  0
LINE
  5
452
100
AcDbEntity
  8
0
100
AcDbLine
 62
7
  6
CONTINUOUS
 10
133.4643254816
 20
137.9296488397
 11
133.4949640557
 21
138.1876049317
  0
LINE
  5
453
100
AcDbEntity
  8
0
100
AcDbLine
 62
7
  6
CONTINUOUS
 10
84.8211951167
 20
59.8581958781
 11
84.9579929575
 21
59.9371756768
  0
LINE
  5
454
100
AcDbEntity
  8
0
100
AcDbLine
 62
7
  6
CONTINUOUS
 10
139.5510742158
 20
90.5010559477
 11
139.3389430646
 21
90.3785827016
  0
LINE
  5
455
100
AcDbEntity
  8
0
100
AcDbLine
 62
7
  6
CONTINUOUS
 10
121.5199263668
 20
78.3723006774
 11
137.0762107855
 21
87.3536720626
  0
LINE
  5
456
100
AcDbEntity
  8
0
100
AcDbLine
 62
7
  6
CONTINUOUS
 10
138.6318392274
 20
88.0107327466
 11
138.5611288437
 21
87.9699083312
  0
LINE
  5
457
100
AcDbEntity
  8
0
100
AcDbLine
 62
7
  6
CONTINUOUS
 10
102.027639439
 20
154.6229194341
 11
102.4047351281
 21
154.4052080618
  0
LINE
  5
458
100
AcDbEntity
  8
0
100
AcDbLine
 62
7
  6
CONTINUOUS
 10
133.7061551256
 20
136.3337336316
 11
134.0832508147
 21
136.1160222593
  0
LINE
  5
459
100
AcDbEntity
  8
0
100
AcDbLine
 62
7
  6
CONTINUOUS
 10
138.325873838
 20
138.5654871825
 11
137.9487781489
 21
138.7831985548
  0
LINE
  5
45A
100
AcDbEntity
  8
0
100
AcDbLine
 62
7
  6
CONTINUOUS
 10
106.6473581514
 20
156.854672985
 11
106.2702624623
 21
157.0723843574
  0
LINE
  5
45B
100
AcDbEntity
  8
0
100
AcDbLine
 62
7
  6
CONTINUOUS
 10
137.0762107855
 20
76.1826450224
 11
137.0762107855
 21
87.3536720626
  0
LINE
  5
45C
100
AcDbEntity
  8
0
100
AcDbLine
 62
7
  6
CONTINUOUS
 10
137.0762107855
 20
117.6536602793
 11
137.0762107855
 21
131.8745389083
  0
LINE
  5
45D
100
AcDbEntity
  8
0
100
AcDbLine
 62
7
  6
CONTINUOUS
 10
137.6418938553
 20
116.506676981
 11
137.6418938553
 21
118.9561842324
  0
LINE
  5
45E
100
AcDbEntity
  8
0
100
AcDbLine
 62
7
  6
CONTINUOUS
 10
138.1368665413
 20
88.2148632892
 11
138.1368665413
 21
116.0575957133
  0
LINE
  5
45F
100
AcDbEntity
  8
0
100
AcDbLine
 62
7
  6
CONTINUOUS
 10
121.5199263668
 20
73.6201471939
 11
133.1871072972
 21
80.3561570361
  0
LINE
  5
460
100
AcDbEntity
  8
0
100
AcDbLine
 62
7
  6
CONTINUOUS
 10
88.4628219771
 20
54.3917462518
 11
92.6347346166
 21
56.8003867596
  0
LINE
  5
461
100
AcDbEntity
  8
0
100
AcDbLine
 62
7
  6
CONTINUOUS
 10
141.3188338088
 20
84.7038711494
 11
142.025937646
 21
85.1121153032
  0
LINE
  5
462
100
AcDbEntity
  8
0
100
AcDbLine
 62
7
  6
CONTINUOUS
 10
141.7430961111
 20
84.0506649829
 11
141.3188338088
 21
83.8057184905
  0
LINE
  5
463
100
AcDbEntity
  8
0
100
AcDbLine
 62
7
  6
CONTINUOUS
 10
98.1501445469
 20
58.8415877758
 11
92.6347346166
 21
55.6572833756
  0
LINE
  5
464
100
AcDbEntity
  8
0
100
AcDbLine
 62
7
  6
CONTINUOUS
 10
88.4628219771
 20
53.2486428678
 11
87.7557181399
 21
52.8403987139
  0
LINE
  5
465
100
AcDbEntity
  8
0
100
AcDbLine
 62
7
  6
CONTINUOUS
 10
138.0226420753
 20
116.7265007561
 11
138.1368665413
 21
116.0575957133
  0
LINE
  5
466
100
AcDbEntity
  8
0
100
AcDbLine
 62
7
  6
CONTINUOUS
 10
139.0561015297
 20
89.8886840732
 11
139.0561015297
 21
88.7455806892
  0
LINE
  5
467
100
AcDbEntity
  8
0
100
AcDbLine
 62
7
  6
CONTINUOUS
 10
140.9652818902
 20
84.0098476222
 11
140.9652818902
 21
84.0914978639
  0
LINE
  5
468
100
AcDbEntity
  8
0
100
AcDbLine
 62
7
  6
CONTINUOUS
 10
142.025937646
 20
85.1121153032
 11
142.025937646
 21
89.9288864702
  0
LINE
  5
469
100
AcDbEntity
  8
0
100
AcDbLine
 62
7
  6
CONTINUOUS
 10
142.025937646
 20
121.4898808334
 11
142.025937646
 21
134.5222357714
  0
LINE
  5
46A
100
AcDbEntity
  8
0
100
AcDbLine
 62
7
  6
CONTINUOUS
 10
142.025636982
 20
79.0453067431
 11
142.025937646
 21
83.8873616776
  0
LINE
  5
46B
100
AcDbEntity
  8
0
100
AcDbLine
 62
7
  6
CONTINUOUS
 10
139.0561015297
 20
89.8886840732
 11
139.3389430646
 21
90.3785827016
  0
LINE
  5
46C
100
AcDbEntity
  8
0
100
AcDbLine
 62
7
  6
CONTINUOUS
 10
116.2606832664
 20
61.0918004743
 11
105.9314716269
 21
51.9323575984
  0
LINE
  5
46D
100
AcDbEntity
  8
0
100
AcDbLine
 62
7
  6
CONTINUOUS
 10
107.0628471871
 20
51.2791723912
 11
118.8521775032
 21
61.7333775468
  0
LINE
  5
46E
100
AcDbEntity
  8
0
100
AcDbLine
 62
7
  6
CONTINUOUS
 10
117.9063414264
 20
59.5421672761
 11
108.4484820642
 21
51.1553972515
  0
LINE
  5
46F
100
AcDbEntity
  8
0
100
AcDbLine
 62
7
  6
CONTINUOUS
 10
142.025937646
 20
79.0403540646
 11
137.0762107855
 21
76.1826450224
  0
LINE
  5
470
100
AcDbEntity
  8
0
100
AcDbLine
 62
7
  6
CONTINUOUS
 10
136.6617894035
 20
75.2681250019
 11
141.611516264
 21
78.125834079
  0
LINE
  5
471
100
AcDbEntity
  8
0
100
AcDbLine
 62
7
  6
CONTINUOUS
 10
121.5199263668
 20
64.2506810153
 11
130.2526578732
 21
69.2924958057
  0
LINE
  5
472
100
AcDbEntity
  8
0
100
AcDbLine
 62
7
  6
CONTINUOUS
 10
98.1501445469
 20
50.6357384837
 11
121.5199263668
 21
64.1282077691
  0
LINE
  5
473
100
AcDbEntity
  8
0
100
AcDbLine
 62
7
  6
CONTINUOUS
 10
102.3573932425
 20
52.6564830872
 11
114.9410613377
 21
59.9216238823
  0
LINE
  5
474
100
AcDbEntity
  8
0
100
AcDbLine
 62
7
  6
CONTINUOUS
 10
118.8521775032
 20
59.6485806204
 11
130.2526578732
 21
66.2306117415
  0
LINE
  5
475
100
AcDbEntity
  8
0
100
AcDbLine
 62
7
  6
CONTINUOUS
 10
141.9938685432
 20
134.7137319104
 11
142.025937646
 21
134.5222357714
  0
ARC
  5
476
100
AcDbEntity
  8
0
100
AcDbCircle
 62
7
  6
CONTINUOUS
 10
53.9054115178
 20
101.0922378839
 40
66.433007619
100
AcDbArc
 50
44.2288759267
 51
46.5904935854
  0
ARC
  5
477
100
AcDbEntity
  8
0
100
AcDbCircle
 62
7
  6
CONTINUOUS
 10
85.5839272043
 20
82.8030520813
 40
66.4330076192
100
AcDbArc
 50
44.2288759267
 51
46.5904935854
  0
ARC
  5
478
100
AcDbEntity
  8
0
100
AcDbCircle
 62
7
  6
CONTINUOUS
 10
90.8871594816
 20
100.2552440113
 40
36.7322213876
100
AcDbArc
 50
65.6466000015
 51
66.2505179172
  0
ARC
  5
479
100
AcDbEntity
  8
0
100
AcDbCircle
 62
7
  6
CONTINUOUS
 10
59.2086437953
 20
118.5444298145
 40
36.7322213868
100
AcDbArc
 50
65.6466000015
 51
66.2505179172
  0
ARC
  5
47A
100
AcDbEntity
  8
0
100
AcDbCircle
 62
7
  6
CONTINUOUS
 10
94.1955888199
 20
142.3116984983
 40
14.2822071916
100
AcDbArc
 50
43.7410636139
 51
46.2140469572
  0
ARC
  5
47B
100
AcDbEntity
  8
0
100
AcDbCircle
 62
7
  6
CONTINUOUS
 10
87.0154220799
 20
95.1286613648
 40
3.8971743773
100
AcDbArc
 50
189.6749372243
 51
191.5008582105
  0
ARC
  5
47C
100
AcDbEntity
  8
0
100
AcDbCircle
 62
7
  6
CONTINUOUS
 10
55.3369063931
 20
113.4178471672
 40
3.897174377
100
AcDbArc
 50
189.6749372243
 51
191.5008582106
  0
ARC
  5
47D
100
AcDbEntity
  8
0
100
AcDbCircle
 62
7
  6
CONTINUOUS
 10
36.3463804312
 20
85.1067218772
 40
1.0372945407
100
AcDbArc
 50
300.0185768872
 51
306.6560152922
  0
ARC
  5
47E
100
AcDbEntity
  8
0
100
AcDbCircle
 62
7
  6
CONTINUOUS
 10
68.0248961178
 20
66.8175360747
 40
1.0372945407
100
AcDbArc
 50
300.0185768872
 51
306.6560152922
  0
ARC
  5
47F
100
AcDbEntity
  8
0
100
AcDbCircle
 62
7
  6
CONTINUOUS
 10
125.8741045064
 20
124.0225126957
 40
14.2822071917
100
AcDbArc
 50
43.7410636139
 51
46.2140469572
  0
ARC
  5
480
100
AcDbEntity
  8
0
100
AcDbCircle
 62
7
  6
CONTINUOUS
 10
130.8957593696
 20
134.3866812281
 40
3.3362114765
100
AcDbArc
 50
117.2263078871
 51
119.9999164246
  0
ARC
  5
481
100
AcDbEntity
  8
0
100
AcDbCircle
 62
7
  6
CONTINUOUS
 10
99.217243683
 20
152.6758670306
 40
3.3362114765
100
AcDbArc
 50
117.2263078871
 51
119.9999164246
  0
ARC
  5
482
100
AcDbEntity
  8
0
100
AcDbCircle
 62
7
  6
CONTINUOUS
 10
131.3567292079
 20
138.5832571978
 40
1.8541278773
100
AcDbArc
 50
270.8840226991
 51
275.8760195003
  0
ARC
  5
483
100
AcDbEntity
  8
0
100
AcDbCircle
 62
7
  6
CONTINUOUS
 10
99.6782135213
 20
156.8724430003
 40
1.8541278773
100
AcDbArc
 50
270.8840226991
 51
275.8760195003
  0
ARC
  5
484
100
AcDbEntity
  8
0
100
AcDbCircle
 62
7
  6
CONTINUOUS
 10
135.7950551405
 20
139.915240564
 40
1.3589280206
100
AcDbArc
 50
234.0610374038
 51
237.7374948234
  0
ARC
  5
485
100
AcDbEntity
  8
0
100
AcDbCircle
 62
7
  6
CONTINUOUS
 10
104.1165394539
 20
158.2044263665
 40
1.3589280206
100
AcDbArc
 50
234.0610374038
 51
237.7374948235
  0
ARC
  5
486
100
AcDbEntity
  8
0
100
AcDbCircle
 62
7
  6
CONTINUOUS
 10
150.95805582
 20
246.9399117274
 40
164.3606267207
100
AcDbArc
 50
247.2599986073
 51
247.3851531374
  0
ARC
  5
487
100
AcDbEntity
  8
0
100
AcDbCircle
 62
7
  6
CONTINUOUS
 10
150.3838296196
 20
245.5730227624
 40
162.8780210177
100
AcDbArc
 50
246.6274820031
 51
247.260427677
  0
ARC
  5
488
100
AcDbEntity
  8
0
100
AcDbCircle
 62
7
  6
CONTINUOUS
 10
118.7053139329
 20
263.8622085646
 40
162.8780210174
100
AcDbArc
 50
246.6274820031
 51
247.260427677
  0
ARC
  5
489
100
AcDbEntity
  8
0
100
AcDbCircle
 62
7
  6
CONTINUOUS
 10
149.4023917562
 20
243.2940618698
 40
160.3967163625
100
AcDbArc
 50
246.284021435
 51
246.6263477766
  0
ARC
  5
48A
100
AcDbEntity
  8
0
100
AcDbCircle
 62
7
  6
CONTINUOUS
 10
117.7238760687
 20
261.5832476703
 40
160.3967163603
100
AcDbArc
 50
246.284021435
 51
246.6263477766
  0
ARC
  5
48B
100
AcDbEntity
  8
0
100
AcDbCircle
 62
7
  6
CONTINUOUS
 10
146.9827643045
 20
236.5040831484
 40
152.2108304522
100
AcDbArc
 50
244.0128186592
 51
246.4901437527
  0
ARC
  5
48C
100
AcDbEntity
  8
0
100
AcDbCircle
 62
7
  6
CONTINUOUS
 10
115.3042486179
 20
254.7932689509
 40
152.2108304521
100
AcDbArc
 50
244.0128186592
 51
246.4901437527
  0
ARC
  5
48D
100
AcDbEntity
  8
0
100
AcDbCircle
 62
7
  6
CONTINUOUS
 10
154.3029885388
 20
249.3896827217
 40
150.8096771343
100
AcDbArc
 50
247.670454444
 51
248.1398453121
  0
ARC
  5
48E
100
AcDbEntity
  8
0
100
AcDbCircle
 62
7
  6
CONTINUOUS
 10
122.6244728521
 20
267.6788685239
 40
150.809677134
100
AcDbArc
 50
247.670454444
 51
248.1398453121
  0
ARC
  5
48F
100
AcDbEntity
  8
0
100
AcDbCircle
 62
7
  6
CONTINUOUS
 10
140.3328840275
 20
223.2383351057
 40
137.3710240843
100
AcDbArc
 50
240.3856174737
 51
243.3375199845
  0
ARC
  5
490
100
AcDbEntity
  8
0
100
AcDbCircle
 62
7
  6
CONTINUOUS
 10
108.654368341
 20
241.5275209082
 40
137.3710240843
100
AcDbArc
 50
240.3856174737
 51
243.3375199845
  0
ARC
  5
491
100
AcDbEntity
  8
0
100
AcDbCircle
 62
7
  6
CONTINUOUS
 10
117.5371542319
 20
254.1904139165
 40
135.0846142621
100
AcDbArc
 50
243.7024279074
 51
246.0873472501
  0
ARC
  5
492
100
AcDbEntity
  8
0
100
AcDbCircle
 62
7
  6
CONTINUOUS
 10
149.2156699185
 20
235.9012281141
 40
135.0846142622
100
AcDbArc
 50
243.7024279074
 51
246.0873472501
  0
ARC
  5
493
100
AcDbEntity
  8
0
100
AcDbCircle
 62
7
  6
CONTINUOUS
 10
147.6485827843
 20
227.0648032525
 40
134.4556461694
100
AcDbArc
 50
243.8183099755
 51
244.1817663624
  0
ARC
  5
494
100
AcDbEntity
  8
0
100
AcDbCircle
 62
7
  6
CONTINUOUS
 10
115.9700670972
 20
245.3539890538
 40
134.4556461681
100
AcDbArc
 50
243.8183099755
 51
244.1817663624
  0
ARC
  5
495
100
AcDbEntity
  8
0
100
AcDbCircle
 62
7
  6
CONTINUOUS
 10
146.5014897416
 20
232.1341897362
 40
131.8675834483
100
AcDbArc
 50
243.0375020598
 51
243.5800574134
  0
ARC
  5
496
100
AcDbEntity
  8
0
100
AcDbCircle
 62
7
  6
CONTINUOUS
 10
114.8229740549
 20
250.4233755386
 40
131.8675834481
100
AcDbArc
 50
243.0375020598
 51
243.5800574134
  0
ARC
  5
497
100
AcDbEntity
  8
0
100
AcDbCircle
 62
7
  6
CONTINUOUS
 10
104.4656602697
 20
235.3716003001
 40
131.0058449839
100
AcDbArc
 50
239.2651092888
 51
240.0012220827
  0
ARC
  5
498
100
AcDbEntity
  8
0
100
AcDbCircle
 62
7
  6
CONTINUOUS
 10
136.1441759559
 20
217.0824144969
 40
131.0058449831
100
AcDbArc
 50
239.2651092888
 51
240.0012220827
  0
ARC
  5
499
100
AcDbEntity
  8
0
100
AcDbCircle
 62
7
  6
CONTINUOUS
 10
134.8997725327
 20
214.9831836144
 40
128.5654955266
100
AcDbArc
 50
238.9521529281
 51
239.1655544929
  0
ARC
  5
49A
100
AcDbEntity
  8
0
100
AcDbCircle
 62
7
  6
CONTINUOUS
 10
103.2212568449
 20
233.272369415
 40
128.5654955244
100
AcDbArc
 50
238.9521529281
 51
239.1655544929
  0
ARC
  5
49B
100
AcDbEntity
  8
0
100
AcDbCircle
 62
7
  6
CONTINUOUS
 10
143.7519845515
 20
226.7779555907
 40
125.8469097507
100
AcDbArc
 50
240.0358205985
 51
243.047558497
  0
ARC
  5
49C
100
AcDbEntity
  8
0
100
AcDbCircle
 62
7
  6
CONTINUOUS
 10
112.0734688649
 20
245.0671413933
 40
125.8469097507
100
AcDbArc
 50
240.0358205985
 51
243.047558497
  0
ARC
  5
49D
100
AcDbEntity
  8
0
100
AcDbCircle
 62
7
  6
CONTINUOUS
 10
132.8048157335
 20
210.3313143865
 40
122.4282291049
100
AcDbArc
 50
236.4730052488
 51
239.6611174572
  0
ARC
  5
49E
100
AcDbEntity
  8
0
100
AcDbCircle
 62
7
  6
CONTINUOUS
 10
101.1263000469
 20
228.620500189
 40
122.4282291048
100
AcDbArc
 50
236.4730052488
 51
239.6611174572
  0
ARC
  5
49F
100
AcDbEntity
  8
0
100
AcDbCircle
 62
7
  6
CONTINUOUS
 10
108.9987719154
 20
232.1976533612
 40
119.5635952313
100
AcDbArc
 50
240.0006579443
 51
240.1964871154
  0
ARC
  5
4A0
100
AcDbEntity
  8
0
100
AcDbCircle
 62
7
  6
CONTINUOUS
 10
140.677287602
 20
213.9084675587
 40
119.5635952313
100
AcDbArc
 50
240.0006579443
 51
240.1964871154
  0
ARC
  5
4A1
100
AcDbEntity
  8
0
100
AcDbCircle
 62
7
  6
CONTINUOUS
 10
141.9180417093
 20
221.8031023938
 40
119.2073404112
100
AcDbArc
 50
239.6064169201
 51
241.8202907559
  0
ARC
  5
4A2
100
AcDbEntity
  8
0
100
AcDbCircle
 62
7
  6
CONTINUOUS
 10
110.1584831233
 20
239.9469598059
 40
119.0409661317
100
AcDbArc
 50
239.5264210701
 51
241.8216419247
  0
ARC
  5
4A3
100
AcDbEntity
  8
0
100
AcDbCircle
 62
7
  6
CONTINUOUS
 10
108.6452157441
 20
231.585262455
 40
118.8564710638
100
AcDbArc
 50
239.8040534543
 51
240.0006585675
  0
ARC
  5
4A4
100
AcDbEntity
  8
0
100
AcDbCircle
 62
7
  6
CONTINUOUS
 10
140.3237314285
 20
213.2960766486
 40
118.8564710594
100
AcDbArc
 50
239.8040534543
 51
240.0006585676
  0
ARC
  5
4A5
100
AcDbEntity
  8
0
100
AcDbCircle
 62
7
  6
CONTINUOUS
 10
138.4697111176
 20
215.9592862643
 40
112.4218292791
100
AcDbArc
 50
238.3794500822
 51
238.8798004388
  0
ARC
  5
4A6
100
AcDbEntity
  8
0
100
AcDbCircle
 62
7
  6
CONTINUOUS
 10
106.6444872321
 20
234.0086391279
 40
112.140684103
100
AcDbArc
 50
238.2969405448
 51
238.7961935677
  0
ARC
  5
4A7
100
AcDbEntity
  8
0
100
AcDbCircle
 62
7
  6
CONTINUOUS
 10
135.801511105
 20
211.7155194115
 40
107.4088383103
100
AcDbArc
 50
236.8084253857
 51
237.4441457188
  0
ARC
  5
4A8
100
AcDbEntity
  8
0
100
AcDbCircle
 62
7
  6
CONTINUOUS
 10
104.1229954182
 20
230.0047052137
 40
107.4088383099
100
AcDbArc
 50
236.8084253857
 51
237.4441457188
  0
SPLINE
  5
4A9
100
AcDbEntity
  8
0
100
AcDbSpline
 62
7
  6
CONTINUOUS
 70
0
 71
3
 72
12
 73
8
 74
0
 42
0.0000001
 43
0.0000001
 44
0.0000000001
 40
0.0
 40
0.0
 40
0.0
 40
0.0
 40
0.289581202
 40
0.5486347013
 40
0.7816368512
 40
0.8918382666
 40
1.0
 40
1.0
 40
1.0
 40
1.0
 10
18.3171375561
 20
115.7104763898
 30
0.0
 10
18.3171375561
 20
115.9031157082
 30
0.0
 10
18.3463248269
 20
116.269394862
 30
0.0
 10
18.4944308453
 20
116.7723436555
 30
0.0
 10
18.7072441345
 20
117.1193781962
 30
0.0
 10
18.9221962365
 20
117.3307394196
 30
0.0
 10
19.0419871123
 20
117.4143771829
 30
0.0
 10
19.1043002307
 20
117.4503534638
 30
0.0
  0
SPLINE
  5
4AA
100
AcDbEntity
  8
0
100
AcDbSpline
 62
7
  6
CONTINUOUS
 70
0
 71
3
 72
15
 73
11
 74
0
 42
0.0000001
 43
0.0000001
 44
0.0000000001
 40
0.0
 40
0.0
 40
0.0
 40
0.0
 40
0.1141546703
 40
0.2373261017
 40
0.3669753162
 40
0.4999989361
 40
0.6330227034
 40
0.7626723508
 40
0.8858444607
 40
1.0
 40
1.0
 40
1.0
 40
1.0
 10
21.0046118998
 20
93.5008581542
 30
0.0
 10
20.8206327686
 20
93.6070761522
 30
0.0
 10
20.4572409524
 20
93.8618073172
 30
0.0
 10
19.957233303
 20
94.3295986793
 30
0.0
 10
19.4964492394
 20
94.8825636174
 30
0.0
 10
19.0922444347
 20
95.499958644
 30
0.0
 10
18.7596635914
 20
96.1587069334
 30
0.0
 10
18.5111696109
 20
96.8342409912
 30
0.0
 10
18.356049179
 20
97.5011585796
 30
0.0
 10
18.3171375561
 20
97.9432332038
 30
0.0
 10
18.3171375561
 20
98.1556744215
 30
0.0
  0
SPLINE
  5
4AB
100
AcDbEntity
  8
0
100
AcDbSpline
 62
7
  6
CONTINUOUS
 70
0
 71
3
 72
12
 73
8
 74
0
 42
0.0000001
 43
0.0000001
 44
0.0000000001
 40
0.0
 40
0.0
 40
0.0
 40
0.0
 40
0.2895802184
 40
0.5486333627
 40
0.7816359182
 40
0.8918377609
 40
1.0
 40
1.0
 40
1.0
 40
1.0
 10
25.7422076091
 20
119.9973706193
 30
0.0
 10
25.5753811533
 20
120.0936857396
 30
0.0
 10
25.2435886775
 20
120.2515406252
 30
0.0
 10
24.7339825303
 20
120.3747437883
 30
0.0
 10
24.3270459889
 20
120.3639575416
 30
0.0
 10
24.0365327394
 20
120.2834860052
 30
0.0
 10
23.9042076853
 20
120.2215647754
 30
0.0
 10
23.84189594
 20
120.1855892947
 30
0.0
  0
SPLINE
  5
4AC
100
AcDbEntity
  8
0
100
AcDbSpline
 62
7
  6
CONTINUOUS
 70
0
 71
3
 72
11
 73
7
 74
0
 42
0.0000001
 43
0.0000001
 44
0.0000000001
 40
0.0
 40
0.0
 40
0.0
 40
0.0
 40
0.2177428615
 40
0.4508875887
 40
0.7104604061
 40
1.0
 40
1.0
 40
1.0
 40
1.0
 10
41.6486432319
 20
85.0978810186
 30
0.0
 10
41.6717287613
 20
85.1112108454
 30
0.0
 10
41.7149605839
 20
85.1474864698
 30
0.0
 10
41.7609557684
 20
85.2227225029
 30
0.0
 10
41.7882250479
 20
85.3154117687
 30
0.0
 10
41.7936342863
 20
85.3828618014
 30
0.0
 10
41.7936342863
 20
85.4183092161
 30
0.0
  0
SPLINE
  5
4AD
100
AcDbEntity
  8
0
100
AcDbSpline
 62
7
  6
CONTINUOUS
 70
0
 71
3
 72
14
 73
10
 74
0
 42
0.0000001
 43
0.0000001
 44
0.0000000001
 40
0.0
 40
0.0
 40
0.0
 40
0.0
 40
0.1234040579
 40
0.2516952947
 40
0.5138735187
 40
0.6434442987
 40
0.7689037466
 40
0.8883080948
 40
1.0
 40
1.0
 40
1.0
 40
1.0
 10
54.3571561039
 20
101.1879155965
 30
0.0
 10
54.3178405787
 20
101.3775508639
 30
0.0
 10
54.2153535543
 20
101.7600119572
 30
0.0
 10
53.9282338842
 20
102.5145996697
 30
0.0
 10
53.5293402762
 20
103.2333706831
 30
0.0
 10
53.0392301986
 20
103.8815399986
 30
0.0
 10
52.6394156086
 20
104.3137241517
 30
0.0
 10
52.2167490132
 20
104.6820777932
 30
0.0
 10
51.9156493946
 20
104.8864688131
 30
0.0
 10
51.7638454945
 20
104.974110853
 30
0.0
  0
SPLINE
  5
4AE
100
AcDbEntity
  8
0
100
AcDbSpline
 62
7
  6
CONTINUOUS
 70
0
 71
3
 72
12
 73
8
 74
0
 42
0.0000001
 43
0.0000001
 44
0.0000000001
 40
0.0
 40
0.0
 40
0.0
 40
0.0
 40
0.108162245
 40
0.2183640921
 40
0.4513666551
 40
0.7104197903
 40
1.0
 40
1.0
 40
1.0
 40
1.0
 10
48.9265614543
 20
78.2893797124
 30
0.0
 10
48.8642497088
 20
78.2534042241
 30
0.0
 10
48.7319246435
 20
78.1914829999
 30
0.0
 10
48.4414113845
 20
78.1110114556
 30
0.0
 10
48.0344748389
 20
78.100225225
 30
0.0
 10
47.5248686992
 20
78.2234283838
 30
0.0
 10
47.1930762361
 20
78.3812832704
 30
0.0
 10
47.0262497852
 20
78.4775983879
 30
0.0
  0
SPLINE
  5
4AF
100
AcDbEntity
  8
0
100
AcDbSpline
 62
7
  6
CONTINUOUS
 70
0
 71
3
 72
16
 73
12
 74
0
 42
0.0000001
 43
0.0000001
 44
0.0000000001
 40
0.0
 40
0.0
 40
0.0
 40
0.0
 40
0.128728256
 40
0.2703984718
 40
0.4176115639
 40
0.5620221695
 40
0.695748373
 40
0.8130621885
 40
0.9124680443
 40
0.9571199498
 40
1.0
 40
1.0
 40
1.0
 40
1.0
 10
41.7936342863
 20
85.4183092161
 30
0.0
 10
41.7936342863
 20
85.4781338301
 30
0.0
 10
41.7768873604
 20
85.6039391476
 30
0.0
 10
41.7144387125
 20
85.7886635786
 30
0.0
 10
41.618130264
 20
85.9666087316
 30
0.0
 10
41.4958783322
 20
86.1231783881
 30
0.0
 10
41.357272237
 20
86.2457690468
 30
0.0
 10
41.2130783275
 20
86.3248721134
 30
0.0
 10
41.0906790356
 20
86.3487483553
 30
0.0
 10
41.0039590997
 20
86.3360870596
 30
0.0
 10
40.965929334
 20
86.3202391942
 30
0.0
 10
40.9486717256
 20
86.3102744701
 30
0.0
  0
SPLINE
  5
4B0
100
AcDbEntity
  8
0
100
AcDbSpline
 62
7
  6
CONTINUOUS
 70
0
 71
3
 72
14
 73
10
 74
0
 42
0.0000001
 43
0.0000001
 44
0.0000000001
 40
0.0
 40
0.0
 40
0.0
 40
0.0
 40
0.1014910266
 40
0.2164905031
 40
0.3431100759
 40
0.4777126822
 40
0.7512085542
 40
0.8809729481
 40
1.0
 40
1.0
 40
1.0
 40
1.0
 10
41.7330515227
 20
85.2357829787
 30
0.0
 10
41.6936059361
 20
85.2439107013
 30
0.0
 10
41.6119989767
 20
85.2740694408
 30
0.0
 10
41.4967895624
 20
85.3479566889
 30
0.0
 10
41.3862259422
 20
85.4492990462
 30
0.0
 10
41.2523792105
 20
85.614567381
 30
0.0
 10
41.1521122938
 20
85.8066895297
 30
0.0
 10
41.0970131864
 20
86.0070567422
 30
0.0
 10
41.086522206
 20
86.1059109532
 30
0.0
 10
41.086522206
 20
86.153143934
 30
0.0
  0
SPLINE
  5
4B1
100
AcDbEntity
  8
0
100
AcDbSpline
 62
7
  6
CONTINUOUS
 70
0
 71
3
 72
15
 73
11
 74
0
 42
0.0000001
 43
0.0000001
 44
0.0000000001
 40
0.0
 40
0.0
 40
0.0
 40
0.0
 40
0.1141546703
 40
0.2373261017
 40
0.3669753162
 40
0.4999989361
 40
0.6330227034
 40
0.7626723508
 40
0.8858444607
 40
1.0
 40
1.0
 40
1.0
 40
1.0
 10
47.0262497852
 20
102.238875022
 30
0.0
 10
47.2102289164
 20
102.1326570241
 30
0.0
 10
47.5736207326
 20
101.877925859
 30
0.0
 10
48.0736283819
 20
101.4101344969
 30
0.0
 10
48.5344124455
 20
100.8571695589
 30
0.0
 10
48.9386172503
 20
100.2397745322
 30
0.0
 10
49.2711980936
 20
99.5810262428
 30
0.0
 10
49.5196920741
 20
98.905492185
 30
0.0
 10
49.6748125059
 20
98.2385745966
 30
0.0
 10
49.7137241288
 20
97.7964999725
 30
0.0
 10
49.7137241288
 20
97.5840587547
 30
0.0
  0
SPLINE
  5
4B2
100
AcDbEntity
  8
0
100
AcDbSpline
 62
7
  6
CONTINUOUS
 70
0
 71
3
 72
23
 73
19
 74
0
 42
0.0000001
 43
0.0000001
 44
0.0000000001
 40
0.0
 40
0.0
 40
0.0
 40
0.0
 40
0.0665765097
 40
0.1384416195
 40
0.2140583312
 40
0.2916524079
 40
0.3692424469
 40
0.4448669544
 40
0.516712052
 40
0.5832965841
 40
0.6436747534
 40
0.6976894907
 40
0.746272859
 40
0.7916451715
 40
0.8370208798
 40
0.8855976453
 40
0.9396313233
 40
1.0
 40
1.0
 40
1.0
 40
1.0
 10
42.1471926817
 20
84.7242978938
 30
0.0
 10
42.1471926817
 20
84.8248941318
 30
0.0
 10
42.1287422907
 20
85.0342699707
 30
0.0
 10
42.0553124281
 20
85.3501307473
 30
0.0
 10
41.9375840512
 20
85.6700685215
 30
0.0
 10
41.7801042655
 20
85.982047314
 30
0.0
 10
41.5886658847
 20
86.2744467816
 30
0.0
 10
41.3704646561
 20
86.5363145812
 30
0.0
 10
41.1335871478
 20
86.7578980664
 30
0.0
 10
40.8866672054
 20
86.9310040662
 30
0.0
 10
40.6383441352
 20
87.0491793573
 30
0.0
 10
40.3968241436
 20
87.1074948952
 30
0.0
 10
40.1701113431
 20
87.1017360004
 30
0.0
 10
39.9683012845
 20
87.0285650356
 30
0.0
 10
39.8040576709
 20
86.8903750719
 30
0.0
 10
39.6856418964
 20
86.6969181556
 30
0.0
 10
39.615416703
 20
86.4586388139
 30
0.0
 10
39.6015976712
 20
86.2851808932
 30
0.0
 10
39.6015976712
 20
86.1939646101
 30
0.0
  0
SPLINE
  5
4B3
100
AcDbEntity
  8
0
100
AcDbSpline
 62
7
  6
CONTINUOUS
 70
0
 71
3
 72
23
 73
19
 74
0
 42
0.0000001
 43
0.0000001
 44
0.0000000001
 40
0.0
 40
0.0
 40
0.0
 40
0.0
 40
0.0665765097
 40
0.1384416195
 40
0.2140583312
 40
0.2916524079
 40
0.3692424469
 40
0.4448669544
 40
0.516712052
 40
0.5832965841
 40
0.6436747534
 40
0.6976894907
 40
0.746272859
 40
0.7916451715
 40
0.8370208798
 40
0.8855976453
 40
0.9396313233
 40
1.0
 40
1.0
 40
1.0
 40
1.0
 10
39.6015976712
 20
86.1939646101
 30
0.0
 10
39.6015976712
 20
86.0933683722
 30
0.0
 10
39.6200480621
 20
85.8839925333
 30
0.0
 10
39.6934779247
 20
85.5681317567
 30
0.0
 10
39.8112063016
 20
85.2481939825
 30
0.0
 10
39.9686860873
 20
84.93621519
 30
0.0
 10
40.1601244681
 20
84.6438157223
 30
0.0
 10
40.3783256968
 20
84.3819479228
 30
0.0
 10
40.615203205
 20
84.1603644376
 30
0.0
 10
40.8621231474
 20
83.9872584377
 30
0.0
 10
41.1104462177
 20
83.8690831466
 30
0.0
 10
41.3519662092
 20
83.8107676088
 30
0.0
 10
41.5786790097
 20
83.8165265036
 30
0.0
 10
41.7804890683
 20
83.8896974684
 30
0.0
 10
41.9447326819
 20
84.0278874321
 30
0.0
 10
42.0631484564
 20
84.2213443484
 30
0.0
 10
42.1333736499
 20
84.4596236901
 30
0.0
 10
42.1471926817
 20
84.6330816107
 30
0.0
 10
42.1471926817
 20
84.7242978938
 30
0.0
  0
SPLINE
  5
4B4
100
AcDbEntity
  8
0
100
AcDbSpline
 62
7
  6
CONTINUOUS
 70
0
 71
3
 72
12
 73
8
 74
0
 42
0.0000001
 43
0.0000001
 44
0.0000000001
 40
0.0
 40
0.0
 40
0.0
 40
0.0
 40
0.108162245
 40
0.2183640921
 40
0.4513666551
 40
0.7104197903
 40
1.0
 40
1.0
 40
1.0
 40
1.0
 10
19.1043002307
 20
117.4503534638
 30
0.0
 10
19.1666119762
 20
117.4863289521
 30
0.0
 10
19.2989370415
 20
117.5482501764
 30
0.0
 10
19.5894503005
 20
117.6287217206
 30
0.0
 10
19.9963868461
 20
117.6395079512
 30
0.0
 10
20.5059929858
 20
117.5163047925
 30
0.0
 10
20.8377854488
 20
117.3584499058
 30
0.0
 10
21.0046118998
 20
117.2621347884
 30
0.0
  0
SPLINE
  5
4B5
100
AcDbEntity
  8
0
100
AcDbSpline
 62
7
  6
CONTINUOUS
 70
0
 71
3
 72
11
 73
7
 74
0
 42
0.0000001
 43
0.0000001
 44
0.0000000001
 40
0.0
 40
0.0
 40
0.0
 40
0.0
 40
0.2177428615
 40
0.4508875887
 40
0.7104604061
 40
1.0
 40
1.0
 40
1.0
 40
1.0
 10
40.9486717256
 20
86.3102744701
 30
0.0
 10
40.9255861962
 20
86.2969446432
 30
0.0
 10
40.8823543736
 20
86.2606690188
 30
0.0
 10
40.8363591891
 20
86.1854329857
 30
0.0
 10
40.8090899096
 20
86.0927437199
 30
0.0
 10
40.8036806711
 20
86.0252936872
 30
0.0
 10
40.8036806711
 20
85.9898462725
 30
0.0
  0
SPLINE
  5
4B6
100
AcDbEntity
  8
0
100
AcDbSpline
 62
7
  6
CONTINUOUS
 70
0
 71
3
 72
12
 73
8
 74
0
 42
0.0000001
 43
0.0000001
 44
0.0000000001
 40
0.0
 40
0.0
 40
0.0
 40
0.0
 40
0.289581202
 40
0.5486347013
 40
0.7816368512
 40
0.8918382666
 40
1.0
 40
1.0
 40
1.0
 40
1.0
 10
49.7137241288
 20
80.0292567865
 30
0.0
 10
49.7137241288
 20
79.8366174681
 30
0.0
 10
49.6845368581
 20
79.4703383143
 30
0.0
 10
49.5364308397
 20
78.9673895207
 30
0.0
 10
49.3236175505
 20
78.62035498
 30
0.0
 10
49.1086654485
 20
78.4089937567
 30
0.0
 10
48.9888745726
 20
78.3253559933
 30
0.0
 10
48.9265614543
 20
78.2893797124
 30
0.0
  0
SPLINE
  5
4B7
100
AcDbEntity
  8
0
100
AcDbSpline
 62
7
  6
CONTINUOUS
 70
0
 71
3
 72
16
 73
12
 74
0
 42
0.0000001
 43
0.0000001
 44
0.0000000001
 40
0.0
 40
0.0
 40
0.0
 40
0.0
 40
0.128728256
 40
0.2703984718
 40
0.4176115639
 40
0.5620221695
 40
0.695748373
 40
0.8130621885
 40
0.9124680443
 40
0.9571199498
 40
1.0
 40
1.0
 40
1.0
 40
1.0
 10
40.8036806711
 20
85.9898462725
 30
0.0
 10
40.8036806711
 20
85.9300216585
 30
0.0
 10
40.8204275971
 20
85.804216341
 30
0.0
 10
40.882876245
 20
85.61949191
 30
0.0
 10
40.9791846935
 20
85.441546757
 30
0.0
 10
41.1014366253
 20
85.2849771005
 30
0.0
 10
41.2400427205
 20
85.1623864418
 30
0.0
 10
41.38423663
 20
85.0832833752
 30
0.0
 10
41.5066359218
 20
85.0594071333
 30
0.0
 10
41.5933558578
 20
85.072068429
 30
0.0
 10
41.6313856235
 20
85.0879162944
 30
0.0
 10
41.6486432319
 20
85.0978810186
 30
0.0
  0
SPLINE
  5
4B8
100
AcDbEntity
  8
0
100
AcDbSpline
 62
7
  6
CONTINUOUS
 70
0
 71
3
 72
9
 73
5
 74
0
 42
0.0000001
 43
0.0000001
 44
0.0000000001
 40
0.0
 40
0.0
 40
0.0
 40
0.0
 40
0.2720263361
 40
1.0
 40
1.0
 40
1.0
 40
1.0
 10
41.086522206
 20
86.153143934
 30
0.0
 10
41.086522206
 20
86.1720649271
 30
0.0
 10
41.0895359182
 20
86.2414656958
 30
0.0
 10
41.1054540707
 20
86.3112041226
 30
0.0
 10
41.127342118
 20
86.3568636338
 30
0.0
  0
SPLINE
  5
4B9
100
AcDbEntity
  8
0
100
AcDbSpline
 62
7
  6
CONTINUOUS
 70
0
 71
3
 72
12
 73
8
 74
0
 42
0.0000001
 43
0.0000001
 44
0.0000000001
 40
0.0
 40
0.0
 40
0.0
 40
0.0
 40
0.289581202
 40
0.5486347013
 40
0.7816368512
 40
0.8918382666
 40
1.0
 40
1.0
 40
1.0
 40
1.0
 10
49.9956532427
 20
97.4212905873
 30
0.0
 10
49.9956532427
 20
97.6139299057
 30
0.0
 10
50.0248405135
 20
97.9802090595
 30
0.0
 10
50.1729465319
 20
98.483157853
 30
0.0
 10
50.385759821
 20
98.8301923937
 30
0.0
 10
50.6007119231
 20
99.0415536171
 30
0.0
 10
50.7205027989
 20
99.1251913804
 30
0.0
 10
50.7828159172
 20
99.1611676613
 30
0.0
  0
SPLINE
  5
4BA
100
AcDbEntity
  8
0
100
AcDbSpline
 62
7
  6
CONTINUOUS
 70
0
 71
3
 72
15
 73
11
 74
0
 42
0.0000001
 43
0.0000001
 44
0.0000000001
 40
0.0
 40
0.0
 40
0.0
 40
0.0
 40
0.1141546703
 40
0.2373261017
 40
0.3669753162
 40
0.4999989361
 40
0.6330227034
 40
0.7626723508
 40
0.8858444607
 40
1.0
 40
1.0
 40
1.0
 40
1.0
 10
52.6831275864
 20
75.2116723517
 30
0.0
 10
52.4991484552
 20
75.3178903496
 30
0.0
 10
52.135756639
 20
75.5726215147
 30
0.0
 10
51.6357489896
 20
76.0404128768
 30
0.0
 10
51.174964926
 20
76.5933778149
 30
0.0
 10
50.7707601212
 20
77.2107728415
 30
0.0
 10
50.438179278
 20
77.8695211309
 30
0.0
 10
50.1896852975
 20
78.5450551887
 30
0.0
 10
50.0345648656
 20
79.2119727771
 30
0.0
 10
49.9956532427
 20
79.6540474013
 30
0.0
 10
49.9956532427
 20
79.866488619
 30
0.0
  0
SPLINE
  5
4BB
100
AcDbEntity
  8
0
100
AcDbSpline
 62
7
  6
CONTINUOUS
 70
0
 71
3
 72
12
 73
8
 74
0
 42
0.0000001
 43
0.0000001
 44
0.0000000001
 40
0.0
 40
0.0
 40
0.0
 40
0.0
 40
0.2895802184
 40
0.5486333627
 40
0.7816359182
 40
0.8918377609
 40
1.0
 40
1.0
 40
1.0
 40
1.0
 10
57.4207232957
 20
101.7081848168
 30
0.0
 10
57.2538968399
 20
101.8044999371
 30
0.0
 10
56.9221043641
 20
101.9623548226
 30
0.0
 10
56.4124982169
 20
102.0855579858
 30
0.0
 10
56.0055616755
 20
102.0747717391
 30
0.0
 10
55.715048426
 20
101.9943002027
 30
0.0
 10
55.5827233719
 20
101.9323789729
 30
0.0
 10
55.5204116266
 20
101.8964034922
 30
0.0
  0
SPLINE
  5
4BC
100
AcDbEntity
  8
0
100
AcDbSpline
 62
7
  6
CONTINUOUS
 70
0
 71
3
 72
11
 73
7
 74
0
 42
0.0000001
 43
0.0000001
 44
0.0000000001
 40
0.0
 40
0.0
 40
0.0
 40
0.0
 40
0.2177428615
 40
0.4508875887
 40
0.7104604061
 40
1.0
 40
1.0
 40
1.0
 40
1.0
 10
73.3271589185
 20
66.808695216
 30
0.0
 10
73.3502444479
 20
66.8220250429
 30
0.0
 10
73.3934762705
 20
66.8583006673
 30
0.0
 10
73.439471455
 20
66.9335367004
 30
0.0
 10
73.4667407345
 20
67.0262259662
 30
0.0
 10
73.4721499729
 20
67.0936759989
 30
0.0
 10
73.4721499729
 20
67.1291234136
 30
0.0
  0
SPLINE
  5
4BD
100
AcDbEntity
  8
0
100
AcDbSpline
 62
7
  6
CONTINUOUS
 70
0
 71
3
 72
15
 73
11
 74
0
 42
0.0000001
 43
0.0000001
 44
0.0000000001
 40
0.0
 40
0.0
 40
0.0
 40
0.0
 40
0.1141555516
 40
0.2373276756
 40
0.3669773296
 40
0.5000011
 40
0.6330247168
 40
0.7626739247
 40
0.885845342
 40
1.0
 40
1.0
 40
1.0
 40
1.0
 10
86.1298355248
 20
82.0301087832
 30
0.0
 10
86.1298355248
 20
82.2425500238
 30
0.0
 10
86.0909238891
 20
82.6846246966
 30
0.0
 10
85.9358034347
 20
83.3515423431
 30
0.0
 10
85.6873094162
 20
84.0270764344
 30
0.0
 10
85.3547285507
 20
84.685824726
 30
0.0
 10
84.9505237368
 20
85.3032197323
 30
0.0
 10
84.4897396832
 20
85.8561846208
 30
0.0
 10
83.9897320729
 20
86.3239759343
 30
0.0
 10
83.6263402925
 20
86.578707064
 30
0.0
 10
83.4423611811
 20
86.6849250505
 30
0.0
  0
SPLINE
  5
4BE
100
AcDbEntity
  8
0
100
AcDbSpline
 62
7
  6
CONTINUOUS
 70
0
 71
3
 72
12
 73
8
 74
0
 42
0.0000001
 43
0.0000001
 44
0.0000000001
 40
0.0
 40
0.0
 40
0.0
 40
0.0
 40
0.108162245
 40
0.2183640921
 40
0.4513666551
 40
0.7104197903
 40
1.0
 40
1.0
 40
1.0
 40
1.0
 10
80.6050771409
 20
60.0001939099
 30
0.0
 10
80.5427653954
 20
59.9642184216
 30
0.0
 10
80.4104403301
 20
59.9022971973
 30
0.0
 10
80.1199270711
 20
59.8218256531
 30
0.0
 10
79.7129905255
 20
59.8110394225
 30
0.0
 10
79.2033843858
 20
59.9342425813
 30
0.0
 10
78.8715919227
 20
60.0920974679
 30
0.0
 10
78.7047654718
 20
60.1884125854
 30
0.0
  0
SPLINE
  5
4BF
100
AcDbEntity
  8
0
100
AcDbSpline
 62
7
  6
CONTINUOUS
 70
0
 71
3
 72
12
 73
8
 74
0
 42
0.0000001
 43
0.0000001
 44
0.0000000001
 40
0.0
 40
0.0
 40
0.0
 40
0.0
 40
0.1081617394
 40
0.2183631591
 40
0.4513653165
 40
0.7104188067
 40
1.0
 40
1.0
 40
1.0
 40
1.0
 10
85.3426728502
 20
62.7354297409
 30
0.0
 10
85.4049859753
 20
62.7714060181
 30
0.0
 10
85.524776852
 20
62.8550437939
 30
0.0
 10
85.7397289656
 20
63.0664050215
 30
0.0
 10
85.9525422428
 20
63.413439574
 30
0.0
 10
86.1006482613
 20
63.9163883588
 30
0.0
 10
86.1298355248
 20
64.2826675021
 30
0.0
 10
86.1298355248
 20
64.4753068149
 30
0.0
  0
SPLINE
  5
4C0
100
AcDbEntity
  8
0
100
AcDbSpline
 62
7
  6
CONTINUOUS
 70
0
 71
3
 72
16
 73
12
 74
0
 42
0.0000001
 43
0.0000001
 44
0.0000000001
 40
0.0
 40
0.0
 40
0.0
 40
0.0
 40
0.128728256
 40
0.2703984718
 40
0.4176115639
 40
0.5620221695
 40
0.695748373
 40
0.8130621885
 40
0.9124680443
 40
0.9571199498
 40
1.0
 40
1.0
 40
1.0
 40
1.0
 10
73.4721499729
 20
67.1291234136
 30
0.0
 10
73.4721499729
 20
67.1889480276
 30
0.0
 10
73.4554030469
 20
67.3147533451
 30
0.0
 10
73.3929543991
 20
67.4994777761
 30
0.0
 10
73.2966459505
 20
67.6774229291
 30
0.0
 10
73.1743940188
 20
67.8339925856
 30
0.0
 10
73.0357879236
 20
67.9565832443
 30
0.0
 10
72.8915940141
 20
68.0356863109
 30
0.0
 10
72.7691947222
 20
68.0595625528
 30
0.0
 10
72.6824747863
 20
68.0469012571
 30
0.0
 10
72.6444450206
 20
68.0310533917
 30
0.0
 10
72.6271874121
 20
68.0210886675
 30
0.0
  0
SPLINE
  5
4C1
100
AcDbEntity
  8
0
100
AcDbSpline
 62
7
  6
CONTINUOUS
 70
0
 71
3
 72
14
 73
10
 74
0
 42
0.0000001
 43
0.0000001
 44
0.0000000001
 40
0.0
 40
0.0
 40
0.0
 40
0.0
 40
0.1004202493
 40
0.2146358192
 40
0.3409195777
 40
0.4756135029
 40
0.7501237248
 40
0.8804612392
 40
1.0
 40
1.0
 40
1.0
 40
1.0
 10
73.4237019493
 20
66.9443066641
 30
0.0
 10
73.3840317096
 20
66.9511665497
 30
0.0
 10
73.3014617578
 20
66.9793115865
 30
0.0
 10
73.1845346315
 20
67.0515505105
 30
0.0
 10
73.0719238761
 20
67.1523631309
 30
0.0
 10
72.9350698924
 20
67.3184263954
 30
0.0
 10
72.8323929726
 20
67.5126647914
 30
0.0
 10
72.7758148024
 20
67.7157242902
 30
0.0
 10
72.7650378926
 20
67.8160344377
 30
0.0
 10
72.7650378926
 20
67.8639581315
 30
0.0
  0
SPLINE
  5
4C2
100
AcDbEntity
  8
0
100
AcDbSpline
 62
7
  6
CONTINUOUS
 70
0
 71
3
 72
15
 73
11
 74
0
 42
0.0000001
 43
0.0000001
 44
0.0000000001
 40
0.0
 40
0.0
 40
0.0
 40
0.0
 40
0.1141546703
 40
0.2373261017
 40
0.3669753162
 40
0.4999989361
 40
0.6330227034
 40
0.7626723508
 40
0.8858444607
 40
1.0
 40
1.0
 40
1.0
 40
1.0
 10
78.7047654718
 20
83.9496892195
 30
0.0
 10
78.888744603
 20
83.8434712216
 30
0.0
 10
79.2521364192
 20
83.5887400565
 30
0.0
 10
79.7521440685
 20
83.1209486944
 30
0.0
 10
80.2129281321
 20
82.5679837564
 30
0.0
 10
80.6171329369
 20
81.9505887297
 30
0.0
 10
80.9497137801
 20
81.2918404403
 30
0.0
 10
81.1982077607
 20
80.6163063825
 30
0.0
 10
81.3533281925
 20
79.9493887941
 30
0.0
 10
81.3922398154
 20
79.5073141699
 30
0.0
 10
81.3922398154
 20
79.2948729522
 30
0.0
  0
SPLINE
  5
4C3
100
AcDbEntity
  8
0
100
AcDbSpline
 62
7
  6
CONTINUOUS
 70
0
 71
3
 72
23
 73
19
 74
0
 42
0.0000001
 43
0.0000001
 44
0.0000000001
 40
0.0
 40
0.0
 40
0.0
 40
0.0
 40
0.0665765097
 40
0.1384416195
 40
0.2140583312
 40
0.2916524079
 40
0.3692424469
 40
0.4448669544
 40
0.516712052
 40
0.5832965841
 40
0.6436747534
 40
0.6976894907
 40
0.746272859
 40
0.7916451715
 40
0.8370208798
 40
0.8855976453
 40
0.9396313233
 40
1.0
 40
1.0
 40
1.0
 40
1.0
 10
73.8257083683
 20
66.4351120913
 30
0.0
 10
73.8257083683
 20
66.5357083293
 30
0.0
 10
73.8072579773
 20
66.7450841682
 30
0.0
 10
73.7338281147
 20
67.0609449447
 30
0.0
 10
73.6160997378
 20
67.380882719
 30
0.0
 10
73.4586199521
 20
67.6928615115
 30
0.0
 10
73.2671815713
 20
67.9852609791
 30
0.0
 10
73.0489803426
 20
68.2471287787
 30
0.0
 10
72.8121028344
 20
68.4687122639
 30
0.0
 10
72.565182892
 20
68.6418182637
 30
0.0
 10
72.3168598217
 20
68.7599935548
 30
0.0
 10
72.0753398302
 20
68.8183090927
 30
0.0
 10
71.8486270297
 20
68.8125501979
 30
0.0
 10
71.6468169711
 20
68.7393792331
 30
0.0
 10
71.4825733575
 20
68.6011892694
 30
0.0
 10
71.364157583
 20
68.4077323531
 30
0.0
 10
71.2939323895
 20
68.1694530113
 30
0.0
 10
71.2801133577
 20
67.9959950907
 30
0.0
 10
71.2801133577
 20
67.9047788076
 30
0.0
  0
SPLINE
  5
4C4
100
AcDbEntity
  8
0
100
AcDbSpline
 62
7
  6
CONTINUOUS
 70
0
 71
3
 72
23
 73
19
 74
0
 42
0.0000001
 43
0.0000001
 44
0.0000000001
 40
0.0
 40
0.0
 40
0.0
 40
0.0
 40
0.0665765097
 40
0.1384416195
 40
0.2140583312
 40
0.2916524079
 40
0.3692424469
 40
0.4448669544
 40
0.516712052
 40
0.5832965841
 40
0.6436747534
 40
0.6976894907
 40
0.746272859
 40
0.7916451715
 40
0.8370208798
 40
0.8855976453
 40
0.9396313233
 40
1.0
 40
1.0
 40
1.0
 40
1.0
 10
71.2801133577
 20
67.9047788076
 30
0.0
 10
71.2801133577
 20
67.8041825697
 30
0.0
 10
71.2985637487
 20
67.5948067308
 30
0.0
 10
71.3719936113
 20
67.2789459542
 30
0.0
 10
71.4897219882
 20
66.95900818
 30
0.0
 10
71.6472017739
 20
66.6470293874
 30
0.0
 10
71.8386401547
 20
66.3546299198
 30
0.0
 10
72.0568413834
 20
66.0927621202
 30
0.0
 10
72.2937188916
 20
65.8711786351
 30
0.0
 10
72.540638834
 20
65.6980726352
 30
0.0
 10
72.7889619043
 20
65.5798973441
 30
0.0
 10
73.0304818958
 20
65.5215818063
 30
0.0
 10
73.2571946963
 20
65.5273407011
 30
0.0
 10
73.4590047549
 20
65.6005116659
 30
0.0
 10
73.6232483685
 20
65.7387016296
 30
0.0
 10
73.741664143
 20
65.9321585459
 30
0.0
 10
73.8118893365
 20
66.1704378876
 30
0.0
 10
73.8257083683
 20
66.3438958082
 30
0.0
 10
73.8257083683
 20
66.4351120913
 30
0.0
  0
SPLINE
  5
4C5
100
AcDbEntity
  8
0
100
AcDbSpline
 62
7
  6
CONTINUOUS
 70
0
 71
3
 72
12
 73
8
 74
0
 42
0.0000001
 43
0.0000001
 44
0.0000000001
 40
0.0
 40
0.0
 40
0.0
 40
0.0
 40
0.108162245
 40
0.2183640921
 40
0.4513666551
 40
0.7104197903
 40
1.0
 40
1.0
 40
1.0
 40
1.0
 10
50.7828159172
 20
99.1611676613
 30
0.0
 10
50.8451276628
 20
99.1971431496
 30
0.0
 10
50.9774527281
 20
99.2590643739
 30
0.0
 10
51.267965987
 20
99.3395359181
 30
0.0
 10
51.6749025326
 20
99.3503221487
 30
0.0
 10
52.1845086724
 20
99.22711899
 30
0.0
 10
52.5163011354
 20
99.0692641033
 30
0.0
 10
52.6831275864
 20
98.9729489859
 30
0.0
  0
SPLINE
  5
4C6
100
AcDbEntity
  8
0
100
AcDbSpline
 62
7
  6
CONTINUOUS
 70
0
 71
3
 72
11
 73
7
 74
0
 42
0.0000001
 43
0.0000001
 44
0.0000000001
 40
0.0
 40
0.0
 40
0.0
 40
0.0
 40
0.2177428615
 40
0.4508875887
 40
0.7104604061
 40
1.0
 40
1.0
 40
1.0
 40
1.0
 10
72.6271874121
 20
68.0210886675
 30
0.0
 10
72.6041018828
 20
68.0077588407
 30
0.0
 10
72.5608700602
 20
67.9714832163
 30
0.0
 10
72.5148748757
 20
67.8962471832
 30
0.0
 10
72.4876055962
 20
67.8035579174
 30
0.0
 10
72.4821963577
 20
67.7361078847
 30
0.0
 10
72.4821963577
 20
67.70066047
 30
0.0
  0
SPLINE
  5
4C7
100
AcDbEntity
  8
0
100
AcDbSpline
 62
7
  6
CONTINUOUS
 70
0
 71
3
 72
12
 73
8
 74
0
 42
0.0000001
 43
0.0000001
 44
0.0000000001
 40
0.0
 40
0.0
 40
0.0
 40
0.0
 40
0.289581202
 40
0.5486347013
 40
0.7816368512
 40
0.8918382666
 40
1.0
 40
1.0
 40
1.0
 40
1.0
 10
81.3922398154
 20
61.740070984
 30
0.0
 10
81.3922398154
 20
61.5474316656
 30
0.0
 10
81.3630525447
 20
61.1811525118
 30
0.0
 10
81.2149465263
 20
60.6782037182
 30
0.0
 10
81.0021332371
 20
60.3311691775
 30
0.0
 10
80.7871811351
 20
60.1198079542
 30
0.0
 10
80.6673902592
 20
60.0361701908
 30
0.0
 10
80.6050771409
 20
60.0001939099
 30
0.0
  0
SPLINE
  5
4C8
100
AcDbEntity
  8
0
100
AcDbSpline
 62
7
  6
CONTINUOUS
 70
0
 71
3
 72
16
 73
12
 74
0
 42
0.0000001
 43
0.0000001
 44
0.0000000001
 40
0.0
 40
0.0
 40
0.0
 40
0.0
 40
0.128728256
 40
0.2703984718
 40
0.4176115639
 40
0.5620221695
 40
0.695748373
 40
0.8130621885
 40
0.9124680443
 40
0.9571199498
 40
1.0
 40
1.0
 40
1.0
 40
1.0
 10
72.4821963577
 20
67.70066047
 30
0.0
 10
72.4821963577
 20
67.640835856
 30
0.0
 10
72.4989432837
 20
67.5150305385
 30
0.0
 10
72.5613919316
 20
67.3303061075
 30
0.0
 10
72.6577003801
 20
67.1523609545
 30
0.0
 10
72.7799523119
 20
66.995791298
 30
0.0
 10
72.9185584071
 20
66.8732006393
 30
0.0
 10
73.0627523166
 20
66.7940975727
 30
0.0
 10
73.1851516084
 20
66.7702213308
 30
0.0
 10
73.2718715444
 20
66.7828826265
 30
0.0
 10
73.3099013101
 20
66.7987304919
 30
0.0
 10
73.3271589185
 20
66.808695216
 30
0.0
  0
SPLINE
  5
4C9
100
AcDbEntity
  8
0
100
AcDbSpline
 62
7
  6
CONTINUOUS
 70
0
 71
3
 72
9
 73
5
 74
0
 42
0.0000001
 43
0.0000001
 44
0.0000000001
 40
0.0
 40
0.0
 40
0.0
 40
0.0
 40
0.2699712248
 40
1.0
 40
1.0
 40
1.0
 40
1.0
 10
72.7650378926
 20
67.8639581315
 30
0.0
 10
72.7650378926
 20
67.8812968706
 30
0.0
 10
72.7675888864
 20
67.945413476
 30
0.0
 10
72.7809528935
 20
68.0097098967
 30
0.0
 10
72.7992027166
 20
68.0528979605
 30
0.0
  0
SPLINE
  5
4CA
100
AcDbEntity
  8
INTFCLR_74
100
AcDbSpline
 62
7
420
48875
  6
CONTINUOUS
 70
0
 71
3
 72
29
 73
25
 74
0
 42
0.0000001
 43
0.0000001
 44
0.0000000001
 40
0.0
 40
0.0
 40
0.0
 40
0.0
 40
0.0625
 40
0.09375
 40
0.125
 40
0.15625
 40
0.1875
 40
0.21875
 40
0.25
 40
0.28125
 40
0.3125
 40
0.375
 40
0.4375
 40
0.5
 40
0.5625
 40
0.625
 40
0.6875
 40
0.75
 40
0.8125
 40
0.84375
 40
0.875
 40
0.90625
 40
0.9375
 40
1.0
 40
1.0
 40
1.0
 40
1.0
 10
73.7191794123
 20
170.1499547478
 30
0.0
 10
73.7203016359
 20
170.1638187281
 30
0.0
 10
73.7218339284
 20
170.1845622049
 30
0.0
 10
73.7244811565
 20
170.2124301486
 30
0.0
 10
73.724956149
 20
170.2328061696
 30
0.0
 10
73.7311707698
 20
170.2551769507
 30
0.0
 10
73.735752624
 20
170.2770033756
 30
0.0
 10
73.7411259163
 20
170.2990124652
 30
0.0
 10
73.7449662225
 20
170.320835252
 30
0.0
 10
73.7541470353
 20
170.3432205856
 30
0.0
 10
73.7648505346
 20
170.3728410309
 30
0.0
 10
73.7764105257
 20
170.4101602166
 30
0.0
 10
73.8013219303
 20
170.4538738193
 30
0.0
 10
73.8212501533
 20
170.4995441997
 30
0.0
 10
73.8500716875
 20
170.5384568893
 30
0.0
 10
73.8748160586
 20
170.5812070631
 30
0.0
 10
73.9069757707
 20
170.6153649911
 30
0.0
 10
73.9360256519
 20
170.6542640954
 30
0.0
 10
73.9644205383
 20
170.6780362995
 30
0.0
 10
73.9864061727
 20
170.6983761045
 30
0.0
 10
74.0025742314
 20
170.7148510627
 30
0.0
 10
74.0203920958
 20
170.7257845822
 30
0.0
 10
74.0435703691
 20
170.7423069726
 30
0.0
 10
74.0610843218
 20
170.7542612834
 30
0.0
 10
74.0727313464
 20
170.7623280422
 30
0.0
  0
SPLINE
  5
4CB
100
AcDbEntity
  8
0
100
AcDbSpline
 62
7
  6
CONTINUOUS
 70
0
 71
3
 72
11
 73
7
 74
0
 42
0.0000001
 43
0.0000001
 44
0.0000000001
 40
0.0
 40
0.0
 40
0.0
 40
0.0
 40
0.2044556729
 40
0.4328214442
 40
0.6981049315
 40
1.0
 40
1.0
 40
1.0
 40
1.0
 10
118.7259169179
 20
59.7617316047
 30
0.0
 10
118.672823835
 20
59.7924448675
 30
0.0
 10
118.5433594574
 20
59.8302725656
 30
0.0
 10
118.3315350418
 20
59.8033076292
 30
0.0
 10
118.1114722625
 20
59.7047961782
 30
0.0
 10
117.9741049574
 20
59.6022566821
 30
0.0
 10
117.9063414264
 20
59.5421672761
 30
0.0
  0
SPLINE
  5
4CC
100
AcDbEntity
  8
0
100
AcDbSpline
 62
7
  6
CONTINUOUS
 70
0
 71
3
 72
9
 73
5
 74
0
 42
0.0000001
 43
0.0000001
 44
0.0000000001
 40
0.0
 40
0.0
 40
0.0
 40
0.0
 40
0.2463366039
 40
1.0
 40
1.0
 40
1.0
 40
1.0
 10
88.9789661229
 20
54.6858237167
 30
0.0
 10
89.7197737002
 20
54.3265659275
 30
0.0
 10
92.7403745099
 20
52.8957054172
 30
0.0
 10
95.8123249395
 20
51.5736597354
 30
0.0
 10
98.1501445469
 20
50.6357384837
 30
0.0
  0
SPLINE
  5
4CD
100
AcDbEntity
  8
0
100
AcDbSpline
 62
7
  6
CONTINUOUS
 70
0
 71
3
 72
11
 73
7
 74
0
 42
0.0000001
 43
0.0000001
 44
0.0000000001
 40
0.0
 40
0.0
 40
0.0
 40
0.0
 40
0.2177434119
 40
0.4508805377
 40
0.710457812
 40
1.0
 40
1.0
 40
1.0
 40
1.0
 10
49.45329134
 20
121.2816584937
 30
0.0
 10
49.4532913518
 20
121.2435775204
 30
0.0
 10
49.4672755491
 20
121.1641822535
 30
0.0
 10
49.5275035578
 20
121.05354175
 30
0.0
 10
49.6226973702
 20
120.9536052483
 30
0.0
 10
49.7022776767
 20
120.8987328121
 30
0.0
 10
49.7461315499
 20
120.8734143394
 30
0.0
  0
SPLINE
  5
4CE
100
AcDbEntity
  8
0
100
AcDbSpline
 62
7
  6
CONTINUOUS
 70
0
 71
3
 72
11
 73
7
 74
0
 42
0.0000001
 43
0.0000001
 44
0.0000000001
 40
0.0
 40
0.0
 40
0.0
 40
0.0
 40
0.3019488479
 40
0.5672347789
 40
0.7956693057
 40
1.0
 40
1.0
 40
1.0
 40
1.0
 10
108.4484820642
 20
51.1553972515
 30
0.0
 10
108.3581142962
 20
51.0752635068
 30
0.0
 10
108.1749377244
 20
50.9385457936
 30
0.0
 10
107.8814807412
 20
50.8071125902
 30
0.0
 10
107.5990422194
 20
50.7713687565
 30
0.0
 10
107.4264618439
 20
50.8217183063
 30
0.0
 10
107.3556806698
 20
50.8625865713
 30
0.0
  0
SPLINE
  5
4CF
100
AcDbEntity
  8
0
100
AcDbSpline
 62
7
  6
CONTINUOUS
 70
0
 71
3
 72
11
 73
7
 74
0
 42
0.0000001
 43
0.0000001
 44
0.0000000001
 40
0.0
 40
0.0
 40
0.0
 40
0.0
 40
0.2231979768
 40
0.4583732232
 40
0.7157645103
 40
1.0
 40
1.0
 40
1.0
 40
1.0
 10
44.4835434609
 20
111.714187811
 30
0.0
 10
44.5959768709
 20
111.7790355315
 30
0.0
 10
44.8059465076
 20
111.9520405149
 30
0.0
 10
45.0327355917
 20
112.3077550065
 30
0.0
 10
45.1683553032
 20
112.7431277236
 30
0.0
 10
45.1953626439
 20
113.0592730859
 30
0.0
 10
45.1953626439
 20
113.2245616756
 30
0.0
  0
SPLINE
  5
4D0
100
AcDbEntity
  8
0
100
AcDbSpline
 62
7
  6
CONTINUOUS
 70
0
 71
3
 72
10
 73
6
 74
0
 42
0.0000001
 43
0.0000001
 44
0.0000000001
 40
0.0
 40
0.0
 40
0.0
 40
0.0
 40
0.5170188012
 40
0.7702937026
 40
1.0
 40
1.0
 40
1.0
 40
1.0
 10
101.5236152645
 20
52.5666965552
 30
0.0
 10
101.666306614
 20
52.5301600153
 30
0.0
 10
101.8915436845
 20
52.5166421987
 30
0.0
 10
102.1719533281
 20
52.5711236324
 30
0.0
 10
102.3007190843
 20
52.6237624421
 30
0.0
 10
102.3573932425
 20
52.6564830872
 30
0.0
  0
SPLINE
  5
4D1
100
AcDbEntity
  8
0
100
AcDbSpline
 62
7
  6
CONTINUOUS
 70
0
 71
3
 72
11
 73
7
 74
0
 42
0.0000001
 43
0.0000001
 44
0.0000000001
 40
0.0
 40
0.0
 40
0.0
 40
0.0
 40
0.2177434119
 40
0.4508805377
 40
0.710457812
 40
1.0
 40
1.0
 40
1.0
 40
1.0
 10
41.9579282535
 20
125.6090104916
 30
0.0
 10
41.9579282653
 20
125.5709295183
 30
0.0
 10
41.9719124625
 20
125.4915342514
 30
0.0
 10
42.0321404713
 20
125.3808937479
 30
0.0
 10
42.1273342836
 20
125.2809572462
 30
0.0
 10
42.2069145902
 20
125.22608481
 30
0.0
 10
42.2507684633
 20
125.2007663373
 30
0.0
  0
SPLINE
  5
4D2
100
AcDbEntity
  8
0
100
AcDbSpline
 62
7
  6
CONTINUOUS
 70
0
 71
3
 72
17
 73
13
 74
0
 42
0.0000001
 43
0.0000001
 44
0.0000000001
 40
0.0
 40
0.0
 40
0.0
 40
0.0
 40
0.0409502305
 40
0.0837089874
 40
0.1299473105
 40
0.1807130721
 40
0.2969052053
 40
0.4310168562
 40
0.576817407
 40
0.7259342647
 40
0.8695448692
 40
1.0
 40
1.0
 40
1.0
 40
1.0
 10
33.7380917927
 20
121.6708774899
 30
0.0
 10
33.8137003918
 20
121.7145317656
 30
0.0
 10
33.9814091873
 20
121.7827053817
 30
0.0
 10
34.2590457325
 20
121.8169085115
 30
0.0
 10
34.5575410757
 20
121.785066325
 30
0.0
 10
34.9942974143
 20
121.6516161929
 30
0.0
 10
35.553393414
 20
121.319376662
 30
0.0
 10
36.1736969819
 20
120.7398828003
 30
0.0
 10
36.7263195028
 20
120.0055788011
 30
0.0
 10
37.1640667338
 20
119.1747854273
 30
0.0
 10
37.4494463171
 20
118.3146199307
 30
0.0
 10
37.5261751874
 20
117.7296877459
 30
0.0
 10
37.5261751874
 20
117.4515567258
 30
0.0
  0
SPLINE
  5
4D3
100
AcDbEntity
  8
0
100
AcDbSpline
 62
7
  6
CONTINUOUS
 70
0
 71
3
 72
11
 73
7
 74
0
 42
0.0000001
 43
0.0000001
 44
0.0000000001
 40
0.0
 40
0.0
 40
0.0
 40
0.0
 40
0.2177434119
 40
0.4508805377
 40
0.710457812
 40
1.0
 40
1.0
 40
1.0
 40
1.0
 10
56.9486544266
 20
116.9543064958
 30
0.0
 10
56.9486544384
 20
116.9162255225
 30
0.0
 10
56.9626386357
 20
116.8368302555
 30
0.0
 10
57.0228666444
 20
116.7261897521
 30
0.0
 10
57.1180604568
 20
116.6262532504
 30
0.0
 10
57.1976407633
 20
116.5713808142
 30
0.0
 10
57.2414946364
 20
116.5460623415
 30
0.0
  0
SPLINE
  5
4D4
100
AcDbEntity
  8
0
100
AcDbSpline
 62
7
  6
CONTINUOUS
 70
0
 71
3
 72
11
 73
7
 74
0
 42
0.0000001
 43
0.0000001
 44
0.0000000001
 40
0.0
 40
0.0
 40
0.0
 40
0.0
 40
0.2301567268
 40
0.4676919448
 40
0.7224958345
 40
1.0
 40
1.0
 40
1.0
 40
1.0
 10
52.6715064197
 20
107.7867261503
 30
0.0
 10
52.7909542066
 20
107.8556163661
 30
0.0
 10
53.0135792068
 20
108.034146908
 30
0.0
 10
53.2582192071
 20
108.3982485881
 30
0.0
 10
53.4052875159
 20
108.8403735631
 30
0.0
 10
53.4349322426
 20
109.1606185259
 30
0.0
 10
53.4349322426
 20
109.326874943
 30
0.0
  0
SPLINE
  5
4D5
100
AcDbEntity
  8
0
100
AcDbSpline
 62
7
  6
CONTINUOUS
 70
0
 71
3
 72
11
 73
7
 74
0
 42
0.0000001
 43
0.0000001
 44
0.0000000001
 40
0.0
 40
0.0
 40
0.0
 40
0.0
 40
0.2177434119
 40
0.4508805377
 40
0.710457812
 40
1.0
 40
1.0
 40
1.0
 40
1.0
 10
73.63644394
 20
107.3198246891
 30
0.0
 10
73.6364439519
 20
107.2817437158
 30
0.0
 10
73.6504281491
 20
107.2023484489
 30
0.0
 10
73.7106561578
 20
107.0917079454
 30
0.0
 10
73.8058499702
 20
106.9917714437
 30
0.0
 10
73.8854302767
 20
106.9368990075
 30
0.0
 10
73.9292841499
 20
106.9115805348
 30
0.0
  0
SPLINE
  5
4D6
100
AcDbEntity
  8
0
100
AcDbSpline
 62
7
  6
CONTINUOUS
 70
0
 71
3
 72
17
 73
13
 74
0
 42
0.0000001
 43
0.0000001
 44
0.0000000001
 40
0.0
 40
0.0
 40
0.0
 40
0.0
 40
0.0409502305
 40
0.0837089874
 40
0.1299473105
 40
0.1807130721
 40
0.2969052053
 40
0.4310168562
 40
0.576817407
 40
0.7259342647
 40
0.8695448692
 40
1.0
 40
1.0
 40
1.0
 40
1.0
 10
65.4166074793
 20
103.3816916874
 30
0.0
 10
65.4922160784
 20
103.4253459631
 30
0.0
 10
65.6599248739
 20
103.4935195792
 30
0.0
 10
65.9375614191
 20
103.527722709
 30
0.0
 10
66.2360567622
 20
103.4958805225
 30
0.0
 10
66.6728131008
 20
103.3624303904
 30
0.0
 10
67.2319091006
 20
103.0301908595
 30
0.0
 10
67.8522126685
 20
102.4506969978
 30
0.0
 10
68.4048351894
 20
101.7163929986
 30
0.0
 10
68.8425824204
 20
100.8855996248
 30
0.0
 10
69.1279620037
 20
100.0254341282
 30
0.0
 10
69.204690874
 20
99.4405019434
 30
0.0
 10
69.204690874
 20
99.1623709232
 30
0.0
  0
SPLINE
  5
4D7
100
AcDbEntity
  8
0
100
AcDbSpline
 62
7
  6
CONTINUOUS
 70
0
 71
3
 72
9
 73
5
 74
0
 42
0.0000001
 43
0.0000001
 44
0.0000000001
 40
0.0
 40
0.0
 40
0.0
 40
0.0
 40
0.242009925
 40
1.0
 40
1.0
 40
1.0
 40
1.0
 10
24.3986867667
 20
89.4187703189
 30
0.0
 10
25.5079224475
 20
88.5312053397
 30
0.0
 10
30.1676076692
 20
84.959434219
 30
0.0
 10
35.111768443
 20
81.7640429377
 30
0.0
 10
38.965157703
 20
79.5393379407
 30
0.0
  0
SPLINE
  5
4D8
100
AcDbEntity
  8
0
100
AcDbSpline
 62
7
  6
CONTINUOUS
 70
0
 71
3
 72
9
 73
5
 74
0
 42
0.0000001
 43
0.0000001
 44
0.0000000001
 40
0.0
 40
0.0
 40
0.0
 40
0.0
 40
0.2431242689
 40
1.0
 40
1.0
 40
1.0
 40
1.0
 10
38.965157703
 20
79.5393379407
 30
0.0
 10
40.3038831505
 20
78.7664419285
 30
0.0
 10
45.8657785702
 20
75.6841105186
 30
0.0
 10
51.6348979424
 20
72.980091401
 30
0.0
 10
56.0772024533
 20
71.1295845164
 30
0.0
  0
SPLINE
  5
4D9
100
AcDbEntity
  8
0
100
AcDbSpline
 62
7
  6
CONTINUOUS
 70
0
 71
3
 72
9
 73
5
 74
0
 42
0.0000001
 43
0.0000001
 44
0.0000000001
 40
0.0
 40
0.0
 40
0.0
 40
0.0
 40
0.242009925
 40
1.0
 40
1.0
 40
1.0
 40
1.0
 10
56.0772024533
 20
71.1295845164
 30
0.0
 10
57.1864381341
 20
70.2420195372
 30
0.0
 10
61.8461233558
 20
66.6702484165
 30
0.0
 10
66.7902841296
 20
63.4748571352
 30
0.0
 10
70.6436733896
 20
61.2501521382
 30
0.0
  0
SPLINE
  5
4DA
100
AcDbEntity
  8
0
100
AcDbSpline
 62
7
  6
CONTINUOUS
 70
0
 71
3
 72
9
 73
5
 74
0
 42
0.0000001
 43
0.0000001
 44
0.0000000001
 40
0.0
 40
0.0
 40
0.0
 40
0.0
 40
0.2431242689
 40
1.0
 40
1.0
 40
1.0
 40
1.0
 10
70.6436733896
 20
61.2501521382
 30
0.0
 10
71.9823988371
 20
60.477256126
 30
0.0
 10
77.5442942568
 20
57.3949247161
 30
0.0
 10
83.313413629
 20
54.6909055985
 30
0.0
 10
87.7557181399
 20
52.8403987139
 30
0.0
  0
SPLINE
  5
4DB
100
AcDbEntity
  8
0
100
AcDbSpline
 62
7
  6
CONTINUOUS
 70
0
 71
3
 72
11
 73
7
 74
0
 42
0.0000001
 43
0.0000001
 44
0.0000000001
 40
0.0
 40
0.0
 40
0.0
 40
0.0
 40
0.2177434119
 40
0.4508805377
 40
0.710457812
 40
1.0
 40
1.0
 40
1.0
 40
1.0
 10
81.1318070266
 20
102.9924726912
 30
0.0
 10
81.1318070384
 20
102.9543917179
 30
0.0
 10
81.1457912357
 20
102.8749964509
 30
0.0
 10
81.2060192444
 20
102.7643559475
 30
0.0
 10
81.3012130568
 20
102.6644194458
 30
0.0
 10
81.3807933633
 20
102.6095470096
 30
0.0
 10
81.4246472364
 20
102.5842285369
 30
0.0
  0
SPLINE
  5
4DC
100
AcDbEntity
  8
0
100
AcDbSpline
 62
7
  6
CONTINUOUS
 70
0
 71
3
 72
11
 73
7
 74
0
 42
0.0000001
 43
0.0000001
 44
0.0000000001
 40
0.0
 40
0.0
 40
0.0
 40
0.0
 40
0.2231979768
 40
0.4583732232
 40
0.7157645103
 40
1.0
 40
1.0
 40
1.0
 40
1.0
 10
76.1620591475
 20
93.4250020085
 30
0.0
 10
76.2744925575
 20
93.489849729
 30
0.0
 10
76.4844621942
 20
93.6628547124
 30
0.0
 10
76.7112512783
 20
94.018569204
 30
0.0
 10
76.8468709898
 20
94.4539419211
 30
0.0
 10
76.8738783305
 20
94.7700872834
 30
0.0
 10
76.8738783305
 20
94.9353758731
 30
0.0
  0
SPLINE
  5
4DD
100
AcDbEntity
  8
0
100
AcDbSpline
 62
7
  6
CONTINUOUS
 70
0
 71
3
 72
11
 73
7
 74
0
 42
0.0000001
 43
0.0000001
 44
0.0000000001
 40
0.0
 40
0.0
 40
0.0
 40
0.0
 40
0.2275407893
 40
0.4746847449
 40
0.7349533988
 40
1.0
 40
1.0
 40
1.0
 40
1.0
 10
85.1134479292
 20
59.2757451142
 30
0.0
 10
85.1134479292
 20
59.5010512623
 30
0.0
 10
85.0546577802
 20
59.9718165963
 30
0.0
 10
84.8260464212
 20
60.6664250185
 30
0.0
 10
84.4679222962
 20
61.3459186199
 30
0.0
 10
84.1558302776
 20
61.7650188518
 30
0.0
 10
83.9835289289
 20
61.9629807163
 30
0.0
  0
SPLINE
  5
4DE
100
AcDbEntity
  8
0
100
AcDbSpline
 62
7
  6
CONTINUOUS
 70
0
 71
3
 72
17
 73
13
 74
0
 42
0.0000001
 43
0.0000001
 44
0.0000000001
 40
0.0
 40
0.0
 40
0.0
 40
0.0
 40
0.1242701546
 40
0.2606131265
 40
0.4032987491
 40
0.5452232276
 40
0.6794136506
 40
0.8002877082
 40
0.8550449522
 40
0.9061048756
 40
0.954078313
 40
1.0
 40
1.0
 40
1.0
 40
1.0
 10
53.4349322426
 20
109.326874943
 30
0.0
 10
53.4349322426
 20
109.6037664707
 30
0.0
 10
53.346192065
 20
110.18547617
 30
0.0
 10
53.0126460364
 20
111.0260226935
 30
0.0
 10
52.5030080616
 20
111.8201248978
 30
0.0
 10
51.8600135147
 20
112.5037758462
 30
0.0
 10
51.139526913
 20
113.0263788339
 30
0.0
 10
50.4966885956
 20
113.3009736501
 30
0.0
 10
49.997812101
 20
113.3916109829
 30
0.0
 10
49.653243386
 20
113.3955575494
 30
0.0
 10
49.3335207625
 20
113.3363002223
 30
0.0
 10
49.1391069574
 20
113.2532945182
 30
0.0
 10
49.0504901395
 20
113.2021432885
 30
0.0
  0
SPLINE
  5
4DF
100
AcDbEntity
  8
0
100
AcDbSpline
 62
7
  6
CONTINUOUS
 70
0
 71
3
 72
17
 73
13
 74
0
 42
0.0000001
 43
0.0000001
 44
0.0000000001
 40
0.0
 40
0.0
 40
0.0
 40
0.0
 40
0.1272145738
 40
0.2670269328
 40
0.4128095354
 40
0.5566428095
 40
0.6908649211
 40
0.8094737643
 40
0.8622887829
 40
0.9110157946
 40
0.9564772951
 40
1.0
 40
1.0
 40
1.0
 40
1.0
 10
45.1953626439
 20
113.2245616756
 30
0.0
 10
45.1953626439
 20
113.5015891101
 30
0.0
 10
45.1129355458
 20
114.083883227
 30
0.0
 10
44.8046066087
 20
114.9334044052
 30
0.0
 10
44.3321155754
 20
115.7460484336
 30
0.0
 10
43.7344616679
 20
116.4557197701
 30
0.0
 10
43.0641729242
 20
117.0084350967
 30
0.0
 10
42.4622459811
 20
117.312425064
 30
0.0
 10
41.9939462095
 20
117.4242560457
 30
0.0
 10
41.6722672011
 20
117.4421928156
 30
0.0
 10
41.3735852289
 20
117.3955861427
 30
0.0
 10
41.1925349178
 20
117.3201388047
 30
0.0
 10
41.1104508679
 20
117.2727590598
 30
0.0
  0
SPLINE
  5
4E0
100
AcDbEntity
  8
0
100
AcDbSpline
 62
7
  6
CONTINUOUS
 70
0
 71
3
 72
17
 73
13
 74
0
 42
0.0000001
 43
0.0000001
 44
0.0000000001
 40
0.0
 40
0.0
 40
0.0
 40
0.0
 40
0.1242701546
 40
0.2606131265
 40
0.4032987491
 40
0.5452232276
 40
0.6794136506
 40
0.8002877082
 40
0.8550449522
 40
0.9061048756
 40
0.954078313
 40
1.0
 40
1.0
 40
1.0
 40
1.0
 10
85.1134479292
 20
91.0376891405
 30
0.0
 10
85.1134479292
 20
91.3145806682
 30
0.0
 10
85.0247077516
 20
91.8962903675
 30
0.0
 10
84.691161723
 20
92.736836891
 30
0.0
 10
84.1815237482
 20
93.5309390953
 30
0.0
 10
83.5385292013
 20
94.2145900437
 30
0.0
 10
82.8180425996
 20
94.7371930314
 30
0.0
 10
82.1752042822
 20
95.0117878476
 30
0.0
 10
81.6763277876
 20
95.1024251804
 30
0.0
 10
81.3317590726
 20
95.1063717469
 30
0.0
 10
81.0120364491
 20
95.0471144198
 30
0.0
 10
80.817622644
 20
94.9641087157
 30
0.0
 10
80.7290058261
 20
94.912957486
 30
0.0
  0
SPLINE
  5
4E1
100
AcDbEntity
  8
0
100
AcDbSpline
 62
7
  6
CONTINUOUS
 70
0
 71
3
 72
17
 73
13
 74
0
 42
0.0000001
 43
0.0000001
 44
0.0000000001
 40
0.0
 40
0.0
 40
0.0
 40
0.0
 40
0.1272145738
 40
0.2670269328
 40
0.4128095354
 40
0.5566428095
 40
0.6908649211
 40
0.8094737643
 40
0.8622887829
 40
0.9110157946
 40
0.9564772951
 40
1.0
 40
1.0
 40
1.0
 40
1.0
 10
76.8738783305
 20
94.9353758731
 30
0.0
 10
76.8738783305
 20
95.2124033076
 30
0.0
 10
76.7914512324
 20
95.7946974245
 30
0.0
 10
76.4831222953
 20
96.6442186027
 30
0.0
 10
76.0106312619
 20
97.456862631
 30
0.0
 10
75.4129773545
 20
98.1665339675
 30
0.0
 10
74.7426886108
 20
98.7192492942
 30
0.0
 10
74.1407616677
 20
99.0232392615
 30
0.0
 10
73.6724618961
 20
99.1350702432
 30
0.0
 10
73.3507828877
 20
99.1530070131
 30
0.0
 10
73.0521009155
 20
99.1064003402
 30
0.0
 10
72.8710506044
 20
99.0309530022
 30
0.0
 10
72.7889665545
 20
98.9835732573
 30
0.0
  0
SPLINE
  5
4E2
100
AcDbEntity
  8
0
100
AcDbSpline
 62
7
  6
CONTINUOUS
 70
0
 71
3
 72
11
 73
7
 74
0
 42
0.0000001
 43
0.0000001
 44
0.0000000001
 40
0.0
 40
0.0
 40
0.0
 40
0.0
 40
0.2300566793
 40
0.4675750196
 40
0.7224201888
 40
1.0
 40
1.0
 40
1.0
 40
1.0
 10
93.1389176553
 20
105.2031999561
 30
0.0
 10
93.2564387226
 20
105.270979093
 30
0.0
 10
93.4754859589
 20
105.4467062597
 30
0.0
 10
93.7161731116
 20
105.8051088937
 30
0.0
 10
93.8608859423
 20
106.2403657472
 30
0.0
 10
93.8900578039
 20
106.5556503867
 30
0.0
 10
93.8900578039
 20
106.7193408769
 30
0.0
  0
SPLINE
  5
4E3
100
AcDbEntity
  8
0
100
AcDbSpline
 62
7
  6
CONTINUOUS
 70
0
 71
3
 72
17
 73
13
 74
0
 42
0.0000001
 43
0.0000001
 44
0.0000000001
 40
0.0
 40
0.0
 40
0.0
 40
0.0
 40
0.1243763562
 40
0.2608330564
 40
0.4036443381
 40
0.5456770478
 40
0.6799090097
 40
0.8007263139
 40
0.8554060383
 40
0.9063596835
 40
0.9542085858
 40
1.0
 40
1.0
 40
1.0
 40
1.0
 10
62.2115421173
 20
125.0085266794
 30
0.0
 10
62.2115421173
 20
125.2811212691
 30
0.0
 10
62.1241447759
 20
125.8537756021
 30
0.0
 10
61.796180658
 20
126.6814210798
 30
0.0
 10
61.294871703
 20
127.4634175457
 30
0.0
 10
60.6628207495
 20
128.1370655322
 30
0.0
 10
59.9548638424
 20
128.6524271436
 30
0.0
 10
59.3233854903
 20
128.9239269153
 30
0.0
 10
58.8333870279
 20
129.0141014106
 30
0.0
 10
58.4951343063
 20
129.0186124984
 30
0.0
 10
58.1813305211
 20
128.9609189772
 30
0.0
 10
57.9905483242
 20
128.8796052047
 30
0.0
 10
57.9036250095
 20
128.8294395081
 30
0.0
  0
SPLINE
  5
4E4
100
AcDbEntity
  8
0
100
AcDbSpline
 62
7
  6
CONTINUOUS
 70
0
 71
3
 72
12
 73
8
 74
0
 42
0.0000001
 43
0.0000001
 44
0.0000000001
 40
0.0
 40
0.0
 40
0.0
 40
0.0
 40
0.2367108887
 40
0.4990009441
 40
0.7618725124
 40
0.8855493861
 40
1.0
 40
1.0
 40
1.0
 40
1.0
 10
51.5095521692
 20
130.260603093
 30
0.0
 10
51.5095521692
 20
130.6309570106
 30
0.0
 10
51.3665124648
 20
131.4123038666
 30
0.0
 10
50.8712475089
 20
132.5055383929
 30
0.0
 10
50.2565848461
 20
133.3261789493
 30
0.0
 10
49.6799848296
 20
133.8595678468
 30
0.0
 10
49.3732412462
 20
134.0741049993
 30
0.0
 10
49.2181633426
 20
134.1636372432
 30
0.0
  0
SPLINE
  5
4E5
100
AcDbEntity
  8
0
100
AcDbSpline
 62
7
  6
CONTINUOUS
 70
0
 71
3
 72
11
 73
7
 74
0
 42
0.0000001
 43
0.0000001
 44
0.0000000001
 40
0.0
 40
0.0
 40
0.0
 40
0.0
 40
0.2916783816
 40
0.5516864115
 40
0.7840505152
 40
1.0
 40
1.0
 40
1.0
 40
1.0
 10
49.2181633426
 20
134.1636372432
 30
0.0
 10
49.0780211991
 20
134.2445465171
 30
0.0
 10
48.8000176599
 20
134.3771693625
 30
0.0
 10
48.3741085101
 20
134.4823789174
 30
0.0
 10
47.9758424999
 20
134.4756176852
 30
0.0
 10
47.7361677825
 20
134.390031892
 30
0.0
 10
47.6323850445
 20
134.3301741154
 30
0.0
  0
SPLINE
  5
4E6
100
AcDbEntity
  8
0
100
AcDbSpline
 62
7
  6
CONTINUOUS
 70
0
 71
3
 72
17
 73
13
 74
0
 42
0.0000001
 43
0.0000001
 44
0.0000000001
 40
0.0
 40
0.0
 40
0.0
 40
0.0
 40
0.1339383576
 40
0.281559522
 40
0.4340971441
 40
0.5818567106
 40
0.7159162955
 40
0.8296029898
 40
0.8782257764
 40
0.9218679456
 40
0.9617925822
 40
1.0
 40
1.0
 40
1.0
 40
1.0
 10
41.9081245068
 20
136.1480856457
 30
0.0
 10
41.9081245068
 20
136.4239251711
 30
0.0
 10
41.8371999337
 20
137.0042362009
 30
0.0
 10
41.5762495272
 20
137.8627584389
 30
0.0
 10
41.1768440967
 20
138.6981275953
 30
0.0
 10
40.6734952676
 20
139.4420545748
 30
0.0
 10
40.1120278725
 20
140.0370480858
 30
0.0
 10
39.6040102786
 20
140.389699793
 30
0.0
 10
39.2054360205
 20
140.5408761057
 30
0.0
 10
38.9346341008
 20
140.5857523755
 30
0.0
 10
38.6817946151
 20
140.5649633462
 30
0.0
 10
38.5293161754
 20
140.5053496161
 30
0.0
 10
38.4611546056
 20
140.4660363003
 30
0.0
  0
SPLINE
  5
4E7
100
AcDbEntity
  8
0
100
AcDbSpline
 62
7
  6
CONTINUOUS
 70
0
 71
3
 72
17
 73
13
 74
0
 42
0.0000001
 43
0.0000001
 44
0.0000000001
 40
0.0
 40
0.0
 40
0.0
 40
0.0
 40
0.1243763562
 40
0.2608330564
 40
0.4036443381
 40
0.5456770478
 40
0.6799090097
 40
0.8007263139
 40
0.8554060383
 40
0.9063596835
 40
0.9542085858
 40
1.0
 40
1.0
 40
1.0
 40
1.0
 10
93.8900578039
 20
106.7193408769
 30
0.0
 10
93.8900578039
 20
106.9919354665
 30
0.0
 10
93.8026604625
 20
107.5645897996
 30
0.0
 10
93.4746963446
 20
108.3922352773
 30
0.0
 10
92.9733873896
 20
109.1742317432
 30
0.0
 10
92.3413364361
 20
109.8478797297
 30
0.0
 10
91.633379529
 20
110.3632413411
 30
0.0
 10
91.0019011769
 20
110.6347411127
 30
0.0
 10
90.5119027145
 20
110.7249156081
 30
0.0
 10
90.1736499929
 20
110.7294266959
 30
0.0
 10
89.8598462077
 20
110.6717331747
 30
0.0
 10
89.6690640108
 20
110.5904194022
 30
0.0
 10
89.5821406961
 20
110.5402537056
 30
0.0
  0
SPLINE
  5
4E8
100
AcDbEntity
  8
0
100
AcDbSpline
 62
7
  6
CONTINUOUS
 70
0
 71
3
 72
12
 73
8
 74
0
 42
0.0000001
 43
0.0000001
 44
0.0000000001
 40
0.0
 40
0.0
 40
0.0
 40
0.0
 40
0.2367108887
 40
0.4990009441
 40
0.7618725124
 40
0.8855493861
 40
1.0
 40
1.0
 40
1.0
 40
1.0
 10
83.1880678558
 20
111.9714172905
 30
0.0
 10
83.1880678558
 20
112.3417712081
 30
0.0
 10
83.0450281514
 20
113.1231180641
 30
0.0
 10
82.5497631955
 20
114.2163525904
 30
0.0
 10
81.9351005326
 20
115.0369931468
 30
0.0
 10
81.3585005162
 20
115.5703820443
 30
0.0
 10
81.0517569328
 20
115.7849191968
 30
0.0
 10
80.8966790292
 20
115.8744514407
 30
0.0
  0
SPLINE
  5
4E9
100
AcDbEntity
  8
0
100
AcDbSpline
 62
7
  6
CONTINUOUS
 70
0
 71
3
 72
11
 73
7
 74
0
 42
0.0000001
 43
0.0000001
 44
0.0000000001
 40
0.0
 40
0.0
 40
0.0
 40
0.0
 40
0.2916783816
 40
0.5516864115
 40
0.7840505152
 40
1.0
 40
1.0
 40
1.0
 40
1.0
 10
80.8966790292
 20
115.8744514407
 30
0.0
 10
80.7565368857
 20
115.9553607146
 30
0.0
 10
80.4785333465
 20
116.08798356
 30
0.0
 10
80.0526241967
 20
116.1931931149
 30
0.0
 10
79.6543581864
 20
116.1864318827
 30
0.0
 10
79.4146834691
 20
116.1008460895
 30
0.0
 10
79.3109007311
 20
116.0409883129
 30
0.0
  0
SPLINE
  5
4EA
100
AcDbEntity
  8
0
100
AcDbSpline
 62
7
  6
CONTINUOUS
 70
0
 71
3
 72
17
 73
13
 74
0
 42
0.0000001
 43
0.0000001
 44
0.0000000001
 40
0.0
 40
0.0
 40
0.0
 40
0.0
 40
0.1339383576
 40
0.281559522
 40
0.4340971441
 40
0.5818567106
 40
0.7159162955
 40
0.8296029898
 40
0.8782257764
 40
0.9218679456
 40
0.9617925822
 40
1.0
 40
1.0
 40
1.0
 40
1.0
 10
73.5866401934
 20
117.8588998432
 30
0.0
 10
73.5866401934
 20
118.1347393686
 30
0.0
 10
73.5157156203
 20
118.7150503984
 30
0.0
 10
73.2547652138
 20
119.5735726364
 30
0.0
 10
72.8553597833
 20
120.4089417927
 30
0.0
 10
72.3520109542
 20
121.1528687723
 30
0.0
 10
71.7905435591
 20
121.7478622833
 30
0.0
 10
71.2825259652
 20
122.1005139904
 30
0.0
 10
70.883951707
 20
122.2516903032
 30
0.0
 10
70.6131497874
 20
122.296566573
 30
0.0
 10
70.3603103017
 20
122.2757775437
 30
0.0
 10
70.207831862
 20
122.2161638136
 30
0.0
 10
70.1396702922
 20
122.1768504978
 30
0.0
  0
SPLINE
  5
4EB
100
AcDbEntity
  8
0
100
AcDbSpline
 62
7
  6
CONTINUOUS
 70
0
 71
3
 72
9
 73
5
 74
0
 42
0.0000001
 43
0.0000001
 44
0.0000000001
 40
0.0
 40
0.0
 40
0.0
 40
0.0
 40
0.2468095043
 40
1.0
 40
1.0
 40
1.0
 40
1.0
 10
71.6466883976
 20
125.5826494792
 30
0.0
 10
72.0456233509
 20
125.2830506664
 30
0.0
 10
73.671491188
 20
124.0818508996
 30
0.0
 10
75.3344715299
 20
122.9310027769
 30
0.0
 10
76.6048356182
 20
122.0918123227
 30
0.0
  0
SPLINE
  5
4EC
100
AcDbEntity
  8
0
100
AcDbSpline
 62
7
  6
CONTINUOUS
 70
0
 71
3
 72
17
 73
13
 74
0
 42
0.0000001
 43
0.0000001
 44
0.0000000001
 40
0.0
 40
0.0
 40
0.0
 40
0.0
 40
0.0428571351
 40
0.0874839364
 40
0.1353160071
 40
0.1872791416
 40
0.3045400115
 40
0.4382081091
 40
0.5825513186
 40
0.7297108723
 40
0.8713103985
 40
1.0
 40
1.0
 40
1.0
 40
1.0
 10
100.5998855093
 20
119.6708773436
 30
0.0
 10
100.5998569206
 20
119.5997132501
 30
0.0
 10
100.6189117128
 20
119.4538264013
 30
0.0
 10
100.7025540043
 20
119.2431770684
 30
0.0
 10
100.8383427349
 20
119.043483826
 30
0.0
 10
101.0938979788
 20
118.786958693
 30
0.0
 10
101.5294090564
 20
118.52185867
 30
0.0
 10
102.1555878407
 20
118.3126878253
 30
0.0
 10
102.8583126272
 20
118.2139329623
 30
0.0
 10
103.5806191084
 20
118.2339146962
 30
0.0
 10
104.2635341113
 20
118.3705471579
 30
0.0
 10
104.6825551038
 20
118.5434317348
 30
0.0
 10
104.867615103
 20
118.6502755374
 30
0.0
  0
SPLINE
  5
4ED
100
AcDbEntity
  8
0
100
AcDbSpline
 62
7
  6
CONTINUOUS
 70
0
 71
3
 72
9
 73
5
 74
0
 42
0.0000001
 43
0.0000001
 44
0.0000000001
 40
0.0
 40
0.0
 40
0.0
 40
0.0
 40
0.2468095043
 40
1.0
 40
1.0
 40
1.0
 40
1.0
 10
39.968172711
 20
143.8718352817
 30
0.0
 10
40.3671076643
 20
143.5722364689
 30
0.0
 10
41.9929755014
 20
142.3710367022
 30
0.0
 10
43.6559558433
 20
141.2201885794
 30
0.0
 10
44.9263199316
 20
140.3809981252
 30
0.0
  0
SPLINE
  5
4EE
100
AcDbEntity
  8
0
100
AcDbSpline
 62
7
  6
CONTINUOUS
 70
0
 71
3
 72
11
 73
7
 74
0
 42
0.0000001
 43
0.0000001
 44
0.0000000001
 40
0.0
 40
0.0
 40
0.0
 40
0.0
 40
0.2372428732
 40
0.4999994739
 40
0.7627563609
 40
1.0
 40
1.0
 40
1.0
 40
1.0
 10
48.8999359986
 20
144.3082020156
 30
0.0
 10
48.9501309915
 20
144.3371819353
 30
0.0
 10
49.0668592403
 20
144.3794652991
 30
0.0
 10
49.2534888333
 20
144.3997255494
 30
0.0
 10
49.440118708
 20
144.3794661508
 30
0.0
 10
49.5568474159
 20
144.3371833666
 30
0.0
 10
49.6070427798
 20
144.3082037153
 30
0.0
  0
SPLINE
  5
4EF
100
AcDbEntity
  8
0
100
AcDbSpline
 62
7
  6
CONTINUOUS
 70
0
 71
3
 72
11
 73
7
 74
0
 42
0.0000001
 43
0.0000001
 44
0.0000000001
 40
0.0
 40
0.0
 40
0.0
 40
0.0
 40
0.2372524156
 40
0.4999996414
 40
0.7627470637
 40
1.0
 40
1.0
 40
1.0
 40
1.0
 10
55.6880309746
 20
161.2910816657
 30
0.0
 10
55.8085038684
 20
161.3606363082
 30
0.0
 10
56.088645062
 20
161.4621494192
 30
0.0
 10
56.5365580242
 20
161.5106825117
 30
0.0
 10
56.9844715068
 20
161.4621513672
 30
0.0
 10
57.2646135896
 20
161.3606396713
 30
0.0
 10
57.3850872494
 20
161.2910857449
 30
0.0
  0
SPLINE
  5
4F0
100
AcDbEntity
  8
0
100
AcDbSpline
 62
7
  6
CONTINUOUS
 70
0
 71
3
 72
11
 73
7
 74
0
 42
0.0000001
 43
0.0000001
 44
0.0000000001
 40
0.0
 40
0.0
 40
0.0
 40
0.0
 40
0.2895421522
 40
0.5491196247
 40
0.782256727
 40
1.0
 40
1.0
 40
1.0
 40
1.0
 10
119.1864772273
 20
125.6108437999
 30
0.0
 10
119.2391018677
 20
125.5804616369
 30
0.0
 10
119.3345982168
 20
125.5146146405
 30
0.0
 10
119.4488308764
 20
125.3946908752
 30
0.0
 10
119.5211044223
 20
125.2619222325
 30
0.0
 10
119.5378854892
 20
125.1666479537
 30
0.0
 10
119.5378854791
 20
125.1209508157
 30
0.0
  0
SPLINE
  5
4F1
100
AcDbEntity
  8
0
100
AcDbSpline
 62
7
  6
CONTINUOUS
 70
0
 71
3
 72
11
 73
7
 74
0
 42
0.0000001
 43
0.0000001
 44
0.0000000001
 40
0.0
 40
0.0
 40
0.0
 40
0.0
 40
0.219596672
 40
0.4535863853
 40
0.7123567557
 40
1.0
 40
1.0
 40
1.0
 40
1.0
 10
82.5110782333
 20
110.4980839946
 30
0.0
 10
82.6184637873
 20
110.5599989593
 30
0.0
 10
82.8192998204
 20
110.7276659304
 30
0.0
 10
83.0342602764
 20
111.0739377489
 30
0.0
 10
83.1625476554
 20
111.499531556
 30
0.0
 10
83.1880678558
 20
111.8090508
 30
0.0
 10
83.1880678558
 20
111.9714172905
 30
0.0
  0
SPLINE
  5
4F2
100
AcDbEntity
  8
0
100
AcDbSpline
 62
7
  6
CONTINUOUS
 70
0
 71
3
 72
11
 73
7
 74
0
 42
0.0000001
 43
0.0000001
 44
0.0000000001
 40
0.0
 40
0.0
 40
0.0
 40
0.0
 40
0.2372405738
 40
0.5000004574
 40
0.7627600882
 40
1.0
 40
1.0
 40
1.0
 40
1.0
 10
61.5218013162
 20
141.9608154819
 30
0.0
 10
61.7225809673
 20
141.8448979186
 30
0.0
 10
62.1894898463
 20
141.6757475385
 30
0.0
 10
62.9360169303
 20
141.5947079849
 30
0.0
 10
63.6825429962
 20
141.6757508813
 30
0.0
 10
64.1494501859
 20
141.8449035929
 30
0.0
 10
64.3502284409
 20
141.9608222806
 30
0.0
  0
SPLINE
  5
4F3
100
AcDbEntity
  8
0
100
AcDbSpline
 62
7
  6
CONTINUOUS
 70
0
 71
3
 72
11
 73
7
 74
0
 42
0.0000001
 43
0.0000001
 44
0.0000000001
 40
0.0
 40
0.0
 40
0.0
 40
0.0
 40
0.2897048043
 40
0.5490913404
 40
0.7822177947
 40
1.0
 40
1.0
 40
1.0
 40
1.0
 10
67.1786437897
 20
143.593798896
 30
0.0
 10
67.2664010145
 20
143.644465251
 30
0.0
 10
67.4256147423
 20
143.7541267543
 30
0.0
 10
67.6158973293
 20
143.9541050832
 30
0.0
 10
67.7362638556
 20
144.1753295659
 30
0.0
 10
67.7644143738
 20
144.3341043821
 30
0.0
 10
67.7644143597
 20
144.4102804051
 30
0.0
  0
SPLINE
  5
4F4
100
AcDbEntity
  8
0
100
AcDbSpline
 62
7
  6
CONTINUOUS
 70
0
 71
3
 72
11
 73
7
 74
0
 42
0.0000001
 43
0.0000001
 44
0.0000000001
 40
0.0
 40
0.0
 40
0.0
 40
0.0
 40
0.2372405738
 40
0.5000004574
 40
0.7627600882
 40
1.0
 40
1.0
 40
1.0
 40
1.0
 10
71.4213374682
 20
136.2454449186
 30
0.0
 10
71.6221171194
 20
136.1295273553
 30
0.0
 10
72.0890259983
 20
135.9603769752
 30
0.0
 10
72.8355530824
 20
135.8793374216
 30
0.0
 10
73.5820791482
 20
135.960380318
 30
0.0
 10
74.0489863379
 20
136.1295330296
 30
0.0
 10
74.2497645929
 20
136.2454517173
 30
0.0
  0
SPLINE
  5
4F5
100
AcDbEntity
  8
0
100
AcDbSpline
 62
7
  6
CONTINUOUS
 70
0
 71
3
 72
11
 73
7
 74
0
 42
0.0000001
 43
0.0000001
 44
0.0000000001
 40
0.0
 40
0.0
 40
0.0
 40
0.0
 40
0.2897048043
 40
0.5490913404
 40
0.7822177947
 40
1.0
 40
1.0
 40
1.0
 40
1.0
 10
77.0781799418
 20
137.8784283328
 30
0.0
 10
77.1659371666
 20
137.9290946877
 30
0.0
 10
77.3251508943
 20
138.038756191
 30
0.0
 10
77.5154334814
 20
138.2387345199
 30
0.0
 10
77.6358000076
 20
138.4599590026
 30
0.0
 10
77.6639505259
 20
138.6187338188
 30
0.0
 10
77.6639505118
 20
138.6949098418
 30
0.0
  0
SPLINE
  5
4F6
100
AcDbEntity
  8
0
100
AcDbSpline
 62
7
  6
CONTINUOUS
 70
0
 71
3
 72
11
 73
7
 74
0
 42
0.0000001
 43
0.0000001
 44
0.0000000001
 40
0.0
 40
0.0
 40
0.0
 40
0.0
 40
0.2896428702
 40
0.5491125874
 40
0.7822368
 40
1.0
 40
1.0
 40
1.0
 40
1.0
 10
85.0685427989
 20
130.081016664
 30
0.0
 10
85.1782156688
 20
130.144335947
 30
0.0
 10
85.3772146856
 20
130.2814539647
 30
0.0
 10
85.6151070524
 20
130.5313822113
 30
0.0
 10
85.765638949
 20
130.8079354171
 30
0.0
 10
85.8006855177
 20
131.006407101
 30
0.0
 10
85.8007237669
 20
131.1016186303
 30
0.0
  0
SPLINE
  5
4F7
100
AcDbEntity
  8
0
100
AcDbSpline
 62
7
  6
CONTINUOUS
 70
0
 71
3
 72
11
 73
7
 74
0
 42
0.0000001
 43
0.0000001
 44
0.0000000001
 40
0.0
 40
0.0
 40
0.0
 40
0.0
 40
0.2896428702
 40
0.5491125874
 40
0.7822368
 40
1.0
 40
1.0
 40
1.0
 40
1.0
 10
94.9680789509
 20
124.3656461007
 30
0.0
 10
95.0777518209
 20
124.4289653837
 30
0.0
 10
95.2767508376
 20
124.5660834014
 30
0.0
 10
95.5146432045
 20
124.816011648
 30
0.0
 10
95.6651751011
 20
125.0925648538
 30
0.0
 10
95.7002216698
 20
125.2910365377
 30
0.0
 10
95.7002599189
 20
125.386248067
 30
0.0
  0
SPLINE
  5
4F8
100
AcDbEntity
  8
0
100
AcDbSpline
 62
7
  6
CONTINUOUS
 70
0
 71
3
 72
11
 73
7
 74
0
 42
0.0000001
 43
0.0000001
 44
0.0000000001
 40
0.0
 40
0.0
 40
0.0
 40
0.0
 40
0.2896428702
 40
0.5491125874
 40
0.7822368
 40
1.0
 40
1.0
 40
1.0
 40
1.0
 10
104.867615103
 20
118.6502755374
 30
0.0
 10
104.977287973
 20
118.7135948204
 30
0.0
 10
105.1762869897
 20
118.8507128381
 30
0.0
 10
105.4141793565
 20
119.1006410848
 30
0.0
 10
105.5647112531
 20
119.3771942905
 30
0.0
 10
105.5997578218
 20
119.5756659744
 30
0.0
 10
105.599796071
 20
119.6708775038
 30
0.0
  0
SPLINE
  5
4F9
100
AcDbEntity
  8
0
100
AcDbSpline
 62
7
  6
CONTINUOUS
 70
0
 71
3
 72
11
 73
7
 74
0
 42
0.0000001
 43
0.0000001
 44
0.0000000001
 40
0.0
 40
0.0
 40
0.0
 40
0.0
 40
0.2372405738
 40
0.5000004574
 40
0.7627600882
 40
1.0
 40
1.0
 40
1.0
 40
1.0
 10
51.6222651641
 20
147.6761860451
 30
0.0
 10
51.8230448153
 20
147.5602684819
 30
0.0
 10
52.2899536942
 20
147.3911181017
 30
0.0
 10
53.0364807783
 20
147.3100785482
 30
0.0
 10
53.7830068441
 20
147.3911214446
 30
0.0
 10
54.2499140338
 20
147.5602741562
 30
0.0
 10
54.4506922888
 20
147.6761928438
 30
0.0
  0
SPLINE
  5
4FA
100
AcDbEntity
  8
0
100
AcDbSpline
 62
7
  6
CONTINUOUS
 70
0
 71
3
 72
11
 73
7
 74
0
 42
0.0000001
 43
0.0000001
 44
0.0000000001
 40
0.0
 40
0.0
 40
0.0
 40
0.0
 40
0.2897048043
 40
0.5490913404
 40
0.7822177947
 40
1.0
 40
1.0
 40
1.0
 40
1.0
 10
57.2791076377
 20
149.3091694593
 30
0.0
 10
57.3668648625
 20
149.3598358143
 30
0.0
 10
57.5260785902
 20
149.4694973176
 30
0.0
 10
57.7163611773
 20
149.6694756465
 30
0.0
 10
57.8367277035
 20
149.8907001292
 30
0.0
 10
57.8648782218
 20
150.0494749454
 30
0.0
 10
57.8648782076
 20
150.1256509684
 30
0.0
  0
SPLINE
  5
4FB
100
AcDbEntity
  8
0
100
AcDbSpline
 62
7
  6
CONTINUOUS
 70
0
 71
3
 72
17
 73
13
 74
0
 42
0.0000001
 43
0.0000001
 44
0.0000000001
 40
0.0
 40
0.0
 40
0.0
 40
0.0
 40
0.0428571351
 40
0.0874839364
 40
0.1353160071
 40
0.1872791416
 40
0.3045400115
 40
0.4382081091
 40
0.5825513186
 40
0.7297108723
 40
0.8713103985
 40
1.0
 40
1.0
 40
1.0
 40
1.0
 10
90.7003493572
 20
125.3862479069
 30
0.0
 10
90.7003207686
 20
125.3150838134
 30
0.0
 10
90.7193755607
 20
125.1691969646
 30
0.0
 10
90.8030178522
 20
124.9585476317
 30
0.0
 10
90.9388065828
 20
124.7588543893
 30
0.0
 10
91.1943618267
 20
124.5023292563
 30
0.0
 10
91.6298729043
 20
124.2372292333
 30
0.0
 10
92.2560516886
 20
124.0280583886
 30
0.0
 10
92.9587764751
 20
123.9293035256
 30
0.0
 10
93.6810829563
 20
123.9492852595
 30
0.0
 10
94.3639979592
 20
124.0859177212
 30
0.0
 10
94.7830189517
 20
124.2588022981
 30
0.0
 10
94.9680789509
 20
124.3656461007
 30
0.0
  0
SPLINE
  5
4FC
100
AcDbEntity
  8
0
100
AcDbSpline
 62
7
  6
CONTINUOUS
 70
0
 71
3
 72
11
 73
7
 74
0
 42
0.0000001
 43
0.0000001
 44
0.0000000001
 40
0.0
 40
0.0
 40
0.0
 40
0.0
 40
0.2075552472
 40
0.4376794334
 40
0.7009362348
 40
1.0
 40
1.0
 40
1.0
 40
1.0
 10
72.98326728
 20
116.4280589264
 30
0.0
 10
73.0803033471
 20
116.4840109298
 30
0.0
 10
73.2623509202
 20
116.6439038759
 30
0.0
 10
73.451742947
 20
116.9771504302
 30
0.0
 10
73.5646023401
 20
117.3931398305
 30
0.0
 10
73.5866401934
 20
117.6975035565
 30
0.0
 10
73.5866401934
 20
117.8588998432
 30
0.0
  0
SPLINE
  5
4FD
100
AcDbEntity
  8
0
100
AcDbSpline
 62
7
  6
CONTINUOUS
 70
0
 71
3
 72
17
 73
13
 74
0
 42
0.0000001
 43
0.0000001
 44
0.0000000001
 40
0.0
 40
0.0
 40
0.0
 40
0.0
 40
0.0428571351
 40
0.0874839364
 40
0.1353160071
 40
0.1872791416
 40
0.3045400115
 40
0.4382081091
 40
0.5825513186
 40
0.7297108723
 40
0.8713103985
 40
1.0
 40
1.0
 40
1.0
 40
1.0
 10
80.8008132052
 20
131.1016184702
 30
0.0
 10
80.8007846165
 20
131.0304543767
 30
0.0
 10
80.8198394087
 20
130.8845675279
 30
0.0
 10
80.9034817002
 20
130.673918195
 30
0.0
 10
81.0392704308
 20
130.4742249525
 30
0.0
 10
81.2948256747
 20
130.2176998196
 30
0.0
 10
81.7303367522
 20
129.9525997966
 30
0.0
 10
82.3565155366
 20
129.7434289519
 30
0.0
 10
83.0592403231
 20
129.6446740889
 30
0.0
 10
83.7815468042
 20
129.6646558228
 30
0.0
 10
84.4644618072
 20
129.8012882845
 30
0.0
 10
84.8834827997
 20
129.9741728614
 30
0.0
 10
85.0685427989
 20
130.081016664
 30
0.0
  0
SPLINE
  5
4FE
100
AcDbEntity
  8
0
100
AcDbSpline
 62
7
  6
CONTINUOUS
 70
0
 71
3
 72
11
 73
7
 74
0
 42
0.0000001
 43
0.0000001
 44
0.0000000001
 40
0.0
 40
0.0
 40
0.0
 40
0.0
 40
0.2300566793
 40
0.4675750196
 40
0.7224201888
 40
1.0
 40
1.0
 40
1.0
 40
1.0
 10
61.4604019687
 20
123.4923857586
 30
0.0
 10
61.577923036
 20
123.5601648955
 30
0.0
 10
61.7969702723
 20
123.7358920622
 30
0.0
 10
62.037657425
 20
124.0942946962
 30
0.0
 10
62.1823702558
 20
124.5295515497
 30
0.0
 10
62.2115421173
 20
124.8448361893
 30
0.0
 10
62.2115421173
 20
125.0085266794
 30
0.0
  0
SPLINE
  5
4FF
100
AcDbEntity
  8
0
100
AcDbSpline
 62
7
  6
CONTINUOUS
 70
0
 71
3
 72
11
 73
7
 74
0
 42
0.0000001
 43
0.0000001
 44
0.0000000001
 40
0.0
 40
0.0
 40
0.0
 40
0.0
 40
0.2177817009
 40
0.4509079353
 40
0.7102947134
 40
1.0
 40
1.0
 40
1.0
 40
1.0
 10
68.5020930294
 20
138.4091277162
 30
0.0
 10
68.5020930435
 20
138.3329508887
 30
0.0
 10
68.530244154
 20
138.1741742675
 30
0.0
 10
68.6506132817
 20
137.9529476314
 30
0.0
 10
68.8408997579
 20
137.7529678298
 30
0.0
 10
69.0001165088
 20
137.6433058674
 30
0.0
 10
69.0878753752
 20
137.5926394085
 30
0.0
  0
SPLINE
  5
500
100
AcDbEntity
  8
0
100
AcDbSpline
 62
7
  6
CONTINUOUS
 70
0
 71
3
 72
11
 73
7
 74
0
 42
0.0000001
 43
0.0000001
 44
0.0000000001
 40
0.0
 40
0.0
 40
0.0
 40
0.0
 40
0.219596672
 40
0.4535863853
 40
0.7123567557
 40
1.0
 40
1.0
 40
1.0
 40
1.0
 10
50.8325625467
 20
128.7872697971
 30
0.0
 10
50.9399481007
 20
128.8491847618
 30
0.0
 10
51.1407841338
 20
129.0168517329
 30
0.0
 10
51.3557445898
 20
129.3631235514
 30
0.0
 10
51.4840319689
 20
129.7887173585
 30
0.0
 10
51.5095521692
 20
130.0982366025
 30
0.0
 10
51.5095521692
 20
130.260603093
 30
0.0
  0
SPLINE
  5
501
100
AcDbEntity
  8
0
100
AcDbSpline
 62
7
  6
CONTINUOUS
 70
0
 71
3
 72
11
 73
7
 74
0
 42
0.0000001
 43
0.0000001
 44
0.0000000001
 40
0.0
 40
0.0
 40
0.0
 40
0.0
 40
0.2177817009
 40
0.4509079353
 40
0.7102947134
 40
1.0
 40
1.0
 40
1.0
 40
1.0
 10
58.6025568773
 20
144.1244982795
 30
0.0
 10
58.6025568915
 20
144.048321452
 30
0.0
 10
58.6307080019
 20
143.8895448308
 30
0.0
 10
58.7510771296
 20
143.6683181946
 30
0.0
 10
58.9413636058
 20
143.4683383931
 30
0.0
 10
59.1005803568
 20
143.3586764307
 30
0.0
 10
59.1883392232
 20
143.3080099718
 30
0.0
  0
SPLINE
  5
502
100
AcDbEntity
  8
0
100
AcDbSpline
 62
7
  6
CONTINUOUS
 70
0
 71
3
 72
9
 73
5
 74
0
 42
0.0000001
 43
0.0000001
 44
0.0000000001
 40
0.0
 40
0.0
 40
0.0
 40
0.0
 40
0.4863368177
 40
1.0
 40
1.0
 40
1.0
 40
1.0
 10
93.1389612475
 20
55.396487517
 30
0.0
 10
93.2874705202
 20
55.4821606675
 30
0.0
 10
93.5604314854
 20
55.7208530797
 30
0.0
 10
93.7249066842
 20
56.0415927429
 30
0.0
 10
93.7827318153
 20
56.2131947213
 30
0.0
  0
SPLINE
  5
503
100
AcDbEntity
  8
0
100
AcDbSpline
 62
7
  6
CONTINUOUS
 70
0
 71
3
 72
11
 73
7
 74
0
 42
0.0000001
 43
0.0000001
 44
0.0000000001
 40
0.0
 40
0.0
 40
0.0
 40
0.0
 40
0.2177434119
 40
0.4508805377
 40
0.710457812
 40
1.0
 40
1.0
 40
1.0
 40
1.0
 10
88.6271701132
 20
98.6651206933
 30
0.0
 10
88.627170125
 20
98.6270397199
 30
0.0
 10
88.6411543223
 20
98.547644453
 30
0.0
 10
88.701382331
 20
98.4370039496
 30
0.0
 10
88.7965761433
 20
98.3370674479
 30
0.0
 10
88.8761564499
 20
98.2821950117
 30
0.0
 10
88.920010323
 20
98.256876539
 30
0.0
  0
SPLINE
  5
504
100
AcDbEntity
  8
0
100
AcDbSpline
 62
7
  6
CONTINUOUS
 70
0
 71
3
 72
11
 73
7
 74
0
 42
0.0000001
 43
0.0000001
 44
0.0000000001
 40
0.0
 40
0.0
 40
0.0
 40
0.0
 40
0.2301567268
 40
0.4676919448
 40
0.7224958345
 40
1.0
 40
1.0
 40
1.0
 40
1.0
 10
84.3500221063
 20
89.4975403478
 30
0.0
 10
84.4694698932
 20
89.5664305636
 30
0.0
 10
84.6920948934
 20
89.7449611055
 30
0.0
 10
84.9367348937
 20
90.1090627855
 30
0.0
 10
85.0838032025
 20
90.5511877606
 30
0.0
 10
85.1134479292
 20
90.8714327234
 30
0.0
 10
85.1134479292
 20
91.0376891405
 30
0.0
  0
SPLINE
  5
505
100
AcDbEntity
  8
0
100
AcDbSpline
 62
7
  6
CONTINUOUS
 70
0
 71
3
 72
11
 73
7
 74
0
 42
0.0000001
 43
0.0000001
 44
0.0000000001
 40
0.0
 40
0.0
 40
0.0
 40
0.0
 40
0.2301605617
 40
0.4676962837
 40
0.7224796037
 40
1.0
 40
1.0
 40
1.0
 40
1.0
 10
84.3500819379
 20
57.7355076973
 30
0.0
 10
84.4695006212
 20
57.8044499672
 30
0.0
 10
84.6919512193
 20
57.9831732921
 30
0.0
 10
84.9367099632
 20
58.3471279534
 30
0.0
 10
85.0839273334
 20
58.7892286832
 30
0.0
 10
85.1134479292
 20
59.1094807686
 30
0.0
 10
85.1134479292
 20
59.2757451142
 30
0.0
  0
SPLINE
  5
506
100
AcDbEntity
  8
0
100
AcDbSpline
 62
7
  6
CONTINUOUS
 70
0
 71
3
 72
17
 73
13
 74
0
 42
0.0000001
 43
0.0000001
 44
0.0000000001
 40
0.0
 40
0.0
 40
0.0
 40
0.0
 40
0.0372356204
 40
0.0761490052
 40
0.1189311121
 40
0.1669556308
 40
0.28000119
 40
0.4140576836
 40
0.5625175618
 40
0.7161530684
 40
0.8649734217
 40
1.0
 40
1.0
 40
1.0
 40
1.0
 10
81.9674691318
 20
165.0499660618
 30
0.0
 10
81.9675836421
 20
164.9903931715
 30
0.0
 10
81.9865744424
 20
164.8678310446
 30
0.0
 10
82.0706508002
 20
164.6945020455
 30
0.0
 10
82.2068582667
 20
164.5354690327
 30
0.0
 10
82.465781419
 20
164.3344718858
 30
0.0
 10
82.9024889439
 20
164.1398320608
 30
0.0
 10
83.5229501332
 20
164.0022994411
 30
0.0
 10
84.2223416923
 20
163.9622730076
 30
0.0
 10
84.943721613
 20
164.0235637744
 30
0.0
 10
85.626878665
 20
164.1869575872
 30
0.0
 10
86.0479160602
 20
164.3664714166
 30
0.0
 10
86.2350021173
 20
164.4744849573
 30
0.0
  0
SPLINE
  5
507
100
AcDbEntity
  8
0
100
AcDbSpline
 62
7
  6
CONTINUOUS
 70
0
 71
3
 72
14
 73
10
 74
0
 42
0.0000001
 43
0.0000001
 44
0.0000000001
 40
0.0
 40
0.0
 40
0.0
 40
0.0
 40
0.1014522717
 40
0.2164200127
 40
0.3430319767
 40
0.4776334762
 40
0.7511648443
 40
0.8809213926
 40
1.0
 40
1.0
 40
1.0
 40
1.0
 10
103.4816589374
 20
149.9965700019
 30
0.0
 10
103.3548955884
 20
150.022580906
 30
0.0
 10
103.0925850002
 20
150.1192621312
 30
0.0
 10
102.7221991398
 20
150.3564862716
 30
0.0
 10
102.366736939
 20
150.6820766014
 30
0.0
 10
101.9363233436
 20
151.2131930191
 30
0.0
 10
101.6138508948
 20
151.830670698
 30
0.0
 10
101.436405364
 20
152.4747117785
 30
0.0
 10
101.4025072306
 20
152.792511117
 30
0.0
 10
101.40251632
 20
152.9443983284
 30
0.0
  0
SPLINE
  5
508
100
AcDbEntity
  8
0
100
AcDbSpline
 62
7
  6
CONTINUOUS
 70
0
 71
3
 72
11
 73
7
 74
0
 42
0.0000001
 43
0.0000001
 44
0.0000000001
 40
0.0
 40
0.0
 40
0.0
 40
0.0
 40
0.2177660095
 40
0.4508968554
 40
0.7103699669
 40
1.0
 40
1.0
 40
1.0
 40
1.0
 10
103.057828699
 20
149.4659827673
 30
0.0
 10
103.1320253507
 20
149.5088592761
 30
0.0
 10
103.2709624861
 20
149.6254860332
 30
0.0
 10
103.4187778829
 20
149.8672805047
 30
0.0
 10
103.5065294891
 20
150.1651748932
 30
0.0
 10
103.5238543273
 20
150.3819862704
 30
0.0
 10
103.5238543273
 20
150.4959603721
 30
0.0
  0
SPLINE
  5
509
100
AcDbEntity
  8
0
100
AcDbSpline
 62
7
  6
CONTINUOUS
 70
0
 71
3
 72
14
 73
10
 74
0
 42
0.0000001
 43
0.0000001
 44
0.0000000001
 40
0.0
 40
0.0
 40
0.0
 40
0.0
 40
0.1014522452
 40
0.2164199934
 40
0.3430319592
 40
0.4776334612
 40
0.7511648371
 40
0.8809213893
 40
1.0
 40
1.0
 40
1.0
 40
1.0
 10
135.1601746188
 20
131.7073842349
 30
0.0
 10
135.0334113012
 20
131.7333951213
 30
0.0
 10
134.7711007209
 20
131.8300762941
 30
0.0
 10
134.4007148822
 20
132.0673004308
 30
0.0
 10
134.0452526625
 20
132.392890756
 30
0.0
 10
133.6148390535
 20
132.9240071805
 30
0.0
 10
133.2923665909
 20
133.541484869
 30
0.0
 10
133.1149210522
 20
134.1855259645
 30
0.0
 10
133.0810229172
 20
134.5033253109
 30
0.0
 10
133.0810320065
 20
134.6552125258
 30
0.0
  0
SPLINE
  5
50A
100
AcDbEntity
  8
0
100
AcDbSpline
 62
7
  6
CONTINUOUS
 70
0
 71
3
 72
11
 73
7
 74
0
 42
0.0000001
 43
0.0000001
 44
0.0000000001
 40
0.0
 40
0.0
 40
0.0
 40
0.0
 40
0.2177660095
 40
0.4508968554
 40
0.7103699669
 40
1.0
 40
1.0
 40
1.0
 40
1.0
 10
134.7363443856
 20
131.1767969648
 30
0.0
 10
134.8105410373
 20
131.2196734735
 30
0.0
 10
134.9494781727
 20
131.3363002307
 30
0.0
 10
135.0972935695
 20
131.5780947021
 30
0.0
 10
135.1850451757
 20
131.8759890907
 30
0.0
 10
135.2023700139
 20
132.0928004679
 30
0.0
 10
135.2023700139
 20
132.2067745696
 30
0.0
  0
SPLINE
  5
50B
100
AcDbEntity
  8
0
100
AcDbSpline
 62
7
  6
CONTINUOUS
 70
0
 71
3
 72
14
 73
10
 74
0
 42
0.0000001
 43
0.0000001
 44
0.0000000001
 40
0.0
 40
0.0
 40
0.0
 40
0.0
 40
0.0947197003
 40
0.197210365
 40
0.3105442011
 40
0.4351955067
 40
0.5696841971
 40
0.7111688898
 40
1.0
 40
1.0
 40
1.0
 40
1.0
 10
96.81657722
 20
156.8590903988
 30
0.0
 10
96.8165432578
 20
156.7411503944
 30
0.0
 10
96.8603447589
 20
156.4942617919
 30
0.0
 10
97.0413595543
 20
156.1474174365
 30
0.0
 10
97.3250715375
 20
155.82776317
 30
0.0
 10
97.6971253248
 20
155.5467875219
 30
0.0
 10
98.1412923609
 20
155.3150562818
 30
0.0
 10
98.8070199126
 20
155.0837325691
 30
0.0
 10
99.3475353302
 20
155.0134403066
 30
0.0
 10
99.7071353599
 20
155.0186225596
 30
0.0
  0
SPLINE
  5
50C
100
AcDbEntity
  8
0
100
AcDbSpline
 62
7
  6
CONTINUOUS
 70
0
 71
3
 72
17
 73
13
 74
0
 42
0.0000001
 43
0.0000001
 44
0.0000000001
 40
0.0
 40
0.0
 40
0.0
 40
0.0
 40
0.0372356204
 40
0.0761490052
 40
0.1189311121
 40
0.1669556308
 40
0.28000119
 40
0.4140576836
 40
0.5625175618
 40
0.7161530684
 40
0.8649734217
 40
1.0
 40
1.0
 40
1.0
 40
1.0
 10
113.6459848184
 20
146.7607802593
 30
0.0
 10
113.6460993286
 20
146.7012073689
 30
0.0
 10
113.665090129
 20
146.5786452421
 30
0.0
 10
113.7491664868
 20
146.405316243
 30
0.0
 10
113.8853739533
 20
146.2462832302
 30
0.0
 10
114.1442971056
 20
146.0452860833
 30
0.0
 10
114.5810046305
 20
145.8506462583
 30
0.0
 10
115.2014658198
 20
145.7131136386
 30
0.0
 10
115.9008573789
 20
145.6730872051
 30
0.0
 10
116.6222372996
 20
145.7343779718
 30
0.0
 10
117.3053943515
 20
145.8977717846
 30
0.0
 10
117.7264317468
 20
146.0772856141
 30
0.0
 10
117.9135178039
 20
146.1852991548
 30
0.0
  0
SPLINE
  5
50D
100
AcDbEntity
  8
0
100
AcDbSpline
 62
7
  6
CONTINUOUS
 70
0
 71
3
 72
14
 73
10
 74
0
 42
0.0000001
 43
0.0000001
 44
0.0000000001
 40
0.0
 40
0.0
 40
0.0
 40
0.0
 40
0.0947197003
 40
0.197210365
 40
0.3105442011
 40
0.4351955067
 40
0.5696841971
 40
0.7111688898
 40
1.0
 40
1.0
 40
1.0
 40
1.0
 10
128.4950929066
 20
138.5699045962
 30
0.0
 10
128.4950589443
 20
138.4519645919
 30
0.0
 10
128.5388604455
 20
138.2050759893
 30
0.0
 10
128.7198752409
 20
137.858231634
 30
0.0
 10
129.003587224
 20
137.5385773675
 30
0.0
 10
129.3756410114
 20
137.2576017194
 30
0.0
 10
129.8198080474
 20
137.0258704792
 30
0.0
 10
130.4855355992
 20
136.7945467666
 30
0.0
 10
131.0260510168
 20
136.7242545041
 30
0.0
 10
131.3856510465
 20
136.7294367571
 30
0.0
  0
SPLINE
  5
50E
100
AcDbEntity
  8
0
100
AcDbSpline
 62
7
  6
CONTINUOUS
 70
0
 71
3
 72
11
 73
7
 74
0
 42
0.0000001
 43
0.0000001
 44
0.0000000001
 40
0.0
 40
0.0
 40
0.0
 40
0.0
 40
0.217650076
 40
0.4507649789
 40
0.7102591309
 40
1.0
 40
1.0
 40
1.0
 40
1.0
 10
141.6115122591
 20
78.1258410185
 30
0.0
 10
141.6776719289
 20
78.1640569002
 30
0.0
 10
141.8014515399
 20
78.2682637196
 30
0.0
 10
141.9329068817
 20
78.4841630881
 30
0.0
 10
142.010554256
 20
78.7501423941
 30
0.0
 10
142.0256653426
 20
78.9435960929
 30
0.0
 10
142.025636982
 20
79.0453067431
 30
0.0
  0
SPLINE
  5
50F
100
AcDbEntity
  8
0
100
AcDbSpline
 62
7
  6
CONTINUOUS
 70
0
 71
3
 72
9
 73
5
 74
0
 42
0.0000001
 43
0.0000001
 44
0.0000000001
 40
0.0
 40
0.0
 40
0.0
 40
0.0
 40
0.4723525067
 40
1.0
 40
1.0
 40
1.0
 40
1.0
 10
136.6617853964
 20
75.268131945
 30
0.0
 10
136.5739130113
 20
75.2173740884
 30
0.0
 10
136.3601341926
 20
75.1543926613
 30
0.0
 10
136.1420797464
 20
75.1815602732
 30
0.0
 10
136.0324883485
 20
75.2105390718
 30
0.0
  0
SPLINE
  5
510
100
AcDbEntity
  8
0
100
AcDbSpline
 62
7
  6
CONTINUOUS
 70
0
 71
3
 72
11
 73
7
 74
0
 42
0.0000001
 43
0.0000001
 44
0.0000000001
 40
0.0
 40
0.0
 40
0.0
 40
0.0
 40
0.2372423294
 40
0.4999983821
 40
0.7627553152
 40
1.0
 40
1.0
 40
1.0
 40
1.0
 10
141.3188338088
 20
84.7038711494
 30
0.0
 10
141.2686388717
 20
84.6748912619
 30
0.0
 10
141.1736561509
 20
84.5949435411
 30
0.0
 10
141.0627959117
 20
84.4434473463
 30
0.0
 10
140.9870271417
 20
84.2716905406
 30
0.0
 10
140.9652818902
 20
84.1494584737
 30
0.0
 10
140.9652818902
 20
84.0914978639
 30
0.0
  0
SPLINE
  5
511
100
AcDbEntity
  8
0
100
AcDbSpline
 62
7
  6
CONTINUOUS
 70
0
 71
3
 72
11
 73
7
 74
0
 42
0.0000001
 43
0.0000001
 44
0.0000000001
 40
0.0
 40
0.0
 40
0.0
 40
0.0
 40
0.2177438688
 40
0.4508811915
 40
0.7104582954
 40
1.0
 40
1.0
 40
1.0
 40
1.0
 10
35.9619846487
 20
149.6153029438
 30
0.0
 10
35.9619846588
 20
149.6609996189
 30
0.0
 10
35.9787653129
 20
149.7562728404
 30
0.0
 10
36.0510373596
 20
149.8890401599
 30
0.0
 10
36.1652676185
 20
150.0089630728
 30
0.0
 10
36.260762172
 20
150.074809745
 30
0.0
 10
36.3133858349
 20
150.1051918496
 30
0.0
  0
SPLINE
  5
512
100
AcDbEntity
  8
0
100
AcDbSpline
 62
7
  6
CONTINUOUS
 70
0
 71
3
 72
11
 73
7
 74
0
 42
0.0000001
 43
0.0000001
 44
0.0000000001
 40
0.0
 40
0.0
 40
0.0
 40
0.0
 40
0.2075552472
 40
0.4376794334
 40
0.7009362348
 40
1.0
 40
1.0
 40
1.0
 40
1.0
 10
41.3047515934
 20
134.7172447289
 30
0.0
 10
41.4017876605
 20
134.7731967323
 30
0.0
 10
41.5838352336
 20
134.9330896784
 30
0.0
 10
41.7732272604
 20
135.2663362327
 30
0.0
 10
41.8860866535
 20
135.682325633
 30
0.0
 10
41.9081245068
 20
135.986689359
 30
0.0
 10
41.9081245068
 20
136.1480856457
 30
0.0
  0
SPLINE
  5
513
100
AcDbEntity
  8
0
100
AcDbSpline
 62
7
  6
CONTINUOUS
 70
0
 71
3
 72
11
 73
7
 74
0
 42
0.0000001
 43
0.0000001
 44
0.0000000001
 40
0.0
 40
0.0
 40
0.0
 40
0.0
 40
0.2177817009
 40
0.4509079353
 40
0.7102947134
 40
1.0
 40
1.0
 40
1.0
 40
1.0
 10
48.7030207253
 20
149.8398688428
 30
0.0
 10
48.7030207394
 20
149.7636920153
 30
0.0
 10
48.7311718499
 20
149.6049153941
 30
0.0
 10
48.8515409776
 20
149.3836887579
 30
0.0
 10
49.0418274538
 20
149.1837089563
 30
0.0
 10
49.2010442047
 20
149.074046994
 30
0.0
 10
49.2888030711
 20
149.0233805351
 30
0.0
  0
SPLINE
  5
514
100
AcDbEntity
  8
0
100
AcDbSpline
 62
7
  6
CONTINUOUS
 70
0
 71
3
 72
11
 73
7
 74
0
 42
0.0000001
 43
0.0000001
 44
0.0000000001
 40
0.0
 40
0.0
 40
0.0
 40
0.0
 40
0.3006687839
 40
0.5648205889
 40
0.794437645
 40
1.0
 40
1.0
 40
1.0
 40
1.0
 10
117.9135178039
 20
146.1852991548
 30
0.0
 10
118.0225824495
 20
146.2482672814
 30
0.0
 10
118.219505663
 20
146.381699567
 30
0.0
 10
118.4567663329
 20
146.6185350872
 30
0.0
 10
118.6088446642
 20
146.8735035527
 30
0.0
 10
118.6457379587
 20
147.0569314643
 30
0.0
 10
118.6456818765
 20
147.1430323986
 30
0.0
  0
SPLINE
  5
515
100
AcDbEntity
  8
0
100
AcDbSpline
 62
7
  6
CONTINUOUS
 70
0
 71
3
 72
9
 73
5
 74
0
 42
0.0000001
 43
0.0000001
 44
0.0000000001
 40
0.0
 40
0.0
 40
0.0
 40
0.0
 40
0.2458722236
 40
1.0
 40
1.0
 40
1.0
 40
1.0
 10
133.4334473402
 20
137.8282638089
 30
0.0
 10
133.4364916159
 20
137.8364158993
 30
0.0
 10
133.4483630459
 20
137.8697605658
 30
0.0
 10
133.4581711267
 20
137.9038349309
 30
0.0
 10
133.4644402792
 20
137.9297784788
 30
0.0
  0
SPLINE
  5
516
100
AcDbEntity
  8
0
100
AcDbSpline
 62
7
  6
CONTINUOUS
 70
0
 71
3
 72
9
 73
5
 74
0
 42
0.0000001
 43
0.0000001
 44
0.0000000001
 40
0.0
 40
0.0
 40
0.0
 40
0.0
 40
0.2544437545
 40
1.0
 40
1.0
 40
1.0
 40
1.0
 10
115.8932509723
 20
149.6096081352
 30
0.0
 10
115.5169384605
 20
149.7464588392
 30
0.0
 10
114.0322838007
 20
150.2684515888
 30
0.0
 10
112.5247316113
 20
150.7258283516
 30
0.0
 10
111.3904183786
 20
151.0257663123
 30
0.0
  0
SPLINE
  5
517
100
AcDbEntity
  8
0
100
AcDbSpline
 62
7
  6
CONTINUOUS
 70
0
 71
3
 72
9
 73
5
 74
0
 42
0.0000001
 43
0.0000001
 44
0.0000000001
 40
0.0
 40
0.0
 40
0.0
 40
0.0
 40
0.5276476192
 40
1.0
 40
1.0
 40
1.0
 40
1.0
 10
111.3904183786
 20
151.0257663123
 30
0.0
 10
111.2808274953
 20
151.0547446096
 30
0.0
 10
111.0627748087
 20
151.0819105277
 30
0.0
 10
110.8489958299
 20
151.018931789
 30
0.0
 10
110.761125008
 20
150.9681724488
 30
0.0
  0
SPLINE
  5
518
100
AcDbEntity
  8
0
100
AcDbSpline
 62
7
  6
CONTINUOUS
 70
0
 71
3
 72
9
 73
5
 74
0
 42
0.0000001
 43
0.0000001
 44
0.0000000001
 40
0.0
 40
0.0
 40
0.0
 40
0.0
 40
0.2544437545
 40
1.0
 40
1.0
 40
1.0
 40
1.0
 10
84.2147352857
 20
167.8987939377
 30
0.0
 10
83.838422774
 20
168.0356446417
 30
0.0
 10
82.3537681141
 20
168.5576373914
 30
0.0
 10
80.8462159247
 20
169.0150141541
 30
0.0
 10
79.711902692
 20
169.3149521149
 30
0.0
  0
SPLINE
  5
519
100
AcDbEntity
  8
0
100
AcDbSpline
 62
7
  6
CONTINUOUS
 70
0
 71
3
 72
9
 73
5
 74
0
 42
0.0000001
 43
0.0000001
 44
0.0000000001
 40
0.0
 40
0.0
 40
0.0
 40
0.0
 40
0.5276476192
 40
1.0
 40
1.0
 40
1.0
 40
1.0
 10
79.711902692
 20
169.3149521149
 30
0.0
 10
79.6023118088
 20
169.3439304121
 30
0.0
 10
79.3842591221
 20
169.3710963302
 30
0.0
 10
79.1704801434
 20
169.3081175915
 30
0.0
 10
79.0826093214
 20
169.2573582513
 30
0.0
  0
SPLINE
  5
51A
100
AcDbEntity
  8
0
100
AcDbSpline
 62
7
  6
CONTINUOUS
 70
0
 71
3
 72
16
 73
12
 74
0
 42
0.0000001
 43
0.0000001
 44
0.0000000001
 40
0.0
 40
0.0
 40
0.0
 40
0.0
 40
0.2438799414
 40
0.3720775725
 40
0.5022530168
 40
0.6328452963
 40
0.7616493647
 40
0.824516825
 40
0.885373068
 40
0.9437331989
 40
1.0
 40
1.0
 40
1.0
 40
1.0
 10
114.4990531201
 20
145.9155839995
 30
0.0
 10
114.6442963357
 20
145.9913794268
 30
0.0
 10
114.8745789424
 20
146.0921027988
 30
0.0
 10
115.1999680816
 20
146.1833853827
 30
0.0
 10
115.459574119
 20
146.221120311
 30
0.0
 10
115.7227624154
 20
146.2128539692
 30
0.0
 10
115.934498835
 20
146.1516819344
 30
0.0
 10
116.0793786345
 20
146.0612895944
 30
0.0
 10
116.1669252926
 20
145.9740247336
 30
0.0
 10
116.2255790567
 20
145.8697870611
 30
0.0
 10
116.2397997015
 20
145.792228413
 30
0.0
 10
116.2397997015
 20
145.7544301576
 30
0.0
  0
SPLINE
  5
51B
100
AcDbEntity
  8
0
100
AcDbSpline
 62
7
  6
CONTINUOUS
 70
0
 71
3
 72
16
 73
12
 74
0
 42
0.0000001
 43
0.0000001
 44
0.0000000001
 40
0.0
 40
0.0
 40
0.0
 40
0.0
 40
0.2445316506
 40
0.3728081011
 40
0.5029499325
 40
0.6334196226
 40
0.7620280048
 40
0.824774064
 40
0.8855122012
 40
0.9437830308
 40
1.0
 40
1.0
 40
1.0
 40
1.0
 10
129.3694217257
 20
137.3532618207
 30
0.0
 10
129.5137833907
 20
137.4275316664
 30
0.0
 10
129.7425046795
 20
137.5257538589
 30
0.0
 10
130.0652241568
 20
137.6136174483
 30
0.0
 10
130.3220656953
 20
137.6486849299
 30
0.0
 10
130.5818644108
 20
137.6380820041
 30
0.0
 10
130.7902327265
 20
137.5756742164
 30
0.0
 10
130.9323422174
 20
137.4851961728
 30
0.0
 10
131.0180036395
 20
137.3984284836
 30
0.0
 10
131.0752548376
 20
137.2952450273
 30
0.0
 10
131.0891039296
 20
137.2186971432
 30
0.0
 10
131.0891039296
 20
137.1813743127
 30
0.0
  0
SPLINE
  5
51C
100
AcDbEntity
  8
0
100
AcDbSpline
 62
7
  6
CONTINUOUS
 70
0
 71
3
 72
11
 73
7
 74
0
 42
0.0000001
 43
0.0000001
 44
0.0000000001
 40
0.0
 40
0.0
 40
0.0
 40
0.0
 40
0.3006687839
 40
0.5648205889
 40
0.794437645
 40
1.0
 40
1.0
 40
1.0
 40
1.0
 10
86.2350021173
 20
164.4744849573
 30
0.0
 10
86.3440667629
 20
164.5374530839
 30
0.0
 10
86.5409899764
 20
164.6708853695
 30
0.0
 10
86.7782506463
 20
164.9077208897
 30
0.0
 10
86.9303289776
 20
165.1626893552
 30
0.0
 10
86.9672222721
 20
165.3461172668
 30
0.0
 10
86.9671661899
 20
165.4322182011
 30
0.0
  0
SPLINE
  5
51D
100
AcDbEntity
  8
0
100
AcDbSpline
 62
7
  6
CONTINUOUS
 70
0
 71
3
 72
9
 73
5
 74
0
 42
0.0000001
 43
0.0000001
 44
0.0000000001
 40
0.0
 40
0.0
 40
0.0
 40
0.0
 40
0.2458722236
 40
1.0
 40
1.0
 40
1.0
 40
1.0
 10
101.7549316536
 20
156.1174496114
 30
0.0
 10
101.7579759293
 20
156.1256017018
 30
0.0
 10
101.7698473593
 20
156.1589463683
 30
0.0
 10
101.7796554402
 20
156.1930207334
 30
0.0
 10
101.7859245926
 20
156.2189642813
 30
0.0
  0
SPLINE
  5
51E
100
AcDbEntity
  8
0
100
AcDbSpline
 62
7
  6
CONTINUOUS
 70
0
 71
3
 72
16
 73
12
 74
0
 42
0.0000001
 43
0.0000001
 44
0.0000000001
 40
0.0
 40
0.0
 40
0.0
 40
0.0
 40
0.2445316506
 40
0.3728081011
 40
0.5029499325
 40
0.6334196226
 40
0.7620280048
 40
0.824774064
 40
0.8855122012
 40
0.9437830308
 40
1.0
 40
1.0
 40
1.0
 40
1.0
 10
97.6909060391
 20
155.6424476232
 30
0.0
 10
97.8352677041
 20
155.7167174689
 30
0.0
 10
98.0639889929
 20
155.8149396614
 30
0.0
 10
98.3867084702
 20
155.9028032508
 30
0.0
 10
98.6435500088
 20
155.9378707324
 30
0.0
 10
98.9033487243
 20
155.9272678067
 30
0.0
 10
99.1117170399
 20
155.8648600189
 30
0.0
 10
99.2538265308
 20
155.7743819753
 30
0.0
 10
99.339487953
 20
155.6876142861
 30
0.0
 10
99.396739151
 20
155.5844308298
 30
0.0
 10
99.410588243
 20
155.5078829457
 30
0.0
 10
99.410588243
 20
155.4705601152
 30
0.0
  0
SPLINE
  5
51F
100
AcDbEntity
  8
0
100
AcDbSpline
 62
7
  6
CONTINUOUS
 70
0
 71
3
 72
11
 73
7
 74
0
 42
0.0000001
 43
0.0000001
 44
0.0000000001
 40
0.0
 40
0.0
 40
0.0
 40
0.0
 40
0.2188418651
 40
0.4687047152
 40
0.7350550703
 40
1.0
 40
1.0
 40
1.0
 40
1.0
 10
110.3150523729
 20
153.0030911934
 30
0.0
 10
110.2882897897
 20
153.1631910866
 30
0.0
 10
110.1858637524
 20
153.4984975214
 30
0.0
 10
109.9420803167
 20
153.9880856583
 30
0.0
 10
109.6111726607
 20
154.4659419909
 30
0.0
 10
109.3442160902
 20
154.7579462559
 30
0.0
 10
109.2007685844
 20
154.892266248
 30
0.0
  0
SPLINE
  5
520
100
AcDbEntity
  8
0
100
AcDbSpline
 62
7
  6
CONTINUOUS
 70
0
 71
3
 72
11
 73
7
 74
0
 42
0.0000001
 43
0.0000001
 44
0.0000000001
 40
0.0
 40
0.0
 40
0.0
 40
0.0
 40
0.268548539
 40
0.525399858
 40
0.7694829085
 40
1.0
 40
1.0
 40
1.0
 40
1.0
 10
103.3189532479
 20
157.104180208
 30
0.0
 10
101.7240864165
 20
158.2588228916
 30
0.0
 10
98.5462176137
 20
160.4397931839
 30
0.0
 10
93.7214182794
 20
163.3700079798
 30
0.0
 10
88.972460796
 20
165.8690874954
 30
0.0
 10
85.7864502141
 20
167.2773350851
 30
0.0
 10
84.2147352857
 20
167.8987939377
 30
0.0
  0
SPLINE
  5
521
100
AcDbEntity
  8
0
100
AcDbSpline
 62
7
  6
CONTINUOUS
 70
0
 71
3
 72
11
 73
7
 74
0
 42
0.0000001
 43
0.0000001
 44
0.0000000001
 40
0.0
 40
0.0
 40
0.0
 40
0.0
 40
0.2897049882
 40
0.549089225
 40
0.7822198591
 40
1.0
 40
1.0
 40
1.0
 40
1.0
 10
73.7191794123
 20
165.4852444533
 30
0.0
 10
73.7191794123
 20
165.5864527569
 30
0.0
 10
73.7345281566
 20
165.7789272053
 30
0.0
 10
73.8124665356
 20
166.0433837223
 30
0.0
 10
73.943726285
 20
166.2579642202
 30
0.0
 10
74.0670028558
 20
166.3615932186
 30
0.0
 10
74.1328824635
 20
166.3996491698
 30
0.0
  0
SPLINE
  5
522
100
AcDbEntity
  8
0
100
AcDbSpline
 62
7
  6
CONTINUOUS
 70
0
 71
3
 72
9
 73
5
 74
0
 42
0.0000001
 43
0.0000001
 44
0.0000000001
 40
0.0
 40
0.0
 40
0.0
 40
0.0
 40
0.2576683558
 40
1.0
 40
1.0
 40
1.0
 40
1.0
 10
99.4754880356
 20
154.7358198946
 30
0.0
 10
99.4906774405
 20
154.757432318
 30
0.0
 10
99.5536479789
 20
154.8383752632
 30
0.0
 10
99.6340777815
 20
154.9060055769
 30
0.0
 10
99.6999862995
 20
154.9440565045
 30
0.0
  0
SPLINE
  5
523
100
AcDbEntity
  8
0
100
AcDbSpline
 62
7
  6
CONTINUOUS
 70
0
 71
3
 72
11
 73
7
 74
0
 42
0.0000001
 43
0.0000001
 44
0.0000000001
 40
0.0
 40
0.0
 40
0.0
 40
0.0
 40
0.2897109891
 40
0.5491016444
 40
0.7822293458
 40
1.0
 40
1.0
 40
1.0
 40
1.0
 10
105.3976863907
 20
147.1957568828
 30
0.0
 10
105.3976863907
 20
147.2969962848
 30
0.0
 10
105.4130068659
 20
147.4895301711
 30
0.0
 10
105.4909205536
 20
147.7540820297
 30
0.0
 10
105.6221990524
 20
147.9687345594
 30
0.0
 10
105.7455026069
 20
148.072398045
 30
0.0
 10
105.8113981412
 20
148.1104633827
 30
0.0
  0
SPLINE
  5
524
100
AcDbEntity
  8
0
100
AcDbSpline
 62
7
  6
CONTINUOUS
 70
0
 71
3
 72
9
 73
5
 74
0
 42
0.0000001
 43
0.0000001
 44
0.0000000001
 40
0.0
 40
0.0
 40
0.0
 40
0.0
 40
0.2576683558
 40
1.0
 40
1.0
 40
1.0
 40
1.0
 10
131.1540037222
 20
136.4466340921
 30
0.0
 10
131.1691931271
 20
136.4682465155
 30
0.0
 10
131.2321636655
 20
136.5491894606
 30
0.0
 10
131.3125934681
 20
136.6168197744
 30
0.0
 10
131.3785019861
 20
136.654870702
 30
0.0
  0
SPLINE
  5
525
100
AcDbEntity
  8
0
100
AcDbSpline
 62
7
  6
CONTINUOUS
 70
0
 71
3
 72
17
 73
13
 74
0
 42
0.0000001
 43
0.0000001
 44
0.0000000001
 40
0.0
 40
0.0
 40
0.0
 40
0.0
 40
0.1286888694
 40
0.2702797818
 40
0.4174318522
 40
0.5617733796
 40
0.6954455404
 40
0.812709624
 40
0.8646749337
 40
0.9125086167
 40
0.9571390311
 40
1.0
 40
1.0
 40
1.0
 40
1.0
 10
103.5238543273
 20
150.4959603721
 30
0.0
 10
103.5238543273
 20
150.6882789283
 30
0.0
 10
103.4700500711
 20
151.0926579097
 30
0.0
 10
103.2692444083
 20
151.6863987551
 30
0.0
 10
102.959803133
 20
152.2583544804
 30
0.0
 10
102.5666148898
 20
152.7616312063
 30
0.0
 10
102.1218017148
 20
153.1555780289
 30
0.0
 10
101.7191840069
 20
153.3757295428
 30
0.0
 10
101.4042365662
 20
153.4595031
 30
0.0
 10
101.187475071
 20
153.4754642199
 30
0.0
 10
100.9856342858
 20
153.4458828954
 30
0.0
 10
100.8633454482
 20
153.3950699138
 30
0.0
 10
100.8078862947
 20
153.363021195
 30
0.0
  0
SPLINE
  5
526
100
AcDbEntity
  8
0
100
AcDbSpline
 62
7
  6
CONTINUOUS
 70
0
 71
3
 72
17
 73
13
 74
0
 42
0.0000001
 43
0.0000001
 44
0.0000000001
 40
0.0
 40
0.0
 40
0.0
 40
0.0
 40
0.1286888694
 40
0.2702797818
 40
0.4174318522
 40
0.5617733796
 40
0.6954455404
 40
0.812709624
 40
0.8646749337
 40
0.9125086167
 40
0.9571390311
 40
1.0
 40
1.0
 40
1.0
 40
1.0
 10
135.2023700139
 20
132.2067745696
 30
0.0
 10
135.2023700139
 20
132.3990931258
 30
0.0
 10
135.1485657577
 20
132.8034721072
 30
0.0
 10
134.9477600948
 20
133.3972129526
 30
0.0
 10
134.6383188196
 20
133.9691686779
 30
0.0
 10
134.2451305764
 20
134.4724454038
 30
0.0
 10
133.8003174014
 20
134.8663922264
 30
0.0
 10
133.3976996935
 20
135.0865437403
 30
0.0
 10
133.0827522528
 20
135.1703172975
 30
0.0
 10
132.8659907576
 20
135.1862784174
 30
0.0
 10
132.6641499723
 20
135.1566970929
 30
0.0
 10
132.5418611348
 20
135.1058841113
 30
0.0
 10
132.4864019812
 20
135.0738353925
 30
0.0
  0
SPLINE
  5
527
100
AcDbEntity
  8
0
100
AcDbSpline
 62
7
  6
CONTINUOUS
 70
0
 71
3
 72
9
 73
5
 74
0
 42
0.0000001
 43
0.0000001
 44
0.0000000001
 40
0.0
 40
0.0
 40
0.0
 40
0.0
 40
0.2643588827
 40
1.0
 40
1.0
 40
1.0
 40
1.0
 10
99.4020130933
 20
110.146674845
 30
0.0
 10
99.4397415785
 20
110.1552304147
 30
0.0
 10
99.5813011161
 20
110.1921611619
 30
0.0
 10
99.7186079015
 20
110.2478110209
 30
0.0
 10
99.8118391531
 20
110.3016377878
 30
0.0
  0
SPLINE
  5
528
100
AcDbEntity
  8
0
100
AcDbSpline
 62
7
  6
CONTINUOUS
 70
0
 71
3
 72
9
 73
5
 74
0
 42
0.0000001
 43
0.0000001
 44
0.0000000001
 40
0.0
 40
0.0
 40
0.0
 40
0.0
 40
0.2727953831
 40
1.0
 40
1.0
 40
1.0
 40
1.0
 10
119.1864842928
 20
121.4875276038
 30
0.0
 10
119.2147855521
 20
121.503867246
 30
0.0
 10
119.3157367264
 20
121.5680760628
 30
0.0
 10
119.4058877001
 20
121.6521109659
 30
0.0
 10
119.4548884076
 20
121.7241386975
 30
0.0
  0
SPLINE
  5
529
100
AcDbEntity
  8
0
100
AcDbSpline
 62
7
  6
CONTINUOUS
 70
0
 71
3
 72
11
 73
7
 74
0
 42
0.0000001
 43
0.0000001
 44
0.0000000001
 40
0.0
 40
0.0
 40
0.0
 40
0.0
 40
0.2372428732
 40
0.4999994739
 40
0.7627563609
 40
1.0
 40
1.0
 40
1.0
 40
1.0
 10
80.7198736302
 20
125.9373680622
 30
0.0
 10
80.7700686231
 20
125.9663479819
 30
0.0
 10
80.886796872
 20
126.0086313457
 30
0.0
 10
81.073426465
 20
126.028891596
 30
0.0
 10
81.2600563396
 20
126.0086321973
 30
0.0
 10
81.3767850475
 20
125.9663494132
 30
0.0
 10
81.4269804114
 20
125.9373697619
 30
0.0
  0
SPLINE
  5
52A
100
AcDbEntity
  8
0
100
AcDbSpline
 62
7
  6
CONTINUOUS
 70
0
 71
3
 72
11
 73
7
 74
0
 42
0.0000001
 43
0.0000001
 44
0.0000000001
 40
0.0
 40
0.0
 40
0.0
 40
0.0
 40
0.2372428732
 40
0.4999994739
 40
0.7627563609
 40
1.0
 40
1.0
 40
1.0
 40
1.0
 10
47.945398221
 20
123.2630175657
 30
0.0
 10
47.9955932138
 20
123.2919974854
 30
0.0
 10
48.1123214627
 20
123.3342808492
 30
0.0
 10
48.2989510557
 20
123.3545410995
 30
0.0
 10
48.4855809303
 20
123.3342817009
 30
0.0
 10
48.6023096382
 20
123.2919989167
 30
0.0
 10
48.6525050021
 20
123.2630192654
 30
0.0
  0
SPLINE
  5
52B
100
AcDbEntity
  8
0
100
AcDbSpline
 62
7
  6
CONTINUOUS
 70
0
 71
3
 72
11
 73
7
 74
0
 42
0.0000001
 43
0.0000001
 44
0.0000000001
 40
0.0
 40
0.0
 40
0.0
 40
0.0
 40
0.2372531816
 40
0.5000006935
 40
0.7627478297
 40
1.0
 40
1.0
 40
1.0
 40
1.0
 10
46.0691609791
 20
122.9962662629
 30
0.0
 10
46.1695557994
 20
122.9383045977
 30
0.0
 10
46.4030077122
 20
122.8537114976
 30
0.0
 10
46.7762690769
 20
122.8132689572
 30
0.0
 10
47.1495297496
 20
122.8537132811
 30
0.0
 10
47.3829805671
 20
122.9383075201
 30
0.0
 10
47.4833745414
 20
122.9962696623
 30
0.0
  0
SPLINE
  5
52C
100
AcDbEntity
  8
0
100
AcDbSpline
 62
7
  6
CONTINUOUS
 70
0
 71
3
 72
11
 73
7
 74
0
 42
0.0000001
 43
0.0000001
 44
0.0000000001
 40
0.0
 40
0.0
 40
0.0
 40
0.0
 40
0.2188418651
 40
0.4687047152
 40
0.7350550703
 40
1.0
 40
1.0
 40
1.0
 40
1.0
 10
141.9935680594
 20
134.7139053909
 30
0.0
 10
141.9668054763
 20
134.8740052841
 30
0.0
 10
141.864379439
 20
135.2093117189
 30
0.0
 10
141.6205960032
 20
135.6988998558
 30
0.0
 10
141.2896883473
 20
136.1767561884
 30
0.0
 10
141.0227317768
 20
136.4687604534
 30
0.0
 10
140.879284271
 20
136.6030804455
 30
0.0
  0
SPLINE
  5
52D
100
AcDbEntity
  8
0
100
AcDbSpline
 62
7
  6
CONTINUOUS
 70
0
 71
3
 72
11
 73
7
 74
0
 42
0.0000001
 43
0.0000001
 44
0.0000000001
 40
0.0
 40
0.0
 40
0.0
 40
0.0
 40
0.268548539
 40
0.525399858
 40
0.7694829085
 40
1.0
 40
1.0
 40
1.0
 40
1.0
 10
134.9974689345
 20
138.8149944055
 30
0.0
 10
133.4026021031
 20
139.9696370891
 30
0.0
 10
130.2247333003
 20
142.1506073814
 30
0.0
 10
125.399933966
 20
145.0808221773
 30
0.0
 10
120.6509764826
 20
147.5799016929
 30
0.0
 10
117.4649659007
 20
148.9881492826
 30
0.0
 10
115.8932509723
 20
149.6096081352
 30
0.0
  0
SPLINE
  5
52E
100
AcDbEntity
  8
0
100
AcDbSpline
 62
7
  6
CONTINUOUS
 70
0
 71
3
 72
16
 73
12
 74
0
 42
0.0000001
 43
0.0000001
 44
0.0000000001
 40
0.0
 40
0.0
 40
0.0
 40
0.0
 40
0.2438799414
 40
0.3720775725
 40
0.5022530168
 40
0.6328452963
 40
0.7616493647
 40
0.824516825
 40
0.885373068
 40
0.9437331989
 40
1.0
 40
1.0
 40
1.0
 40
1.0
 10
82.8205374336
 20
164.204769802
 30
0.0
 10
82.9657806491
 20
164.2805652293
 30
0.0
 10
83.1960632558
 20
164.3812886013
 30
0.0
 10
83.521452395
 20
164.4725711852
 30
0.0
 10
83.7810584324
 20
164.5103061135
 30
0.0
 10
84.0442467288
 20
164.5020397718
 30
0.0
 10
84.2559831485
 20
164.4408677369
 30
0.0
 10
84.4008629479
 20
164.3504753969
 30
0.0
 10
84.488409606
 20
164.2632105361
 30
0.0
 10
84.5470633701
 20
164.1589728636
 30
0.0
 10
84.5612840149
 20
164.0814142155
 30
0.0
 10
84.5612840149
 20
164.0436159601
 30
0.0
  0
SPLINE
  5
52F
100
AcDbEntity
  8
0
100
AcDbSpline
 62
7
  6
CONTINUOUS
 70
0
 71
3
 72
11
 73
7
 74
0
 42
0.0000001
 43
0.0000001
 44
0.0000000001
 40
0.0
 40
0.0
 40
0.0
 40
0.0
 40
0.2915817136
 40
0.5518644498
 40
0.7844772427
 40
1.0
 40
1.0
 40
1.0
 40
1.0
 10
37.5261751874
 20
117.4515567258
 30
0.0
 10
37.5261751874
 20
117.2870259375
 30
0.0
 10
37.5016714639
 20
116.974591618
 30
0.0
 10
37.3770744066
 20
116.5458173375
 30
0.0
 10
37.1677643703
 20
116.1988978073
 30
0.0
 10
36.9704938581
 20
116.031560819
 30
0.0
 10
36.8651776446
 20
115.9707478369
 30
0.0
  0
SPLINE
  5
530
100
AcDbEntity
  8
0
100
AcDbSpline
 62
7
  6
CONTINUOUS
 70
0
 71
3
 72
11
 73
7
 74
0
 42
0.0000001
 43
0.0000001
 44
0.0000000001
 40
0.0
 40
0.0
 40
0.0
 40
0.0
 40
0.2372428732
 40
0.4999994739
 40
0.7627563609
 40
1.0
 40
1.0
 40
1.0
 40
1.0
 10
40.4500351344
 20
127.5903695636
 30
0.0
 10
40.5002301273
 20
127.6193494833
 30
0.0
 10
40.6169583761
 20
127.6616328471
 30
0.0
 10
40.8035879691
 20
127.6818930975
 30
0.0
 10
40.9902178438
 20
127.6616336988
 30
0.0
 10
41.1069465517
 20
127.6193509146
 30
0.0
 10
41.1571419156
 20
127.5903712633
 30
0.0
  0
SPLINE
  5
531
100
AcDbEntity
  8
0
100
AcDbSpline
 62
7
  6
CONTINUOUS
 70
0
 71
3
 72
11
 73
7
 74
0
 42
0.0000001
 43
0.0000001
 44
0.0000000001
 40
0.0
 40
0.0
 40
0.0
 40
0.0
 40
0.2372531816
 40
0.5000006935
 40
0.7627478297
 40
1.0
 40
1.0
 40
1.0
 40
1.0
 10
38.5737978925
 20
127.3236182608
 30
0.0
 10
38.6741927128
 20
127.2656565956
 30
0.0
 10
38.9076446256
 20
127.1810634955
 30
0.0
 10
39.2809059903
 20
127.1406209551
 30
0.0
 10
39.654166663
 20
127.181065279
 30
0.0
 10
39.8876174805
 20
127.265659518
 30
0.0
 10
39.9880114549
 20
127.3236216602
 30
0.0
  0
SPLINE
  5
532
100
AcDbEntity
  8
0
100
AcDbSpline
 62
7
  6
CONTINUOUS
 70
0
 71
3
 72
11
 73
7
 74
0
 42
0.0000001
 43
0.0000001
 44
0.0000000001
 40
0.0
 40
0.0
 40
0.0
 40
0.0
 40
0.2422531086
 40
0.4979424663
 40
0.7546852247
 40
1.0
 40
1.0
 40
1.0
 40
1.0
 10
53.1426794301
 20
109.9093257069
 30
0.0
 10
52.941834871
 20
110.0758675907
 30
0.0
 10
52.5630462233
 20
110.4603327284
 30
0.0
 10
52.0930923885
 20
111.1273727789
 30
0.0
 10
51.7300111135
 20
111.8617827525
 30
0.0
 10
51.570620281
 20
112.3819064655
 30
0.0
 10
51.5179805812
 20
112.6408183594
 30
0.0
  0
SPLINE
  5
533
100
AcDbEntity
  8
0
100
AcDbSpline
 62
7
  6
CONTINUOUS
 70
0
 71
3
 72
11
 73
7
 74
0
 42
0.0000001
 43
0.0000001
 44
0.0000000001
 40
0.0
 40
0.0
 40
0.0
 40
0.0
 40
0.2372428732
 40
0.4999994739
 40
0.7627563609
 40
1.0
 40
1.0
 40
1.0
 40
1.0
 10
55.4407613075
 20
118.9356655678
 30
0.0
 10
55.4909563004
 20
118.9646454875
 30
0.0
 10
55.6076845493
 20
119.0069288512
 30
0.0
 10
55.7943141423
 20
119.0271891016
 30
0.0
 10
55.9809440169
 20
119.0069297029
 30
0.0
 10
56.0976727248
 20
118.9646469187
 30
0.0
 10
56.1478680887
 20
118.9356672675
 30
0.0
  0
SPLINE
  5
534
100
AcDbEntity
  8
0
100
AcDbSpline
 62
7
  6
CONTINUOUS
 70
0
 71
3
 72
11
 73
7
 74
0
 42
0.0000001
 43
0.0000001
 44
0.0000000001
 40
0.0
 40
0.0
 40
0.0
 40
0.0
 40
0.2372531816
 40
0.5000006935
 40
0.7627478297
 40
1.0
 40
1.0
 40
1.0
 40
1.0
 10
53.5645240656
 20
118.668914265
 30
0.0
 10
53.6649188859
 20
118.6109525997
 30
0.0
 10
53.8983707987
 20
118.5263594997
 30
0.0
 10
54.2716321635
 20
118.4859169593
 30
0.0
 10
54.6448928361
 20
118.5263612832
 30
0.0
 10
54.8783436536
 20
118.6109555222
 30
0.0
 10
54.978737628
 20
118.6689176643
 30
0.0
  0
SPLINE
  5
535
100
AcDbEntity
  8
0
100
AcDbSpline
 62
7
  6
CONTINUOUS
 70
0
 71
3
 72
11
 73
7
 74
0
 42
0.0000001
 43
0.0000001
 44
0.0000000001
 40
0.0
 40
0.0
 40
0.0
 40
0.0
 40
0.2915817136
 40
0.5518644498
 40
0.7844772427
 40
1.0
 40
1.0
 40
1.0
 40
1.0
 10
69.204690874
 20
99.1623709232
 30
0.0
 10
69.204690874
 20
98.997840135
 30
0.0
 10
69.1801871505
 20
98.6854058154
 30
0.0
 10
69.0555900932
 20
98.256631535
 30
0.0
 10
68.8462800569
 20
97.9097120048
 30
0.0
 10
68.6490095447
 20
97.7423750165
 30
0.0
 10
68.5436933312
 20
97.6815620344
 30
0.0
  0
SPLINE
  5
536
100
AcDbEntity
  8
0
100
AcDbSpline
 62
7
  6
CONTINUOUS
 70
0
 71
3
 72
11
 73
7
 74
0
 42
0.0000001
 43
0.0000001
 44
0.0000000001
 40
0.0
 40
0.0
 40
0.0
 40
0.0
 40
0.2372428732
 40
0.4999994739
 40
0.7627563609
 40
1.0
 40
1.0
 40
1.0
 40
1.0
 10
72.128550821
 20
109.3011837611
 30
0.0
 10
72.1787458139
 20
109.3301636808
 30
0.0
 10
72.2954740627
 20
109.3724470446
 30
0.0
 10
72.4821036557
 20
109.3927072949
 30
0.0
 10
72.6687335303
 20
109.3724478963
 30
0.0
 10
72.7854622383
 20
109.3301651121
 30
0.0
 10
72.8356576022
 20
109.3011854608
 30
0.0
  0
SPLINE
  5
537
100
AcDbEntity
  8
0
100
AcDbSpline
 62
7
  6
CONTINUOUS
 70
0
 71
3
 72
11
 73
7
 74
0
 42
0.0000001
 43
0.0000001
 44
0.0000000001
 40
0.0
 40
0.0
 40
0.0
 40
0.0
 40
0.2372531816
 40
0.5000006935
 40
0.7627478297
 40
1.0
 40
1.0
 40
1.0
 40
1.0
 10
70.2523135791
 20
109.0344324583
 30
0.0
 10
70.3527083994
 20
108.9764707931
 30
0.0
 10
70.5861603122
 20
108.891877693
 30
0.0
 10
70.9594216769
 20
108.8514351526
 30
0.0
 10
71.3326823496
 20
108.8918794765
 30
0.0
 10
71.5661331671
 20
108.9764737155
 30
0.0
 10
71.6665271415
 20
109.0344358577
 30
0.0
  0
SPLINE
  5
538
100
AcDbEntity
  8
0
100
AcDbSpline
 62
7
  6
CONTINUOUS
 70
0
 71
3
 72
9
 73
5
 74
0
 42
0.0000001
 43
0.0000001
 44
0.0000000001
 40
0.0
 40
0.0
 40
0.0
 40
0.0
 40
0.4880640205
 40
1.0
 40
1.0
 40
1.0
 40
1.0
 10
84.8211951167
 20
59.8581958781
 30
0.0
 10
84.5371266305
 20
60.093747695
 30
0.0
 10
84.0223630245
 20
60.6591395598
 30
0.0
 10
83.6427602803
 20
61.3204443034
 30
0.0
 10
83.4885638371
 20
61.6754799494
 30
0.0
  0
SPLINE
  5
539
100
AcDbEntity
  8
0
100
AcDbSpline
 62
7
  6
CONTINUOUS
 70
0
 71
3
 72
11
 73
7
 74
0
 42
0.0000001
 43
0.0000001
 44
0.0000000001
 40
0.0
 40
0.0
 40
0.0
 40
0.0
 40
0.2372531816
 40
0.5000006935
 40
0.7627478297
 40
1.0
 40
1.0
 40
1.0
 40
1.0
 10
85.2430397522
 20
100.3797284625
 30
0.0
 10
85.3434345725
 20
100.3217667972
 30
0.0
 10
85.5768864853
 20
100.2371736972
 30
0.0
 10
85.95014785
 20
100.1967311568
 30
0.0
 10
86.3234085227
 20
100.2371754807
 30
0.0
 10
86.5568593402
 20
100.3217697197
 30
0.0
 10
86.6572533146
 20
100.3797318618
 30
0.0
  0
SPLINE
  5
53A
100
AcDbEntity
  8
0
100
AcDbSpline
 62
7
  6
CONTINUOUS
 70
0
 71
3
 72
11
 73
7
 74
0
 42
0.0000001
 43
0.0000001
 44
0.0000000001
 40
0.0
 40
0.0
 40
0.0
 40
0.0
 40
0.2372428732
 40
0.4999994739
 40
0.7627563609
 40
1.0
 40
1.0
 40
1.0
 40
1.0
 10
87.1192769941
 20
100.6464797653
 30
0.0
 10
87.169471987
 20
100.675459685
 30
0.0
 10
87.2862002359
 20
100.7177430487
 30
0.0
 10
87.4728298288
 20
100.7380032991
 30
0.0
 10
87.6594597035
 20
100.7177439004
 30
0.0
 10
87.7761884114
 20
100.6754611162
 30
0.0
 10
87.8263837753
 20
100.646481465
 30
0.0
  0
SPLINE
  5
53B
100
AcDbEntity
  8
0
100
AcDbSpline
 62
7
  6
CONTINUOUS
 70
0
 71
3
 72
11
 73
7
 74
0
 42
0.0000001
 43
0.0000001
 44
0.0000000001
 40
0.0
 40
0.0
 40
0.0
 40
0.0
 40
0.2372428732
 40
0.4999994739
 40
0.7627563609
 40
1.0
 40
1.0
 40
1.0
 40
1.0
 10
79.6239139075
 20
104.9738317632
 30
0.0
 10
79.6741089004
 20
105.0028116829
 30
0.0
 10
79.7908371493
 20
105.0450950467
 30
0.0
 10
79.9774667423
 20
105.065355297
 30
0.0
 10
80.1640966169
 20
105.0450958983
 30
0.0
 10
80.2808253248
 20
105.0028131141
 30
0.0
 10
80.3310206887
 20
104.9738334629
 30
0.0
  0
SPLINE
  5
53C
100
AcDbEntity
  8
0
100
AcDbSpline
 62
7
  6
CONTINUOUS
 70
0
 71
3
 72
11
 73
7
 74
0
 42
0.0000001
 43
0.0000001
 44
0.0000000001
 40
0.0
 40
0.0
 40
0.0
 40
0.0
 40
0.2372531816
 40
0.5000006935
 40
0.7627478297
 40
1.0
 40
1.0
 40
1.0
 40
1.0
 10
77.7476766657
 20
104.7070804604
 30
0.0
 10
77.848071486
 20
104.6491187952
 30
0.0
 10
78.0815233988
 20
104.5645256951
 30
0.0
 10
78.4547847635
 20
104.5240831547
 30
0.0
 10
78.8280454362
 20
104.5645274786
 30
0.0
 10
79.0614962537
 20
104.6491217176
 30
0.0
 10
79.161890228
 20
104.7070838597
 30
0.0
  0
SPLINE
  5
53D
100
AcDbEntity
  8
0
100
AcDbSpline
 62
7
  6
CONTINUOUS
 70
0
 71
3
 72
9
 73
5
 74
0
 42
0.0000001
 43
0.0000001
 44
0.0000000001
 40
0.0
 40
0.0
 40
0.0
 40
0.0
 40
0.4818704825
 40
1.0
 40
1.0
 40
1.0
 40
1.0
 10
43.6922604466
 20
125.8697377112
 30
0.0
 10
43.0150953796
 20
125.4787786112
 30
0.0
 10
41.6754559023
 20
124.551303386
 30
0.0
 10
40.4725358159
 20
123.4555719543
 30
0.0
 10
39.8843897474
 20
122.854773244
 30
0.0
  0
SPLINE
  5
53E
100
AcDbEntity
  8
0
100
AcDbSpline
 62
7
  6
CONTINUOUS
 70
0
 71
3
 72
9
 73
5
 74
0
 42
0.0000001
 43
0.0000001
 44
0.0000000001
 40
0.0
 40
0.0
 40
0.0
 40
0.0
 40
0.4818704825
 40
1.0
 40
1.0
 40
1.0
 40
1.0
 10
51.1876235331
 20
121.5423857133
 30
0.0
 10
50.5104584661
 20
121.1514266133
 30
0.0
 10
49.1708189889
 20
120.2239513881
 30
0.0
 10
47.9678989024
 20
119.1282199563
 30
0.0
 10
47.379752834
 20
118.527421246
 30
0.0
  0
SPLINE
  5
53F
100
AcDbEntity
  8
0
100
AcDbSpline
 62
7
  6
CONTINUOUS
 70
0
 71
3
 72
9
 73
5
 74
0
 42
0.0000001
 43
0.0000001
 44
0.0000000001
 40
0.0
 40
0.0
 40
0.0
 40
0.0
 40
0.4818704825
 40
1.0
 40
1.0
 40
1.0
 40
1.0
 10
75.3707761331
 20
107.5805519087
 30
0.0
 10
74.6936110662
 20
107.1895928087
 30
0.0
 10
73.3539715889
 20
106.2621175835
 30
0.0
 10
72.1510515025
 20
105.1663861517
 30
0.0
 10
71.562905434
 20
104.5655874415
 30
0.0
  0
SPLINE
  5
540
100
AcDbEntity
  8
0
100
AcDbSpline
 62
7
  6
CONTINUOUS
 70
0
 71
3
 72
9
 73
5
 74
0
 42
0.0000001
 43
0.0000001
 44
0.0000000001
 40
0.0
 40
0.0
 40
0.0
 40
0.0
 40
0.4818704825
 40
1.0
 40
1.0
 40
1.0
 40
1.0
 10
82.8661392197
 20
103.2531999108
 30
0.0
 10
82.1889741527
 20
102.8622408108
 30
0.0
 10
80.8493346755
 20
101.9347655856
 30
0.0
 10
79.646414589
 20
100.8390341538
 30
0.0
 10
79.0582685205
 20
100.2382354435
 30
0.0
  0
SPLINE
  5
541
100
AcDbEntity
  8
0
100
AcDbSpline
 62
7
  6
CONTINUOUS
 70
0
 71
3
 72
11
 73
7
 74
0
 42
0.0000001
 43
0.0000001
 44
0.0000000001
 40
0.0
 40
0.0
 40
0.0
 40
0.0
 40
0.2422531086
 40
0.4979424663
 40
0.7546852247
 40
1.0
 40
1.0
 40
1.0
 40
1.0
 10
84.8211951167
 20
91.6201399044
 30
0.0
 10
84.6203505576
 20
91.7866817882
 30
0.0
 10
84.2415619099
 20
92.1711469259
 30
0.0
 10
83.7716080751
 20
92.8381869764
 30
0.0
 10
83.4085268001
 20
93.57259695
 30
0.0
 10
83.2491359676
 20
94.092720663
 30
0.0
 10
83.1964962677
 20
94.3516325569
 30
0.0
  0
SPLINE
  5
542
100
AcDbEntity
  8
0
100
AcDbSpline
 62
7
  6
CONTINUOUS
 70
0
 71
3
 72
17
 73
13
 74
0
 42
0.0000001
 43
0.0000001
 44
0.0000000001
 40
0.0
 40
0.0
 40
0.0
 40
0.0
 40
0.0428571351
 40
0.0874839364
 40
0.1353160071
 40
0.1872791416
 40
0.3045400115
 40
0.4382081091
 40
0.5825513186
 40
0.7297108723
 40
0.8713103985
 40
1.0
 40
1.0
 40
1.0
 40
1.0
 10
85.8007237669
 20
131.1016186303
 30
0.0
 10
85.8007523555
 20
131.1727827238
 30
0.0
 10
85.7816975634
 20
131.3186695726
 30
0.0
 10
85.6980552719
 20
131.5293189055
 30
0.0
 10
85.5622665413
 20
131.729012148
 30
0.0
 10
85.3067112974
 20
131.9855372809
 30
0.0
 10
84.8712002198
 20
132.2506373039
 30
0.0
 10
84.2450214355
 20
132.4598081486
 30
0.0
 10
83.542296649
 20
132.5585630116
 30
0.0
 10
82.8199901678
 20
132.5385812778
 30
0.0
 10
82.1370751649
 20
132.401948816
 30
0.0
 10
81.7180541724
 20
132.2290642392
 30
0.0
 10
81.5329941732
 20
132.1222204366
 30
0.0
  0
SPLINE
  5
543
100
AcDbEntity
  8
0
100
AcDbSpline
 62
7
  6
CONTINUOUS
 70
0
 71
3
 72
19
 73
15
 74
0
 42
0.0000001
 43
0.0000001
 44
0.0000000001
 40
0.0
 40
0.0
 40
0.0
 40
0.0
 40
0.0505892734
 40
0.1041543492
 40
0.1620451505
 40
0.2247596895
 40
0.3629007082
 40
0.5114920279
 40
0.6582046751
 40
0.7906430422
 40
0.8492762691
 40
0.9027208575
 40
0.9522149987
 40
1.0
 40
1.0
 40
1.0
 40
1.0
 10
133.4949332787
 20
138.1876072789
 30
0.0
 10
133.4949577261
 20
138.298130626
 30
0.0
 10
133.4603708342
 20
138.5267715385
 30
0.0
 10
133.3133100268
 20
138.8527343815
 30
0.0
 10
133.0791085298
 20
139.1564346685
 30
0.0
 10
132.6501567857
 20
139.5291466764
 30
0.0
 10
131.9530416852
 20
139.8711931318
 30
0.0
 10
131.0137800437
 20
140.0520416111
 30
0.0
 10
130.0715832221
 20
139.9995500601
 30
0.0
 10
129.3591012474
 20
139.7584843982
 30
0.0
 10
128.9181643137
 20
139.4507320283
 30
0.0
 10
128.6785874972
 20
139.186535089
 30
0.0
 10
128.5285761059
 20
138.8883290384
 30
0.0
 10
128.4951229689
 20
138.6743013951
 30
0.0
 10
128.4950929066
 20
138.5699045962
 30
0.0
  0
SPLINE
  5
544
100
AcDbEntity
  8
0
100
AcDbSpline
 62
7
  6
CONTINUOUS
 70
0
 71
3
 72
11
 73
7
 74
0
 42
0.0000001
 43
0.0000001
 44
0.0000000001
 40
0.0
 40
0.0
 40
0.0
 40
0.0
 40
0.2372398078
 40
0.4999994051
 40
0.7627593222
 40
1.0
 40
1.0
 40
1.0
 40
1.0
 10
52.1172066441
 20
149.1457926614
 30
0.0
 10
52.3179848111
 20
149.2617112982
 30
0.0
 10
52.7848918537
 20
149.4308639967
 30
0.0
 10
53.5314178113
 20
149.511906957
 30
0.0
 10
54.2779450036
 20
149.4308674674
 30
0.0
 10
54.7448540297
 20
149.2617170741
 30
0.0
 10
54.9456337688
 20
149.1457994601
 30
0.0
  0
SPLINE
  5
545
100
AcDbEntity
  8
0
100
AcDbSpline
 62
7
  6
CONTINUOUS
 70
0
 71
3
 72
9
 73
5
 74
0
 42
0.0000001
 43
0.0000001
 44
0.0000000001
 40
0.0
 40
0.0
 40
0.0
 40
0.0
 40
0.242009925
 40
1.0
 40
1.0
 40
1.0
 40
1.0
 10
24.3986867667
 20
122.7320689378
 30
0.0
 10
25.5079224475
 20
121.8445039586
 30
0.0
 10
30.1676076692
 20
118.2727328379
 30
0.0
 10
35.111768443
 20
115.0773415566
 30
0.0
 10
38.965157703
 20
112.8526365596
 30
0.0
  0
SPLINE
  5
546
100
AcDbEntity
  8
0
100
AcDbSpline
 62
7
  6
CONTINUOUS
 70
0
 71
3
 72
9
 73
5
 74
0
 42
0.0000001
 43
0.0000001
 44
0.0000000001
 40
0.0
 40
0.0
 40
0.0
 40
0.0
 40
0.2431242689
 40
1.0
 40
1.0
 40
1.0
 40
1.0
 10
38.965157703
 20
112.8526365596
 30
0.0
 10
40.3038831505
 20
112.0797405474
 30
0.0
 10
45.8657785702
 20
108.9974091375
 30
0.0
 10
51.6348979424
 20
106.2933900199
 30
0.0
 10
56.0772024533
 20
104.4428831353
 30
0.0
  0
SPLINE
  5
547
100
AcDbEntity
  8
0
100
AcDbSpline
 62
7
  6
CONTINUOUS
 70
0
 71
3
 72
9
 73
5
 74
0
 42
0.0000001
 43
0.0000001
 44
0.0000000001
 40
0.0
 40
0.0
 40
0.0
 40
0.0
 40
0.242009925
 40
1.0
 40
1.0
 40
1.0
 40
1.0
 10
56.0772024533
 20
104.4428831353
 30
0.0
 10
57.1864381341
 20
103.5553181561
 30
0.0
 10
61.8461233558
 20
99.9835470354
 30
0.0
 10
66.7902841296
 20
96.7881557541
 30
0.0
 10
70.6436733896
 20
94.5634507571
 30
0.0
  0
SPLINE
  5
548
100
AcDbEntity
  8
0
100
AcDbSpline
 62
7
  6
CONTINUOUS
 70
0
 71
3
 72
11
 73
7
 74
0
 42
0.0000001
 43
0.0000001
 44
0.0000000001
 40
0.0
 40
0.0
 40
0.0
 40
0.0
 40
0.2031786478
 40
0.4314035967
 40
0.6961881629
 40
1.0
 40
1.0
 40
1.0
 40
1.0
 10
70.1396702922
 20
122.1768504978
 30
0.0
 10
70.046378775
 20
122.123043068
 30
0.0
 10
69.8713577891
 20
121.966253135
 30
0.0
 10
69.6921464776
 20
121.6380757957
 30
0.0
 10
69.5859795142
 20
121.2260631885
 30
0.0
 10
69.5654832588
 20
120.9238608476
 30
0.0
 10
69.5654832589
 20
120.7628228312
 30
0.0
  0
SPLINE
  5
549
100
AcDbEntity
  8
0
100
AcDbSpline
 62
7
  6
CONTINUOUS
 70
0
 71
3
 72
9
 73
5
 74
0
 42
0.0000001
 43
0.0000001
 44
0.0000000001
 40
0.0
 40
0.0
 40
0.0
 40
0.0
 40
0.2431242689
 40
1.0
 40
1.0
 40
1.0
 40
1.0
 10
70.6436733896
 20
94.5634507571
 30
0.0
 10
71.9823988371
 20
93.7905547449
 30
0.0
 10
77.5442942568
 20
90.708223335
 30
0.0
 10
83.313413629
 20
88.0042042174
 30
0.0
 10
87.7557181399
 20
86.1536973328
 30
0.0
  0
SPLINE
  5
54A
100
AcDbEntity
  8
0
100
AcDbSpline
 62
7
  6
CONTINUOUS
 70
0
 71
3
 72
11
 73
7
 74
0
 42
0.0000001
 43
0.0000001
 44
0.0000000001
 40
0.0
 40
0.0
 40
0.0
 40
0.0
 40
0.3066722522
 40
0.5729205671
 40
0.8001577633
 40
1.0
 40
1.0
 40
1.0
 40
1.0
 10
82.6994534915
 20
165.9749306877
 30
0.0
 10
82.5906834597
 20
165.9121326554
 30
0.0
 10
82.3948108767
 20
165.7809099602
 30
0.0
 10
82.1575796767
 20
165.5516945947
 30
0.0
 10
82.0045126601
 20
165.3078981931
 30
0.0
 10
81.9673118111
 20
165.1318106508
 30
0.0
 10
81.9674691318
 20
165.0499660618
 30
0.0
  0
SPLINE
  5
54B
100
AcDbEntity
  8
0
100
AcDbSpline
 62
7
  6
CONTINUOUS
 70
0
 71
3
 72
17
 73
13
 74
0
 42
0.0000001
 43
0.0000001
 44
0.0000000001
 40
0.0
 40
0.0
 40
0.0
 40
0.0
 40
0.1241144358
 40
0.2603933736
 40
0.4026962601
 40
0.5438176653
 40
0.6770713402
 40
0.7975451646
 40
0.8525312576
 40
0.9041588553
 40
0.9530067655
 40
1.0
 40
1.0
 40
1.0
 40
1.0
 10
48.314234956
 20
111.6776306341
 30
0.0
 10
48.314234956
 20
111.4000885961
 30
0.0
 10
48.3994944257
 20
110.8169223581
 30
0.0
 10
48.7193920733
 20
109.9694594676
 30
0.0
 10
49.2136126155
 20
109.1649694774
 30
0.0
 10
49.8441875732
 20
108.4712675057
 30
0.0
 10
50.5595756955
 20
107.9432897677
 30
0.0
 10
51.2039649404
 20
107.670548069
 30
0.0
 10
51.7064833641
 20
107.5844261692
 30
0.0
 10
52.0560798678
 20
107.5846122763
 30
0.0
 10
52.3818166432
 20
107.6483932678
 30
0.0
 10
52.5804758339
 20
107.7342252471
 30
0.0
 10
52.6715064197
 20
107.7867261503
 30
0.0
  0
SPLINE
  5
54C
100
AcDbEntity
  8
0
100
AcDbSpline
 62
7
  6
CONTINUOUS
 70
0
 71
3
 72
17
 73
13
 74
0
 42
0.0000001
 43
0.0000001
 44
0.0000000001
 40
0.0
 40
0.0
 40
0.0
 40
0.0
 40
0.1270189728
 40
0.2667052958
 40
0.4120137765
 40
0.554955295
 40
0.6882115235
 40
0.8064649204
 40
0.8595549639
 40
0.908910912
 40
0.9553247897
 40
1.0
 40
1.0
 40
1.0
 40
1.0
 10
40.4253250605
 20
115.7777696322
 30
0.0
 10
40.4253250605
 20
115.5000809757
 30
0.0
 10
40.5043319033
 20
114.9163255815
 30
0.0
 10
40.7992748637
 20
114.0605209024
 30
0.0
 10
41.2560416098
 20
113.2384984008
 30
0.0
 10
41.8403582108
 20
112.519364591
 30
0.0
 10
42.5047595068
 20
111.9608749273
 30
0.0
 10
43.1084227748
 20
111.6579592047
 30
0.0
 10
43.5809422861
 20
111.5501434244
 30
0.0
 10
43.9081838573
 20
111.5360296313
 30
0.0
 10
44.2133653853
 20
111.5870913546
 30
0.0
 10
44.3989383289
 20
111.6653904832
 30
0.0
 10
44.4835434609
 20
111.714187811
 30
0.0
  0
SPLINE
  5
54D
100
AcDbEntity
  8
0
100
AcDbSpline
 62
7
  6
CONTINUOUS
 70
0
 71
3
 72
17
 73
13
 74
0
 42
0.0000001
 43
0.0000001
 44
0.0000000001
 40
0.0
 40
0.0
 40
0.0
 40
0.0
 40
0.1241144358
 40
0.2603933736
 40
0.4026962601
 40
0.5438176653
 40
0.6770713402
 40
0.7975451646
 40
0.8525312576
 40
0.9041588553
 40
0.9530067655
 40
1.0
 40
1.0
 40
1.0
 40
1.0
 10
79.9927506425
 20
93.3884448316
 30
0.0
 10
79.9927506425
 20
93.1109027936
 30
0.0
 10
80.0780101122
 20
92.5277365556
 30
0.0
 10
80.3979077599
 20
91.6802736651
 30
0.0
 10
80.8921283021
 20
90.8757836749
 30
0.0
 10
81.5227032598
 20
90.1820817032
 30
0.0
 10
82.2380913821
 20
89.6541039652
 30
0.0
 10
82.882480627
 20
89.3813622665
 30
0.0
 10
83.3849990506
 20
89.2952403667
 30
0.0
 10
83.7345955544
 20
89.2954264738
 30
0.0
 10
84.0603323298
 20
89.3592074653
 30
0.0
 10
84.2589915205
 20
89.4450394446
 30
0.0
 10
84.3500221063
 20
89.4975403478
 30
0.0
  0
SPLINE
  5
54E
100
AcDbEntity
  8
0
100
AcDbSpline
 62
7
  6
CONTINUOUS
 70
0
 71
3
 72
11
 73
7
 74
0
 42
0.0000001
 43
0.0000001
 44
0.0000000001
 40
0.0
 40
0.0
 40
0.0
 40
0.0
 40
0.2689025509
 40
0.5260297181
 40
0.7700341334
 40
1.0
 40
1.0
 40
1.0
 40
1.0
 10
99.5587093608
 20
149.353204486
 30
0.0
 10
98.3828914839
 20
150.4648762337
 30
0.0
 10
95.9996757775
 20
152.5540940474
 30
0.0
 10
92.2689584733
 20
155.3121039127
 30
0.0
 10
88.5016459181
 20
157.5964889262
 30
0.0
 10
85.9182588358
 20
158.8211091185
 30
0.0
 10
84.6346019636
 20
159.3380378049
 30
0.0
  0
SPLINE
  5
54F
100
AcDbEntity
  8
0
100
AcDbSpline
 62
7
  6
CONTINUOUS
 70
0
 71
3
 72
9
 73
5
 74
0
 42
0.0000001
 43
0.0000001
 44
0.0000000001
 40
0.0
 40
0.0
 40
0.0
 40
0.0
 40
0.2606227961
 40
1.0
 40
1.0
 40
1.0
 40
1.0
 10
84.6346019636
 20
159.3380378049
 30
0.0
 10
84.1210383225
 20
159.5448499087
 30
0.0
 10
82.1321333805
 20
160.290829499
 30
0.0
 10
80.0654789911
 20
160.8383906303
 30
0.0
 10
78.5160230708
 20
161.095606536
 30
0.0
  0
SPLINE
  5
550
100
AcDbEntity
  8
0
100
AcDbSpline
 62
7
  6
CONTINUOUS
 70
0
 71
3
 72
17
 73
13
 74
0
 42
0.0000001
 43
0.0000001
 44
0.0000000001
 40
0.0
 40
0.0
 40
0.0
 40
0.0
 40
0.1270189728
 40
0.2667052958
 40
0.4120137765
 40
0.554955295
 40
0.6882115235
 40
0.8064649204
 40
0.8595549639
 40
0.908910912
 40
0.9553247897
 40
1.0
 40
1.0
 40
1.0
 40
1.0
 10
72.1038407471
 20
97.4885838297
 30
0.0
 10
72.1038407471
 20
97.2108951732
 30
0.0
 10
72.1828475899
 20
96.627139779
 30
0.0
 10
72.4777905503
 20
95.7713350999
 30
0.0
 10
72.9345572964
 20
94.9493125983
 30
0.0
 10
73.5188738974
 20
94.2301787885
 30
0.0
 10
74.1832751934
 20
93.6716891248
 30
0.0
 10
74.7869384614
 20
93.3687734022
 30
0.0
 10
75.2594579727
 20
93.2609576219
 30
0.0
 10
75.5866995439
 20
93.2468438288
 30
0.0
 10
75.8918810719
 20
93.2979055521
 30
0.0
 10
76.0774540155
 20
93.3762046807
 30
0.0
 10
76.1620591475
 20
93.4250020085
 30
0.0
  0
SPLINE
  5
551
100
AcDbEntity
  8
0
100
AcDbSpline
 62
7
  6
CONTINUOUS
 70
0
 71
3
 72
11
 73
7
 74
0
 42
0.0000001
 43
0.0000001
 44
0.0000000001
 40
0.0
 40
0.0
 40
0.0
 40
0.0
 40
0.2292951975
 40
0.4725904816
 40
0.7297261667
 40
1.0
 40
1.0
 40
1.0
 40
1.0
 10
74.7621758315
 20
166.4572430378
 30
0.0
 10
76.7396794979
 20
165.9343465397
 30
0.0
 10
80.7504198792
 20
164.5998043815
 30
0.0
 10
86.6794203772
 20
161.8871012255
 30
0.0
 10
92.6364167847
 20
158.4358097646
 30
0.0
 10
96.4935334797
 20
155.7309057698
 30
0.0
 10
98.4127861137
 20
154.2716202005
 30
0.0
  0
SPLINE
  5
552
100
AcDbEntity
  8
0
100
AcDbSpline
 62
7
  6
CONTINUOUS
 70
0
 71
3
 72
11
 73
7
 74
0
 42
0.0000001
 43
0.0000001
 44
0.0000000001
 40
0.0
 40
0.0
 40
0.0
 40
0.0
 40
0.2977268115
 40
0.5606037202
 40
0.7905091414
 40
1.0
 40
1.0
 40
1.0
 40
1.0
 10
98.4127861137
 20
154.2716202005
 30
0.0
 10
98.4646869322
 20
154.2321706045
 30
0.0
 10
98.5688966351
 20
154.1656687451
 30
0.0
 10
98.73300202
 20
154.1054344422
 30
0.0
 10
98.8890884474
 20
154.0949208777
 30
0.0
 10
98.9836356155
 20
154.1252030829
 30
0.0
 10
99.0233432754
 20
154.1481697145
 30
0.0
  0
SPLINE
  5
553
100
AcDbEntity
  8
0
100
AcDbSpline
 62
7
  6
CONTINUOUS
 70
0
 71
3
 72
9
 73
5
 74
0
 42
0.0000001
 43
0.0000001
 44
0.0000000001
 40
0.0
 40
0.0
 40
0.0
 40
0.0
 40
0.2463868326
 40
1.0
 40
1.0
 40
1.0
 40
1.0
 10
57.4122678361
 20
123.5031736004
 30
0.0
 10
58.1443737316
 20
123.1489671416
 30
0.0
 10
61.1286742636
 20
121.7382015214
 30
0.0
 10
64.1629235871
 20
120.4334897573
 30
0.0
 10
66.4716288603
 20
119.5072490274
 30
0.0
  0
SPLINE
  5
554
100
AcDbEntity
  8
0
100
AcDbSpline
 62
7
  6
CONTINUOUS
 70
0
 71
3
 72
9
 73
5
 74
0
 42
0.0000001
 43
0.0000001
 44
0.0000000001
 40
0.0
 40
0.0
 40
0.0
 40
0.0
 40
0.241638713
 40
1.0
 40
1.0
 40
1.0
 40
1.0
 10
66.4716288603
 20
119.5072490274
 30
0.0
 10
67.482866987
 20
118.6670993463
 30
0.0
 10
71.7442847798
 20
115.282679668
 30
0.0
 10
76.2902929156
 20
112.2621407917
 30
0.0
 10
79.842087417
 20
110.1622923037
 30
0.0
  0
SPLINE
  5
555
100
AcDbEntity
  8
0
100
AcDbSpline
 62
7
  6
CONTINUOUS
 70
0
 71
3
 72
11
 73
7
 74
0
 42
0.0000001
 43
0.0000001
 44
0.0000000001
 40
0.0
 40
0.0
 40
0.0
 40
0.0
 40
0.2566825145
 40
0.518687885
 40
0.7708660547
 40
1.0
 40
1.0
 40
1.0
 40
1.0
 10
104.5140808735
 20
152.1864219882
 30
0.0
 10
104.6475409561
 20
152.0470482969
 30
0.0
 10
104.8903310508
 20
151.7388039233
 30
0.0
 10
105.1686614177
 20
151.2274825824
 30
0.0
 10
105.3491225755
 20
150.6957458808
 30
0.0
 10
105.3974473028
 20
150.3334909014
 30
0.0
 10
105.3973943958
 20
150.1612333574
 30
0.0
  0
SPLINE
  5
556
100
AcDbEntity
  8
0
100
AcDbSpline
 62
7
  6
CONTINUOUS
 70
0
 71
3
 72
11
 73
7
 74
0
 42
0.0000001
 43
0.0000001
 44
0.0000000001
 40
0.0
 40
0.0
 40
0.0
 40
0.0
 40
0.2292951975
 40
0.4725904816
 40
0.7297261667
 40
1.0
 40
1.0
 40
1.0
 40
1.0
 10
106.4406915181
 20
148.1680572353
 30
0.0
 10
108.4181951845
 20
147.6451607372
 30
0.0
 10
112.4289355658
 20
146.310618579
 30
0.0
 10
118.3579360638
 20
143.5979154229
 30
0.0
 10
124.3149324713
 20
140.1466239621
 30
0.0
 10
128.1720491663
 20
137.4417199673
 30
0.0
 10
130.0913018003
 20
135.982434398
 30
0.0
  0
SPLINE
  5
557
100
AcDbEntity
  8
0
100
AcDbSpline
 62
7
  6
CONTINUOUS
 70
0
 71
3
 72
11
 73
7
 74
0
 42
0.0000001
 43
0.0000001
 44
0.0000000001
 40
0.0
 40
0.0
 40
0.0
 40
0.0
 40
0.2977268115
 40
0.5606037202
 40
0.7905091414
 40
1.0
 40
1.0
 40
1.0
 40
1.0
 10
130.0913018003
 20
135.982434398
 30
0.0
 10
130.1432026187
 20
135.942984802
 30
0.0
 10
130.2474123217
 20
135.8764829426
 30
0.0
 10
130.4115177066
 20
135.8162486397
 30
0.0
 10
130.567604134
 20
135.8057350752
 30
0.0
 10
130.662151302
 20
135.8360172804
 30
0.0
 10
130.701858962
 20
135.858983912
 30
0.0
  0
SPLINE
  5
558
100
AcDbEntity
  8
0
100
AcDbSpline
 62
7
  6
CONTINUOUS
 70
0
 71
3
 72
11
 73
7
 74
0
 42
0.0000001
 43
0.0000001
 44
0.0000000001
 40
0.0
 40
0.0
 40
0.0
 40
0.0
 40
0.2566824931
 40
0.5186878506
 40
0.770866039
 40
1.0
 40
1.0
 40
1.0
 40
1.0
 10
136.1925965601
 20
133.8972361857
 30
0.0
 10
136.3260565299
 20
133.7578626122
 30
0.0
 10
136.5688464475
 20
133.4496185168
 30
0.0
 10
136.8471766915
 20
132.9382976329
 30
0.0
 10
137.0276379394
 20
132.4065614065
 30
0.0
 10
137.0759627833
 20
132.0443066831
 30
0.0
 10
137.0759098763
 20
131.8720492586
 30
0.0
  0
SPLINE
  5
559
100
AcDbEntity
  8
0
100
AcDbSpline
 62
7
  6
CONTINUOUS
 70
0
 71
3
 72
9
 73
5
 74
0
 42
0.0000001
 43
0.0000001
 44
0.0000000001
 40
0.0
 40
0.0
 40
0.0
 40
0.0
 40
0.2469348959
 40
1.0
 40
1.0
 40
1.0
 40
1.0
 10
81.2509329453
 20
109.3424510374
 30
0.0
 10
81.7623414981
 20
109.0495218124
 30
0.0
 10
83.8420925182
 20
107.8785414367
 30
0.0
 10
85.9558573456
 20
106.7681155292
 30
0.0
 10
87.5636948815
 20
105.9648060307
 30
0.0
  0
SPLINE
  5
55A
100
AcDbEntity
  8
0
100
AcDbSpline
 62
7
  6
CONTINUOUS
 70
0
 71
3
 72
11
 73
7
 74
0
 42
0.0000001
 43
0.0000001
 44
0.0000000001
 40
0.0
 40
0.0
 40
0.0
 40
0.0
 40
0.2689025509
 40
0.5260297181
 40
0.7700341334
 40
1.0
 40
1.0
 40
1.0
 40
1.0
 10
131.2372250474
 20
131.0640186835
 30
0.0
 10
130.0614071705
 20
132.1756904312
 30
0.0
 10
127.6781914641
 20
134.2649082449
 30
0.0
 10
123.9474741599
 20
137.0229181101
 30
0.0
 10
120.1801616047
 20
139.3073031237
 30
0.0
 10
117.5967745224
 20
140.531923316
 30
0.0
 10
116.3131176502
 20
141.0488520024
 30
0.0
  0
SPLINE
  5
55B
100
AcDbEntity
  8
0
100
AcDbSpline
 62
7
  6
CONTINUOUS
 70
0
 71
3
 72
9
 73
5
 74
0
 42
0.0000001
 43
0.0000001
 44
0.0000000001
 40
0.0
 40
0.0
 40
0.0
 40
0.0
 40
0.2606227961
 40
1.0
 40
1.0
 40
1.0
 40
1.0
 10
116.3131176502
 20
141.0488520024
 30
0.0
 10
115.7995540091
 20
141.2556641062
 30
0.0
 10
113.8106490671
 20
142.0016436965
 30
0.0
 10
111.7439946777
 20
142.5492048278
 30
0.0
 10
110.1945387574
 20
142.8064207335
 30
0.0
  0
SPLINE
  5
55C
100
AcDbEntity
  8
0
100
AcDbSpline
 62
7
  6
CONTINUOUS
 70
0
 71
3
 72
17
 73
13
 74
0
 42
0.0000001
 43
0.0000001
 44
0.0000000001
 40
0.0
 40
0.0
 40
0.0
 40
0.0
 40
0.1286888989
 40
0.2702797405
 40
0.4174318429
 40
0.5617733507
 40
0.6954455145
 40
0.8127095997
 40
0.8646749136
 40
0.9125085803
 40
0.9571389859
 40
1.0
 40
1.0
 40
1.0
 40
1.0
 10
100.3418605641
 20
152.3330437675
 30
0.0
 10
100.3418490553
 20
152.1407251685
 30
0.0
 10
100.3956710959
 20
151.7363463183
 30
0.0
 10
100.5964685286
 20
151.1426053054
 30
0.0
 10
100.9059122591
 20
150.5706497943
 30
0.0
 10
101.2990998046
 20
150.0673729777
 30
0.0
 10
101.7439131204
 20
149.6734261759
 30
0.0
 10
102.1465307932
 20
149.4532746429
 30
0.0
 10
102.4614782059
 20
149.3695010448
 30
0.0
 10
102.6782396796
 20
149.3535399262
 30
0.0
 10
102.8800804642
 20
149.3831213566
 30
0.0
 10
103.0023694128
 20
149.4339341437
 30
0.0
 10
103.057828699
 20
149.4659827673
 30
0.0
  0
SPLINE
  5
55D
100
AcDbEntity
  8
0
100
AcDbSpline
 62
7
  6
CONTINUOUS
 70
0
 71
3
 72
17
 73
13
 74
0
 42
0.0000001
 43
0.0000001
 44
0.0000000001
 40
0.0
 40
0.0
 40
0.0
 40
0.0
 40
0.1286888989
 40
0.2702797405
 40
0.4174318429
 40
0.5617733507
 40
0.6954455145
 40
0.8127095997
 40
0.8646749136
 40
0.9125085803
 40
0.9571389859
 40
1.0
 40
1.0
 40
1.0
 40
1.0
 10
132.0203762507
 20
134.043857965
 30
0.0
 10
132.0203647418
 20
133.851539366
 30
0.0
 10
132.0741867825
 20
133.4471605158
 30
0.0
 10
132.2749842152
 20
132.8534195029
 30
0.0
 10
132.5844279457
 20
132.2814639918
 30
0.0
 10
132.9776154912
 20
131.7781871752
 30
0.0
 10
133.422428807
 20
131.3842403734
 30
0.0
 10
133.8250464798
 20
131.1640888404
 30
0.0
 10
134.1399938925
 20
131.0803152423
 30
0.0
 10
134.3567553662
 20
131.0643541237
 30
0.0
 10
134.5585961508
 20
131.093935554
 30
0.0
 10
134.6808850994
 20
131.1447483412
 30
0.0
 10
134.7363443856
 20
131.1767969648
 30
0.0
  0
SPLINE
  5
55E
100
AcDbEntity
  8
0
100
AcDbSpline
 62
7
  6
CONTINUOUS
 70
0
 71
3
 72
9
 73
5
 74
0
 42
0.0000001
 43
0.0000001
 44
0.0000000001
 40
0.0
 40
0.0
 40
0.0
 40
0.0
 40
0.2463868326
 40
1.0
 40
1.0
 40
1.0
 40
1.0
 10
89.0907835227
 20
105.2139877979
 30
0.0
 10
89.8228894182
 20
104.859781339
 30
0.0
 10
92.8071899502
 20
103.4490157189
 30
0.0
 10
95.8414392737
 20
102.1443039548
 30
0.0
 10
98.1501445469
 20
101.2180632248
 30
0.0
  0
SPLINE
  5
55F
100
AcDbEntity
  8
0
100
AcDbSpline
 62
7
  6
CONTINUOUS
 70
0
 71
3
 72
11
 73
7
 74
0
 42
0.0000001
 43
0.0000001
 44
0.0000000001
 40
0.0
 40
0.0
 40
0.0
 40
0.0
 40
0.2268685514
 40
0.4628582839
 40
0.7187911038
 40
1.0
 40
1.0
 40
1.0
 40
1.0
 10
57.9036250095
 20
128.8294395081
 30
0.0
 10
57.7896870191
 20
128.7636829423
 30
0.0
 10
57.5773129626
 20
128.5910703131
 30
0.0
 10
57.3466184894
 20
128.2371398675
 30
0.0
 10
57.2090763696
 20
127.8058258405
 30
0.0
 10
57.1816945699
 20
127.4931464937
 30
0.0
 10
57.18169457
 20
127.3300853468
 30
0.0
  0
SPLINE
  5
560
100
AcDbEntity
  8
0
100
AcDbSpline
 62
7
  6
CONTINUOUS
 70
0
 71
3
 72
11
 73
7
 74
0
 42
0.0000001
 43
0.0000001
 44
0.0000000001
 40
0.0
 40
0.0
 40
0.0
 40
0.0
 40
0.229674706
 40
0.491819575
 40
0.7586006251
 40
1.0
 40
1.0
 40
1.0
 40
1.0
 10
105.6806361399
 20
133.8768016258
 30
0.0
 10
105.6295532409
 20
133.8992771331
 30
0.0
 10
105.5117028234
 20
133.9280108351
 30
0.0
 10
105.3264014349
 20
133.9318856576
 30
0.0
 10
105.1408160305
 20
133.9005934606
 30
0.0
 10
105.0243284751
 20
133.8553241041
 30
0.0
 10
104.9735293587
 20
133.8259953957
 30
0.0
  0
SPLINE
  5
561
100
AcDbEntity
  8
0
100
AcDbSpline
 62
7
  6
CONTINUOUS
 70
0
 71
3
 72
11
 73
7
 74
0
 42
0.0000001
 43
0.0000001
 44
0.0000000001
 40
0.0
 40
0.0
 40
0.0
 40
0.0
 40
0.2372423294
 40
0.4999983821
 40
0.7627553152
 40
1.0
 40
1.0
 40
1.0
 40
1.0
 10
138.6318392274
 20
88.0107327466
 30
0.0
 10
138.6920731519
 20
88.0455086115
 30
0.0
 10
138.8060524169
 20
88.1414458765
 30
0.0
 10
138.9390847039
 20
88.3232413103
 30
0.0
 10
139.0300072279
 20
88.5293494771
 30
0.0
 10
139.0561015297
 20
88.6760279574
 30
0.0
 10
139.0561015297
 20
88.7455806892
 30
0.0
  0
SPLINE
  5
562
100
AcDbEntity
  8
0
100
AcDbSpline
 62
7
  6
CONTINUOUS
 70
0
 71
3
 72
11
 73
7
 74
0
 42
0.0000001
 43
0.0000001
 44
0.0000000001
 40
0.0
 40
0.0
 40
0.0
 40
0.0
 40
0.2177817009
 40
0.4509079353
 40
0.7102947134
 40
1.0
 40
1.0
 40
1.0
 40
1.0
 10
77.6639505118
 20
138.6949098418
 30
0.0
 10
77.6639504976
 20
138.7710866693
 30
0.0
 10
77.6357993872
 20
138.9298632905
 30
0.0
 10
77.5154302595
 20
139.1510899267
 30
0.0
 10
77.3251437833
 20
139.3510697283
 30
0.0
 10
77.1659270323
 20
139.4607316906
 30
0.0
 10
77.0781681659
 20
139.5113981495
 30
0.0
  0
SPLINE
  5
563
100
AcDbEntity
  8
0
100
AcDbSpline
 62
7
  6
CONTINUOUS
 70
0
 71
3
 72
11
 73
7
 74
0
 42
0.0000001
 43
0.0000001
 44
0.0000000001
 40
0.0
 40
0.0
 40
0.0
 40
0.0
 40
0.2897408825
 40
0.5492350765
 40
0.7823499425
 40
1.0
 40
1.0
 40
1.0
 40
1.0
 10
137.0759099575
 20
76.1875960953
 30
0.0
 10
137.075938318
 20
76.0858855928
 30
0.0
 10
137.0608271407
 20
75.8924321646
 30
0.0
 10
136.9831797023
 20
75.6264533056
 30
0.0
 10
136.8517244094
 20
75.4105543498
 30
0.0
 10
136.7279449499
 20
75.3063477864
 30
0.0
 10
136.6617853964
 20
75.268131945
 30
0.0
  0
SPLINE
  5
564
100
AcDbEntity
  8
0
100
AcDbSpline
 62
7
  6
CONTINUOUS
 70
0
 71
3
 72
9
 73
5
 74
0
 42
0.0000001
 43
0.0000001
 44
0.0000000001
 40
0.0
 40
0.0
 40
0.0
 40
0.0
 40
0.255874053
 40
1.0
 40
1.0
 40
1.0
 40
1.0
 10
84.8903320461
 20
96.4427739223
 30
0.0
 10
83.6440552715
 20
96.9902730516
 30
0.0
 10
78.8010987502
 20
99.1921625043
 30
0.0
 10
74.0720335386
 20
101.6473077105
 30
0.0
 10
70.6436733896
 20
103.6266275872
 30
0.0
  0
SPLINE
  5
565
100
AcDbEntity
  8
0
100
AcDbSpline
 62
7
  6
CONTINUOUS
 70
0
 71
3
 72
9
 73
5
 74
0
 42
0.0000001
 43
0.0000001
 44
0.0000000001
 40
0.0
 40
0.0
 40
0.0
 40
0.0
 40
0.2571207838
 40
1.0
 40
1.0
 40
1.0
 40
1.0
 10
68.5916417288
 20
104.836379624
 30
0.0
 10
67.4733067541
 20
105.5096178009
 30
0.0
 10
63.1643090003
 20
108.1941429463
 30
0.0
 10
59.0219655017
 20
111.149781134
 30
0.0
 10
56.0772024533
 20
113.5060599654
 30
0.0
  0
SPLINE
  5
566
100
AcDbEntity
  8
0
100
AcDbSpline
 62
7
  6
CONTINUOUS
 70
0
 71
3
 72
9
 73
5
 74
0
 42
0.0000001
 43
0.0000001
 44
0.0000000001
 40
0.0
 40
0.0
 40
0.0
 40
0.0
 40
0.255874053
 40
1.0
 40
1.0
 40
1.0
 40
1.0
 10
53.2118163595
 20
114.7319597248
 30
0.0
 10
51.9655395849
 20
115.2794588541
 30
0.0
 10
47.1225830636
 20
117.4813483068
 30
0.0
 10
42.393517852
 20
119.936493513
 30
0.0
 10
38.965157703
 20
121.9158133897
 30
0.0
  0
SPLINE
  5
567
100
AcDbEntity
  8
0
100
AcDbSpline
 62
7
  6
CONTINUOUS
 70
0
 71
3
 72
9
 73
5
 74
0
 42
0.0000001
 43
0.0000001
 44
0.0000000001
 40
0.0
 40
0.0
 40
0.0
 40
0.0
 40
0.2571207838
 40
1.0
 40
1.0
 40
1.0
 40
1.0
 10
36.9131260422
 20
123.1255654266
 30
0.0
 10
35.7947910675
 20
123.7988036034
 30
0.0
 10
31.4857933137
 20
126.4833287488
 30
0.0
 10
27.3434498151
 20
129.4389669365
 30
0.0
 10
24.3986867667
 20
131.795245768
 30
0.0
  0
SPLINE
  5
568
100
AcDbEntity
  8
0
100
AcDbSpline
 62
7
  6
CONTINUOUS
 70
0
 71
3
 72
9
 73
5
 74
0
 42
0.0000001
 43
0.0000001
 44
0.0000000001
 40
0.0
 40
0.0
 40
0.0
 40
0.0
 40
0.241638713
 40
1.0
 40
1.0
 40
1.0
 40
1.0
 10
34.7931131737
 20
137.7964348299
 30
0.0
 10
35.8043513005
 20
136.9562851488
 30
0.0
 10
40.0657690933
 20
133.5718654706
 30
0.0
 10
44.611777229
 20
130.5513265942
 30
0.0
 10
48.1635717304
 20
128.4514781062
 30
0.0
  0
SPLINE
  5
569
100
AcDbEntity
  8
0
100
AcDbSpline
 62
7
  6
CONTINUOUS
 70
0
 71
3
 72
9
 73
5
 74
0
 42
0.0000001
 43
0.0000001
 44
0.0000000001
 40
0.0
 40
0.0
 40
0.0
 40
0.0
 40
0.2469348959
 40
1.0
 40
1.0
 40
1.0
 40
1.0
 10
49.5724172587
 20
127.6316368399
 30
0.0
 10
50.0838258115
 20
127.3387076149
 30
0.0
 10
52.1635768316
 20
126.1677272392
 30
0.0
 10
54.2773416591
 20
125.0573013317
 30
0.0
 10
55.8851791949
 20
124.2539918333
 30
0.0
  0
SPLINE
  5
56A
100
AcDbEntity
  8
0
100
AcDbSpline
 62
7
  6
CONTINUOUS
 70
0
 71
3
 72
11
 73
7
 74
0
 42
0.0000001
 43
0.0000001
 44
0.0000000001
 40
0.0
 40
0.0
 40
0.0
 40
0.0
 40
0.2158909838
 40
0.448208754
 40
0.708256753
 40
1.0
 40
1.0
 40
1.0
 40
1.0
 10
47.6323850445
 20
134.3301741154
 30
0.0
 10
47.5286085262
 20
134.270319926
 30
0.0
 10
47.3345134834
 20
134.1057013236
 30
0.0
 10
47.1294276184
 20
133.7641352761
 30
0.0
 10
47.0079098164
 20
133.3424287223
 30
0.0
 10
46.9840499282
 20
133.0352353574
 30
0.0
 10
46.9840499282
 20
132.8733439207
 30
0.0
  0
SPLINE
  5
56B
100
AcDbEntity
  8
0
100
AcDbSpline
 62
7
  6
CONTINUOUS
 70
0
 71
3
 72
17
 73
13
 74
0
 42
0.0000001
 43
0.0000001
 44
0.0000000001
 40
0.0
 40
0.0
 40
0.0
 40
0.0
 40
0.0421853217
 40
0.0859725635
 40
0.1329020463
 40
0.1839886423
 40
0.2998679021
 40
0.4329917744
 40
0.5778036731
 40
0.7263367887
 40
0.8697726501
 40
1.0
 40
1.0
 40
1.0
 40
1.0
 10
36.8651776446
 20
115.9707478369
 30
0.0
 10
36.7869548347
 20
115.925579461
 30
0.0
 10
36.6144650996
 20
115.8544861599
 30
0.0
 10
36.3298355468
 20
115.8158857765
 30
0.0
 10
36.0252384326
 20
115.8442236194
 30
0.0
 10
35.5836521291
 20
115.9740666473
 30
0.0
 10
35.0226742552
 20
116.3060168964
 30
0.0
 10
34.4091473072
 20
116.8916442335
 30
0.0
 10
33.8705694423
 20
117.6346817594
 30
0.0
 10
33.449236847
 20
118.4741748495
 30
0.0
 10
33.1769740676
 20
119.3401237688
 30
0.0
 10
33.1037863439
 20
119.9266360302
 30
0.0
 10
33.1037863439
 20
120.2054785779
 30
0.0
  0
SPLINE
  5
56C
100
AcDbEntity
  8
0
100
AcDbSpline
 62
7
  6
CONTINUOUS
 70
0
 71
3
 72
11
 73
7
 74
0
 42
0.0000001
 43
0.0000001
 44
0.0000000001
 40
0.0
 40
0.0
 40
0.0
 40
0.0
 40
0.2199684893
 40
0.4536395334
 40
0.7121505793
 40
1.0
 40
1.0
 40
1.0
 40
1.0
 10
41.1104508679
 20
117.2727590598
 30
0.0
 10
41.0013698027
 20
117.2097963644
 30
0.0
 10
40.7976381268
 20
117.0396689035
 30
0.0
 10
40.5799768341
 20
116.6882823921
 30
0.0
 10
40.4507712764
 20
116.2565088078
 30
0.0
 10
40.4253250605
 20
115.9425848366
 30
0.0
 10
40.4253250605
 20
115.7777696322
 30
0.0
  0
SPLINE
  5
56D
100
AcDbEntity
  8
0
100
AcDbSpline
 62
7
  6
CONTINUOUS
 70
0
 71
3
 72
11
 73
7
 74
0
 42
0.0000001
 43
0.0000001
 44
0.0000000001
 40
0.0
 40
0.0
 40
0.0
 40
0.0
 40
0.2177817009
 40
0.4509079353
 40
0.7102947134
 40
1.0
 40
1.0
 40
1.0
 40
1.0
 10
67.7644143597
 20
144.4102804051
 30
0.0
 10
67.7644143456
 20
144.4864572326
 30
0.0
 10
67.7362632351
 20
144.6452338538
 30
0.0
 10
67.6158941074
 20
144.86646049
 30
0.0
 10
67.4256076312
 20
145.0664402915
 30
0.0
 10
67.2663908803
 20
145.1761022539
 30
0.0
 10
67.1786320139
 20
145.2267687128
 30
0.0
  0
SPLINE
  5
56E
100
AcDbEntity
  8
0
100
AcDbSpline
 62
7
  6
CONTINUOUS
 70
0
 71
3
 72
11
 73
7
 74
0
 42
0.0000001
 43
0.0000001
 44
0.0000000001
 40
0.0
 40
0.0
 40
0.0
 40
0.0
 40
0.2372428732
 40
0.4999994739
 40
0.7627563609
 40
1.0
 40
1.0
 40
1.0
 40
1.0
 10
112.1153899853
 20
129.3666801431
 30
0.0
 10
112.0651949924
 20
129.3377002234
 30
0.0
 10
111.9484667435
 20
129.2954168596
 30
0.0
 10
111.7618371506
 20
129.2751566092
 30
0.0
 10
111.5752072759
 20
129.2954160079
 30
0.0
 10
111.458478568
 20
129.3376987921
 30
0.0
 10
111.4082832041
 20
129.3666784434
 30
0.0
  0
SPLINE
  5
56F
100
AcDbEntity
  8
0
100
AcDbSpline
 62
7
  6
CONTINUOUS
 70
0
 71
3
 72
17
 73
13
 74
0
 42
0.0000001
 43
0.0000001
 44
0.0000000001
 40
0.0
 40
0.0
 40
0.0
 40
0.0
 40
0.0421853217
 40
0.0859725635
 40
0.1329020463
 40
0.1839886423
 40
0.2998679021
 40
0.4329917744
 40
0.5778036731
 40
0.7263367887
 40
0.8697726501
 40
1.0
 40
1.0
 40
1.0
 40
1.0
 10
68.5436933312
 20
97.6815620344
 30
0.0
 10
68.4654705213
 20
97.6363936584
 30
0.0
 10
68.2929807862
 20
97.5653003574
 30
0.0
 10
68.0083512334
 20
97.526699974
 30
0.0
 10
67.7037541192
 20
97.5550378169
 30
0.0
 10
67.2621678157
 20
97.6848808448
 30
0.0
 10
66.7011899417
 20
98.0168310939
 30
0.0
 10
66.0876629938
 20
98.602458431
 30
0.0
 10
65.5490851289
 20
99.3454959569
 30
0.0
 10
65.1277525336
 20
100.184989047
 30
0.0
 10
64.8554897542
 20
101.0509379663
 30
0.0
 10
64.7823020305
 20
101.6374502277
 30
0.0
 10
64.7823020305
 20
101.9162927754
 30
0.0
  0
SPLINE
  5
570
100
AcDbEntity
  8
0
100
AcDbSpline
 62
7
  6
CONTINUOUS
 70
0
 71
3
 72
11
 73
7
 74
0
 42
0.0000001
 43
0.0000001
 44
0.0000000001
 40
0.0
 40
0.0
 40
0.0
 40
0.0
 40
0.2177359779
 40
0.4508581358
 40
0.7103549501
 40
1.0
 40
1.0
 40
1.0
 40
1.0
 10
35.9619246734
 20
146.471768672
 30
0.0
 10
35.961935971
 20
146.4260723038
 30
0.0
 10
35.9787845153
 20
146.3308131678
 30
0.0
 10
36.0510359035
 20
146.1980699898
 30
0.0
 10
36.1652229526
 20
146.0780903856
 30
0.0
 10
36.2607486798
 20
146.012269121
 30
0.0
 10
36.3133929005
 20
145.9818756536
 30
0.0
  0
SPLINE
  5
571
100
AcDbEntity
  8
0
100
AcDbSpline
 62
7
  6
CONTINUOUS
 70
0
 71
3
 72
11
 73
7
 74
0
 42
0.0000001
 43
0.0000001
 44
0.0000000001
 40
0.0
 40
0.0
 40
0.0
 40
0.0
 40
0.2372428732
 40
0.4999994739
 40
0.7627563609
 40
1.0
 40
1.0
 40
1.0
 40
1.0
 10
80.2247413812
 20
147.7783381719
 30
0.0
 10
80.1745463883
 20
147.7493582523
 30
0.0
 10
80.0578181394
 20
147.7070748885
 30
0.0
 10
79.8711885464
 20
147.6868146381
 30
0.0
 10
79.6845586718
 20
147.7070740368
 30
0.0
 10
79.5678299639
 20
147.749356821
 30
0.0
 10
79.5176346
 20
147.7783364723
 30
0.0
  0
SPLINE
  5
572
100
AcDbEntity
  8
0
100
AcDbSpline
 62
7
  6
CONTINUOUS
 70
0
 71
3
 72
11
 73
7
 74
0
 42
0.0000001
 43
0.0000001
 44
0.0000000001
 40
0.0
 40
0.0
 40
0.0
 40
0.0
 40
0.2372428732
 40
0.4999994739
 40
0.7627563609
 40
1.0
 40
1.0
 40
1.0
 40
1.0
 10
68.52207543
 20
154.5347226592
 30
0.0
 10
68.4718804371
 20
154.5057427396
 30
0.0
 10
68.3551521882
 20
154.4634593758
 30
0.0
 10
68.1685225952
 20
154.4431991254
 30
0.0
 10
67.9818927206
 20
154.4634585241
 30
0.0
 10
67.8651640127
 20
154.5057413083
 30
0.0
 10
67.8149686488
 20
154.5347209596
 30
0.0
  0
SPLINE
  5
573
100
AcDbEntity
  8
0
100
AcDbSpline
 62
7
  6
CONTINUOUS
 70
0
 71
3
 72
11
 73
7
 74
0
 42
0.0000001
 43
0.0000001
 44
0.0000000001
 40
0.0
 40
0.0
 40
0.0
 40
0.0
 40
0.2031786478
 40
0.4314035967
 40
0.6961881629
 40
1.0
 40
1.0
 40
1.0
 40
1.0
 10
38.4611546056
 20
140.4660363003
 30
0.0
 10
38.3678630884
 20
140.4122288705
 30
0.0
 10
38.1928421025
 20
140.2554389375
 30
0.0
 10
38.013630791
 20
139.9272615982
 30
0.0
 10
37.9074638276
 20
139.515248991
 30
0.0
 10
37.8869675722
 20
139.2130466501
 30
0.0
 10
37.8869675723
 20
139.0520086337
 30
0.0
  0
SPLINE
  5
574
100
AcDbEntity
  8
0
100
AcDbSpline
 62
7
  6
CONTINUOUS
 70
0
 71
3
 72
11
 73
7
 74
0
 42
0.0000001
 43
0.0000001
 44
0.0000000001
 40
0.0
 40
0.0
 40
0.0
 40
0.0
 40
0.2177817009
 40
0.4509079353
 40
0.7102947134
 40
1.0
 40
1.0
 40
1.0
 40
1.0
 10
57.8648782076
 20
150.1256509684
 30
0.0
 10
57.8648781935
 20
150.2018277959
 30
0.0
 10
57.836727083
 20
150.3606044171
 30
0.0
 10
57.7163579553
 20
150.5818310533
 30
0.0
 10
57.5260714792
 20
150.7818108548
 30
0.0
 10
57.3668547282
 20
150.8914728172
 30
0.0
 10
57.2790958618
 20
150.9421392761
 30
0.0
  0
SPLINE
  5
575
100
AcDbEntity
  8
0
100
AcDbSpline
 62
7
  6
CONTINUOUS
 70
0
 71
3
 72
11
 73
7
 74
0
 42
0.0000001
 43
0.0000001
 44
0.0000000001
 40
0.0
 40
0.0
 40
0.0
 40
0.0
 40
0.229674706
 40
0.491819575
 40
0.7586006251
 40
1.0
 40
1.0
 40
1.0
 40
1.0
 10
74.0021204533
 20
152.1659874284
 30
0.0
 10
73.9510375543
 20
152.1884629356
 30
0.0
 10
73.8331871369
 20
152.2171966376
 30
0.0
 10
73.6478857483
 20
152.2210714601
 30
0.0
 10
73.462300344
 20
152.1897792631
 30
0.0
 10
73.3458127885
 20
152.1445099067
 30
0.0
 10
73.2950136721
 20
152.1151811982
 30
0.0
  0
SPLINE
  5
576
100
AcDbEntity
  8
0
100
AcDbSpline
 62
7
  6
CONTINUOUS
 70
0
 71
3
 72
11
 73
7
 74
0
 42
0.0000001
 43
0.0000001
 44
0.0000000001
 40
0.0
 40
0.0
 40
0.0
 40
0.0
 40
0.2372428732
 40
0.4999994739
 40
0.7627563609
 40
1.0
 40
1.0
 40
1.0
 40
1.0
 10
100.3420130616
 20
136.1638887058
 30
0.0
 10
100.2918180687
 20
136.1349087862
 30
0.0
 10
100.1750898198
 20
136.0926254224
 30
0.0
 10
99.9884602269
 20
136.072365172
 30
0.0
 10
99.8018303522
 20
136.0926245707
 30
0.0
 10
99.6851016443
 20
136.1349073549
 30
0.0
 10
99.6349062804
 20
136.1638870062
 30
0.0
  0
SPLINE
  5
577
100
AcDbEntity
  8
0
100
AcDbSpline
 62
7
  6
CONTINUOUS
 70
0
 71
3
 72
16
 73
12
 74
0
 42
0.0000001
 43
0.0000001
 44
0.0000000001
 40
0.0
 40
0.0
 40
0.0
 40
0.0
 40
0.124251924
 40
0.2606945169
 40
0.4031355542
 40
0.5443367045
 40
0.6776011333
 40
0.798029703
 40
0.9041923384
 40
0.9530176075
 40
1.0
 40
1.0
 40
1.0
 40
1.0
 10
57.18169457
 20
127.3300853468
 30
0.0
 10
57.1816945701
 20
127.0567934735
 30
0.0
 10
57.2652569496
 20
126.4825416005
 30
0.0
 10
57.5787221676
 20
125.647554377
 30
0.0
 10
58.0633672771
 20
124.8543609189
 30
0.0
 10
58.6818492447
 20
124.1699935908
 30
0.0
 10
59.3850267323
 20
123.6487354584
 30
0.0
 10
60.1207957761
 20
123.3347006905
 30
0.0
 10
60.736776405
 20
123.2706295876
 30
0.0
 10
61.1755248245
 20
123.3563814126
 30
0.0
 10
61.3708852754
 20
123.440757873
 30
0.0
 10
61.4604019687
 20
123.4923857586
 30
0.0
  0
SPLINE
  5
578
100
AcDbEntity
  8
0
100
AcDbSpline
 62
7
  6
CONTINUOUS
 70
0
 71
3
 72
13
 73
9
 74
0
 42
0.0000001
 43
0.0000001
 44
0.0000000001
 40
0.0
 40
0.0
 40
0.0
 40
0.0
 40
0.1143330623
 40
0.2378741908
 40
0.5005631209
 40
0.7626979431
 40
0.8858512963
 40
1.0
 40
1.0
 40
1.0
 40
1.0
 10
46.9840499282
 20
132.8733439207
 30
0.0
 10
46.9840499283
 20
132.6943464435
 30
0.0
 10
47.0161507391
 20
132.321591671
 30
0.0
 10
47.1894343744
 20
131.5555266166
 30
0.0
 10
47.5925821503
 20
130.6137896851
 30
0.0
 10
48.1894927036
 20
129.7812876681
 30
0.0
 10
48.7583161535
 20
129.2419755613
 30
0.0
 10
49.0633960641
 20
129.0266060773
 30
0.0
 10
49.2181633426
 20
128.9372531688
 30
0.0
  0
SPLINE
  5
579
100
AcDbEntity
  8
0
100
AcDbSpline
 62
7
  6
CONTINUOUS
 70
0
 71
3
 72
11
 73
7
 74
0
 42
0.0000001
 43
0.0000001
 44
0.0000000001
 40
0.0
 40
0.0
 40
0.0
 40
0.0
 40
0.2876030642
 40
0.5463233693
 40
0.780345768
 40
1.0
 40
1.0
 40
1.0
 40
1.0
 10
49.2181633426
 20
128.9372531688
 30
0.0
 10
49.3587288247
 20
128.8560994858
 30
0.0
 10
49.6395436798
 20
128.7236679411
 30
0.0
 10
50.0722311371
 20
128.6224245634
 30
0.0
 10
50.4794785529
 20
128.6355348163
 30
0.0
 10
50.7251711358
 20
128.7253514555
 30
0.0
 10
50.8325625467
 20
128.7872697971
 30
0.0
  0
SPLINE
  5
57A
100
AcDbEntity
  8
0
100
AcDbSpline
 62
7
  6
CONTINUOUS
 70
0
 71
3
 72
11
 73
7
 74
0
 42
0.0000001
 43
0.0000001
 44
0.0000000001
 40
0.0
 40
0.0
 40
0.0
 40
0.0
 40
0.2895416688
 40
0.549118971
 40
0.7822562702
 40
1.0
 40
1.0
 40
1.0
 40
1.0
 10
49.7461256619
 20
121.6898992478
 30
0.0
 10
49.7022726156
 20
121.6645808308
 30
0.0
 10
49.6226938366
 20
121.6097085432
 30
0.0
 10
49.5275018836
 20
121.5097728131
 30
0.0
 10
49.4672752318
 20
121.3991333481
 30
0.0
 10
49.4532913282
 20
121.3197390314
 30
0.0
 10
49.45329134
 20
121.2816584937
 30
0.0
  0
SPLINE
  5
57B
100
AcDbEntity
  8
0
100
AcDbSpline
 62
7
  6
CONTINUOUS
 70
0
 71
3
 72
17
 73
13
 74
0
 42
0.0000001
 43
0.0000001
 44
0.0000000001
 40
0.0
 40
0.0
 40
0.0
 40
0.0
 40
0.1336378944
 40
0.280976379
 40
0.4327606653
 40
0.579350551
 40
0.7123226822
 40
0.8257226953
 40
0.8747415278
 40
0.9192018698
 40
0.9603371349
 40
1.0
 40
1.0
 40
1.0
 40
1.0
 10
37.8869675723
 20
139.0520086337
 30
0.0
 10
37.8869675724
 20
138.7753575331
 30
0.0
 10
37.9540214554
 20
138.1933169228
 30
0.0
 10
38.2004496391
 20
137.3288720494
 30
0.0
 10
38.5816076519
 20
136.4848618299
 30
0.0
 10
39.0688289154
 20
135.7319241361
 30
0.0
 10
39.6223075632
 20
135.1301865875
 30
0.0
 10
40.1323796822
 20
134.7769013557
 30
0.0
 10
40.5367935542
 20
134.6290642574
 30
0.0
 10
40.8147747206
 20
134.5877412231
 30
0.0
 10
41.0757219258
 20
134.6133303889
 30
0.0
 10
41.2336209745
 20
134.6762300758
 30
0.0
 10
41.3047515934
 20
134.7172447289
 30
0.0
  0
SPLINE
  5
57C
100
AcDbEntity
  8
0
100
AcDbSpline
 62
7
  6
CONTINUOUS
 70
0
 71
3
 72
9
 73
5
 74
0
 42
0.0000001
 43
0.0000001
 44
0.0000000001
 40
0.0
 40
0.0
 40
0.0
 40
0.0
 40
0.4667876535
 40
1.0
 40
1.0
 40
1.0
 40
1.0
 10
99.9184310639
 20
155.0241519456
 30
0.0
 10
100.0037398569
 20
155.0401858466
 30
0.0
 10
100.190223329
 20
155.0550567656
 30
0.0
 10
100.3767678787
 20
155.0366896418
 30
0.0
 10
100.4736852056
 20
155.0157449898
 30
0.0
  0
SPLINE
  5
57D
100
AcDbEntity
  8
0
100
AcDbSpline
 62
7
  6
CONTINUOUS
 70
0
 71
3
 72
19
 73
15
 74
0
 42
0.0000001
 43
0.0000001
 44
0.0000000001
 40
0.0
 40
0.0
 40
0.0
 40
0.0
 40
0.2379080959
 40
0.3599280616
 40
0.4837325677
 40
0.6091999793
 40
0.6725441245
 40
0.736311541
 40
0.8005502274
 40
0.8653883569
 40
0.89813308
 40
0.9312368747
 40
0.9650196306
 40
1.0
 40
1.0
 40
1.0
 40
1.0
 10
100.4736852056
 20
155.0157449898
 30
0.0
 10
100.5980531892
 20
154.9888680193
 30
0.0
 10
100.7857953548
 20
154.9462436231
 30
0.0
 10
101.0369963056
 20
154.8843342977
 30
0.0
 10
101.2291785366
 20
154.8343274213
 30
0.0
 10
101.3904216961
 20
154.7900952967
 30
0.0
 10
101.5203599744
 20
154.7531628154
 30
0.0
 10
101.6186486018
 20
154.724645389
 30
0.0
 10
101.7175783403
 20
154.6955237713
 30
0.0
 10
101.8006076783
 20
154.6709817118
 30
0.0
 10
101.8677107036
 20
154.6516772892
 30
0.0
 10
101.9192611898
 20
154.6373450527
 30
0.0
 10
101.9714420372
 20
154.6248424954
 30
0.0
 10
102.0097113791
 20
154.6175727531
 30
0.0
 10
102.027639439
 20
154.6229194341
 30
0.0
  0
SPLINE
  5
57E
100
AcDbEntity
  8
0
100
AcDbSpline
 62
7
  6
CONTINUOUS
 70
0
 71
3
 72
25
 73
21
 74
0
 42
0.0000001
 43
0.0000001
 44
0.0000000001
 40
0.0
 40
0.0
 40
0.0
 40
0.0
 40
0.1391352809
 40
0.2742116093
 40
0.405353364
 40
0.5326710184
 40
0.5949264859
 40
0.6562575373
 40
0.7166674205
 40
0.7761507983
 40
0.8346805534
 40
0.8635652083
 40
0.8921683144
 40
0.9204427027
 40
0.9482804789
 40
0.9753517114
 40
0.9818944325
 40
0.9882110691
 40
0.9942634124
 40
1.0
 40
1.0
 40
1.0
 40
1.0
 10
104.07839349
 20
152.6224508528
 30
0.0
 10
103.9962186313
 20
152.7011984505
 30
0.0
 10
103.8370364648
 20
152.8592909266
 30
0.0
 10
103.6068425568
 20
153.0979670055
 30
0.0
 10
103.3860602752
 20
153.3322521246
 30
0.0
 10
103.2068961322
 20
153.5238971483
 30
0.0
 10
103.0665056043
 20
153.6736159113
 30
0.0
 10
102.9633135559
 20
153.7831851776
 30
0.0
 10
102.8613286087
 20
153.8907755235
 30
0.0
 10
102.7605140654
 20
153.9963162798
 30
0.0
 10
102.6771790127
 20
154.0828902653
 30
0.0
 10
102.6112763198
 20
154.1511801647
 30
0.0
 10
102.562590111
 20
154.2016950521
 30
0.0
 10
102.5147043427
 20
154.2517743826
 30
0.0
 10
102.4681232359
 20
154.3014284745
 30
0.0
 10
102.4349895561
 20
154.3391298648
 30
0.0
 10
102.4147894601
 20
154.3649935173
 30
0.0
 10
102.4069849896
 20
154.3781180642
 30
0.0
 10
102.3981047034
 20
154.3909420599
 30
0.0
 10
102.401528494
 20
154.4017819427
 30
0.0
 10
102.4047351281
 20
154.4052080618
 30
0.0
  0
SPLINE
  5
57F
100
AcDbEntity
  8
0
100
AcDbSpline
 62
7
  6
CONTINUOUS
 70
0
 71
3
 72
11
 73
7
 74
0
 42
0.0000001
 43
0.0000001
 44
0.0000000001
 40
0.0
 40
0.0
 40
0.0
 40
0.0
 40
0.2268685514
 40
0.4628582839
 40
0.7187911038
 40
1.0
 40
1.0
 40
1.0
 40
1.0
 10
89.5821406961
 20
110.5402537056
 30
0.0
 10
89.4682027057
 20
110.4744971398
 30
0.0
 10
89.2558286492
 20
110.3018845106
 30
0.0
 10
89.025134176
 20
109.947954065
 30
0.0
 10
88.8875920562
 20
109.516640038
 30
0.0
 10
88.8602102565
 20
109.2039606912
 30
0.0
 10
88.8602102566
 20
109.0408995443
 30
0.0
  0
SPLINE
  5
580
100
AcDbEntity
  8
0
100
AcDbSpline
 62
7
  6
CONTINUOUS
 70
0
 71
3
 72
25
 73
21
 74
0
 42
0.0000001
 43
0.0000001
 44
0.0000000001
 40
0.0
 40
0.0
 40
0.0
 40
0.0
 40
0.1391352809
 40
0.2742116093
 40
0.405353364
 40
0.5326710184
 40
0.5949264859
 40
0.6562575373
 40
0.7166674205
 40
0.7761507983
 40
0.8346805534
 40
0.8635652083
 40
0.8921683144
 40
0.9204427027
 40
0.9482804789
 40
0.9753517114
 40
0.9818944325
 40
0.9882110691
 40
0.9942634124
 40
1.0
 40
1.0
 40
1.0
 40
1.0
 10
135.7569091766
 20
134.3332650503
 30
0.0
 10
135.6747343179
 20
134.4120126479
 30
0.0
 10
135.5155521514
 20
134.5701051241
 30
0.0
 10
135.2853582433
 20
134.808781203
 30
0.0
 10
135.0645759618
 20
135.0430663221
 30
0.0
 10
134.8854118188
 20
135.2347113458
 30
0.0
 10
134.7450212908
 20
135.3844301088
 30
0.0
 10
134.6418292425
 20
135.4939993751
 30
0.0
 10
134.5398442953
 20
135.601589721
 30
0.0
 10
134.439029752
 20
135.7071304773
 30
0.0
 10
134.3556946993
 20
135.7937044628
 30
0.0
 10
134.2897920064
 20
135.8619943622
 30
0.0
 10
134.2411057975
 20
135.9125092496
 30
0.0
 10
134.1932200293
 20
135.9625885801
 30
0.0
 10
134.1466389225
 20
136.012242672
 30
0.0
 10
134.1135052427
 20
136.0499440623
 30
0.0
 10
134.0933051467
 20
136.0758077148
 30
0.0
 10
134.0855006762
 20
136.0889322617
 30
0.0
 10
134.0766203899
 20
136.1017562574
 30
0.0
 10
134.0800441806
 20
136.1125961402
 30
0.0
 10
134.0832508147
 20
136.1160222593
 30
0.0
  0
SPLINE
  5
581
100
AcDbEntity
  8
0
100
AcDbSpline
 62
7
  6
CONTINUOUS
 70
0
 71
3
 72
9
 73
5
 74
0
 42
0.0000001
 43
0.0000001
 44
0.0000000001
 40
0.0
 40
0.0
 40
0.0
 40
0.0
 40
0.4667876535
 40
1.0
 40
1.0
 40
1.0
 40
1.0
 10
131.5969467505
 20
136.734966143
 30
0.0
 10
131.6822555435
 20
136.7510000441
 30
0.0
 10
131.8687390156
 20
136.7658709631
 30
0.0
 10
132.0552835653
 20
136.7475038393
 30
0.0
 10
132.1522008922
 20
136.7265591873
 30
0.0
  0
SPLINE
  5
582
100
AcDbEntity
  8
0
100
AcDbSpline
 62
7
  6
CONTINUOUS
 70
0
 71
3
 72
19
 73
15
 74
0
 42
0.0000001
 43
0.0000001
 44
0.0000000001
 40
0.0
 40
0.0
 40
0.0
 40
0.0
 40
0.2379080959
 40
0.3599280616
 40
0.4837325677
 40
0.6091999793
 40
0.6725441245
 40
0.736311541
 40
0.8005502274
 40
0.8653883569
 40
0.89813308
 40
0.9312368747
 40
0.9650196306
 40
1.0
 40
1.0
 40
1.0
 40
1.0
 10
132.1522008922
 20
136.7265591873
 30
0.0
 10
132.2765688758
 20
136.6996822168
 30
0.0
 10
132.4643110414
 20
136.6570578206
 30
0.0
 10
132.7155119922
 20
136.5951484951
 30
0.0
 10
132.9076942232
 20
136.5451416188
 30
0.0
 10
133.0689373827
 20
136.5009094942
 30
0.0
 10
133.198875661
 20
136.4639770129
 30
0.0
 10
133.2971642884
 20
136.4354595865
 30
0.0
 10
133.3960940269
 20
136.4063379688
 30
0.0
 10
133.4791233649
 20
136.3817959093
 30
0.0
 10
133.5462263901
 20
136.3624914867
 30
0.0
 10
133.5977768764
 20
136.3481592502
 30
0.0
 10
133.6499577238
 20
136.3356566929
 30
0.0
 10
133.6882270657
 20
136.3283869506
 30
0.0
 10
133.7061551256
 20
136.3337336316
 30
0.0
  0
SPLINE
  5
583
100
AcDbEntity
  8
0
100
AcDbSpline
 62
7
  6
CONTINUOUS
 70
0
 71
3
 72
16
 73
12
 74
0
 42
0.0000001
 43
0.0000001
 44
0.0000000001
 40
0.0
 40
0.0
 40
0.0
 40
0.0
 40
0.124251924
 40
0.2606945169
 40
0.4031355542
 40
0.5443367045
 40
0.6776011333
 40
0.798029703
 40
0.9041923384
 40
0.9530176075
 40
1.0
 40
1.0
 40
1.0
 40
1.0
 10
88.8602102566
 20
109.0408995443
 30
0.0
 10
88.8602102567
 20
108.767607671
 30
0.0
 10
88.9437726362
 20
108.193355798
 30
0.0
 10
89.2572378542
 20
107.3583685745
 30
0.0
 10
89.7418829637
 20
106.5651751164
 30
0.0
 10
90.3603649313
 20
105.8808077883
 30
0.0
 10
91.0635424188
 20
105.3595496559
 30
0.0
 10
91.7993114627
 20
105.045514888
 30
0.0
 10
92.4152920915
 20
104.9814437851
 30
0.0
 10
92.8540405111
 20
105.0671956101
 30
0.0
 10
93.049400962
 20
105.1515720705
 30
0.0
 10
93.1389176553
 20
105.2031999561
 30
0.0
  0
SPLINE
  5
584
100
AcDbEntity
  8
0
100
AcDbSpline
 62
7
  6
CONTINUOUS
 70
0
 71
3
 72
11
 73
7
 74
0
 42
0.0000001
 43
0.0000001
 44
0.0000000001
 40
0.0
 40
0.0
 40
0.0
 40
0.0
 40
0.2879138849
 40
0.5489352053
 40
0.7838136581
 40
1.0
 40
1.0
 40
1.0
 40
1.0
 10
90.8678354806
 20
55.7134862317
 30
0.0
 10
91.059633696
 20
55.5850493186
 30
0.0
 10
91.4485261323
 20
55.3716866032
 30
0.0
 10
92.0584151606
 20
55.1965520035
 30
0.0
 10
92.6374984597
 20
55.1905979771
 30
0.0
 10
92.9888283167
 20
55.3098776985
 30
0.0
 10
93.1389612475
 20
55.396487517
 30
0.0
  0
SPLINE
  5
585
100
AcDbEntity
  8
0
100
AcDbSpline
 62
7
  6
CONTINUOUS
 70
0
 71
3
 72
13
 73
9
 74
0
 42
0.0000001
 43
0.0000001
 44
0.0000000001
 40
0.0
 40
0.0
 40
0.0
 40
0.0
 40
0.1143330623
 40
0.2378741908
 40
0.5005631209
 40
0.7626979431
 40
0.8858512963
 40
1.0
 40
1.0
 40
1.0
 40
1.0
 10
78.6625656148
 20
114.5841581182
 30
0.0
 10
78.6625656149
 20
114.405160641
 30
0.0
 10
78.6946664257
 20
114.0324058684
 30
0.0
 10
78.867950061
 20
113.2663408141
 30
0.0
 10
79.2710978369
 20
112.3246038826
 30
0.0
 10
79.8680083902
 20
111.4921018656
 30
0.0
 10
80.4368318401
 20
110.9527897588
 30
0.0
 10
80.7419117506
 20
110.7374202748
 30
0.0
 10
80.8966790292
 20
110.6480673663
 30
0.0
  0
SPLINE
  5
586
100
AcDbEntity
  8
0
100
AcDbSpline
 62
7
  6
CONTINUOUS
 70
0
 71
3
 72
11
 73
7
 74
0
 42
0.0000001
 43
0.0000001
 44
0.0000000001
 40
0.0
 40
0.0
 40
0.0
 40
0.0
 40
0.2876030642
 40
0.5463233693
 40
0.780345768
 40
1.0
 40
1.0
 40
1.0
 40
1.0
 10
80.8966790292
 20
110.6480673663
 30
0.0
 10
81.0372445113
 20
110.5669136833
 30
0.0
 10
81.3180593664
 20
110.4344821385
 30
0.0
 10
81.7507468237
 20
110.3332387609
 30
0.0
 10
82.1579942395
 20
110.3463490138
 30
0.0
 10
82.4036868224
 20
110.436165653
 30
0.0
 10
82.5110782333
 20
110.4980839946
 30
0.0
  0
SPLINE
  5
587
100
AcDbEntity
  8
0
100
AcDbSpline
 62
7
  6
CONTINUOUS
 70
0
 71
3
 72
17
 73
13
 74
0
 42
0.0000001
 43
0.0000001
 44
0.0000000001
 40
0.0
 40
0.0
 40
0.0
 40
0.0
 40
0.1336378944
 40
0.280976379
 40
0.4327606653
 40
0.579350551
 40
0.7123226822
 40
0.8257226953
 40
0.8747415278
 40
0.9192018698
 40
0.9603371349
 40
1.0
 40
1.0
 40
1.0
 40
1.0
 10
69.5654832589
 20
120.7628228312
 30
0.0
 10
69.565483259
 20
120.4861717306
 30
0.0
 10
69.632537142
 20
119.9041311203
 30
0.0
 10
69.8789653257
 20
119.0396862469
 30
0.0
 10
70.2601233384
 20
118.1956760274
 30
0.0
 10
70.747344602
 20
117.4427383336
 30
0.0
 10
71.3008232498
 20
116.841000785
 30
0.0
 10
71.8108953688
 20
116.4877155532
 30
0.0
 10
72.2153092408
 20
116.3398784549
 30
0.0
 10
72.4932904072
 20
116.2985554206
 30
0.0
 10
72.7542376124
 20
116.3241445864
 30
0.0
 10
72.9121366611
 20
116.3870442733
 30
0.0
 10
72.98326728
 20
116.4280589264
 30
0.0
  0
SPLINE
  5
588
100
AcDbEntity
  8
0
100
AcDbSpline
 62
7
  6
CONTINUOUS
 70
0
 71
3
 72
10
 73
6
 74
0
 42
0.0000001
 43
0.0000001
 44
0.0000000001
 40
0.0
 40
0.0
 40
0.0
 40
0.0
 40
0.2292882022
 40
0.4814111445
 40
1.0
 40
1.0
 40
1.0
 40
1.0
 10
98.1147828783
 20
110.3016337085
 30
0.0
 10
98.2021442944
 20
110.2511967125
 30
0.0
 10
98.3997808722
 20
110.1691904615
 30
0.0
 10
98.8319935697
 20
110.0808257272
 30
0.0
 10
99.1795083524
 20
110.0962181457
 30
0.0
 10
99.4020130933
 20
110.146674845
 30
0.0
  0
SPLINE
  5
589
100
AcDbEntity
  8
0
100
AcDbSpline
 62
7
  6
CONTINUOUS
 70
0
 71
3
 72
11
 73
7
 74
0
 42
0.0000001
 43
0.0000001
 44
0.0000000001
 40
0.0
 40
0.0
 40
0.0
 40
0.0
 40
0.2955089122
 40
0.557040047
 40
0.7880550586
 40
1.0
 40
1.0
 40
1.0
 40
1.0
 10
33.1037863439
 20
120.2054785779
 30
0.0
 10
33.1037863439
 20
120.3696033517
 30
0.0
 10
33.1268520471
 20
120.6799313575
 30
0.0
 10
33.2451284867
 20
121.1050818454
 30
0.0
 10
33.4451431861
 20
121.447595012
 30
0.0
 10
33.6361497836
 20
121.6120190448
 30
0.0
 10
33.7380917927
 20
121.6708774899
 30
0.0
  0
SPLINE
  5
58A
100
AcDbEntity
  8
0
100
AcDbSpline
 62
7
  6
CONTINUOUS
 70
0
 71
3
 72
9
 73
5
 74
0
 42
0.0000001
 43
0.0000001
 44
0.0000000001
 40
0.0
 40
0.0
 40
0.0
 40
0.0
 40
0.2537379705
 40
1.0
 40
1.0
 40
1.0
 40
1.0
 10
97.005383898
 20
109.8886317586
 30
0.0
 10
96.2172229835
 20
110.2123671375
 30
0.0
 10
93.1219956883
 20
111.5147199311
 30
0.0
 10
90.0716414546
 20
112.9242241121
 30
0.0
 10
87.8274150233
 20
114.0392596145
 30
0.0
  0
SPLINE
  5
58B
100
AcDbEntity
  8
0
100
AcDbSpline
 62
7
  6
CONTINUOUS
 70
0
 71
3
 72
9
 73
5
 74
0
 42
0.0000001
 43
0.0000001
 44
0.0000000001
 40
0.0
 40
0.0
 40
0.0
 40
0.0
 40
0.5120065724
 40
1.0
 40
1.0
 40
1.0
 40
1.0
 10
80.8966790292
 20
117.7520171105
 30
0.0
 10
78.3033274985
 20
119.2492554428
 30
0.0
 10
73.3457925314
 20
122.3652524793
 30
0.0
 10
68.6669156138
 20
125.8892257646
 30
0.0
 10
66.4716288603
 20
127.7130983195
 30
0.0
  0
SPLINE
  5
58C
100
AcDbEntity
  8
0
100
AcDbSpline
 62
7
  6
CONTINUOUS
 70
0
 71
3
 72
9
 73
5
 74
0
 42
0.0000001
 43
0.0000001
 44
0.0000000001
 40
0.0
 40
0.0
 40
0.0
 40
0.0
 40
0.2537379705
 40
1.0
 40
1.0
 40
1.0
 40
1.0
 10
65.3268682115
 20
128.1778175611
 30
0.0
 10
64.5387072969
 20
128.50155294
 30
0.0
 10
61.4434800017
 20
129.8039057336
 30
0.0
 10
58.393125768
 20
131.2134099146
 30
0.0
 10
56.1488993367
 20
132.3284454171
 30
0.0
  0
SPLINE
  5
58D
100
AcDbEntity
  8
0
100
AcDbSpline
 62
7
  6
CONTINUOUS
 70
0
 71
3
 72
9
 73
5
 74
0
 42
0.0000001
 43
0.0000001
 44
0.0000000001
 40
0.0
 40
0.0
 40
0.0
 40
0.0
 40
0.5120065724
 40
1.0
 40
1.0
 40
1.0
 40
1.0
 10
49.2181633426
 20
136.041202913
 30
0.0
 10
46.6248118119
 20
137.5384412453
 30
0.0
 10
41.6672768448
 20
140.6544382819
 30
0.0
 10
36.9883999272
 20
144.1784115671
 30
0.0
 10
34.7931131737
 20
146.002284122
 30
0.0
  0
SPLINE
  5
58E
100
AcDbEntity
  8
0
100
AcDbSpline
 62
7
  6
CONTINUOUS
 70
0
 71
3
 72
11
 73
7
 74
0
 42
0.0000001
 43
0.0000001
 44
0.0000000001
 40
0.0
 40
0.0
 40
0.0
 40
0.0
 40
0.2895416688
 40
0.549118971
 40
0.7822562702
 40
1.0
 40
1.0
 40
1.0
 40
1.0
 10
42.2507625754
 20
126.0172512457
 30
0.0
 10
42.206909529
 20
125.9919328287
 30
0.0
 10
42.12733075
 20
125.9370605411
 30
0.0
 10
42.032138797
 20
125.837124811
 30
0.0
 10
41.9719121453
 20
125.726485346
 30
0.0
 10
41.9579282416
 20
125.6470910293
 30
0.0
 10
41.9579282535
 20
125.6090104916
 30
0.0
  0
SPLINE
  5
58F
100
AcDbEntity
  8
0
100
AcDbSpline
 62
7
  6
CONTINUOUS
 70
0
 71
3
 72
17
 73
13
 74
0
 42
0.0000001
 43
0.0000001
 44
0.0000000001
 40
0.0
 40
0.0
 40
0.0
 40
0.0
 40
0.0428571351
 40
0.0874839364
 40
0.1353160071
 40
0.1872791416
 40
0.3045400115
 40
0.4382081091
 40
0.5825513186
 40
0.7297108723
 40
0.8713103985
 40
1.0
 40
1.0
 40
1.0
 40
1.0
 10
95.7002599189
 20
125.386248067
 30
0.0
 10
95.7002885076
 20
125.4574121605
 30
0.0
 10
95.6812337154
 20
125.6032990093
 30
0.0
 10
95.5975914239
 20
125.8139483422
 30
0.0
 10
95.4618026934
 20
126.0136415847
 30
0.0
 10
95.2062474494
 20
126.2701667176
 30
0.0
 10
94.7707363719
 20
126.5352667406
 30
0.0
 10
94.1445575875
 20
126.7444375853
 30
0.0
 10
93.441832801
 20
126.8431924484
 30
0.0
 10
92.7195263199
 20
126.8232107145
 30
0.0
 10
92.0366113169
 20
126.6865782528
 30
0.0
 10
91.6175903244
 20
126.5136936759
 30
0.0
 10
91.4325303252
 20
126.4068498733
 30
0.0
  0
SPLINE
  5
590
100
AcDbEntity
  8
0
100
AcDbSpline
 62
7
  6
CONTINUOUS
 70
0
 71
3
 72
11
 73
7
 74
0
 42
0.0000001
 43
0.0000001
 44
0.0000000001
 40
0.0
 40
0.0
 40
0.0
 40
0.0
 40
0.2895416688
 40
0.549118971
 40
0.7822562702
 40
1.0
 40
1.0
 40
1.0
 40
1.0
 10
57.2414887485
 20
117.3625472499
 30
0.0
 10
57.1976357022
 20
117.3372288329
 30
0.0
 10
57.1180569231
 20
117.2823565453
 30
0.0
 10
57.0228649702
 20
117.1824208151
 30
0.0
 10
56.9626383184
 20
117.0717813502
 30
0.0
 10
56.9486544148
 20
116.9923870335
 30
0.0
 10
56.9486544266
 20
116.9543064958
 30
0.0
  0
SPLINE
  5
591
100
AcDbEntity
  8
0
100
AcDbSpline
 62
7
  6
CONTINUOUS
 70
0
 71
3
 72
9
 73
5
 74
0
 42
0.0000001
 43
0.0000001
 44
0.0000000001
 40
0.0
 40
0.0
 40
0.0
 40
0.0
 40
0.5169222028
 40
1.0
 40
1.0
 40
1.0
 40
1.0
 10
58.7477835696
 20
116.9163426382
 30
0.0
 10
58.6771838275
 20
116.9231102414
 30
0.0
 10
58.5378689899
 20
116.9193634763
 30
0.0
 10
58.4062196552
 20
116.8712506242
 30
0.0
 10
58.3488182967
 20
116.8381130786
 30
0.0
  0
SPLINE
  5
592
100
AcDbEntity
  8
0
100
AcDbSpline
 62
7
  6
CONTINUOUS
 70
0
 71
3
 72
11
 73
7
 74
0
 42
0.0000001
 43
0.0000001
 44
0.0000000001
 40
0.0
 40
0.0
 40
0.0
 40
0.0
 40
0.2955089122
 40
0.557040047
 40
0.7880550586
 40
1.0
 40
1.0
 40
1.0
 40
1.0
 10
64.7823020305
 20
101.9162927754
 30
0.0
 10
64.7823020305
 20
102.0804175492
 30
0.0
 10
64.8053677337
 20
102.390745555
 30
0.0
 10
64.9236441732
 20
102.8158960429
 30
0.0
 10
65.1236588727
 20
103.1584092095
 30
0.0
 10
65.3146654702
 20
103.3228332423
 30
0.0
 10
65.4166074793
 20
103.3816916874
 30
0.0
  0
SPLINE
  5
593
100
AcDbEntity
  8
0
100
AcDbSpline
 62
7
  6
CONTINUOUS
 70
0
 71
3
 72
11
 73
7
 74
0
 42
0.0000001
 43
0.0000001
 44
0.0000000001
 40
0.0
 40
0.0
 40
0.0
 40
0.0
 40
0.2895416688
 40
0.549118971
 40
0.7822562702
 40
1.0
 40
1.0
 40
1.0
 40
1.0
 10
73.9292782619
 20
107.7280654432
 30
0.0
 10
73.8854252156
 20
107.7027470262
 30
0.0
 10
73.8058464366
 20
107.6478747386
 30
0.0
 10
73.7106544836
 20
107.5479390085
 30
0.0
 10
73.6504278318
 20
107.4372995435
 30
0.0
 10
73.6364439282
 20
107.3579052268
 30
0.0
 10
73.63644394
 20
107.3198246891
 30
0.0
  0
SPLINE
  5
594
100
AcDbEntity
  8
0
100
AcDbSpline
 62
7
  6
CONTINUOUS
 70
0
 71
3
 72
11
 73
7
 74
0
 42
0.0000001
 43
0.0000001
 44
0.0000000001
 40
0.0
 40
0.0
 40
0.0
 40
0.0
 40
0.2272450379
 40
0.4633693292
 40
0.7191640756
 40
1.0
 40
1.0
 40
1.0
 40
1.0
 10
80.7290058261
 20
94.912957486
 30
0.0
 10
80.6128976033
 20
94.8459377203
 30
0.0
 10
80.3965025554
 20
94.6703032938
 30
0.0
 10
80.1610908413
 20
94.3104171127
 30
0.0
 10
80.0206933236
 20
93.8719499758
 30
0.0
 10
79.9927506425
 20
93.5541231744
 30
0.0
 10
79.9927506425
 20
93.3884448316
 30
0.0
  0
SPLINE
  5
595
100
AcDbEntity
  8
0
100
AcDbSpline
 62
7
  6
CONTINUOUS
 70
0
 71
3
 72
11
 73
7
 74
0
 42
0.0000001
 43
0.0000001
 44
0.0000000001
 40
0.0
 40
0.0
 40
0.0
 40
0.0
 40
0.2895421522
 40
0.5491196247
 40
0.782256727
 40
1.0
 40
1.0
 40
1.0
 40
1.0
 10
36.3133929005
 20
149.1254099596
 30
0.0
 10
36.26076826
 20
149.1557921225
 30
0.0
 10
36.1652719109
 20
149.2216391189
 30
0.0
 10
36.0510392514
 20
149.3415628842
 30
0.0
 10
35.9787657055
 20
149.4743315269
 30
0.0
 10
35.9619846385
 20
149.5696058057
 30
0.0
 10
35.9619846487
 20
149.6153029438
 30
0.0
  0
SPLINE
  5
596
100
AcDbEntity
  8
0
100
AcDbSpline
 62
7
  6
CONTINUOUS
 70
0
 71
3
 72
11
 73
7
 74
0
 42
0.0000001
 43
0.0000001
 44
0.0000000001
 40
0.0
 40
0.0
 40
0.0
 40
0.0
 40
0.2372436391
 40
0.5000005261
 40
0.7627571268
 40
1.0
 40
1.0
 40
1.0
 40
1.0
 10
67.8149686488
 20
153.4732678173
 30
0.0
 10
67.8651640127
 20
153.444288166
 30
0.0
 10
67.9818927206
 20
153.4020053818
 30
0.0
 10
68.1685225952
 20
153.3817459832
 30
0.0
 10
68.3551521882
 20
153.4020062335
 30
0.0
 10
68.4718804371
 20
153.4442895973
 30
0.0
 10
68.52207543
 20
153.473269517
 30
0.0
  0
SPLINE
  5
597
100
AcDbEntity
  8
0
100
AcDbSpline
 62
7
  6
CONTINUOUS
 70
0
 71
3
 72
11
 73
7
 74
0
 42
0.0000001
 43
0.0000001
 44
0.0000000001
 40
0.0
 40
0.0
 40
0.0
 40
0.0
 40
0.2199684893
 40
0.4536395334
 40
0.7121505793
 40
1.0
 40
1.0
 40
1.0
 40
1.0
 10
72.7889665545
 20
98.9835732573
 30
0.0
 10
72.6798854893
 20
98.9206105619
 30
0.0
 10
72.4761538133
 20
98.750483101
 30
0.0
 10
72.2584925207
 20
98.3990965896
 30
0.0
 10
72.1292869629
 20
97.9673230053
 30
0.0
 10
72.1038407471
 20
97.6533990341
 30
0.0
 10
72.1038407471
 20
97.4885838297
 30
0.0
  0
SPLINE
  5
598
100
AcDbEntity
  8
0
100
AcDbSpline
 62
7
  6
CONTINUOUS
 70
0
 71
3
 72
11
 73
7
 74
0
 42
0.0000001
 43
0.0000001
 44
0.0000000001
 40
0.0
 40
0.0
 40
0.0
 40
0.0
 40
0.2372436391
 40
0.5000005261
 40
0.7627571268
 40
1.0
 40
1.0
 40
1.0
 40
1.0
 10
79.5176346
 20
146.71688333
 30
0.0
 10
79.5678299639
 20
146.6879036787
 30
0.0
 10
79.6845586718
 20
146.6456208945
 30
0.0
 10
79.8711885464
 20
146.6253614958
 30
0.0
 10
80.0578181394
 20
146.6456217462
 30
0.0
 10
80.1745463883
 20
146.68790511
 30
0.0
 10
80.2247413812
 20
146.7168850297
 30
0.0
  0
SPLINE
  5
599
100
AcDbEntity
  8
0
100
AcDbSpline
 62
7
  6
CONTINUOUS
 70
0
 71
3
 72
9
 73
5
 74
0
 42
0.0000001
 43
0.0000001
 44
0.0000000001
 40
0.0
 40
0.0
 40
0.0
 40
0.0
 40
0.5169222028
 40
1.0
 40
1.0
 40
1.0
 40
1.0
 10
90.4262992562
 20
98.6271568356
 30
0.0
 10
90.3556995141
 20
98.6339244389
 30
0.0
 10
90.2163846765
 20
98.6301776738
 30
0.0
 10
90.0847353418
 20
98.5820648217
 30
0.0
 10
90.0273339833
 20
98.5489272761
 30
0.0
  0
SPLINE
  5
59A
100
AcDbEntity
  8
0
100
AcDbSpline
 62
7
  6
CONTINUOUS
 70
0
 71
3
 72
11
 73
7
 74
0
 42
0.0000001
 43
0.0000001
 44
0.0000000001
 40
0.0
 40
0.0
 40
0.0
 40
0.0
 40
0.2895416688
 40
0.549118971
 40
0.7822562702
 40
1.0
 40
1.0
 40
1.0
 40
1.0
 10
88.9200044351
 20
99.0733614474
 30
0.0
 10
88.8761513888
 20
99.0480430304
 30
0.0
 10
88.7965726097
 20
98.9931707428
 30
0.0
 10
88.7013806567
 20
98.8932350126
 30
0.0
 10
88.641154005
 20
98.7825955476
 30
0.0
 10
88.6271701013
 20
98.703201231
 30
0.0
 10
88.6271701132
 20
98.6651206933
 30
0.0
  0
SPLINE
  5
59B
100
AcDbEntity
  8
0
100
AcDbSpline
 62
7
  6
CONTINUOUS
 70
0
 71
3
 72
11
 73
7
 74
0
 42
0.0000001
 43
0.0000001
 44
0.0000000001
 40
0.0
 40
0.0
 40
0.0
 40
0.0
 40
0.2372436391
 40
0.5000005261
 40
0.7627571268
 40
1.0
 40
1.0
 40
1.0
 40
1.0
 10
99.6349062804
 20
135.1024338639
 30
0.0
 10
99.6851016443
 20
135.0734542126
 30
0.0
 10
99.8018303522
 20
135.0311714284
 30
0.0
 10
99.9884602269
 20
135.0109120297
 30
0.0
 10
100.1750898198
 20
135.0311722801
 30
0.0
 10
100.2918180687
 20
135.0734556439
 30
0.0
 10
100.3420130616
 20
135.1024355636
 30
0.0
  0
SPLINE
  5
59C
100
AcDbEntity
  8
0
100
AcDbSpline
 62
7
  6
CONTINUOUS
 70
0
 71
3
 72
11
 73
7
 74
0
 42
0.0000001
 43
0.0000001
 44
0.0000000001
 40
0.0
 40
0.0
 40
0.0
 40
0.0
 40
0.2372436391
 40
0.5000005261
 40
0.7627571268
 40
1.0
 40
1.0
 40
1.0
 40
1.0
 10
111.4082832041
 20
128.3052253011
 30
0.0
 10
111.458478568
 20
128.2762456499
 30
0.0
 10
111.5752072759
 20
128.2339628657
 30
0.0
 10
111.7618371506
 20
128.213703467
 30
0.0
 10
111.9484667435
 20
128.2339637174
 30
0.0
 10
112.0651949924
 20
128.2762470811
 30
0.0
 10
112.1153899853
 20
128.3052270008
 30
0.0
  0
SPLINE
  5
59D
100
AcDbEntity
  8
0
100
AcDbSpline
 62
7
  6
CONTINUOUS
 70
0
 71
3
 72
11
 73
7
 74
0
 42
0.0000001
 43
0.0000001
 44
0.0000000001
 40
0.0
 40
0.0
 40
0.0
 40
0.0
 40
0.2895416688
 40
0.549118971
 40
0.7822562702
 40
1.0
 40
1.0
 40
1.0
 40
1.0
 10
81.4246413485
 20
103.4007134453
 30
0.0
 10
81.3807883022
 20
103.3753950283
 30
0.0
 10
81.3012095232
 20
103.3205227407
 30
0.0
 10
81.2060175702
 20
103.2205870106
 30
0.0
 10
81.1457909184
 20
103.1099475456
 30
0.0
 10
81.1318070148
 20
103.0305532289
 30
0.0
 10
81.1318070266
 20
102.9924726912
 30
0.0
  0
SPLINE
  5
59E
100
AcDbEntity
  8
0
100
AcDbSpline
 62
7
  6
CONTINUOUS
 70
0
 71
3
 72
9
 73
5
 74
0
 42
0.0000001
 43
0.0000001
 44
0.0000000001
 40
0.0
 40
0.0
 40
0.0
 40
0.0
 40
0.5181295175
 40
1.0
 40
1.0
 40
1.0
 40
1.0
 10
40.5914994725
 20
122.4465324894
 30
0.0
 10
41.179645541
 20
123.0473311997
 30
0.0
 10
42.3825656275
 20
124.1430626315
 30
0.0
 10
43.7222051047
 20
125.0705378567
 30
0.0
 10
44.3993701717
 20
125.4614969567
 30
0.0
  0
SPLINE
  5
59F
100
AcDbEntity
  8
0
100
AcDbSpline
 62
7
  6
CONTINUOUS
 70
0
 71
3
 72
9
 73
5
 74
0
 42
0.0000001
 43
0.0000001
 44
0.0000000001
 40
0.0
 40
0.0
 40
0.0
 40
0.0
 40
0.5181295175
 40
1.0
 40
1.0
 40
1.0
 40
1.0
 10
48.0868625591
 20
118.1191804915
 30
0.0
 10
48.6750086276
 20
118.7199792018
 30
0.0
 10
49.877928714
 20
119.8157106336
 30
0.0
 10
51.2175681913
 20
120.7431858588
 30
0.0
 10
51.8947332583
 20
121.1341449588
 30
0.0
  0
SPLINE
  5
5A0
100
AcDbEntity
  8
0
100
AcDbSpline
 62
7
  6
CONTINUOUS
 70
0
 71
3
 72
11
 73
7
 74
0
 42
0.0000001
 43
0.0000001
 44
0.0000000001
 40
0.0
 40
0.0
 40
0.0
 40
0.0
 40
0.2372524156
 40
0.4999996414
 40
0.7627470637
 40
1.0
 40
1.0
 40
1.0
 40
1.0
 10
99.8118391531
 20
113.4451720937
 30
0.0
 10
99.6913662593
 20
113.3756174512
 30
0.0
 10
99.4112250658
 20
113.2741043402
 30
0.0
 10
98.9633121035
 20
113.2255712477
 30
0.0
 10
98.5153986209
 20
113.2741023923
 30
0.0
 10
98.2352565381
 20
113.3756140881
 30
0.0
 10
98.1147828783
 20
113.4451680145
 30
0.0
  0
SPLINE
  5
5A1
100
AcDbEntity
  8
0
100
AcDbSpline
 62
7
  6
CONTINUOUS
 70
0
 71
3
 72
9
 73
5
 74
0
 42
0.0000001
 43
0.0000001
 44
0.0000000001
 40
0.0
 40
0.0
 40
0.0
 40
0.0
 40
0.5181295175
 40
1.0
 40
1.0
 40
1.0
 40
1.0
 10
72.2700151591
 20
104.1573466869
 30
0.0
 10
72.8581612276
 20
104.7581453972
 30
0.0
 10
74.0610813141
 20
105.853876829
 30
0.0
 10
75.4007207913
 20
106.7813520542
 30
0.0
 10
76.0778858583
 20
107.1723111542
 30
0.0
  0
SPLINE
  5
5A2
100
AcDbEntity
  8
0
100
AcDbSpline
 62
7
  6
CONTINUOUS
 70
0
 71
3
 72
11
 73
7
 74
0
 42
0.0000001
 43
0.0000001
 44
0.0000000001
 40
0.0
 40
0.0
 40
0.0
 40
0.0
 40
0.2158909838
 40
0.448208754
 40
0.708256753
 40
1.0
 40
1.0
 40
1.0
 40
1.0
 10
79.3109007311
 20
116.0409883129
 30
0.0
 10
79.2071242128
 20
115.9811341235
 30
0.0
 10
79.01302917
 20
115.8165155211
 30
0.0
 10
78.807943305
 20
115.4749494736
 30
0.0
 10
78.6864255029
 20
115.0532429198
 30
0.0
 10
78.6625656147
 20
114.7460495549
 30
0.0
 10
78.6625656148
 20
114.5841581182
 30
0.0
  0
SPLINE
  5
5A3
100
AcDbEntity
  8
0
100
AcDbSpline
 62
7
  6
CONTINUOUS
 70
0
 71
3
 72
9
 73
5
 74
0
 42
0.0000001
 43
0.0000001
 44
0.0000000001
 40
0.0
 40
0.0
 40
0.0
 40
0.0
 40
0.5181295175
 40
1.0
 40
1.0
 40
1.0
 40
1.0
 10
79.7653782457
 20
99.829994689
 30
0.0
 10
80.3535243142
 20
100.4307933993
 30
0.0
 10
81.5564444006
 20
101.5265248311
 30
0.0
 10
82.8960838779
 20
102.4540000563
 30
0.0
 10
83.5732489448
 20
102.8449591563
 30
0.0
  0
SPLINE
  5
5A4
100
AcDbEntity
  8
0
100
AcDbSpline
 62
7
  6
CONTINUOUS
 70
0
 71
3
 72
17
 73
13
 74
0
 42
0.0000001
 43
0.0000001
 44
0.0000000001
 40
0.0
 40
0.0
 40
0.0
 40
0.0
 40
0.0390651372
 40
0.0795244493
 40
0.1233383061
 40
0.1718183084
 40
0.284514848
 40
0.4172395228
 40
0.5641880916
 40
0.7168593788
 40
0.8653618875
 40
1.0
 40
1.0
 40
1.0
 40
1.0
 10
86.9671661899
 20
165.4322182011
 30
0.0
 10
86.9671252113
 20
165.4951310804
 30
0.0
 10
86.9481389382
 20
165.6239550764
 30
0.0
 10
86.8635819353
 20
165.8062723118
 30
0.0
 10
86.7268941408
 20
165.9731334234
 30
0.0
 10
86.4682023261
 20
166.1811813271
 30
0.0
 10
86.0296566441
 20
166.3769468664
 30
0.0
 10
85.4074990428
 20
166.5037963375
 30
0.0
 10
84.7086505247
 20
166.526717108
 30
0.0
 10
83.9891062921
 20
166.4450382189
 30
0.0
 10
83.3078678857
 20
166.2672563417
 30
0.0
 10
82.887233604
 20
166.083344939
 30
0.0
 10
82.6994534915
 20
165.9749306877
 30
0.0
  0
SPLINE
  5
5A5
100
AcDbEntity
  8
0
100
AcDbSpline
 62
7
  6
CONTINUOUS
 70
0
 71
3
 72
11
 73
7
 74
0
 42
0.0000001
 43
0.0000001
 44
0.0000000001
 40
0.0
 40
0.0
 40
0.0
 40
0.0
 40
0.2372405738
 40
0.5000004574
 40
0.7627600882
 40
1.0
 40
1.0
 40
1.0
 40
1.0
 10
64.8451699209
 20
146.5739632027
 30
0.0
 10
64.6443902697
 20
146.689880766
 30
0.0
 10
64.1774813908
 20
146.8590311462
 30
0.0
 10
63.4309543067
 20
146.9400706997
 30
0.0
 10
62.6844282409
 20
146.8590278033
 30
0.0
 10
62.2175210512
 20
146.6898750917
 30
0.0
 10
62.0167427962
 20
146.573956404
 30
0.0
  0
SPLINE
  5
5A6
100
AcDbEntity
  8
0
100
AcDbSpline
 62
7
  6
CONTINUOUS
 70
0
 71
3
 72
11
 73
7
 74
0
 42
0.0000001
 43
0.0000001
 44
0.0000000001
 40
0.0
 40
0.0
 40
0.0
 40
0.0
 40
0.2897048043
 40
0.5490913404
 40
0.7822177947
 40
1.0
 40
1.0
 40
1.0
 40
1.0
 10
59.1883274473
 20
144.9409797886
 30
0.0
 10
59.1005702225
 20
144.8903134336
 30
0.0
 10
58.9413564947
 20
144.7806519303
 30
0.0
 10
58.7510739077
 20
144.5806736014
 30
0.0
 10
58.6307073815
 20
144.3594491187
 30
0.0
 10
58.6025568632
 20
144.2006743025
 30
0.0
 10
58.6025568773
 20
144.1244982795
 30
0.0
  0
SPLINE
  5
5A7
100
AcDbEntity
  8
0
100
AcDbSpline
 62
7
  6
CONTINUOUS
 70
0
 71
3
 72
11
 73
7
 74
0
 42
0.0000001
 43
0.0000001
 44
0.0000000001
 40
0.0
 40
0.0
 40
0.0
 40
0.0
 40
0.3066722522
 40
0.5729205671
 40
0.8001577633
 40
1.0
 40
1.0
 40
1.0
 40
1.0
 10
114.3779691781
 20
147.6857448852
 30
0.0
 10
114.2691991463
 20
147.6229468529
 30
0.0
 10
114.0733265633
 20
147.4917241577
 30
0.0
 10
113.8360953633
 20
147.2625087922
 30
0.0
 10
113.6830283467
 20
147.0187123906
 30
0.0
 10
113.6458274977
 20
146.8426248483
 30
0.0
 10
113.6459848184
 20
146.7607802593
 30
0.0
  0
SPLINE
  5
5A8
100
AcDbEntity
  8
0
100
AcDbSpline
 62
7
  6
CONTINUOUS
 70
0
 71
3
 72
11
 73
7
 74
0
 42
0.0000001
 43
0.0000001
 44
0.0000000001
 40
0.0
 40
0.0
 40
0.0
 40
0.0
 40
0.2372405738
 40
0.5000004574
 40
0.7627600882
 40
1.0
 40
1.0
 40
1.0
 40
1.0
 10
74.7447060729
 20
140.8585926395
 30
0.0
 10
74.5439264218
 20
140.9745102027
 30
0.0
 10
74.0770175428
 20
141.1436605829
 30
0.0
 10
73.3304904588
 20
141.2247001364
 30
0.0
 10
72.5839643929
 20
141.14365724
 30
0.0
 10
72.1170572032
 20
140.9745045284
 30
0.0
 10
71.9162789482
 20
140.8585858408
 30
0.0
  0
SPLINE
  5
5A9
100
AcDbEntity
  8
0
100
AcDbSpline
 62
7
  6
CONTINUOUS
 70
0
 71
3
 72
11
 73
7
 74
0
 42
0.0000001
 43
0.0000001
 44
0.0000000001
 40
0.0
 40
0.0
 40
0.0
 40
0.0
 40
0.2897048043
 40
0.5490913404
 40
0.7822177947
 40
1.0
 40
1.0
 40
1.0
 40
1.0
 10
69.0878635994
 20
139.2256092253
 30
0.0
 10
69.0001063746
 20
139.1749428703
 30
0.0
 10
68.8408926468
 20
139.065281367
 30
0.0
 10
68.6506100598
 20
138.8653030381
 30
0.0
 10
68.5302435335
 20
138.6440785554
 30
0.0
 10
68.5020930153
 20
138.4853037392
 30
0.0
 10
68.5020930294
 20
138.4091277162
 30
0.0
  0
SPLINE
  5
5AA
100
AcDbEntity
  8
0
100
AcDbSpline
 62
7
  6
CONTINUOUS
 70
0
 71
3
 72
11
 73
7
 74
0
 42
0.0000001
 43
0.0000001
 44
0.0000000001
 40
0.0
 40
0.0
 40
0.0
 40
0.0
 40
0.2896428702
 40
0.5491125874
 40
0.7822368
 40
1.0
 40
1.0
 40
1.0
 40
1.0
 10
81.5329941732
 20
132.1222204366
 30
0.0
 10
81.4233213032
 20
132.0589011535
 30
0.0
 10
81.2243222865
 20
131.9217831358
 30
0.0
 10
80.9864299197
 20
131.6718548892
 30
0.0
 10
80.835898023
 20
131.3953016834
 30
0.0
 10
80.8008514544
 20
131.1968299995
 30
0.0
 10
80.8008132052
 20
131.1016184702
 30
0.0
  0
SPLINE
  5
5AB
100
AcDbEntity
  8
0
100
AcDbSpline
 62
7
  6
CONTINUOUS
 70
0
 71
3
 72
11
 73
7
 74
0
 42
0.0000001
 43
0.0000001
 44
0.0000000001
 40
0.0
 40
0.0
 40
0.0
 40
0.0
 40
0.2896428702
 40
0.5491125874
 40
0.7822368
 40
1.0
 40
1.0
 40
1.0
 40
1.0
 10
91.4325303252
 20
126.4068498733
 30
0.0
 10
91.3228574553
 20
126.3435305902
 30
0.0
 10
91.1238584385
 20
126.2064125725
 30
0.0
 10
90.8859660717
 20
125.9564843259
 30
0.0
 10
90.7354341751
 20
125.6799311201
 30
0.0
 10
90.7003876064
 20
125.4814594362
 30
0.0
 10
90.7003493572
 20
125.3862479069
 30
0.0
  0
SPLINE
  5
5AC
100
AcDbEntity
  8
0
100
AcDbSpline
 62
7
  6
CONTINUOUS
 70
0
 71
3
 72
11
 73
7
 74
0
 42
0.0000001
 43
0.0000001
 44
0.0000000001
 40
0.0
 40
0.0
 40
0.0
 40
0.0
 40
0.2177661028
 40
0.4508970707
 40
0.7103713036
 40
1.0
 40
1.0
 40
1.0
 40
1.0
 10
100.8078862947
 20
153.363021195
 30
0.0
 10
100.7336897371
 20
153.3201445108
 30
0.0
 10
100.5947532377
 20
153.2035176191
 30
0.0
 10
100.4469333481
 20
152.9617249785
 30
0.0
 10
100.3591902079
 20
152.6638272072
 30
0.0
 10
100.3418673846
 20
152.4470173024
 30
0.0
 10
100.3418605641
 20
152.3330437675
 30
0.0
  0
SPLINE
  5
5AD
100
AcDbEntity
  8
0
100
AcDbSpline
 62
7
  6
CONTINUOUS
 70
0
 71
3
 72
11
 73
7
 74
0
 42
0.0000001
 43
0.0000001
 44
0.0000000001
 40
0.0
 40
0.0
 40
0.0
 40
0.0
 40
0.2896428702
 40
0.5491125874
 40
0.7822368
 40
1.0
 40
1.0
 40
1.0
 40
1.0
 10
101.3320664773
 20
120.69147931
 30
0.0
 10
101.2223936073
 20
120.628160027
 30
0.0
 10
101.0233945906
 20
120.4910420093
 30
0.0
 10
100.7855022238
 20
120.2411137626
 30
0.0
 10
100.6349703271
 20
119.9645605568
 30
0.0
 10
100.5999237585
 20
119.7660888729
 30
0.0
 10
100.5998855093
 20
119.6708773436
 30
0.0
  0
SPLINE
  5
5AE
100
AcDbEntity
  8
0
100
AcDbSpline
 62
7
  6
CONTINUOUS
 70
0
 71
3
 72
11
 73
7
 74
0
 42
0.0000001
 43
0.0000001
 44
0.0000000001
 40
0.0
 40
0.0
 40
0.0
 40
0.0
 40
0.2272450379
 40
0.4633693292
 40
0.7191640756
 40
1.0
 40
1.0
 40
1.0
 40
1.0
 10
49.0504901395
 20
113.2021432885
 30
0.0
 10
48.9343819167
 20
113.1351235228
 30
0.0
 10
48.7179868688
 20
112.9594890963
 30
0.0
 10
48.4825751548
 20
112.5996029152
 30
0.0
 10
48.342177637
 20
112.1611357784
 30
0.0
 10
48.314234956
 20
111.8433089769
 30
0.0
 10
48.314234956
 20
111.6776306341
 30
0.0
  0
SPLINE
  5
5AF
100
AcDbEntity
  8
0
100
AcDbSpline
 62
7
  6
CONTINUOUS
 70
0
 71
3
 72
11
 73
7
 74
0
 42
0.0000001
 43
0.0000001
 44
0.0000000001
 40
0.0
 40
0.0
 40
0.0
 40
0.0
 40
0.2177661028
 40
0.4508970707
 40
0.7103713036
 40
1.0
 40
1.0
 40
1.0
 40
1.0
 10
132.4864019812
 20
135.0738353925
 30
0.0
 10
132.4122054237
 20
135.0309587083
 30
0.0
 10
132.2732689243
 20
134.9143318166
 30
0.0
 10
132.1254490347
 20
134.672539176
 30
0.0
 10
132.0377058945
 20
134.3746414047
 30
0.0
 10
132.0203830712
 20
134.1578314999
 30
0.0
 10
132.0203762507
 20
134.043857965
 30
0.0
  0
SPLINE
  5
5B0
100
AcDbEntity
  8
0
100
AcDbSpline
 62
7
  6
CONTINUOUS
 70
0
 71
3
 72
17
 73
13
 74
0
 42
0.0000001
 43
0.0000001
 44
0.0000000001
 40
0.0
 40
0.0
 40
0.0
 40
0.0
 40
0.0428571351
 40
0.0874839364
 40
0.1353160071
 40
0.1872791416
 40
0.3045400115
 40
0.4382081091
 40
0.5825513186
 40
0.7297108723
 40
0.8713103985
 40
1.0
 40
1.0
 40
1.0
 40
1.0
 10
105.599796071
 20
119.6708775038
 30
0.0
 10
105.5998246596
 20
119.7420415972
 30
0.0
 10
105.5807698675
 20
119.887928446
 30
0.0
 10
105.497127576
 20
120.0985777789
 30
0.0
 10
105.3613388454
 20
120.2982710214
 30
0.0
 10
105.1057836015
 20
120.5547961544
 30
0.0
 10
104.6702725239
 20
120.8198961773
 30
0.0
 10
104.0440937396
 20
121.029067022
 30
0.0
 10
103.3413689531
 20
121.1278218851
 30
0.0
 10
102.6190624719
 20
121.1078401512
 30
0.0
 10
101.936147469
 20
120.9712076895
 30
0.0
 10
101.5171264765
 20
120.7983231126
 30
0.0
 10
101.3320664773
 20
120.69147931
 30
0.0
  0
SPLINE
  5
5B1
100
AcDbEntity
  8
0
100
AcDbSpline
 62
7
  6
CONTINUOUS
 70
0
 71
3
 72
9
 73
5
 74
0
 42
0.0000001
 43
0.0000001
 44
0.0000000001
 40
0.0
 40
0.0
 40
0.0
 40
0.0
 40
0.2474237552
 40
1.0
 40
1.0
 40
1.0
 40
1.0
 10
131.3785019861
 20
136.654870702
 30
0.0
 10
131.3951656506
 20
136.664491126
 30
0.0
 10
131.4641739388
 20
136.7004595694
 30
0.0
 10
131.5394283793
 20
136.7241554887
 30
0.0
 10
131.5969467505
 20
136.734966143
 30
0.0
  0
SPLINE
  5
5B2
100
AcDbEntity
  8
0
100
AcDbSpline
 62
7
  6
CONTINUOUS
 70
0
 71
3
 72
9
 73
5
 74
0
 42
0.0000001
 43
0.0000001
 44
0.0000000001
 40
0.0
 40
0.0
 40
0.0
 40
0.0
 40
0.2474237552
 40
1.0
 40
1.0
 40
1.0
 40
1.0
 10
99.6999862995
 20
154.9440565045
 30
0.0
 10
99.716649964
 20
154.9536769286
 30
0.0
 10
99.7856582523
 20
154.9896453719
 30
0.0
 10
99.8609126927
 20
155.0133412912
 30
0.0
 10
99.9184310639
 20
155.0241519456
 30
0.0
  0
SPLINE
  5
5B3
100
AcDbEntity
  8
0
100
AcDbSpline
 62
7
  6
CONTINUOUS
 70
0
 71
3
 72
9
 73
5
 74
0
 42
0.0000001
 43
0.0000001
 44
0.0000000001
 40
0.0
 40
0.0
 40
0.0
 40
0.0
 40
0.4723523974
 40
1.0
 40
1.0
 40
1.0
 40
1.0
 10
74.1328824635
 20
166.3996491698
 30
0.0
 10
74.220753274
 20
166.4504085383
 30
0.0
 10
74.4345322708
 20
166.5133872686
 30
0.0
 10
74.652584951
 20
166.4862213343
 30
0.0
 10
74.7621758315
 20
166.4572430378
 30
0.0
  0
SPLINE
  5
5B4
100
AcDbEntity
  8
0
100
AcDbSpline
 62
7
  6
CONTINUOUS
 70
0
 71
3
 72
11
 73
7
 74
0
 42
0.0000001
 43
0.0000001
 44
0.0000000001
 40
0.0
 40
0.0
 40
0.0
 40
0.0
 40
0.2372398078
 40
0.4999994051
 40
0.7627593222
 40
1.0
 40
1.0
 40
1.0
 40
1.0
 10
62.0167427962
 20
143.4304220981
 30
0.0
 10
62.2175209632
 20
143.5463407349
 30
0.0
 10
62.6844280058
 20
143.7154934334
 30
0.0
 10
63.4309539634
 20
143.7965363937
 30
0.0
 10
64.1774811557
 20
143.7154969041
 30
0.0
 10
64.6443901817
 20
143.5463465108
 30
0.0
 10
64.8451699209
 20
143.4304288968
 30
0.0
  0
SPLINE
  5
5B5
100
AcDbEntity
  8
0
100
AcDbSpline
 62
7
  6
CONTINUOUS
 70
0
 71
3
 72
11
 73
7
 74
0
 42
0.0000001
 43
0.0000001
 44
0.0000000001
 40
0.0
 40
0.0
 40
0.0
 40
0.0
 40
0.2372405738
 40
0.5000004574
 40
0.7627600882
 40
1.0
 40
1.0
 40
1.0
 40
1.0
 10
54.9456337688
 20
152.289333766
 30
0.0
 10
54.7448541177
 20
152.4052513293
 30
0.0
 10
54.2779452387
 20
152.5744017094
 30
0.0
 10
53.5314181547
 20
152.655441263
 30
0.0
 10
52.7848920888
 20
152.5743983666
 30
0.0
 10
52.3179848991
 20
152.405245655
 30
0.0
 10
52.1172066441
 20
152.2893269673
 30
0.0
  0
SPLINE
  5
5B6
100
AcDbEntity
  8
0
100
AcDbSpline
 62
7
  6
CONTINUOUS
 70
0
 71
3
 72
11
 73
7
 74
0
 42
0.0000001
 43
0.0000001
 44
0.0000000001
 40
0.0
 40
0.0
 40
0.0
 40
0.0
 40
0.2897048043
 40
0.5490913404
 40
0.7822177947
 40
1.0
 40
1.0
 40
1.0
 40
1.0
 10
49.2887912952
 20
150.6563503518
 30
0.0
 10
49.2010340704
 20
150.6056839969
 30
0.0
 10
49.0418203427
 20
150.4960224936
 30
0.0
 10
48.8515377556
 20
150.2960441647
 30
0.0
 10
48.7311712294
 20
150.074819682
 30
0.0
 10
48.7030207112
 20
149.9160448658
 30
0.0
 10
48.7030207253
 20
149.8398688428
 30
0.0
  0
SPLINE
  5
5B7
100
AcDbEntity
  8
0
100
AcDbSpline
 62
7
  6
CONTINUOUS
 70
0
 71
3
 72
11
 73
7
 74
0
 42
0.0000001
 43
0.0000001
 44
0.0000000001
 40
0.0
 40
0.0
 40
0.0
 40
0.0
 40
0.2748481646
 40
0.4113794842
 40
0.5441795925
 40
1.0
 40
1.0
 40
1.0
 40
1.0
 10
48.7589257912
 20
78.1947260678
 30
0.0
 10
48.9243345351
 20
77.8628772198
 30
0.0
 10
49.2288675261
 20
77.3922971085
 30
0.0
 10
49.7255777941
 20
76.8485143062
 30
0.0
 10
50.4587496303
 20
76.2080538721
 30
0.0
 10
51.2436808473
 20
75.8319827466
 30
0.0
 10
51.8585767116
 20
75.8253882466
 30
0.0
  0
SPLINE
  5
5B8
100
AcDbEntity
  8
0
100
AcDbSpline
 62
7
  6
CONTINUOUS
 70
0
 71
3
 72
14
 73
10
 74
0
 42
0.0000001
 43
0.0000001
 44
0.0000000001
 40
0.0
 40
0.0
 40
0.0
 40
0.0
 40
0.2999931215
 40
0.4423608986
 40
0.5753356356
 40
0.696909028
 40
0.8067701311
 40
0.9065357186
 40
1.0
 40
1.0
 40
1.0
 40
1.0
 10
41.0469849469
 20
81.8675064794
 30
0.0
 10
41.2578679691
 20
81.4926332119
 30
0.0
 10
41.636284389
 20
80.9728387134
 30
0.0
 10
42.243510202
 20
80.4116837595
 30
0.0
 10
42.7153737812
 20
80.0890749377
 30
0.0
 10
43.1941638054
 20
79.8722660837
 30
0.0
 10
43.6622388834
 20
79.769815053
 30
0.0
 10
44.1019499041
 20
79.7877330313
 30
0.0
 10
44.3675337537
 20
79.8851731225
 30
0.0
 10
44.483587567
 20
79.9521727199
 30
0.0
  0
SPLINE
  5
5B9
100
AcDbEntity
  8
0
100
AcDbSpline
 62
7
  6
CONTINUOUS
 70
0
 71
3
 72
11
 73
7
 74
0
 42
0.0000001
 43
0.0000001
 44
0.0000000001
 40
0.0
 40
0.0
 40
0.0
 40
0.0
 40
0.2177438688
 40
0.4508811915
 40
0.7104582954
 40
1.0
 40
1.0
 40
1.0
 40
1.0
 10
119.5378854791
 20
125.1209508157
 30
0.0
 10
119.5378854689
 20
125.0752541405
 30
0.0
 10
119.5211048148
 20
124.979980919
 30
0.0
 10
119.4488327681
 20
124.8472135995
 30
0.0
 10
119.3346025092
 20
124.7272906866
 30
0.0
 10
119.2391079557
 20
124.6614440144
 30
0.0
 10
119.1864842928
 20
124.6310619098
 30
0.0
  0
SPLINE
  5
5BA
100
AcDbEntity
  8
0
100
AcDbSpline
 62
7
  6
CONTINUOUS
 70
0
 71
3
 72
14
 73
10
 74
0
 42
0.0000001
 43
0.0000001
 44
0.0000000001
 40
0.0
 40
0.0
 40
0.0
 40
0.0
 40
0.3099253782
 40
0.4539616912
 40
0.5866598817
 40
0.7063598697
 40
0.8132287042
 40
0.9095498244
 40
1.0
 40
1.0
 40
1.0
 40
1.0
 10
33.7934608292
 20
86.0550651815
 30
0.0
 10
33.9916897406
 20
85.7025579378
 30
0.0
 10
34.3366735653
 20
85.2126787808
 30
0.0
 10
34.8858546914
 20
84.6769282742
 30
0.0
 10
35.3050129303
 20
84.3700809382
 30
0.0
 10
35.7277167039
 20
84.1609654176
 30
0.0
 10
36.1401797621
 20
84.0570599659
 30
0.0
 10
36.5286552113
 20
84.0647825662
 30
0.0
 10
36.7631018525
 20
84.1495555469
 30
0.0
 10
36.8653189358
 20
84.2085666608
 30
0.0
  0
SPLINE
  5
5BB
100
AcDbEntity
  8
0
100
AcDbSpline
 62
7
  6
CONTINUOUS
 70
0
 71
3
 72
9
 73
5
 74
0
 42
0.0000001
 43
0.0000001
 44
0.0000000001
 40
0.0
 40
0.0
 40
0.0
 40
0.0
 40
0.4723524563
 40
1.0
 40
1.0
 40
1.0
 40
1.0
 10
105.8113981412
 20
148.1104633827
 30
0.0
 10
105.8992688549
 20
148.1612229436
 30
0.0
 10
106.1130480361
 20
148.2242013262
 30
0.0
 10
106.3311006501
 20
148.1970355285
 30
0.0
 10
106.4406915181
 20
148.1680572353
 30
0.0
  0
SPLINE
  5
5BC
100
AcDbEntity
  8
0
100
AcDbSpline
 62
7
  6
CONTINUOUS
 70
0
 71
3
 72
14
 73
10
 74
0
 42
0.0000001
 43
0.0000001
 44
0.0000000001
 40
0.0
 40
0.0
 40
0.0
 40
0.0
 40
0.2885988426
 40
0.4296475759
 40
0.563529168
 40
0.6876100644
 40
0.8007982004
 40
0.9039210256
 40
1.0
 40
1.0
 40
1.0
 40
1.0
 10
80.4374414778
 20
59.9055402653
 30
0.0
 10
80.64842989
 20
59.4822478811
 30
0.0
 10
81.0557133129
 20
58.8925795953
 30
0.0
 10
81.7311055153
 20
58.259358342
 30
0.0
 10
82.2737533693
 20
57.888875198
 30
0.0
 10
82.832258387
 20
57.6387281937
 30
0.0
 10
83.3826907397
 20
57.5211906706
 30
0.0
 10
83.9004223208
 20
57.5429069189
 30
0.0
 10
84.2137188944
 20
57.6567831838
 30
0.0
 10
84.3500819379
 20
57.7355076973
 30
0.0
  0
SPLINE
  5
5BD
100
AcDbEntity
  8
0
100
AcDbSpline
 62
7
  6
CONTINUOUS
 70
0
 71
3
 72
19
 73
15
 74
0
 42
0.0000001
 43
0.0000001
 44
0.0000000001
 40
0.0
 40
0.0
 40
0.0
 40
0.0
 40
0.0505892734
 40
0.1041543492
 40
0.1620451505
 40
0.2247596895
 40
0.3629007082
 40
0.5114920279
 40
0.6582046751
 40
0.7906430422
 40
0.8492762691
 40
0.9027208575
 40
0.9522149987
 40
1.0
 40
1.0
 40
1.0
 40
1.0
 10
101.8164175921
 20
156.4767930814
 30
0.0
 10
101.8164420395
 20
156.5873164285
 30
0.0
 10
101.7818551476
 20
156.815957341
 30
0.0
 10
101.6347943402
 20
157.141920184
 30
0.0
 10
101.4005928433
 20
157.445620471
 30
0.0
 10
100.9716410991
 20
157.8183324789
 30
0.0
 10
100.2745259986
 20
158.1603789343
 30
0.0
 10
99.3352643572
 20
158.3412274136
 30
0.0
 10
98.3930675356
 20
158.2887358626
 30
0.0
 10
97.6805855609
 20
158.0476702007
 30
0.0
 10
97.2396486272
 20
157.7399178308
 30
0.0
 10
97.0000718106
 20
157.4757208915
 30
0.0
 10
96.8500604193
 20
157.1775148409
 30
0.0
 10
96.8166072823
 20
156.9634871976
 30
0.0
 10
96.81657722
 20
156.8590903988
 30
0.0
  0
SPLINE
  5
5BE
100
AcDbEntity
  8
0
100
AcDbSpline
 62
7
  6
CONTINUOUS
 70
0
 71
3
 72
14
 73
10
 74
0
 42
0.0000001
 43
0.0000001
 44
0.0000000001
 40
0.0
 40
0.0
 40
0.0
 40
0.0
 40
0.2999931215
 40
0.4423608986
 40
0.5753356356
 40
0.696909028
 40
0.8067701311
 40
0.9065357186
 40
1.0
 40
1.0
 40
1.0
 40
1.0
 10
72.7255006335
 20
63.5783206768
 30
0.0
 10
72.9363836557
 20
63.2034474094
 30
0.0
 10
73.3148000756
 20
62.6836529109
 30
0.0
 10
73.9220258886
 20
62.122497957
 30
0.0
 10
74.3938894678
 20
61.7998891352
 30
0.0
 10
74.872679492
 20
61.5830802812
 30
0.0
 10
75.34075457
 20
61.4806292505
 30
0.0
 10
75.7804655906
 20
61.4985472288
 30
0.0
 10
76.0460494403
 20
61.59598732
 30
0.0
 10
76.1621032535
 20
61.6629869174
 30
0.0
  0
SPLINE
  5
5BF
100
AcDbEntity
  8
0
100
AcDbSpline
 62
7
  6
CONTINUOUS
 70
0
 71
3
 72
11
 73
7
 74
0
 42
0.0000001
 43
0.0000001
 44
0.0000000001
 40
0.0
 40
0.0
 40
0.0
 40
0.0
 40
0.2372398078
 40
0.4999994051
 40
0.7627593222
 40
1.0
 40
1.0
 40
1.0
 40
1.0
 10
71.9162789482
 20
137.7150515348
 30
0.0
 10
72.1170571152
 20
137.8309701716
 30
0.0
 10
72.5839641579
 20
138.0001228702
 30
0.0
 10
73.3304901154
 20
138.0811658305
 30
0.0
 10
74.0770173078
 20
138.0001263408
 30
0.0
 10
74.5439263338
 20
137.8309759476
 30
0.0
 10
74.7447060729
 20
137.7150583335
 30
0.0
  0
SPLINE
  5
5C0
100
AcDbEntity
  8
0
100
AcDbSpline
 62
7
  6
CONTINUOUS
 70
0
 71
3
 72
14
 73
10
 74
0
 42
0.0000001
 43
0.0000001
 44
0.0000000001
 40
0.0
 40
0.0
 40
0.0
 40
0.0
 40
0.3099253782
 40
0.4539616912
 40
0.5866598817
 40
0.7063598697
 40
0.8132287042
 40
0.9095498244
 40
1.0
 40
1.0
 40
1.0
 40
1.0
 10
65.4719765158
 20
67.765879379
 30
0.0
 10
65.6702054272
 20
67.4133721353
 30
0.0
 10
66.0151892519
 20
66.9234929783
 30
0.0
 10
66.564370378
 20
66.3877424717
 30
0.0
 10
66.9835286169
 20
66.0808951357
 30
0.0
 10
67.4062323905
 20
65.8717796151
 30
0.0
 10
67.8186954487
 20
65.7678741634
 30
0.0
 10
68.2071708979
 20
65.7755967637
 30
0.0
 10
68.4416175391
 20
65.8603697444
 30
0.0
 10
68.5438346224
 20
65.9193808583
 30
0.0
  0
SPLINE
  5
5C1
100
AcDbEntity
  8
0
100
AcDbSpline
 62
7
  6
CONTINUOUS
 70
0
 71
3
 72
17
 73
13
 74
0
 42
0.0000001
 43
0.0000001
 44
0.0000000001
 40
0.0
 40
0.0
 40
0.0
 40
0.0
 40
0.0390651372
 40
0.0795244493
 40
0.1233383061
 40
0.1718183084
 40
0.284514848
 40
0.4172395228
 40
0.5641880916
 40
0.7168593788
 40
0.8653618875
 40
1.0
 40
1.0
 40
1.0
 40
1.0
 10
118.6456818765
 20
147.1430323986
 30
0.0
 10
118.6456408979
 20
147.2059452779
 30
0.0
 10
118.6266546247
 20
147.3347692739
 30
0.0
 10
118.5420976219
 20
147.5170865093
 30
0.0
 10
118.4054098274
 20
147.6839476209
 30
0.0
 10
118.1467180126
 20
147.8919955246
 30
0.0
 10
117.7081723307
 20
148.0877610639
 30
0.0
 10
117.0860147294
 20
148.214610535
 30
0.0
 10
116.3871662113
 20
148.2375313054
 30
0.0
 10
115.6676219787
 20
148.1558524164
 30
0.0
 10
114.9863835723
 20
147.9780705392
 30
0.0
 10
114.5657492906
 20
147.7941591365
 30
0.0
 10
114.3779691781
 20
147.6857448852
 30
0.0
  0
ELLIPSE
  5
5C2
100
AcDbEntity
  8
0
100
AcDbEllipse
 62
7
  6
CONTINUOUS
 10
107.7053740934
 20
149.5198482602
 30
0.0
 11
-6.1242793154
 21
7.9911557356
 31
0.0
 40
0.4692948502
 41
-1.2311146995
 42
-0.8734768402
  0
ELLIPSE
  5
5C3
100
AcDbEntity
  8
0
100
AcDbEllipse
 62
7
  6
CONTINUOUS
 10
105.5648246266
 20
156.0236290332
 30
0.0
 11
-1.2231152056
 21
1.5959598815
 31
0.0
 40
0.4692948502
 41
-0.6396871176
 42
-0.0614231253
  0
ELLIPSE
  5
5C4
100
AcDbEntity
  8
0
100
AcDbEllipse
 62
7
  6
CONTINUOUS
 10
107.7053740934
 20
149.5198482602
 30
0.0
 11
-6.1242793154
 21
7.9911557356
 31
0.0
 40
0.4692948502
 41
-0.8201495791
 42
-0.6396871176
  0
ELLIPSE
  5
5C5
100
AcDbEntity
  8
0
100
AcDbEllipse
 62
7
  6
CONTINUOUS
 10
139.38388978
 20
131.2306624577
 30
0.0
 11
-6.1242793154
 21
7.9911557356
 31
0.0
 40
0.4692948502
 41
-1.2311146995
 42
-0.8734768402
  0
ELLIPSE
  5
5C6
100
AcDbEntity
  8
0
100
AcDbEllipse
 62
7
  6
CONTINUOUS
 10
137.2433403131
 20
137.7344432307
 30
0.0
 11
-1.2231152056
 21
1.5959598815
 31
0.0
 40
0.4692948502
 41
-0.6396871176
 42
-0.0614231253
  0
ELLIPSE
  5
5C7
100
AcDbEntity
  8
0
100
AcDbEllipse
 62
7
  6
CONTINUOUS
 10
139.38388978
 20
131.2306624577
 30
0.0
 11
-6.1242793154
 21
7.9911557356
 31
0.0
 40
0.4692948502
 41
-0.8201495791
 42
-0.6396871176
  0
ELLIPSE
  5
5C8
100
AcDbEntity
  8
0
100
AcDbEllipse
 62
7
  6
CONTINUOUS
 10
29.5915880588
 20
133.276233823
 30
0.0
 11
1.7943958295
 21
-0.0405142253
 31
0.0
 40
0.3218783074
 41
5.7961882844
 42
6.8145681291
  0
ELLIPSE
  5
5C9
100
AcDbEntity
  8
0
100
AcDbEllipse
 62
7
  6
CONTINUOUS
 10
61.2701037454
 20
114.9870480205
 30
0.0
 11
1.7943958295
 21
-0.0405142253
 31
0.0
 40
0.3218783074
 41
5.7961882844
 42
6.8145681291
  0
ENDSEC
  0
SECTION
  2
OBJECTS
  0
DICTIONARY
  5
C
100
AcDbDictionary
280
0
281
1
  3
ACAD_GROUP
350
D
  3
ACAD_MLINESTYLE
350
17
  3
ACAD_LAYOUT
350
1A
  3
ACAD_PLOTSETTINGS
350
19
  3
ACAD_PLOTSTYLENAME
350
E
  0
DICTIONARY
  5
D
102
{ACAD_REACTORS
330
C
102
}
100
AcDbDictionary
280
0
281
1
  0
ACDBDICTIONARYWDFLT
  5
E
102
{ACAD_REACTORS
330
C
102
}
100
AcDbDictionary
281
1
  3
Normal
350
F
100
AcDbDictionaryWithDefault
340
F
  0
DICTIONARY
  5
17
102
{ACAD_REACTORS
330
C
102
}
100
AcDbDictionary
280
0
281
1
  3
Standard
350
18
  0
DICTIONARY
  5
19
102
{ACAD_REACTORS
330
C
102
}
100
AcDbDictionary
281
1
  0
DICTIONARY
  5
1A
102
{ACAD_REACTORS
330
C
102
}
100
AcDbDictionary
281
1
  3
Model
350
5CA
  3
Layout1
350
5CB
  0
ACDBPLACEHOLDER
  5
F
102
{ACAD_REACTORS
330
E
102
}
  0
MLINESTYLE
  5
18
102
{ACAD_REACTORS
330
17
102
}
100
AcDbMlineStyle
  2
STANDARD
 70
0
  3

 62
256
 51
90.0
 52
90.0
 71
2
 49
0.5
 62
256
  6
BYLAYER
 49
-0.5
 62
256
  6
BYLAYER
  0
LAYOUT
  5
5CA
102
{ACAD_REACTORS
330
1A
102
}
100
AcDbPlotSettings
  1

  2
none_device
  4

  6

 40
0.0
 41
0.0
 42
0.0
 43
0.0
 44
210.0
 45
297.0
 46
0.0
 47
0.0
 48
0.0
 49
0.0
140
0.0
141
0.0
142
1.0
143
1.0
 70
1024
 72
1
 73
0
 74
0
  7

 75
0
147
1.0
148
0.0
149
0.0
100
AcDbLayout
  1
Model
 70
0
 71
0
 10
0.0
 20
0.0
 11
210.0
 21
297.0
 12
0.0
 22
0.0
 32
0.0
 14
0.0
 24
0.0
 34
0.0
 15
0.0
 25
0.0
 35
0.0
146
0.0
 13
0.0
 23
0.0
 33
0.0
 16
1.0
 26
0.0
 36
0.0
 17
0.0
 27
1.0
 37
0.0
 76
0
330
212
345
0
346
0
  0
LAYOUT
  5
5CB
102
{ACAD_REACTORS
330
1A
102
}
100
AcDbPlotSettings
  1

  2
none_device
  4

  6

 40
0.0
 41
0.0
 42
0.0
 43
0.0
 44
210.0
 45
297.0
 46
0.0
 47
0.0
 48
0.0
 49
0.0
140
0.0
141
0.0
142
1.0
143
1.0
 70
0
 72
1
 73
0
 74
0
  7

 75
0
147
1.0
148
0.0
149
0.0
100
AcDbLayout
  1
Layout1
 70
0
 71
1
 10
0.0
 20
0.0
 11
210.0
 21
297.0
 12
0.0
 22
0.0
 32
0.0
 14
0.0
 24
0.0
 34
0.0
 15
0.0
 25
0.0
 35
0.0
146
0.0
 13
0.0
 23
0.0
 33
0.0
 16
1.0
 26
0.0
 36
0.0
 17
0.0
 27
1.0
 37
0.0
 76
0
330
213
345
0
346
0
  0
ENDSEC
  0
EOF
