999
DXF file: C:\Users\sesa63760\Dev\_Creo\CAD\MCADID0000765_3D-CAD\drw0001_1.dxf
999
Pro/ENGINEER 2019471 by Parametric Technology Corporation
  0
SECTION
  2
HEADER
  9
$ACADVER
  1
AC1024
  9
$DWGCODEPAGE
  3
ANSI_1252
  9
$EXTMAX
 10
105.572128681
 20
149.3091534203
 30
0.0
  9
$EXTMIN
 10
0.0
 20
0.0
 30
0.0
  9
$LIMMIN
 10
0.0
 20
0.0
  9
$LIMMAX
 10
105.572128681
 20
149.3091534203
  9
$VIEWCTR
 10
52.7860643405
 20
74.6545767102
  9
$VIEWSIZE
 40
149.3091534203
  9
$CLAYER
  8
0
  9
$LTSCALE
 40
9.7327448155
  9
$CELTYPE
  6
BYLAYER
  9
$DIMSCALE
 40
1.0
  9
$DIMASZ
 40
1.2568110557
  9
$DIMEXO
 40
1.0
  9
$DIMDLI
 40
6.7244418726
  9
$DIMEXE
 40
1.0
  9
$DIMCEN
 40
1.5926309698
  9
$DIMLFAC
 40
1.0
  9
$DIMBLK
  1
_FILLED
  9
$DIMALT
 70
0
  9
$DIMALTF
 40
0.0393700787
  9
$DIMTXT
 40
1.759535478
  9
$DIMTOL
 70
1
  9
$DIMLIM
 70
0
  9
$DIMTFAC
 40
1.0
  9
$DIMTP
 40
0.01
  9
$DIMTM
 40
0.01
  9
$DIMGAP
 40
0.625
  9
$DIMDSEP
 70
46
  9
$AUNITS
 70
0
  9
$PDMODE
 70
3
  9
$PDSIZE
 40
0.3125
  9
$HANDSEED
  5
46D
  9
$TILEMODE
 70
1
  9
$MEASUREMENT
 70
1
  9
$INSUNITS
 70
4
  0
ENDSEC
  0
SECTION
  2
CLASSES
  0
CLASS
  1
ACDBDICTIONARYWDFLT
  2
AcDbDictionaryWithDefault
  3
AutoCAD 2000
 90
0
 91
1
280
0
281
0
  0
CLASS
  1
ACDBPLACEHOLDER
  2
AcDbPlaceHolder
  3
AutoCAD 2000
 90
0
 91
1
280
0
281
0
  0
CLASS
  1
LAYOUT
  2
AcDbLayout
  3
AutoCAD 2000
 90
0
 91
0
280
0
281
0
  0
ENDSEC
  0
SECTION
  2
TABLES
  0
TABLE
  2
VPORT
  5
8
100
AcDbSymbolTable
 70
2
  0
VPORT
  5
1F4
100
AcDbSymbolTableRecord
100
AcDbViewportTableRecord
  2
*ACTIVE
 70
0
 10
0.0
 20
0.0
 11
1.0
 21
1.0
 12
52.7860643405
 22
74.6545767102
 13
0.0
 23
0.0
 14
1.0
 24
1.0
 15
0.0
 25
0.0
 16
0.0
 26
0.0
 36
1.0
 17
0.0
 27
0.0
 37
0.0
 40
149.3091534203
 41
0.7070707071
 42
50.0
 43
0.0
 44
0.0
 50
0.0
 51
0.0
 71
0
 72
100
 73
1
 74
1
 75
0
 76
0
 77
0
 78
0
  0
ENDTAB
  0
TABLE
  2
LTYPE
  5
5
100
AcDbSymbolTable
 70
6
  0
LTYPE
  5
14
100
AcDbSymbolTableRecord
100
AcDbLinetypeTableRecord
  2
BYBLOCK
 70
0
  3

 72
65
 73
0
 40
0.0
  0
LTYPE
  5
15
100
AcDbSymbolTableRecord
100
AcDbLinetypeTableRecord
  2
BYLAYER
 70
0
  3

 72
65
 73
0
 40
0.0
  0
LTYPE
  5
16
100
AcDbSymbolTableRecord
100
AcDbLinetypeTableRecord
  2
CONTINUOUS
 70
64
  3
Solid line
 72
65
 73
0
 40
0.0
  0
LTYPE
  5
1F5
100
AcDbSymbolTableRecord
100
AcDbLinetypeTableRecord
  2
CENTER
 70
64
  3
____ _ ____ _ ____ _ ____ _ ____ _ ____ _ ____
 72
65
 73
4
 40
0.6
 49
0.375
 74
0
 49
-0.075
 74
0
 49
0.075
 74
0
 49
-0.075
 74
0
  0
LTYPE
  5
1F6
100
AcDbSymbolTableRecord
100
AcDbLinetypeTableRecord
  2
HIDDEN
 70
64
  3
- - - - - - - - - - - - - - - - - - - -
 72
65
 73
2
 40
0.2
 49
0.1
 74
0
 49
-0.1
 74
0
  0
LTYPE
  5
1F7
100
AcDbSymbolTableRecord
100
AcDbLinetypeTableRecord
  2
PHANTOM
 70
64
  3
_____ _ _ _____ _ _ _____ _ _ _____
 72
65
 73
6
 40
0.8
 49
0.45
 74
0
 49
-0.05
 74
0
 49
0.1
 74
0
 49
-0.05
 74
0
 49
0.1
 74
0
 49
-0.05
 74
0
  0
LTYPE
  5
1F8
100
AcDbSymbolTableRecord
100
AcDbLinetypeTableRecord
  2
DOT
 70
64
  3
. . . . . . . . . . . . . . . . . . . .
 72
65
 73
2
 40
0.2
 49
0.1
 74
0
 49
-0.1
 74
0
  0
LTYPE
  5
1F9
100
AcDbSymbolTableRecord
100
AcDbLinetypeTableRecord
  2
DASHED
 70
64
  3
- - - - - - - - - - - - - - - - - - - -
 72
65
 73
2
 40
0.2
 49
0.1
 74
0
 49
-0.1
 74
0
  0
ENDTAB
  0
TABLE
  2
LAYER
  5
2
100
AcDbSymbolTable
 70
36
  0
LAYER
  5
10
100
AcDbSymbolTableRecord
100
AcDbLayerTableRecord
  2
0
 70
0
 62
7
  6
CONTINUOUS
370
-3
390
F
  0
LAYER
  5
1FA
100
AcDbSymbolTableRecord
100
AcDbLayerTableRecord
  2
DEFAULT_1
 70
0
 62
7
  6
CENTER
370
-3
390
F
  0
LAYER
  5
1FB
100
AcDbSymbolTableRecord
100
AcDbLayerTableRecord
  2
DEFAULT_2
 70
0
 62
8
  6
HIDDEN
370
-3
390
F
  0
LAYER
  5
1FC
100
AcDbSymbolTableRecord
100
AcDbLayerTableRecord
  2
DEFAULT_3
 70
0
 62
7
  6
PHANTOM
370
-3
390
F
  0
LAYER
  5
1FD
100
AcDbSymbolTableRecord
100
AcDbLayerTableRecord
  2
00_COMPONENTS
 70
0
 62
7
  6
CONTINUOUS
370
-3
390
F
  0
LAYER
  5
1FE
100
AcDbSymbolTableRecord
100
AcDbLayerTableRecord
  2
01_1_DEFAULT_DATUMS
 70
0
 62
7
  6
CONTINUOUS
370
-3
390
F
  0
LAYER
  5
1FF
100
AcDbSymbolTableRecord
100
AcDbLayerTableRecord
  2
01_PLANES
 70
0
 62
7
  6
CONTINUOUS
370
-3
390
F
  0
LAYER
  5
200
100
AcDbSymbolTableRecord
100
AcDbLayerTableRecord
  2
02_COORD_SYS
 70
0
 62
7
  6
CONTINUOUS
370
-3
390
F
  0
LAYER
  5
201
100
AcDbSymbolTableRecord
100
AcDbLayerTableRecord
  2
03_AXES
 70
0
 62
7
  6
CONTINUOUS
370
-3
390
F
  0
LAYER
  5
202
100
AcDbSymbolTableRecord
100
AcDbLayerTableRecord
  2
04_POINTS
 70
0
 62
7
  6
CONTINUOUS
370
-3
390
F
  0
LAYER
  5
203
100
AcDbSymbolTableRecord
100
AcDbLayerTableRecord
  2
05_CURVES
 70
0
 62
7
  6
CONTINUOUS
370
-3
390
F
  0
LAYER
  5
204
100
AcDbSymbolTableRecord
100
AcDbLayerTableRecord
  2
06_SURFS
 70
0
 62
7
  6
CONTINUOUS
370
-3
390
F
  0
LAYER
  5
205
100
AcDbSymbolTableRecord
100
AcDbLayerTableRecord
  2
07_COSMETICS
 70
0
 62
7
  6
CONTINUOUS
370
-3
390
F
  0
LAYER
  5
206
100
AcDbSymbolTableRecord
100
AcDbLayerTableRecord
  2
10_NOTES
 70
0
 62
7
  6
CONTINUOUS
370
-3
390
F
  0
LAYER
  5
207
100
AcDbSymbolTableRecord
100
AcDbLayerTableRecord
  2
11_NOTES_PUB
 70
0
 62
7
  6
CONTINUOUS
370
-3
390
F
  0
LAYER
  5
208
100
AcDbSymbolTableRecord
100
AcDbLayerTableRecord
  2
13_REF_GTOL
 70
0
 62
7
  6
CONTINUOUS
370
-3
390
F
  0
LAYER
  5
209
100
AcDbSymbolTableRecord
100
AcDbLayerTableRecord
  2
16_MISC
 70
0
 62
7
  6
CONTINUOUS
370
-3
390
F
  0
LAYER
  5
20A
100
AcDbSymbolTableRecord
100
AcDbLayerTableRecord
  2
17_NO_PRINT
 70
0
 62
7
  6
CONTINUOUS
370
-3
390
F
  0
LAYER
  5
20B
100
AcDbSymbolTableRecord
100
AcDbLayerTableRecord
  2
18_DATUM_CAMS_JOINTS
 70
0
 62
7
  6
CONTINUOUS
370
-3
390
F
  0
LAYER
  5
20C
100
AcDbSymbolTableRecord
100
AcDbLayerTableRecord
  2
19_DATUM_FUNCTIONAL
 70
0
 62
7
  6
CONTINUOUS
370
-3
390
F
  0
LAYER
  5
20D
100
AcDbSymbolTableRecord
100
AcDbLayerTableRecord
  2
20_DATUM_KINEMATIC_SCHEME
 70
0
 62
7
  6
CONTINUOUS
370
-3
390
F
  0
ENDTAB
  0
TABLE
  2
STYLE
  5
3
100
AcDbSymbolTable
 70
1
  0
STYLE
  5
11
100
AcDbSymbolTableRecord
100
AcDbTextStyleTableRecord
  2
STANDARD
 70
0
 40
0.0
 41
0.8
 50
0.0
 71
0
 42
0.2
  3
txt
  4

  0
STYLE
  5
20E
100
AcDbSymbolTableRecord
100
AcDbTextStyleTableRecord
  2
TEXTSTYLE_1
 70
0
 40
0.0
 41
0.8
 50
0.0
 71
0
 42
0.2
  3
gdt
  4

  0
ENDTAB
  0
TABLE
  2
VIEW
  5
6
100
AcDbSymbolTable
 70
0
  0
ENDTAB
  0
TABLE
  2
UCS
  5
7
100
AcDbSymbolTable
 70
0
  0
ENDTAB
  0
TABLE
  2
APPID
  5
9
100
AcDbSymbolTable
 70
1
  0
APPID
  5
20F
100
AcDbSymbolTableRecord
100
AcDbRegAppTableRecord
  2
ACAD
 70
0
  0
ENDTAB
  0
TABLE
  2
BLOCK_RECORD
  5
1
100
AcDbSymbolTable
 70
0
  0
BLOCK_RECORD
  5
210
100
AcDbSymbolTableRecord
100
AcDbBlockTableRecord
  2
*Model_Space
  0
BLOCK_RECORD
  5
211
100
AcDbSymbolTableRecord
100
AcDbBlockTableRecord
  2
*Paper_Space
  0
BLOCK_RECORD
  5
212
100
AcDbSymbolTableRecord
100
AcDbBlockTableRecord
  2
_FILLED
  0
ENDTAB
  0
TABLE
  2
DIMSTYLE
  5
A
100
AcDbSymbolTable
 70
1
100
AcDbDimStyleTable
 71
0
  0
DIMSTYLE
105
213
100
AcDbSymbolTableRecord
100
AcDbDimStyleTableRecord
  2
STANDARD
 70
0
  3

  4

 40
1.0
 41
1.2568110557
 42
1.0
 43
0.38
 44
1.0
 45
0.0
 46
0.0
 47
0.01
 48
0.01
140
1.759535478
141
0.09
142
0.0
143
25.4
144
1.0
145
0.0
146
1.0
147
0.625
 71
1
 72
0
 73
0
 74
0
 75
0
 76
0
 77
1
 78
8
 79
2
170
0
171
1
172
0
173
0
174
0
175
0
176
0
177
0
178
0
270
2
179
2
271
2
272
2
273
2
274
2
275
0
280
0
281
0
282
0
283
1
284
8
285
0
286
0
287
3
288
0
340
11
278
46
341
212
342
212
343
212
344
212
  0
ENDTAB
  0
ENDSEC
  0
SECTION
  2
BLOCKS
  0
BLOCK
  5
20
100
AcDbEntity
  8
0
100
AcDbBlockBegin
  2
*Model_Space
 70
0
 10
0.0
 20
0.0
 30
0.0
  3
*Model_Space
  1

  0
ENDBLK
  5
21
100
AcDbEntity
  8
0
100
AcDbBlockEnd
  0
BLOCK
  5
1C
100
AcDbEntity
  8
0
100
AcDbBlockBegin
  2
*Paper_Space
 70
0
 10
0.0
 20
0.0
 30
0.0
  3
*Paper_Space
  1

  0
ENDBLK
  5
1D
100
AcDbEntity
  8
0
100
AcDbBlockEnd
  0
BLOCK
  5
214
100
AcDbEntity
  8
0
100
AcDbBlockBegin
  2
_FILLED
 70
64
 10
0.0
 20
0.0
  3
_FILLED
  1

  0
SOLID
  5
215
100
AcDbEntity
  8
0
  6
BYBLOCK
 62
0
100
AcDbTrace
 10
0.0
 20
0.0
 11
-1.0
 21
0.25
 12
-1.0
 22
-0.25
 13
-1.0
 23
-0.25
  0
ENDBLK
  5
216
100
AcDbEntity
  8
0
  6
BYBLOCK
 62
0
100
AcDbBlockEnd
  0
ENDSEC
  0
SECTION
  2
ENTITIES
  0
LINE
  5
217
100
AcDbEntity
  8
0
100
AcDbLine
 62
7
  6
CONTINUOUS
 10
28.6947694878
 20
15.6326819455
 11
25.4667541012
 21
17.4963353364
  0
LINE
  5
218
100
AcDbEntity
  8
0
100
AcDbLine
 62
7
  6
CONTINUOUS
 10
45.5913118808
 20
16.0760136053
 11
45.883895271
 21
16.1015176984
  0
LINE
  5
219
100
AcDbEntity
  8
0
100
AcDbLine
 62
7
  6
CONTINUOUS
 10
14.359786179
 20
26.1003080409
 11
17.5533456409
 21
24.2565473373
  0
LINE
  5
21A
100
AcDbEntity
  8
0
100
AcDbLine
 62
7
  6
CONTINUOUS
 10
32.1719285582
 20
16.8502905966
 11
32.5254834208
 21
16.6461702193
  0
LINE
  5
21B
100
AcDbEntity
  8
0
100
AcDbLine
 62
7
  6
CONTINUOUS
 10
23.1545550099
 20
22.178828091
 11
25.2910164036
 21
20.9453694348
  0
LINE
  5
21C
100
AcDbEntity
  8
0
100
AcDbLine
 62
7
  6
CONTINUOUS
 10
25.2910164036
 20
21.0678447977
 11
24.7922551801
 21
21.3557982099
  0
LINE
  5
21D
100
AcDbEntity
  8
0
100
AcDbLine
 62
7
  6
CONTINUOUS
 10
24.3516909363
 20
21.8469380414
 11
23.4391225692
 21
22.3737977147
  0
LINE
  5
21E
100
AcDbEntity
  8
0
100
AcDbLine
 62
7
  6
CONTINUOUS
 10
12.3177951574
 20
30.6642588544
 11
14.1986932894
 21
29.5783463782
  0
LINE
  5
21F
100
AcDbEntity
  8
0
100
AcDbLine
 62
7
  6
CONTINUOUS
 10
14.1986932894
 20
30.2315483122
 11
12.6359945321
 21
31.1337524501
  0
LINE
  5
220
100
AcDbEntity
  8
0
100
AcDbLine
 62
7
  6
CONTINUOUS
 10
23.4391225692
 20
25.8031078666
 11
24.3516909363
 21
25.2762481934
  0
LINE
  5
221
100
AcDbEntity
  8
0
100
AcDbLine
 62
7
  6
CONTINUOUS
 10
14.1986932894
 20
31.2929878643
 11
13.5552333477
 21
31.6644812307
  0
LINE
  5
222
100
AcDbEntity
  8
0
100
AcDbLine
 62
7
  6
CONTINUOUS
 10
24.8672379271
 20
25.2398845065
 11
25.2910164036
 21
24.9952214241
  0
LINE
  5
223
100
AcDbEntity
  8
0
100
AcDbLine
 62
7
  6
CONTINUOUS
 10
25.2910164036
 20
25.2156770767
 11
24.7922551801
 21
25.503630489
  0
LINE
  5
224
100
AcDbEntity
  8
0
100
AcDbLine
 62
7
  6
CONTINUOUS
 10
24.3516909363
 20
25.9947703205
 11
23.4391225692
 21
26.5216299937
  0
LINE
  5
225
100
AcDbEntity
  8
0
100
AcDbLine
 62
7
  6
CONTINUOUS
 10
12.6359945325
 20
33.5832597009
 11
14.1986932894
 21
32.6810555632
  0
LINE
  5
226
100
AcDbEntity
  8
0
100
AcDbLine
 62
7
  6
CONTINUOUS
 10
14.1986932894
 20
33.3424225214
 11
12.6359945326
 21
34.2446266591
  0
LINE
  5
227
100
AcDbEntity
  8
0
100
AcDbLine
 62
7
  6
CONTINUOUS
 10
45.5913047592
 20
16.0760012591
 11
38.99035031
 21
19.8869778715
  0
LINE
  5
228
100
AcDbEntity
  8
0
100
AcDbLine
 62
7
  6
CONTINUOUS
 10
45.4670373668
 20
16.3506729478
 11
39.1660931919
 21
19.988442466
  0
LINE
  5
229
100
AcDbEntity
  8
0
100
AcDbLine
 62
7
  6
CONTINUOUS
 10
14.1986932894
 20
34.4038620735
 11
13.5552333489
 21
34.7753554392
  0
LINE
  5
22A
100
AcDbEntity
  8
0
100
AcDbLine
 62
7
  6
CONTINUOUS
 10
23.4391225692
 20
29.9509401456
 11
24.3516909363
 21
29.4240804724
  0
LINE
  5
22B
100
AcDbEntity
  8
0
100
AcDbLine
 62
7
  6
CONTINUOUS
 10
24.8672379271
 20
29.3877167855
 11
25.2910164036
 21
29.1430537031
  0
LINE
  5
22C
100
AcDbEntity
  8
0
100
AcDbLine
 62
7
  6
CONTINUOUS
 10
25.2910164036
 20
29.3635093557
 11
24.7922551801
 21
29.651462768
  0
LINE
  5
22D
100
AcDbEntity
  8
0
100
AcDbLine
 62
7
  6
CONTINUOUS
 10
12.635994533
 20
36.6941339099
 11
14.1986932894
 21
35.7919297725
  0
LINE
  5
22E
100
AcDbEntity
  8
0
100
AcDbLine
 62
7
  6
CONTINUOUS
 10
24.3516909363
 20
30.1426025995
 11
23.4391225692
 21
30.6694622727
  0
LINE
  5
22F
100
AcDbEntity
  8
0
100
AcDbLine
 62
7
  6
CONTINUOUS
 10
14.1986932894
 20
36.4532967307
 11
12.6359945332
 21
37.355500868
  0
LINE
  5
230
100
AcDbEntity
  8
0
100
AcDbLine
 62
7
  6
CONTINUOUS
 10
44.0652682671
 20
19.8161579692
 11
41.4664554484
 21
21.3165493063
  0
LINE
  5
231
100
AcDbEntity
  8
0
100
AcDbLine
 62
7
  6
CONTINUOUS
 10
14.1986932894
 20
37.5147362828
 11
13.5552333491
 21
37.8862296484
  0
LINE
  5
232
100
AcDbEntity
  8
0
100
AcDbLine
 62
7
  6
CONTINUOUS
 10
42.5271112042
 20
21.9289155371
 11
44.0652682671
 21
21.0408802328
  0
LINE
  5
233
100
AcDbEntity
  8
0
100
AcDbLine
 62
7
  6
CONTINUOUS
 10
12.6359945336
 20
39.8050081188
 11
14.1986932894
 21
38.9028039817
  0
LINE
  5
234
100
AcDbEntity
  8
0
100
AcDbLine
 62
7
  6
CONTINUOUS
 10
23.4391225692
 20
34.0987724246
 11
24.3516909363
 21
33.5719127514
  0
LINE
  5
235
100
AcDbEntity
  8
0
100
AcDbLine
 62
7
  6
CONTINUOUS
 10
14.1986932894
 20
39.5641709399
 11
12.6359945337
 21
40.466375077
  0
LINE
  5
236
100
AcDbEntity
  8
0
100
AcDbLine
 62
7
  6
CONTINUOUS
 10
24.8672379271
 20
33.5355490646
 11
25.2910164036
 21
33.2908859821
  0
LINE
  5
237
100
AcDbEntity
  8
0
100
AcDbLine
 62
7
  6
CONTINUOUS
 10
25.2910164036
 20
33.5113416348
 11
24.7922551801
 21
33.799295047
  0
LINE
  5
238
100
AcDbEntity
  8
0
100
AcDbLine
 62
7
  6
CONTINUOUS
 10
24.3516909363
 20
34.2904348785
 11
23.4391225692
 21
34.8172945517
  0
LINE
  5
239
100
AcDbEntity
  8
0
100
AcDbLine
 62
7
  6
CONTINUOUS
 10
14.1986932894
 20
40.6256104921
 11
13.5552333493
 21
40.9971038576
  0
LINE
  5
23A
100
AcDbEntity
  8
0
100
AcDbLine
 62
7
  6
CONTINUOUS
 10
12.6359945341
 20
42.9158823278
 11
14.1986932894
 21
42.013678191
  0
LINE
  5
23B
100
AcDbEntity
  8
0
100
AcDbLine
 62
7
  6
CONTINUOUS
 10
14.1986932894
 20
42.6750451492
 11
12.6359945342
 21
43.5772492859
  0
LINE
  5
23C
100
AcDbEntity
  8
0
100
AcDbLine
 62
7
  6
CONTINUOUS
 10
18.2359050177
 20
105.3377191416
 11
23.4758778113
 21
108.4686155861
  0
LINE
  5
23D
100
AcDbEntity
  8
0
100
AcDbLine
 62
7
  6
CONTINUOUS
 10
43.0918417306
 20
122.2841701653
 11
49.8923801713
 21
126.210439428
  0
LINE
  5
23E
100
AcDbEntity
  8
0
100
AcDbLine
 62
7
  6
CONTINUOUS
 10
51.9951969416
 20
124.9750290862
 11
45.2316833112
 21
121.0701359801
  0
LINE
  5
23F
100
AcDbEntity
  8
0
100
AcDbLine
 62
7
  6
CONTINUOUS
 10
23.4758778113
 20
108.4686155861
 11
42.0946660667
 21
119.2181138315
  0
LINE
  5
240
100
AcDbEntity
  8
0
100
AcDbLine
 62
7
  6
CONTINUOUS
 10
52.4451777994
 20
125.1939488958
 11
67.3163157185
 21
133.7797531262
  0
LINE
  5
241
100
AcDbEntity
  8
0
100
AcDbLine
 62
7
  6
CONTINUOUS
 10
65.9021198194
 20
131.3302950019
 11
66.8256555186
 21
131.8634954037
  0
LINE
  5
242
100
AcDbEntity
  8
0
100
AcDbLine
 62
7
  6
CONTINUOUS
 10
51.9951969416
 20
123.3011490429
 11
52.4451777994
 21
123.5609440615
  0
LINE
  5
243
100
AcDbEntity
  8
0
100
AcDbLine
 62
7
  6
CONTINUOUS
 10
14.0502080946
 20
31.6644824204
 11
13.5552333478
 21
31.6644812307
  0
LINE
  5
244
100
AcDbEntity
  8
0
100
AcDbLine
 62
7
  6
CONTINUOUS
 10
23.4391225692
 20
38.2466047037
 11
24.3516909363
 21
37.7197450304
  0
LINE
  5
245
100
AcDbEntity
  8
0
100
AcDbLine
 62
7
  6
CONTINUOUS
 10
14.1986932894
 20
43.7364847013
 11
13.5552333495
 21
44.1079780667
  0
LINE
  5
246
100
AcDbEntity
  8
0
100
AcDbLine
 62
7
  6
CONTINUOUS
 10
24.8672379271
 20
37.6833813436
 11
25.2910164036
 21
37.4387182612
  0
LINE
  5
247
100
AcDbEntity
  8
0
100
AcDbLine
 62
7
  6
CONTINUOUS
 10
25.2910164036
 20
37.6591739138
 11
24.7922551801
 21
37.947127326
  0
LINE
  5
248
100
AcDbEntity
  8
0
100
AcDbLine
 62
7
  6
CONTINUOUS
 10
24.3516909363
 20
38.4382671575
 11
23.4391225692
 21
38.9651268307
  0
LINE
  5
249
100
AcDbEntity
  8
0
100
AcDbLine
 62
7
  6
CONTINUOUS
 10
12.6359945346
 20
46.0267565368
 11
14.1986932894
 21
45.1245524002
  0
LINE
  5
24A
100
AcDbEntity
  8
0
100
AcDbLine
 62
7
  6
CONTINUOUS
 10
14.1986932894
 20
45.7859193584
 11
12.6359945347
 21
46.6881234949
  0
LINE
  5
24B
100
AcDbEntity
  8
0
100
AcDbLine
 62
7
  6
CONTINUOUS
 10
14.1986932894
 20
46.8473589106
 11
13.5552333496
 21
47.2188522759
  0
LINE
  5
24C
100
AcDbEntity
  8
0
100
AcDbLine
 62
7
  6
CONTINUOUS
 10
23.4391225692
 20
42.3944369827
 11
24.3516909363
 21
41.8675773094
  0
LINE
  5
24D
100
AcDbEntity
  8
0
100
AcDbLine
 62
7
  6
CONTINUOUS
 10
24.8672379271
 20
41.8312136226
 11
25.2910164036
 21
41.5865505402
  0
LINE
  5
24E
100
AcDbEntity
  8
0
100
AcDbLine
 62
7
  6
CONTINUOUS
 10
25.2910164036
 20
41.8070061928
 11
24.7922551801
 21
42.094959605
  0
LINE
  5
24F
100
AcDbEntity
  8
0
100
AcDbLine
 62
7
  6
CONTINUOUS
 10
12.6359945351
 20
49.1376307457
 11
14.1986932894
 21
48.2354266095
  0
LINE
  5
250
100
AcDbEntity
  8
0
100
AcDbLine
 62
7
  6
CONTINUOUS
 10
12.2445711168
 20
65.6309731037
 11
12.2445711168
 21
30.7663198929
  0
LINE
  5
251
100
AcDbEntity
  8
0
100
AcDbLine
 62
7
  6
CONTINUOUS
 10
12.3177951574
 20
30.6642588544
 11
12.3177951574
 21
65.5289120653
  0
LINE
  5
252
100
AcDbEntity
  8
0
100
AcDbLine
 62
7
  6
CONTINUOUS
 10
12.6359945321
 20
31.1337524501
 11
12.6359945325
 21
33.5832597009
  0
LINE
  5
253
100
AcDbEntity
  8
0
100
AcDbLine
 62
7
  6
CONTINUOUS
 10
12.6359945326
 20
34.2446266591
 11
12.635994533
 21
36.6941339099
  0
LINE
  5
254
100
AcDbEntity
  8
0
100
AcDbLine
 62
7
  6
CONTINUOUS
 10
12.6359945332
 20
37.355500868
 11
12.6359945336
 21
39.8050081188
  0
LINE
  5
255
100
AcDbEntity
  8
0
100
AcDbLine
 62
7
  6
CONTINUOUS
 10
12.6359945337
 20
40.466375077
 11
12.6359945341
 21
42.9158823278
  0
LINE
  5
256
100
AcDbEntity
  8
0
100
AcDbLine
 62
7
  6
CONTINUOUS
 10
12.6359945342
 20
43.5772492859
 11
12.6359945346
 21
46.0267565368
  0
LINE
  5
257
100
AcDbEntity
  8
0
100
AcDbLine
 62
7
  6
CONTINUOUS
 10
12.6359945347
 20
46.6881234949
 11
12.6359945351
 21
49.1376307457
  0
LINE
  5
258
100
AcDbEntity
  8
0
100
AcDbLine
 62
7
  6
CONTINUOUS
 10
12.6359945352
 20
49.7989977039
 11
12.6359945356
 21
52.2485049547
  0
LINE
  5
259
100
AcDbEntity
  8
0
100
AcDbLine
 62
7
  6
CONTINUOUS
 10
12.6359945357
 20
52.9098719128
 11
12.6359945361
 21
55.3593791637
  0
LINE
  5
25A
100
AcDbEntity
  8
0
100
AcDbLine
 62
7
  6
CONTINUOUS
 10
12.6359945363
 20
56.0207461218
 11
12.6359945367
 21
58.4702533726
  0
LINE
  5
25B
100
AcDbEntity
  8
0
100
AcDbLine
 62
7
  6
CONTINUOUS
 10
12.6359945368
 20
59.1316203308
 11
12.6359945372
 21
61.5811275816
  0
LINE
  5
25C
100
AcDbEntity
  8
0
100
AcDbLine
 62
7
  6
CONTINUOUS
 10
12.6359945373
 20
62.2424945397
 11
12.6359945377
 21
64.6920017906
  0
LINE
  5
25D
100
AcDbEntity
  8
0
100
AcDbLine
 62
7
  6
CONTINUOUS
 10
14.0502080946
 20
31.6644824204
 11
14.0502080948
 21
32.766781591
  0
LINE
  5
25E
100
AcDbEntity
  8
0
100
AcDbLine
 62
7
  6
CONTINUOUS
 10
14.0502080951
 20
34.7753566294
 11
14.0502080953
 21
35.8776557999
  0
LINE
  5
25F
100
AcDbEntity
  8
0
100
AcDbLine
 62
7
  6
CONTINUOUS
 10
14.0502080956
 20
37.8862308384
 11
14.0502080958
 21
38.9885300089
  0
LINE
  5
260
100
AcDbEntity
  8
0
100
AcDbLine
 62
7
  6
CONTINUOUS
 10
14.0502080961
 20
40.9971050473
 11
14.0502080963
 21
42.0994042178
  0
LINE
  5
261
100
AcDbEntity
  8
0
100
AcDbLine
 62
7
  6
CONTINUOUS
 10
14.0502080966
 20
44.1079792563
 11
14.0502080968
 21
45.2102784268
  0
LINE
  5
262
100
AcDbEntity
  8
0
100
AcDbLine
 62
7
  6
CONTINUOUS
 10
14.0502080972
 20
47.2188534653
 11
14.0502080973
 21
48.3211526358
  0
LINE
  5
263
100
AcDbEntity
  8
0
100
AcDbLine
 62
7
  6
CONTINUOUS
 10
14.0502080977
 20
50.3297276742
 11
14.0502080979
 21
51.4320268447
  0
LINE
  5
264
100
AcDbEntity
  8
0
100
AcDbLine
 62
7
  6
CONTINUOUS
 10
14.0502080982
 20
53.4406018832
 11
14.0502080984
 21
54.5429010537
  0
LINE
  5
265
100
AcDbEntity
  8
0
100
AcDbLine
 62
7
  6
CONTINUOUS
 10
14.0502080987
 20
56.5514760922
 11
14.0502080989
 21
57.6537752627
  0
LINE
  5
266
100
AcDbEntity
  8
0
100
AcDbLine
 62
7
  6
CONTINUOUS
 10
14.0502080992
 20
59.6623503011
 11
14.0502080994
 21
60.7646494716
  0
LINE
  5
267
100
AcDbEntity
  8
0
100
AcDbLine
 62
7
  6
CONTINUOUS
 10
14.0502080997
 20
62.7732245101
 11
14.0502080999
 21
63.8755236806
  0
LINE
  5
268
100
AcDbEntity
  8
0
100
AcDbLine
 62
7
  6
CONTINUOUS
 10
14.1986932894
 20
61.1894955364
 11
14.1986932894
 21
26.3248423255
  0
LINE
  5
269
100
AcDbEntity
  8
0
100
AcDbLine
 62
7
  6
CONTINUOUS
 10
14.359786179
 20
26.1003080409
 11
14.359786179
 21
60.9649612518
  0
LINE
  5
26A
100
AcDbEntity
  8
0
100
AcDbLine
 62
7
  6
CONTINUOUS
 10
68.4575681346
 20
131.4993030644
 11
69.8619082133
 21
132.3100878623
  0
LINE
  5
26B
100
AcDbEntity
  8
0
100
AcDbLine
 62
7
  6
CONTINUOUS
 10
19.1828482157
 20
102.8813577193
 11
16.8494055529
 21
101.5341520115
  0
LINE
  5
26C
100
AcDbEntity
  8
0
100
AcDbLine
 62
7
  6
CONTINUOUS
 10
55.1895081682
 20
123.5532504991
 11
44.9365025286
 21
117.633710268
  0
LINE
  5
26D
100
AcDbEntity
  8
0
100
AcDbLine
 62
7
  6
CONTINUOUS
 10
36.0114427992
 20
111.7497272233
 11
39.9251989903
 21
114.0093219258
  0
LINE
  5
26E
100
AcDbEntity
  8
0
100
AcDbLine
 62
7
  6
CONTINUOUS
 10
61.4671809389
 20
126.4465167627
 11
65.38093713
 21
128.7061114652
  0
LINE
  5
26F
100
AcDbEntity
  8
0
100
AcDbLine
 62
7
  6
CONTINUOUS
 10
18.3493988376
 20
101.3855791744
 11
20.6828415004
 21
102.7327848822
  0
LINE
  5
270
100
AcDbEntity
  8
0
100
AcDbLine
 62
7
  6
CONTINUOUS
 10
71.5589740694
 20
131.330308599
 11
68.7071096735
 21
129.6837937507
  0
LINE
  5
271
100
AcDbEntity
  8
0
100
AcDbLine
 62
7
  6
CONTINUOUS
 10
66.1973274494
 20
128.2347789575
 11
62.2835712583
 21
125.975184255
  0
LINE
  5
272
100
AcDbEntity
  8
0
100
AcDbLine
 62
7
  6
CONTINUOUS
 10
40.7415893097
 20
113.5379894181
 11
36.8278331186
 21
111.2783947156
  0
LINE
  5
273
100
AcDbEntity
  8
0
100
AcDbLine
 62
7
  6
CONTINUOUS
 10
78.7560502194
 20
134.1134187515
 11
76.6347387078
 21
132.8886862899
  0
LINE
  5
274
100
AcDbEntity
  8
0
100
AcDbLine
 62
7
  6
CONTINUOUS
 10
76.8610643756
 20
132.8940631765
 11
78.9823758872
 21
134.1187956381
  0
LINE
  5
275
100
AcDbEntity
  8
0
100
AcDbLine
 62
7
  6
CONTINUOUS
 10
14.0502080941
 20
34.7753566288
 11
13.5552333489
 21
34.7753554393
  0
LINE
  5
276
100
AcDbEntity
  8
0
100
AcDbLine
 62
7
  6
CONTINUOUS
 10
24.3516909363
 20
42.5860994365
 11
23.4391225692
 21
43.1129591098
  0
LINE
  5
277
100
AcDbEntity
  8
0
100
AcDbLine
 62
7
  6
CONTINUOUS
 10
14.1986932894
 20
48.8967935677
 11
12.6359945352
 21
49.7989977039
  0
LINE
  5
278
100
AcDbEntity
  8
0
100
AcDbLine
 62
7
  6
CONTINUOUS
 10
14.1986932894
 20
49.9582331199
 11
13.5552333498
 21
50.329726485
  0
LINE
  5
279
100
AcDbEntity
  8
0
100
AcDbLine
 62
7
  6
CONTINUOUS
 10
57.2756714478
 20
25.7572283828
 11
58.6191687387
 21
24.9815774078
  0
LINE
  5
27A
100
AcDbEntity
  8
0
100
AcDbLine
 62
7
  6
CONTINUOUS
 10
12.6359945356
 20
52.2485049547
 11
14.1986932894
 21
51.3463008188
  0
LINE
  5
27B
100
AcDbEntity
  8
0
100
AcDbLine
 62
7
  6
CONTINUOUS
 10
23.4391225692
 20
46.5422692617
 11
24.3516909363
 21
46.0154095884
  0
LINE
  5
27C
100
AcDbEntity
  8
0
100
AcDbLine
 62
7
  6
CONTINUOUS
 10
14.1986932894
 20
52.007667777
 11
12.6359945357
 21
52.9098719128
  0
LINE
  5
27D
100
AcDbEntity
  8
0
100
AcDbLine
 62
7
  6
CONTINUOUS
 10
24.8672379271
 20
45.9790459016
 11
25.2910164036
 21
45.7343828192
  0
LINE
  5
27E
100
AcDbEntity
  8
0
100
AcDbLine
 62
7
  6
CONTINUOUS
 10
25.2910164036
 20
45.8486931576
 11
24.8672379272
 21
46.09335624
  0
LINE
  5
27F
100
AcDbEntity
  8
0
100
AcDbLine
 62
7
  6
CONTINUOUS
 10
24.3516909363
 20
46.6522814738
 11
23.4391225692
 21
47.1791411471
  0
LINE
  5
280
100
AcDbEntity
  8
0
100
AcDbLine
 62
7
  6
CONTINUOUS
 10
25.4667541012
 20
46.53116129
 11
28.6947694878
 21
44.6675078991
  0
LINE
  5
281
100
AcDbEntity
  8
0
100
AcDbLine
 62
7
  6
CONTINUOUS
 10
14.1986932894
 20
53.0691073291
 11
13.55523335
 21
53.4406006942
  0
LINE
  5
282
100
AcDbEntity
  8
0
100
AcDbLine
 62
7
  6
CONTINUOUS
 10
16.2280696622
 20
100.1607941866
 11
16.2280696622
 21
85.7903516451
  0
LINE
  5
283
100
AcDbEntity
  8
0
100
AcDbLine
 62
7
  6
CONTINUOUS
 10
17.5533456409
 20
59.1212005482
 11
17.5533456409
 21
24.2565473373
  0
LINE
  5
284
100
AcDbEntity
  8
0
100
AcDbLine
 62
7
  6
CONTINUOUS
 10
17.8190471136
 20
104.6072207191
 11
17.8190471136
 21
102.0939714859
  0
LINE
  5
285
100
AcDbEntity
  8
0
100
AcDbLine
 62
7
  6
CONTINUOUS
 10
18.8797028694
 20
81.8099578814
 11
18.8797028694
 21
69.5215307118
  0
LINE
  5
286
100
AcDbEntity
  8
0
100
AcDbLine
 62
7
  6
CONTINUOUS
 10
14.2318615648
 20
61.2980987235
 11
14.1987047983
 21
61.1894955437
  0
LINE
  5
287
100
AcDbEntity
  8
0
100
AcDbLine
 62
7
  6
CONTINUOUS
 10
38.7723863348
 20
109.9516114136
 11
43.0396944444
 21
112.415328193
  0
LINE
  5
288
100
AcDbEntity
  8
0
100
AcDbLine
 62
7
  6
CONTINUOUS
 10
64.2281244745
 20
124.648400953
 11
68.4954325841
 21
127.1121177324
  0
LINE
  5
289
100
AcDbEntity
  8
0
100
AcDbLine
 62
7
  6
CONTINUOUS
 10
78.6089695932
 20
132.2408155166
 11
80.7302811049
 21
133.4655479782
  0
LINE
  5
28A
100
AcDbEntity
  8
0
100
AcDbLine
 62
7
  6
CONTINUOUS
 10
81.2674990505
 20
133.1553920694
 11
79.1461875389
 21
131.9306596078
  0
LINE
  5
28B
100
AcDbEntity
  8
0
100
AcDbLine
 62
7
  6
CONTINUOUS
 10
69.9096520344
 20
126.2956362233
 11
65.6423439248
 21
123.8319194439
  0
LINE
  5
28C
100
AcDbEntity
  8
0
100
AcDbLine
 62
7
  6
CONTINUOUS
 10
44.4539138947
 20
111.598846684
 11
40.1866057851
 21
109.1351299045
  0
LINE
  5
28D
100
AcDbEntity
  8
0
100
AcDbLine
 62
7
  6
CONTINUOUS
 10
83.0154042682
 20
131.7903782925
 11
80.8940927566
 21
130.5656458309
  0
LINE
  5
28E
100
AcDbEntity
  8
0
100
AcDbLine
 62
7
  6
CONTINUOUS
 10
81.2137921998
 20
130.082133014
 11
83.3351037114
 21
131.3068654756
  0
LINE
  5
28F
100
AcDbEntity
  8
0
100
AcDbLine
 62
7
  6
CONTINUOUS
 10
14.0502080951
 20
37.886230838
 11
13.5552333491
 21
37.8862296484
  0
LINE
  5
290
100
AcDbEntity
  8
0
100
AcDbLine
 62
7
  6
CONTINUOUS
 10
14.0502080961
 20
40.9971050473
 11
13.5552333493
 21
40.9971038576
  0
LINE
  5
291
100
AcDbEntity
  8
0
100
AcDbLine
 62
7
  6
CONTINUOUS
 10
47.9536965626
 20
34.9361611242
 11
49.3679160129
 21
34.1196796152
  0
LINE
  5
292
100
AcDbEntity
  8
0
100
AcDbLine
 62
7
  6
CONTINUOUS
 10
12.6359945361
 20
55.3593791637
 11
14.1986932894
 21
54.457175028
  0
LINE
  5
293
100
AcDbEntity
  8
0
100
AcDbLine
 62
7
  6
CONTINUOUS
 10
14.1986932894
 20
55.1185419862
 11
12.6359945363
 21
56.0207461218
  0
LINE
  5
294
100
AcDbEntity
  8
0
100
AcDbLine
 62
7
  6
CONTINUOUS
 10
23.4391225692
 20
50.608451299
 11
24.3516909363
 21
50.0815916257
  0
LINE
  5
295
100
AcDbEntity
  8
0
100
AcDbLine
 62
7
  6
CONTINUOUS
 10
26.2700315324
 20
48.9740622219
 11
27.171971284
 21
48.4533388439
  0
LINE
  5
296
100
AcDbEntity
  8
0
100
AcDbLine
 62
7
  6
CONTINUOUS
 10
14.1986932894
 20
56.1799815384
 11
13.5552333502
 21
56.5514749034
  0
LINE
  5
297
100
AcDbEntity
  8
0
100
AcDbLine
 62
7
  6
CONTINUOUS
 10
24.7922551801
 20
50.0640231962
 11
25.8294672885
 21
49.4652020534
  0
LINE
  5
298
100
AcDbEntity
  8
0
100
AcDbLine
 62
7
  6
CONTINUOUS
 10
32.1719285582
 20
45.8851165502
 11
32.5254834208
 21
45.6809961729
  0
LINE
  5
299
100
AcDbEntity
  8
0
100
AcDbLine
 62
7
  6
CONTINUOUS
 10
23.1545550099
 20
51.2136540445
 11
27.6568916934
 21
48.6142875539
  0
LINE
  5
29A
100
AcDbEntity
  8
0
100
AcDbLine
 62
7
  6
CONTINUOUS
 10
23.4373930126
 20
51.8668426515
 11
23.3699383553
 21
51.905786735
  0
LINE
  5
29B
100
AcDbEntity
  8
0
100
AcDbLine
 62
7
  6
CONTINUOUS
 10
12.6359945367
 20
58.4702533726
 11
14.1986932894
 21
57.5680492373
  0
LINE
  5
29C
100
AcDbEntity
  8
0
100
AcDbLine
 62
7
  6
CONTINUOUS
 10
14.1986932894
 20
58.2294161955
 11
12.6359945368
 21
59.1316203308
  0
LINE
  5
29D
100
AcDbEntity
  8
0
100
AcDbLine
 62
7
  6
CONTINUOUS
 10
51.4774082073
 20
37.1740726758
 11
52.8916276575
 21
36.3575911667
  0
LINE
  5
29E
100
AcDbEntity
  8
0
100
AcDbLine
 62
7
  6
CONTINUOUS
 10
14.1986932894
 20
59.2908557477
 11
13.5552333504
 21
59.6623491125
  0
LINE
  5
29F
100
AcDbEntity
  8
0
100
AcDbLine
 62
7
  6
CONTINUOUS
 10
27.171971284
 20
48.4533388439
 11
27.1804357479
 21
48.4350500806
  0
LINE
  5
2A0
100
AcDbEntity
  8
0
100
AcDbLine
 62
7
  6
CONTINUOUS
 10
22.6980953857
 20
68.4192973312
 11
22.6980953857
 21
69.9706289261
  0
LINE
  5
2A1
100
AcDbEntity
  8
0
100
AcDbLine
 62
7
  6
CONTINUOUS
 10
22.9788173122
 20
51.4586005369
 11
22.9788173122
 21
22.4237745833
  0
LINE
  5
2A2
100
AcDbEntity
  8
0
100
AcDbLine
 62
7
  6
CONTINUOUS
 10
23.1545550099
 20
22.178828091
 11
23.1545550099
 21
51.2136540445
  0
LINE
  5
2A3
100
AcDbEntity
  8
0
100
AcDbLine
 62
7
  6
CONTINUOUS
 10
23.3699383553
 20
51.8278979194
 11
23.3699383553
 21
51.905786735
  0
LINE
  5
2A4
100
AcDbEntity
  8
0
100
AcDbLine
 62
7
  6
CONTINUOUS
 10
23.4391225692
 20
22.3737977147
 11
23.4391225692
 21
25.8031078666
  0
LINE
  5
2A5
100
AcDbEntity
  8
0
100
AcDbLine
 62
7
  6
CONTINUOUS
 10
23.4391225692
 20
26.5216299937
 11
23.4391225692
 21
29.9509401456
  0
LINE
  5
2A6
100
AcDbEntity
  8
0
100
AcDbLine
 62
7
  6
CONTINUOUS
 10
23.4391225692
 20
30.6694622727
 11
23.4391225692
 21
34.0987724246
  0
LINE
  5
2A7
100
AcDbEntity
  8
0
100
AcDbLine
 62
7
  6
CONTINUOUS
 10
23.4391225692
 20
34.8172945517
 11
23.4391225692
 21
38.2466047037
  0
LINE
  5
2A8
100
AcDbEntity
  8
0
100
AcDbLine
 62
7
  6
CONTINUOUS
 10
23.4391225692
 20
38.9651268307
 11
23.4391225692
 21
42.3944369827
  0
LINE
  5
2A9
100
AcDbEntity
  8
0
100
AcDbLine
 62
7
  6
CONTINUOUS
 10
23.4391225692
 20
43.1129591098
 11
23.4391225692
 21
46.5422692617
  0
LINE
  5
2AA
100
AcDbEntity
  8
0
100
AcDbLine
 62
7
  6
CONTINUOUS
 10
23.4391225692
 20
47.1791411471
 11
23.4391225692
 21
50.608451299
  0
LINE
  5
2AB
100
AcDbEntity
  8
0
100
AcDbLine
 62
7
  6
CONTINUOUS
 10
25.2910164036
 20
46.7761077823
 11
25.2910164036
 21
17.7412818288
  0
LINE
  5
2AC
100
AcDbEntity
  8
0
100
AcDbLine
 62
7
  6
CONTINUOUS
 10
84.5344387034
 20
127.1867541656
 11
82.4131271918
 21
125.9620217039
  0
LINE
  5
2AD
100
AcDbEntity
  8
0
100
AcDbLine
 62
7
  6
CONTINUOUS
 10
31.6430422402
 20
96.4050531871
 11
29.3095995774
 21
95.0578474794
  0
LINE
  5
2AE
100
AcDbEntity
  8
0
100
AcDbLine
 62
7
  6
CONTINUOUS
 10
14.0502080972
 20
44.1079792565
 11
13.5552333495
 21
44.1079780667
  0
LINE
  5
2AF
100
AcDbEntity
  8
0
100
AcDbLine
 62
7
  6
CONTINUOUS
 10
12.6359945372
 20
61.5811275816
 11
14.1986932894
 21
60.6789234466
  0
LINE
  5
2B0
100
AcDbEntity
  8
0
100
AcDbLine
 62
7
  6
CONTINUOUS
 10
14.359786179
 20
60.9649612518
 11
17.5533456409
 21
59.1212005482
  0
LINE
  5
2B1
100
AcDbEntity
  8
0
100
AcDbLine
 62
7
  6
CONTINUOUS
 10
14.2418391046
 20
61.3153807203
 11
12.6359945373
 21
62.2424945397
  0
LINE
  5
2B2
100
AcDbEntity
  8
0
100
AcDbLine
 62
7
  6
CONTINUOUS
 10
14.7331030189
 20
62.0931953356
 11
13.5552333505
 21
62.7732233217
  0
LINE
  5
2B3
100
AcDbEntity
  8
0
100
AcDbLine
 62
7
  6
CONTINUOUS
 10
12.6359945377
 20
64.6920017906
 11
15.3746600954
 21
63.1108682631
  0
LINE
  5
2B4
100
AcDbEntity
  8
0
100
AcDbLine
 62
7
  6
CONTINUOUS
 10
12.3177951574
 20
65.5289120653
 11
15.6765663519
 21
63.5897684813
  0
LINE
  5
2B5
100
AcDbEntity
  8
0
100
AcDbLine
 62
7
  6
CONTINUOUS
 10
45.4670373668
 20
16.3506729478
 11
45.5913118808
 21
16.0760136053
  0
LINE
  5
2B6
100
AcDbEntity
  8
0
100
AcDbLine
 62
7
  6
CONTINUOUS
 10
25.4667541012
 20
17.4963353364
 11
25.4667541012
 21
46.53116129
  0
LINE
  5
2B7
100
AcDbEntity
  8
0
100
AcDbLine
 62
7
  6
CONTINUOUS
 10
28.1782022318
 20
54.6818226077
 11
28.1782022318
 21
65.2554277447
  0
LINE
  5
2B8
100
AcDbEntity
  8
0
100
AcDbLine
 62
7
  6
CONTINUOUS
 10
28.6947694878
 20
44.6675078991
 11
28.6947694878
 21
15.6326819455
  0
LINE
  5
2B9
100
AcDbEntity
  8
0
100
AcDbLine
 62
7
  6
CONTINUOUS
 10
28.7792390217
 20
66.4597584374
 11
28.7792390217
 21
55.0288292888
  0
LINE
  5
2BA
100
AcDbEntity
  8
0
100
AcDbLine
 62
7
  6
CONTINUOUS
 10
29.492542527
 20
15.6065297933
 11
29.492542527
 21
44.6413557469
  0
LINE
  5
2BB
100
AcDbEntity
  8
0
100
AcDbLine
 62
7
  6
CONTINUOUS
 10
15.6765663519
 20
63.5897684813
 11
14.2318615648
 21
61.2980987235
  0
LINE
  5
2BC
100
AcDbEntity
  8
0
100
AcDbLine
 62
7
  6
CONTINUOUS
 10
84.5344387034
 20
123.6757937719
 11
82.4131271918
 21
122.4510613103
  0
LINE
  5
2BD
100
AcDbEntity
  8
0
100
AcDbLine
 62
7
  6
CONTINUOUS
 10
31.4309287528
 20
91.3836179644
 11
33.7643714156
 21
92.7308236722
  0
LINE
  5
2BE
100
AcDbEntity
  8
0
100
AcDbLine
 62
7
  6
CONTINUOUS
 10
14.0502080982
 20
47.2188534658
 11
13.5552333497
 21
47.2188522759
  0
LINE
  5
2BF
100
AcDbEntity
  8
0
100
AcDbLine
 62
7
  6
CONTINUOUS
 10
14.0502080992
 20
50.3297276751
 11
13.5552333498
 21
50.329726485
  0
LINE
  5
2C0
100
AcDbEntity
  8
0
100
AcDbLine
 62
7
  6
CONTINUOUS
 10
43.6426919207
 20
51.6078184731
 11
33.2481789611
 21
57.6089575645
  0
LINE
  5
2C1
100
AcDbEntity
  8
0
100
AcDbLine
 62
7
  6
CONTINUOUS
 10
31.4309287528
 20
77.0131754229
 11
31.4309287528
 21
91.3836179644
  0
LINE
  5
2C2
100
AcDbEntity
  8
0
100
AcDbLine
 62
7
  6
CONTINUOUS
 10
32.0595460149
 20
16.7854068923
 11
32.0595460149
 21
45.8202328459
  0
LINE
  5
2C3
100
AcDbEntity
  8
0
100
AcDbLine
 62
7
  6
CONTINUOUS
 10
32.1719285582
 20
16.8502905966
 11
32.1719285582
 21
45.8851165502
  0
LINE
  5
2C4
100
AcDbEntity
  8
0
100
AcDbLine
 62
7
  6
CONTINUOUS
 10
32.5254834208
 20
45.6809961729
 11
32.5254834208
 21
16.6461702193
  0
LINE
  5
2C5
100
AcDbEntity
  8
0
100
AcDbLine
 62
7
  6
CONTINUOUS
 10
33.232590202
 20
16.646171919
 11
33.232590202
 21
45.6809978726
  0
LINE
  5
2C6
100
AcDbEntity
  8
0
100
AcDbLine
 62
7
  6
CONTINUOUS
 10
33.692224308
 20
45.9463661634
 11
33.692224308
 21
16.9115402098
  0
LINE
  5
2C7
100
AcDbEntity
  8
0
100
AcDbLine
 62
7
  6
CONTINUOUS
 10
33.7290070977
 20
57.3313575905
 11
33.7290070977
 21
59.8461620358
  0
LINE
  5
2C8
100
AcDbEntity
  8
0
100
AcDbLine
 62
7
  6
CONTINUOUS
 10
33.7643714156
 20
92.7308236722
 11
33.7643714156
 21
78.3603811307
  0
LINE
  5
2C9
100
AcDbEntity
  8
0
100
AcDbLine
 62
7
  6
CONTINUOUS
 10
33.8351616987
 20
16.9106461054
 11
33.8351616987
 21
45.9454720589
  0
LINE
  5
2CA
100
AcDbEntity
  8
0
100
AcDbLine
 62
7
  6
CONTINUOUS
 10
14.0502081003
 20
53.4406018843
 11
13.55523335
 21
53.4406006942
  0
LINE
  5
2CB
100
AcDbEntity
  8
0
100
AcDbLine
 62
7
  6
CONTINUOUS
 10
33.7290070977
 20
59.8461620358
 11
41.6486360188
 21
55.2738655855
  0
LINE
  5
2CC
100
AcDbEntity
  8
0
100
AcDbLine
 62
7
  6
CONTINUOUS
 10
28.1782022318
 20
65.2554277447
 11
19.834307475
 21
70.072668648
  0
LINE
  5
2CD
100
AcDbEntity
  8
0
100
AcDbLine
 62
7
  6
CONTINUOUS
 10
22.6980953857
 20
69.9706289261
 11
28.7792390217
 21
66.4597584374
  0
LINE
  5
2CE
100
AcDbEntity
  8
0
100
AcDbLine
 62
7
  6
CONTINUOUS
 10
51.1238680645
 20
92.5064020844
 11
45.883895271
 21
89.3755056399
  0
LINE
  5
2CF
100
AcDbEntity
  8
0
100
AcDbLine
 62
7
  6
CONTINUOUS
 10
51.1238680645
 20
92.5064020844
 11
94.9643059718
 21
117.8175396244
  0
LINE
  5
2D0
100
AcDbEntity
  8
0
100
AcDbLine
 62
7
  6
CONTINUOUS
 10
88.2238376083
 20
112.3880723367
 11
89.871825444
 21
113.3395328778
  0
LINE
  5
2D1
100
AcDbEntity
  8
0
100
AcDbLine
 62
7
  6
CONTINUOUS
 10
57.2756714478
 20
94.4251213885
 11
58.6191687387
 21
95.200785281
  0
LINE
  5
2D2
100
AcDbEntity
  8
0
100
AcDbLine
 62
7
  6
CONTINUOUS
 10
88.2238376083
 20
111.3947659176
 11
88.4819214271
 21
111.5437697904
  0
LINE
  5
2D3
100
AcDbEntity
  8
0
100
AcDbLine
 62
7
  6
CONTINUOUS
 10
14.0502081013
 20
56.5514760936
 11
13.5552333502
 21
56.5514749034
  0
LINE
  5
2D4
100
AcDbEntity
  8
0
100
AcDbLine
 62
7
  6
CONTINUOUS
 10
14.0502081023
 20
59.6623503029
 11
13.5552333504
 21
59.6623491125
  0
LINE
  5
2D5
100
AcDbEntity
  8
0
100
AcDbLine
 62
7
  6
CONTINUOUS
 10
75.6727019833
 20
43.8088790155
 11
77.0869214336
 21
42.9923975064
  0
LINE
  5
2D6
100
AcDbEntity
  8
0
100
AcDbLine
 62
7
  6
CONTINUOUS
 10
39.9251989903
 20
113.066649061
 11
39.9251989903
 21
114.0093219258
  0
LINE
  5
2D7
100
AcDbEntity
  8
0
100
AcDbLine
 62
7
  6
CONTINUOUS
 10
41.6486360188
 20
55.2738655855
 11
41.6486360188
 21
52.7590611402
  0
LINE
  5
2D8
100
AcDbEntity
  8
0
100
AcDbLine
 62
7
  6
CONTINUOUS
 10
43.0396944444
 20
110.7823233588
 11
43.0396944444
 21
112.415328193
  0
LINE
  5
2D9
100
AcDbEntity
  8
0
100
AcDbLine
 62
7
  6
CONTINUOUS
 10
43.0918417306
 20
122.2841701654
 11
43.0918417306
 21
118.6621604202
  0
LINE
  5
2DA
100
AcDbEntity
  8
0
100
AcDbLine
 62
7
  6
CONTINUOUS
 10
43.6426919207
 20
22.5729925195
 11
43.6426919207
 21
51.6078184731
  0
LINE
  5
2DB
100
AcDbEntity
  8
0
100
AcDbLine
 62
7
  6
CONTINUOUS
 10
44.0652682671
 20
68.3043293647
 11
44.0652682671
 21
19.8161579692
  0
LINE
  5
2DC
100
AcDbEntity
  8
0
100
AcDbLine
 62
7
  6
CONTINUOUS
 10
70.4154602771
 20
99.7393820573
 11
77.0745788903
 21
103.5840030319
  0
LINE
  5
2DD
100
AcDbEntity
  8
0
100
AcDbLine
 62
7
  6
CONTINUOUS
 10
58.6191687387
 20
92.7512780296
 11
57.2756714478
 21
91.9756141371
  0
LINE
  5
2DE
100
AcDbEntity
  8
0
100
AcDbLine
 62
7
  6
CONTINUOUS
 10
33.7643714156
 20
78.360381131
 11
31.4309287528
 21
77.0131754233
  0
LINE
  5
2DF
100
AcDbEntity
  8
0
100
AcDbLine
 62
7
  6
CONTINUOUS
 10
82.1812657326
 20
106.3012062701
 11
88.2238376083
 21
109.7898659447
  0
LINE
  5
2E0
100
AcDbEntity
  8
0
100
AcDbLine
 62
7
  6
CONTINUOUS
 10
89.871825444
 20
110.7413264858
 11
90.0697502803
 21
110.8555977612
  0
LINE
  5
2E1
100
AcDbEntity
  8
0
100
AcDbLine
 62
7
  6
CONTINUOUS
 10
12.3177936855
 20
65.7330332924
 11
19.834307475
 21
70.072668648
  0
LINE
  5
2E2
100
AcDbEntity
  8
0
100
AcDbLine
 62
7
  6
CONTINUOUS
 10
84.3117716499
 20
106.8703450984
 11
85.6552689406
 21
107.6460089908
  0
LINE
  5
2E3
100
AcDbEntity
  8
0
100
AcDbLine
 62
7
  6
CONTINUOUS
 10
33.1430355249
 20
76.9870233058
 11
30.8095928621
 21
75.6398175981
  0
LINE
  5
2E4
100
AcDbEntity
  8
0
100
AcDbLine
 62
7
  6
CONTINUOUS
 10
82.9894874743
 20
105.551706887
 11
84.3117716499
 21
106.3151234548
  0
LINE
  5
2E5
100
AcDbEntity
  8
0
100
AcDbLine
 62
7
  6
CONTINUOUS
 10
86.726531254
 20
107.0601578186
 11
86.6982738082
 21
107.043843472
  0
LINE
  5
2E6
100
AcDbEntity
  8
0
100
AcDbLine
 62
7
  6
CONTINUOUS
 10
82.4839082307
 20
104.6106928954
 11
82.1812657326
 21
104.4359632107
  0
LINE
  5
2E7
100
AcDbEntity
  8
0
100
AcDbLine
 62
7
  6
CONTINUOUS
 10
87.2462658218
 20
106.7274672929
 11
85.9027685315
 21
105.9518034007
  0
LINE
  5
2E8
100
AcDbEntity
  8
0
100
AcDbLine
 62
7
  6
CONTINUOUS
 10
86.3270326002
 20
105.7068536954
 11
87.2462675886
 21
106.2375710954
  0
LINE
  5
2E9
100
AcDbEntity
  8
0
100
AcDbLine
 62
7
  6
CONTINUOUS
 10
85.9027685315
 20
105.3965817571
 11
84.5804843559
 21
104.6331651894
  0
LINE
  5
2EA
100
AcDbEntity
  8
0
100
AcDbLine
 62
7
  6
CONTINUOUS
 10
85.0047484246
 20
104.388215484
 11
86.3270326002
 21
105.1516320518
  0
LINE
  5
2EB
100
AcDbEntity
  8
0
100
AcDbLine
 62
7
  6
CONTINUOUS
 10
12.6359945373
 20
62.2424945398
 11
13.5552333506
 21
62.7732233204
  0
LINE
  5
2EC
100
AcDbEntity
  8
0
100
AcDbLine
 62
7
  6
CONTINUOUS
 10
75.66035944
 20
98.5074150349
 11
70.4154602771
 21
95.4792891669
  0
LINE
  5
2ED
100
AcDbEntity
  8
0
100
AcDbLine
 62
7
  6
CONTINUOUS
 10
15.0048408312
 20
63.3243786846
 11
14.0502081034
 21
62.7732245121
  0
LINE
  5
2EE
100
AcDbEntity
  8
0
100
AcDbLine
 62
7
  6
CONTINUOUS
 10
14.0502081034
 20
62.7732245121
 11
13.5552333506
 21
62.7732233217
  0
LINE
  5
2EF
100
AcDbEntity
  8
0
100
AcDbLine
 62
7
  6
CONTINUOUS
 10
18.3493988355
 20
82.1161221317
 11
29.3095995795
 21
75.7883904342
  0
LINE
  5
2F0
100
AcDbEntity
  8
0
100
AcDbLine
 62
7
  6
CONTINUOUS
 10
31.084565398
 20
75.7985721181
 11
44.0652682671
 21
68.3043293647
  0
LINE
  5
2F1
100
AcDbEntity
  8
0
100
AcDbLine
 62
7
  6
CONTINUOUS
 10
88.4822910801
 20
43.6656672578
 11
89.8965105304
 21
42.8491857487
  0
LINE
  5
2F2
100
AcDbEntity
  8
0
100
AcDbLine
 62
7
  6
CONTINUOUS
 10
45.2316833112
 20
121.0701359801
 11
45.2316833112
 21
117.804131955
  0
LINE
  5
2F3
100
AcDbEntity
  8
0
100
AcDbLine
 62
7
  6
CONTINUOUS
 10
45.4670373668
 20
88.6450072174
 11
45.4670373668
 21
16.3506729478
  0
LINE
  5
2F4
100
AcDbEntity
  8
0
100
AcDbLine
 62
7
  6
CONTINUOUS
 10
47.9305311975
 20
33.2903157549
 11
47.9305311975
 21
37.8073363122
  0
LINE
  5
2F5
100
AcDbEntity
  8
0
100
AcDbLine
 62
7
  6
CONTINUOUS
 10
47.9305311975
 20
70.0329245257
 11
47.9305311975
 21
74.549945083
  0
LINE
  5
2F6
100
AcDbEntity
  8
0
100
AcDbLine
 62
7
  6
CONTINUOUS
 10
47.9536965626
 20
74.549945083
 11
47.9536965626
 21
71.678769895
  0
LINE
  5
2F7
100
AcDbEntity
  8
0
100
AcDbLine
 62
7
  6
CONTINUOUS
 10
47.9536965626
 20
37.8073363122
 11
47.9536965626
 21
34.9361611242
  0
LINE
  5
2F8
100
AcDbEntity
  8
0
100
AcDbLine
 62
7
  6
CONTINUOUS
 10
49.3679160129
 20
75.3803203357
 11
49.3679160129
 21
70.862288386
  0
LINE
  5
2F9
100
AcDbEntity
  8
0
100
AcDbLine
 62
7
  6
CONTINUOUS
 10
49.3679160129
 20
38.6377115648
 11
49.3679160129
 21
34.1196796152
  0
LINE
  5
2FA
100
AcDbEntity
  8
0
100
AcDbLine
 62
7
  6
CONTINUOUS
 10
77.0745788903
 20
97.6909335259
 11
70.4154602771
 21
93.8463125513
  0
LINE
  5
2FB
100
AcDbEntity
  8
0
100
AcDbLine
 62
7
  6
CONTINUOUS
 10
12.6359945368
 20
59.1316203308
 11
13.5552333504
 21
59.6623491114
  0
LINE
  5
2FC
100
AcDbEntity
  8
0
100
AcDbLine
 62
7
  6
CONTINUOUS
 10
14.1986932894
 20
59.7480777539
 11
14.0502081023
 21
59.6623503029
  0
LINE
  5
2FD
100
AcDbEntity
  8
0
100
AcDbLine
 62
7
  6
CONTINUOUS
 10
90.0697502803
 20
103.0299230359
 11
90.4634154649
 21
103.2572043794
  0
LINE
  5
2FE
100
AcDbEntity
  8
0
100
AcDbLine
 62
7
  6
CONTINUOUS
 10
17.5533456409
 20
59.1212005482
 11
28.1782022318
 21
65.2554277447
  0
LINE
  5
2FF
100
AcDbEntity
  8
0
100
AcDbLine
 62
7
  6
CONTINUOUS
 10
12.6359945363
 20
56.0207461218
 11
13.5552333503
 21
56.5514749024
  0
LINE
  5
300
100
AcDbEntity
  8
0
100
AcDbLine
 62
7
  6
CONTINUOUS
 10
47.9536965626
 20
71.678769895
 11
49.3679160129
 21
70.862288386
  0
LINE
  5
301
100
AcDbEntity
  8
0
100
AcDbLine
 62
7
  6
CONTINUOUS
 10
51.1362106084
 20
35.3441067105
 11
51.1362106084
 21
39.4551230027
  0
LINE
  5
302
100
AcDbEntity
  8
0
100
AcDbLine
 62
7
  6
CONTINUOUS
 10
51.1362106084
 20
72.0867154814
 11
51.1362106084
 21
76.1977317735
  0
LINE
  5
303
100
AcDbEntity
  8
0
100
AcDbLine
 62
7
  6
CONTINUOUS
 10
51.4774082073
 20
76.3947211232
 11
51.4774082073
 21
73.9166814466
  0
LINE
  5
304
100
AcDbEntity
  8
0
100
AcDbLine
 62
7
  6
CONTINUOUS
 10
51.4774082073
 20
39.6521123524
 11
51.4774082073
 21
37.1740726758
  0
LINE
  5
305
100
AcDbEntity
  8
0
100
AcDbLine
 62
7
  6
CONTINUOUS
 10
51.9951969416
 20
124.9750290862
 11
51.9951969416
 21
121.7090250611
  0
LINE
  5
306
100
AcDbEntity
  8
0
100
AcDbLine
 62
7
  6
CONTINUOUS
 10
52.4451777994
 20
123.5609440615
 11
52.4451777994
 21
125.1939488958
  0
LINE
  5
307
100
AcDbEntity
  8
0
100
AcDbLine
 62
7
  6
CONTINUOUS
 10
52.8916276575
 20
77.2112162297
 11
52.8916276575
 21
73.1001999376
  0
LINE
  5
308
100
AcDbEntity
  8
0
100
AcDbLine
 62
7
  6
CONTINUOUS
 10
52.8916276575
 20
40.4686074589
 11
52.8916276575
 21
36.3575911667
  0
LINE
  5
309
100
AcDbEntity
  8
0
100
AcDbLine
 62
7
  6
CONTINUOUS
 10
76.5427178346
 20
132.7827846314
 11
75.3420299403
 21
130.0444292491
  0
LINE
  5
30A
100
AcDbEntity
  8
0
100
AcDbLine
 62
7
  6
CONTINUOUS
 10
47.9305311975
 20
74.549945083
 11
49.3679160129
 21
75.3803203357
  0
LINE
  5
30B
100
AcDbEntity
  8
0
100
AcDbLine
 62
7
  6
CONTINUOUS
 10
14.1986932894
 20
56.6372035452
 11
14.0502081013
 21
56.5514760936
  0
LINE
  5
30C
100
AcDbEntity
  8
0
100
AcDbLine
 62
7
  6
CONTINUOUS
 10
51.1362106084
 20
76.1977317735
 11
52.8916276575
 21
77.2112162297
  0
LINE
  5
30D
100
AcDbEntity
  8
0
100
AcDbLine
 62
7
  6
CONTINUOUS
 10
89.0491960146
 20
97.7866172757
 11
88.6555308301
 21
97.5593359321
  0
LINE
  5
30E
100
AcDbEntity
  8
0
100
AcDbLine
 62
7
  6
CONTINUOUS
 10
12.6359945357
 20
52.9098719129
 11
13.5552333501
 21
53.4406006935
  0
LINE
  5
30F
100
AcDbEntity
  8
0
100
AcDbLine
 62
7
  6
CONTINUOUS
 10
75.6603712153
 20
89.0360220129
 11
78.4887865647
 21
90.6689986286
  0
LINE
  5
310
100
AcDbEntity
  8
0
100
AcDbLine
 62
7
  6
CONTINUOUS
 10
14.1986932894
 20
53.5263293366
 11
14.0502081003
 21
53.4406018843
  0
LINE
  5
311
100
AcDbEntity
  8
0
100
AcDbLine
 62
7
  6
CONTINUOUS
 10
90.4634154649
 20
96.9701357666
 11
90.0697502803
 21
96.7428544231
  0
LINE
  5
312
100
AcDbEntity
  8
0
100
AcDbLine
 62
7
  6
CONTINUOUS
 10
51.4774082073
 20
73.9166814466
 11
51.1362106084
 21
73.7196920969
  0
LINE
  5
313
100
AcDbEntity
  8
0
100
AcDbLine
 62
7
  6
CONTINUOUS
 10
47.9536965626
 20
71.678769895
 11
47.9305311975
 21
71.665403595
  0
LINE
  5
314
100
AcDbEntity
  8
0
100
AcDbLine
 62
7
  6
CONTINUOUS
 10
51.4774082073
 20
73.9166814466
 11
52.8916276575
 21
73.1001999376
  0
LINE
  5
315
100
AcDbEntity
  8
0
100
AcDbLine
 62
7
  6
CONTINUOUS
 10
57.2756714478
 20
24.2059135154
 11
57.2756714478
 21
26.6554207668
  0
LINE
  5
316
100
AcDbEntity
  8
0
100
AcDbLine
 62
7
  6
CONTINUOUS
 10
57.2756714478
 20
91.9756141371
 11
57.2756714478
 21
94.4251213885
  0
LINE
  5
317
100
AcDbEntity
  8
0
100
AcDbLine
 62
7
  6
CONTINUOUS
 10
58.6191687387
 20
95.200785281
 11
58.6191687387
 21
92.7512780296
  0
LINE
  5
318
100
AcDbEntity
  8
0
100
AcDbLine
 62
7
  6
CONTINUOUS
 10
58.6191687387
 20
27.4310846592
 11
58.6191687387
 21
24.9815774078
  0
LINE
  5
319
100
AcDbEntity
  8
0
100
AcDbLine
 62
7
  6
CONTINUOUS
 10
93.9813579205
 20
93.2972344641
 11
93.4086775297
 21
92.9550565436
  0
LINE
  5
31A
100
AcDbEntity
  8
0
100
AcDbLine
 62
7
  6
CONTINUOUS
 10
82.4839082307
 20
90.5668513208
 11
82.1812657326
 21
90.392121636
  0
LINE
  5
31B
100
AcDbEntity
  8
0
100
AcDbLine
 62
7
  6
CONTINUOUS
 10
52.8916276575
 20
73.1001999376
 11
51.1362106084
 21
72.0867154814
  0
LINE
  5
31C
100
AcDbEntity
  8
0
100
AcDbLine
 62
7
  6
CONTINUOUS
 10
12.6359945352
 20
49.7989977039
 11
13.5552333499
 21
50.3297264845
  0
LINE
  5
31D
100
AcDbEntity
  8
0
100
AcDbLine
 62
7
  6
CONTINUOUS
 10
14.1986932894
 20
50.4154551279
 11
14.0502080992
 21
50.3297276751
  0
LINE
  5
31E
100
AcDbEntity
  8
0
100
AcDbLine
 62
7
  6
CONTINUOUS
 10
84.0537060005
 20
89.5952135163
 11
82.2364218877
 21
88.5460103075
  0
LINE
  5
31F
100
AcDbEntity
  8
0
100
AcDbLine
 62
7
  6
CONTINUOUS
 10
92.1358906229
 20
93.8532219004
 11
93.0551256113
 21
94.3839393005
  0
LINE
  5
320
100
AcDbEntity
  8
0
100
AcDbLine
 62
7
  6
CONTINUOUS
 10
86.3270326002
 20
90.2994530842
 11
85.0047484246
 21
89.5360365164
  0
LINE
  5
321
100
AcDbEntity
  8
0
100
AcDbLine
 62
7
  6
CONTINUOUS
 10
84.792614164
 20
89.3120983228
 11
86.1148983396
 21
90.0755148906
  0
LINE
  5
322
100
AcDbEntity
  8
0
100
AcDbLine
 62
7
  6
CONTINUOUS
 10
87.2462675886
 20
90.2749488406
 11
86.3270326002
 21
89.7442314405
  0
LINE
  5
323
100
AcDbEntity
  8
0
100
AcDbLine
 62
7
  6
CONTINUOUS
 10
86.1148983396
 20
89.5202932469
 11
87.334134671
 21
90.2242154692
  0
LINE
  5
324
100
AcDbEntity
  8
0
100
AcDbLine
 62
7
  6
CONTINUOUS
 10
12.6359945347
 20
46.6881234949
 11
13.5552333497
 21
47.2188522755
  0
LINE
  5
325
100
AcDbEntity
  8
0
100
AcDbLine
 62
7
  6
CONTINUOUS
 10
14.1986932894
 20
47.3045809192
 11
14.0502080982
 21
47.2188534658
  0
LINE
  5
326
100
AcDbEntity
  8
0
100
AcDbLine
 62
7
  6
CONTINUOUS
 10
88.6003596615
 20
89.7298849506
 11
82.1812657326
 21
86.0238414649
  0
LINE
  5
327
100
AcDbEntity
  8
0
100
AcDbLine
 62
7
  6
CONTINUOUS
 10
88.6555308301
 20
89.7336612067
 11
82.1812657326
 21
85.9957648221
  0
LINE
  5
328
100
AcDbEntity
  8
0
100
AcDbLine
 62
7
  6
CONTINUOUS
 10
23.3699383553
 20
51.905786735
 11
33.2481789611
 21
57.6089575645
  0
LINE
  5
329
100
AcDbEntity
  8
0
100
AcDbLine
 62
7
  6
CONTINUOUS
 10
23.4373930126
 20
51.8668426515
 11
23.1545514771
 21
51.7035449896
  0
LINE
  5
32A
100
AcDbEntity
  8
0
100
AcDbLine
 62
7
  6
CONTINUOUS
 10
49.3679160129
 20
70.862288386
 11
47.9305311975
 21
70.0329245257
  0
LINE
  5
32B
100
AcDbEntity
  8
0
100
AcDbLine
 62
7
  6
CONTINUOUS
 10
29.3095995774
 20
95.0578474794
 11
18.3493988376
 21
101.3855791744
  0
LINE
  5
32C
100
AcDbEntity
  8
0
100
AcDbLine
 62
7
  6
CONTINUOUS
 10
27.6568916934
 20
48.6142875539
 11
25.4214499544
 21
46.9917489666
  0
LINE
  5
32D
100
AcDbEntity
  8
0
100
AcDbLine
 62
7
  6
CONTINUOUS
 10
77.0745671144
 20
81.6874511321
 11
75.6603712153
 21
80.8709696228
  0
LINE
  5
32E
100
AcDbEntity
  8
0
100
AcDbLine
 62
7
  6
CONTINUOUS
 10
90.0697502803
 20
88.9171796977
 11
82.1812657326
 21
84.3627882066
  0
LINE
  5
32F
100
AcDbEntity
  8
0
100
AcDbLine
 62
7
  6
CONTINUOUS
 10
12.6359945342
 20
43.577249286
 11
13.5552333495
 21
44.1079780666
  0
LINE
  5
330
100
AcDbEntity
  8
0
100
AcDbLine
 62
7
  6
CONTINUOUS
 10
14.1986932894
 20
44.1937067106
 11
14.0502080972
 21
44.1079792565
  0
LINE
  5
331
100
AcDbEntity
  8
0
100
AcDbLine
 62
7
  6
CONTINUOUS
 10
78.4887865647
 20
80.8709696231
 11
75.6603712153
 21
79.2379930073
  0
LINE
  5
332
100
AcDbEntity
  8
0
100
AcDbLine
 62
7
  6
CONTINUOUS
 10
26.4090347356
 20
48.8938105006
 11
23.4391225692
 21
47.1791411471
  0
LINE
  5
333
100
AcDbEntity
  8
0
100
AcDbLine
 62
7
  6
CONTINUOUS
 10
12.6359945337
 20
40.466375077
 11
13.5552333493
 21
40.9971038576
  0
LINE
  5
334
100
AcDbEntity
  8
0
100
AcDbLine
 62
7
  6
CONTINUOUS
 10
14.1986932894
 20
41.0828325019
 11
14.0502080961
 21
40.9971050473
  0
LINE
  5
335
100
AcDbEntity
  8
0
100
AcDbLine
 62
7
  6
CONTINUOUS
 10
27.229238961
 20
48.3136246836
 11
24.3516909363
 21
46.6522814738
  0
LINE
  5
336
100
AcDbEntity
  8
0
100
AcDbLine
 62
7
  6
CONTINUOUS
 10
20.6828415004
 20
102.7327848822
 11
31.6430422402
 21
96.4050531871
  0
LINE
  5
337
100
AcDbEntity
  8
0
100
AcDbLine
 62
7
  6
CONTINUOUS
 10
17.8190471136
 20
104.6072207191
 11
45.4670373668
 21
88.6450072174
  0
LINE
  5
338
100
AcDbEntity
  8
0
100
AcDbLine
 62
7
  6
CONTINUOUS
 10
45.883895271
 20
89.3755056399
 11
18.2359050177
 21
105.3377191416
  0
LINE
  5
339
100
AcDbEntity
  8
0
100
AcDbLine
 62
7
  6
CONTINUOUS
 10
65.38093713
 20
127.7634386003
 11
65.38093713
 21
128.7061114652
  0
LINE
  5
33A
100
AcDbEntity
  8
0
100
AcDbLine
 62
7
  6
CONTINUOUS
 10
66.8256555207
 20
131.8634954049
 11
66.8256555207
 21
130.7877153664
  0
LINE
  5
33B
100
AcDbEntity
  8
0
100
AcDbLine
 62
7
  6
CONTINUOUS
 10
67.8138948178
 20
130.2071221994
 11
67.8138948178
 21
131.864489636
  0
LINE
  5
33C
100
AcDbEntity
  8
0
100
AcDbLine
 62
7
  6
CONTINUOUS
 10
68.4575681346
 20
129.8289624454
 11
68.4575681346
 21
131.4993030644
  0
LINE
  5
33D
100
AcDbEntity
  8
0
100
AcDbLine
 62
7
  6
CONTINUOUS
 10
68.4954325841
 20
125.4791128981
 11
68.4954325841
 21
127.1121177324
  0
LINE
  5
33E
100
AcDbEntity
  8
0
100
AcDbLine
 62
7
  6
CONTINUOUS
 10
84.7925473796
 20
89.3121784088
 11
85.0047484246
 21
89.5360365164
  0
LINE
  5
33F
100
AcDbEntity
  8
0
100
AcDbLine
 62
7
  6
CONTINUOUS
 10
86.3270326002
 20
90.2994530842
 11
86.1148313318
 21
90.0755952569
  0
LINE
  5
340
100
AcDbEntity
  8
0
100
AcDbLine
 62
7
  6
CONTINUOUS
 10
86.1148315552
 20
89.5203733329
 11
86.3270326002
 21
89.7442314405
  0
LINE
  5
341
100
AcDbEntity
  8
0
100
AcDbLine
 62
7
  6
CONTINUOUS
 10
24.867237927
 20
46.0933562401
 11
25.2910164036
 21
46.3380233972
  0
LINE
  5
342
100
AcDbEntity
  8
0
100
AcDbLine
 62
7
  6
CONTINUOUS
 10
12.6359945332
 20
37.355500868
 11
13.5552333492
 21
37.8862296486
  0
LINE
  5
343
100
AcDbEntity
  8
0
100
AcDbLine
 62
7
  6
CONTINUOUS
 10
14.1986932894
 20
37.9719582932
 11
14.0502080951
 21
37.886230838
  0
LINE
  5
344
100
AcDbEntity
  8
0
100
AcDbLine
 62
7
  6
CONTINUOUS
 10
25.2910164036
 20
44.1821441314
 11
23.4391225692
 21
43.1129591098
  0
LINE
  5
345
100
AcDbEntity
  8
0
100
AcDbLine
 62
7
  6
CONTINUOUS
 10
25.2910164036
 20
43.1284160101
 11
24.3516909368
 21
42.5860994362
  0
LINE
  5
346
100
AcDbEntity
  8
0
100
AcDbLine
 62
7
  6
CONTINUOUS
 10
24.7922551801
 20
42.094959605
 11
25.2910164036
 21
42.3829178127
  0
LINE
  5
347
100
AcDbEntity
  8
0
100
AcDbLine
 62
7
  6
CONTINUOUS
 10
32.0595460148
 20
45.8202328457
 11
32.1719285582
 21
45.8851165502
  0
LINE
  5
348
100
AcDbEntity
  8
0
100
AcDbLine
 62
7
  6
CONTINUOUS
 10
12.6359945326
 20
34.2446266591
 11
13.555233349
 21
34.7753554397
  0
LINE
  5
349
100
AcDbEntity
  8
0
100
AcDbLine
 62
7
  6
CONTINUOUS
 10
14.1986932894
 20
34.8610840845
 11
14.0502080941
 21
34.7753566288
  0
LINE
  5
34A
100
AcDbEntity
  8
0
100
AcDbLine
 62
7
  6
CONTINUOUS
 10
33.692224308
 20
45.9463661634
 11
33.232590202
 21
45.6809978726
  0
LINE
  5
34B
100
AcDbEntity
  8
0
100
AcDbLine
 62
7
  6
CONTINUOUS
 10
84.5804843559
 20
89.2910847718
 11
84.7925473796
 21
89.3121784088
  0
LINE
  5
34C
100
AcDbEntity
  8
0
100
AcDbLine
 62
7
  6
CONTINUOUS
 10
85.9027685315
 20
89.4992796958
 11
86.1148315552
 21
89.5203733329
  0
LINE
  5
34D
100
AcDbEntity
  8
0
100
AcDbLine
 62
7
  6
CONTINUOUS
 10
94.9643059718
 20
66.6066547809
 11
92.1358906229
 21
68.2396042017
  0
LINE
  5
34E
100
AcDbEntity
  8
0
100
AcDbLine
 62
7
  6
CONTINUOUS
 10
51.1238680645
 20
92.5064020844
 11
23.4758778113
 21
108.4686155861
  0
LINE
  5
34F
100
AcDbEntity
  8
0
100
AcDbLine
 62
7
  6
CONTINUOUS
 10
69.8619082133
 20
130.3505130188
 11
69.8619082133
 21
132.3100878623
  0
LINE
  5
350
100
AcDbEntity
  8
0
100
AcDbLine
 62
7
  6
CONTINUOUS
 10
70.4154602771
 20
39.1406506036
 11
70.4154602771
 21
45.0337201096
  0
LINE
  5
351
100
AcDbEntity
  8
0
100
AcDbLine
 62
7
  6
CONTINUOUS
 10
70.4154602771
 20
93.8463125513
 11
70.4154602771
 21
99.7393820573
  0
LINE
  5
352
100
AcDbEntity
  8
0
100
AcDbLine
 62
7
  6
CONTINUOUS
 10
33.8351616987
 20
45.9454720589
 11
43.6426919207
 21
51.6078184731
  0
LINE
  5
353
100
AcDbEntity
  8
0
100
AcDbLine
 62
7
  6
CONTINUOUS
 10
25.2910164036
 20
40.0343118523
 11
23.4391225692
 21
38.9651268307
  0
LINE
  5
354
100
AcDbEntity
  8
0
100
AcDbLine
 62
7
  6
CONTINUOUS
 10
25.2910164036
 20
38.9805837318
 11
24.3516909362
 21
38.4382671576
  0
LINE
  5
355
100
AcDbEntity
  8
0
100
AcDbLine
 62
7
  6
CONTINUOUS
 10
12.6359945321
 20
31.1337524501
 11
13.5552333478
 21
31.6644812307
  0
LINE
  5
356
100
AcDbEntity
  8
0
100
AcDbLine
 62
7
  6
CONTINUOUS
 10
24.79225518
 20
37.9471273261
 11
25.2910164036
 21
38.2350855339
  0
LINE
  5
357
100
AcDbEntity
  8
0
100
AcDbLine
 62
7
  6
CONTINUOUS
 10
14.1986932894
 20
31.7502098759
 11
14.0502080946
 21
31.6644824204
  0
LINE
  5
358
100
AcDbEntity
  8
0
100
AcDbLine
 62
7
  6
CONTINUOUS
 10
25.2910164036
 20
35.8864795733
 11
23.4391225692
 21
34.8172945517
  0
LINE
  5
359
100
AcDbEntity
  8
0
100
AcDbLine
 62
7
  6
CONTINUOUS
 10
29.4925425274
 20
44.641355747
 11
32.0595460148
 21
45.8202328457
  0
LINE
  5
35A
100
AcDbEntity
  8
0
100
AcDbLine
 62
7
  6
CONTINUOUS
 10
77.0745671144
 20
81.6874511321
 11
78.4887865647
 21
80.8709696231
  0
LINE
  5
35B
100
AcDbEntity
  8
0
100
AcDbLine
 62
7
  6
CONTINUOUS
 10
57.2756714478
 20
93.5269290046
 11
58.6191687387
 21
92.7512780296
  0
LINE
  5
35C
100
AcDbEntity
  8
0
100
AcDbLine
 62
7
  6
CONTINUOUS
 10
75.3420299403
 20
130.0444292491
 11
75.3420299403
 21
126.5334688555
  0
LINE
  5
35D
100
AcDbEntity
  8
0
100
AcDbLine
 62
7
  6
CONTINUOUS
 10
75.66035944
 20
102.7675079254
 11
75.66035944
 21
98.5074150349
  0
LINE
  5
35E
100
AcDbEntity
  8
0
100
AcDbLine
 62
7
  6
CONTINUOUS
 10
75.6603712153
 20
79.2379930073
 11
75.6603712153
 21
89.0360220129
  0
LINE
  5
35F
100
AcDbEntity
  8
0
100
AcDbLine
 62
7
  6
CONTINUOUS
 10
75.6727019833
 20
48.0689719059
 11
75.6727019833
 21
43.8088790155
  0
LINE
  5
360
100
AcDbEntity
  8
0
100
AcDbLine
 62
7
  6
CONTINUOUS
 10
77.0745671144
 20
89.8525035221
 11
77.0745671144
 21
81.6874511321
  0
LINE
  5
361
100
AcDbEntity
  8
0
100
AcDbLine
 62
7
  6
CONTINUOUS
 10
77.0745788903
 20
103.5840030319
 11
77.0745788903
 21
97.6909335259
  0
LINE
  5
362
100
AcDbEntity
  8
0
100
AcDbLine
 62
7
  6
CONTINUOUS
 10
77.0869214336
 20
48.8854670124
 11
77.0869214336
 21
42.9923975064
  0
LINE
  5
363
100
AcDbEntity
  8
0
100
AcDbLine
 62
7
  6
CONTINUOUS
 10
87.3341346636
 20
106.5332074255
 11
87.2462675886
 21
106.2375710954
  0
LINE
  5
364
100
AcDbEntity
  8
0
100
AcDbLine
 62
7
  6
CONTINUOUS
 10
25.2910164036
 20
34.8327514528
 11
24.3516909362
 21
34.2904348785
  0
LINE
  5
365
100
AcDbEntity
  8
0
100
AcDbLine
 62
7
  6
CONTINUOUS
 10
24.79225518
 20
33.7992950471
 11
25.2910164036
 21
34.0872532549
  0
LINE
  5
366
100
AcDbEntity
  8
0
100
AcDbLine
 62
7
  6
CONTINUOUS
 10
25.2910164036
 20
31.7386472943
 11
23.4391225692
 21
30.6694622727
  0
LINE
  5
367
100
AcDbEntity
  8
0
100
AcDbLine
 62
7
  6
CONTINUOUS
 10
25.2910164036
 20
30.6849191738
 11
24.3516909362
 21
30.1426025995
  0
LINE
  5
368
100
AcDbEntity
  8
0
100
AcDbLine
 62
7
  6
CONTINUOUS
 10
24.79225518
 20
29.651462768
 11
25.2910164036
 21
29.9394209758
  0
LINE
  5
369
100
AcDbEntity
  8
0
100
AcDbLine
 62
7
  6
CONTINUOUS
 10
40.1866057851
 20
109.1351299045
 11
38.7723863348
 21
109.9516114136
  0
LINE
  5
36A
100
AcDbEntity
  8
0
100
AcDbLine
 62
7
  6
CONTINUOUS
 10
36.8278331186
 20
111.2783947156
 11
36.0114427992
 21
111.7497272233
  0
LINE
  5
36B
100
AcDbEntity
  8
0
100
AcDbLine
 62
7
  6
CONTINUOUS
 10
78.4887865647
 20
90.6689986286
 11
78.4887865647
 21
80.8709696231
  0
LINE
  5
36C
100
AcDbEntity
  8
0
100
AcDbLine
 62
7
  6
CONTINUOUS
 10
82.1812657326
 20
84.3627882066
 11
82.1812657326
 21
106.3012062701
  0
LINE
  5
36D
100
AcDbEntity
  8
0
100
AcDbLine
 62
7
  6
CONTINUOUS
 10
82.4131271918
 20
125.9620217039
 11
82.4131271918
 21
122.4510613103
  0
LINE
  5
36E
100
AcDbEntity
  8
0
100
AcDbLine
 62
7
  6
CONTINUOUS
 10
82.4839082307
 20
104.6106928954
 11
82.4839082307
 21
90.5668513208
  0
LINE
  5
36F
100
AcDbEntity
  8
0
100
AcDbLine
 62
7
  6
CONTINUOUS
 10
82.9894874743
 20
90.2096264692
 11
82.9894874743
 21
105.551706887
  0
LINE
  5
370
100
AcDbEntity
  8
0
100
AcDbLine
 62
7
  6
CONTINUOUS
 10
93.9813579205
 20
93.2972344641
 11
94.9643059718
 21
95.4861985162
  0
LINE
  5
371
100
AcDbEntity
  8
0
100
AcDbLine
 62
7
  6
CONTINUOUS
 10
47.9305311975
 20
37.8073363122
 11
49.3679160129
 21
38.6377115648
  0
LINE
  5
372
100
AcDbEntity
  8
0
100
AcDbLine
 62
7
  6
CONTINUOUS
 10
17.5533456409
 20
24.2565473373
 11
22.9788173122
 21
27.3889261695
  0
LINE
  5
373
100
AcDbEntity
  8
0
100
AcDbLine
 62
7
  6
CONTINUOUS
 10
25.2910164036
 20
27.5908150153
 11
23.4391225692
 21
26.5216299937
  0
LINE
  5
374
100
AcDbEntity
  8
0
100
AcDbLine
 62
7
  6
CONTINUOUS
 10
25.2910164036
 20
26.5370868947
 11
24.3516909362
 21
25.9947703205
  0
LINE
  5
375
100
AcDbEntity
  8
0
100
AcDbLine
 62
7
  6
CONTINUOUS
 10
24.79225518
 20
25.503630489
 11
25.2910164036
 21
25.7915886968
  0
LINE
  5
376
100
AcDbEntity
  8
0
100
AcDbLine
 62
7
  6
CONTINUOUS
 10
51.1362106084
 20
39.4551230027
 11
52.8916276575
 21
40.4686074589
  0
LINE
  5
377
100
AcDbEntity
  8
0
100
AcDbLine
 62
7
  6
CONTINUOUS
 10
94.9643059718
 20
66.6066547809
 11
92.1358906229
 21
65.0306865754
  0
LINE
  5
378
100
AcDbEntity
  8
0
100
AcDbLine
 62
7
  6
CONTINUOUS
 10
39.9251989903
 20
114.0093219258
 11
40.7415893097
 21
113.5379894181
  0
LINE
  5
379
100
AcDbEntity
  8
0
100
AcDbLine
 62
7
  6
CONTINUOUS
 10
43.0396944444
 20
112.415328193
 11
44.4539138947
 21
111.598846684
  0
LINE
  5
37A
100
AcDbEntity
  8
0
100
AcDbLine
 62
7
  6
CONTINUOUS
 10
84.5804843558
 20
89.2910847714
 11
82.9894874742
 21
90.2096264691
  0
LINE
  5
37B
100
AcDbEntity
  8
0
100
AcDbLine
 62
7
  6
CONTINUOUS
 10
82.4839082307
 20
90.5668513208
 11
82.1812657326
 21
90.7415780957
  0
LINE
  5
37C
100
AcDbEntity
  8
0
100
AcDbLine
 62
7
  6
CONTINUOUS
 10
85.9027685319
 20
89.4992796958
 11
85.5097928675
 21
89.7261591687
  0
LINE
  5
37D
100
AcDbEntity
  8
0
100
AcDbLine
 62
7
  6
CONTINUOUS
 10
84.3117716499
 20
106.3151234548
 11
84.3117716499
 21
106.8703450984
  0
LINE
  5
37E
100
AcDbEntity
  8
0
100
AcDbLine
 62
7
  6
CONTINUOUS
 10
84.5344387034
 20
127.1867541655
 11
84.5344387034
 21
123.6757937719
  0
LINE
  5
37F
100
AcDbEntity
  8
0
100
AcDbLine
 62
7
  6
CONTINUOUS
 10
84.5804843559
 20
104.633165189
 11
84.5804843559
 21
89.2910847715
  0
LINE
  5
380
100
AcDbEntity
  8
0
100
AcDbLine
 62
7
  6
CONTINUOUS
 10
85.0047484246
 20
89.5360365164
 11
85.0047484246
 21
104.388215484
  0
LINE
  5
381
100
AcDbEntity
  8
0
100
AcDbLine
 62
7
  6
CONTINUOUS
 10
85.9027685315
 20
105.9518034007
 11
85.9027685315
 21
105.3965817573
  0
LINE
  5
382
100
AcDbEntity
  8
0
100
AcDbLine
 62
7
  6
CONTINUOUS
 10
85.9027685315
 20
89.9530424198
 11
85.9027685315
 21
89.4992796956
  0
LINE
  5
383
100
AcDbEntity
  8
0
100
AcDbLine
 62
7
  6
CONTINUOUS
 10
86.3270326002
 20
89.7442314405
 11
86.3270326002
 21
90.2994530842
  0
LINE
  5
384
100
AcDbEntity
  8
0
100
AcDbLine
 62
7
  6
CONTINUOUS
 10
86.3270326002
 20
105.1516320518
 11
86.3270326002
 21
105.7068536954
  0
LINE
  5
385
100
AcDbEntity
  8
0
100
AcDbLine
 62
7
  6
CONTINUOUS
 10
86.726531254
 20
107.0601578186
 11
86.726531254
 21
108.5706872903
  0
LINE
  5
386
100
AcDbEntity
  8
0
100
AcDbLine
 62
7
  6
CONTINUOUS
 10
87.2462675886
 20
106.2375710954
 11
87.2462675886
 21
90.2749488406
  0
LINE
  5
387
100
AcDbEntity
  8
0
100
AcDbLine
 62
7
  6
CONTINUOUS
 10
87.334134671
 20
90.2242154692
 11
87.334134671
 21
106.5332489195
  0
LINE
  5
388
100
AcDbEntity
  8
0
100
AcDbLine
 62
7
  6
CONTINUOUS
 10
25.2910164036
 20
23.4429827362
 11
23.4391225693
 21
22.3737977146
  0
LINE
  5
389
100
AcDbEntity
  8
0
100
AcDbLine
 62
7
  6
CONTINUOUS
 10
25.2910164036
 20
22.389254615
 11
24.3516909368
 21
21.8469380411
  0
LINE
  5
38A
100
AcDbEntity
  8
0
100
AcDbLine
 62
7
  6
CONTINUOUS
 10
51.4774082073
 20
37.1740726758
 11
51.1362106084
 21
36.9770833261
  0
LINE
  5
38B
100
AcDbEntity
  8
0
100
AcDbLine
 62
7
  6
CONTINUOUS
 10
24.7922551801
 20
21.3557982099
 11
25.2910164036
 21
21.6437564176
  0
LINE
  5
38C
100
AcDbEntity
  8
0
100
AcDbLine
 62
7
  6
CONTINUOUS
 10
52.8916276575
 20
36.3575911667
 11
51.1362106084
 21
35.3441067105
  0
LINE
  5
38D
100
AcDbEntity
  8
0
100
AcDbLine
 62
7
  6
CONTINUOUS
 10
70.4154602771
 20
45.0337201096
 11
77.0869214336
 21
48.8854670124
  0
LINE
  5
38E
100
AcDbEntity
  8
0
100
AcDbLine
 62
7
  6
CONTINUOUS
 10
47.9536965626
 20
34.9361611242
 11
47.9305311975
 21
34.9227948242
  0
LINE
  5
38F
100
AcDbEntity
  8
0
100
AcDbLine
 62
7
  6
CONTINUOUS
 10
49.3679160129
 20
34.1196796152
 11
47.9305311975
 21
33.2903157549
  0
LINE
  5
390
100
AcDbEntity
  8
0
100
AcDbLine
 62
7
  6
CONTINUOUS
 10
44.9365025286
 20
117.633710268
 11
42.0946660667
 21
119.2181138315
  0
LINE
  5
391
100
AcDbEntity
  8
0
100
AcDbLine
 62
7
  6
CONTINUOUS
 10
87.334134671
 20
90.4609237514
 11
88.6003596615
 21
89.7298849506
  0
LINE
  5
392
100
AcDbEntity
  8
0
100
AcDbLine
 62
7
  6
CONTINUOUS
 10
88.6555308301
 20
89.7336612067
 11
90.0697502803
 21
88.9171796977
  0
LINE
  5
393
100
AcDbEntity
  8
0
100
AcDbLine
 62
7
  6
CONTINUOUS
 10
75.66035944
 20
98.5074150349
 11
77.0745788903
 21
97.6909335259
  0
LINE
  5
394
100
AcDbEntity
  8
0
100
AcDbLine
 62
7
  6
CONTINUOUS
 10
87.3340319953
 20
90.2241561973
 11
87.2462675886
 21
90.2749488406
  0
LINE
  5
395
100
AcDbEntity
  8
0
100
AcDbLine
 62
7
  6
CONTINUOUS
 10
88.2234673309
 20
41.8832595729
 11
88.2234673309
 21
44.305046758
  0
LINE
  5
396
100
AcDbEntity
  8
0
100
AcDbLine
 62
7
  6
CONTINUOUS
 10
88.2238376083
 20
109.7898659447
 11
88.2238376083
 21
112.3880723367
  0
LINE
  5
397
100
AcDbEntity
  8
0
100
AcDbLine
 62
7
  6
CONTINUOUS
 10
88.4576059937
 20
112.5230377713
 11
88.4576059937
 21
111.5578079948
  0
LINE
  5
398
100
AcDbEntity
  8
0
100
AcDbLine
 62
7
  6
CONTINUOUS
 10
88.4822910801
 20
44.4544778274
 11
88.4822910801
 21
43.6656672578
  0
LINE
  5
399
100
AcDbEntity
  8
0
100
AcDbLine
 62
7
  6
CONTINUOUS
 10
88.6003596615
 20
111.4753909907
 11
88.6003596615
 21
89.7298849506
  0
LINE
  5
39A
100
AcDbEntity
  8
0
100
AcDbLine
 62
7
  6
CONTINUOUS
 10
88.6555308301
 20
111.4435386224
 11
88.6555308301
 21
103.8464045449
  0
LINE
  5
39B
100
AcDbEntity
  8
0
100
AcDbLine
 62
7
  6
CONTINUOUS
 10
88.6555308301
 20
97.5593359321
 11
88.6555308301
 21
89.7336612067
  0
LINE
  5
39C
100
AcDbEntity
  8
0
100
AcDbLine
 62
7
  6
CONTINUOUS
 10
89.0491960146
 20
103.6191269863
 11
89.0491960146
 21
97.7866172757
  0
LINE
  5
39D
100
AcDbEntity
  8
0
100
AcDbLine
 62
7
  6
CONTINUOUS
 10
89.871825444
 20
113.3395328778
 11
89.871825444
 21
110.7413264858
  0
LINE
  5
39E
100
AcDbEntity
  8
0
100
AcDbLine
 62
7
  6
CONTINUOUS
 10
89.8965105304
 20
45.2709729339
 11
89.8965105304
 21
42.8491857487
  0
LINE
  5
39F
100
AcDbEntity
  8
0
100
AcDbLine
 62
7
  6
CONTINUOUS
 10
90.0697502803
 20
110.8555977612
 11
90.0697502803
 21
103.0299230359
  0
LINE
  5
3A0
100
AcDbEntity
  8
0
100
AcDbLine
 62
7
  6
CONTINUOUS
 10
90.0697502803
 20
96.7428544231
 11
90.0697502803
 21
88.9171796977
  0
LINE
  5
3A1
100
AcDbEntity
  8
0
100
AcDbLine
 62
7
  6
CONTINUOUS
 10
90.4634154649
 20
103.2572043794
 11
90.4634154649
 21
96.9701357666
  0
LINE
  5
3A2
100
AcDbEntity
  8
0
100
AcDbLine
 62
7
  6
CONTINUOUS
 10
92.1358906229
 20
65.0306865754
 11
92.1358906229
 21
93.8532219004
  0
LINE
  5
3A3
100
AcDbEntity
  8
0
100
AcDbLine
 62
7
  6
CONTINUOUS
 10
75.6727019833
 20
43.8088790155
 11
70.4154602771
 21
40.7736272192
  0
LINE
  5
3A4
100
AcDbEntity
  8
0
100
AcDbLine
 62
7
  6
CONTINUOUS
 10
45.2316833112
 20
121.0701359801
 11
43.0918417306
 21
122.2841701654
  0
LINE
  5
3A5
100
AcDbEntity
  8
0
100
AcDbLine
 62
7
  6
CONTINUOUS
 10
93.4086775297
 20
92.9550565436
 11
92.1358906229
 21
93.6898837828
  0
LINE
  5
3A6
100
AcDbEntity
  8
0
100
AcDbLine
 62
7
  6
CONTINUOUS
 10
93.0551256113
 20
93.8123876085
 11
92.5601402502
 21
94.0981610749
  0
LINE
  5
3A7
100
AcDbEntity
  8
0
100
AcDbLine
 62
7
  6
CONTINUOUS
 10
88.6555308301
 20
97.5593359321
 11
90.0697502803
 21
96.7428544231
  0
LINE
  5
3A8
100
AcDbEntity
  8
0
100
AcDbLine
 62
7
  6
CONTINUOUS
 10
89.0491960146
 20
97.7866172757
 11
90.4634154649
 21
96.9701357666
  0
LINE
  5
3A9
100
AcDbEntity
  8
0
100
AcDbLine
 62
7
  6
CONTINUOUS
 10
93.0551256113
 20
94.3839393005
 11
93.0551256113
 21
93.8123876085
  0
LINE
  5
3AA
100
AcDbEntity
  8
0
100
AcDbLine
 62
7
  6
CONTINUOUS
 10
94.9643059718
 20
44.3323220827
 11
94.9643059718
 21
66.6066547809
  0
LINE
  5
3AB
100
AcDbEntity
  8
0
100
AcDbLine
 62
7
  6
CONTINUOUS
 10
94.9643059718
 20
95.4861985162
 11
94.9643059718
 21
117.8175396244
  0
LINE
  5
3AC
100
AcDbEntity
  8
0
100
AcDbLine
 62
7
  6
CONTINUOUS
 10
77.0869214336
 20
42.9923975064
 11
70.4154602771
 21
39.1406506036
  0
LINE
  5
3AD
100
AcDbEntity
  8
0
100
AcDbLine
 62
7
  6
CONTINUOUS
 10
32.0595460149
 20
16.7854068923
 11
32.1719285582
 21
16.8502905966
  0
LINE
  5
3AE
100
AcDbEntity
  8
0
100
AcDbLine
 62
7
  6
CONTINUOUS
 10
33.6919002264
 20
16.9113531023
 11
33.232590202
 21
16.646171919
  0
LINE
  5
3AF
100
AcDbEntity
  8
0
100
AcDbLine
 62
7
  6
CONTINUOUS
 10
33.8351616987
 20
16.9106461054
 11
43.6426919207
 21
22.5729925195
  0
LINE
  5
3B0
100
AcDbEntity
  8
0
100
AcDbLine
 62
7
  6
CONTINUOUS
 10
57.2756714478
 20
26.6554207668
 11
58.6191687387
 21
27.4310846592
  0
LINE
  5
3B1
100
AcDbEntity
  8
0
100
AcDbLine
 62
7
  6
CONTINUOUS
 10
88.2234673309
 20
44.305046758
 11
89.8965105304
 21
45.2709729339
  0
LINE
  5
3B2
100
AcDbEntity
  8
0
100
AcDbLine
 62
7
  6
CONTINUOUS
 10
32.0595460148
 20
16.7854068922
 11
29.4925425274
 21
15.6065297934
  0
LINE
  5
3B3
100
AcDbEntity
  8
0
100
AcDbLine
 62
7
  6
CONTINUOUS
 10
84.5804843559
 20
104.633165189
 11
82.9894874743
 21
105.5517068866
  0
LINE
  5
3B4
100
AcDbEntity
  8
0
100
AcDbLine
 62
7
  6
CONTINUOUS
 10
85.9027685315
 20
105.3965817571
 11
84.3117716499
 21
106.3151234548
  0
LINE
  5
3B5
100
AcDbEntity
  8
0
100
AcDbLine
 62
7
  6
CONTINUOUS
 10
88.6555308301
 20
103.8464045449
 11
90.0697502803
 21
103.0299230359
  0
LINE
  5
3B6
100
AcDbEntity
  8
0
100
AcDbLine
 62
7
  6
CONTINUOUS
 10
85.9027685315
 20
105.9518034007
 11
84.3117716499
 21
106.8703450983
  0
LINE
  5
3B7
100
AcDbEntity
  8
0
100
AcDbLine
 62
7
  6
CONTINUOUS
 10
49.8923801713
 20
126.210439428
 11
51.9951969416
 21
124.9750290862
  0
LINE
  5
3B8
100
AcDbEntity
  8
0
100
AcDbLine
 62
7
  6
CONTINUOUS
 10
53.7999497925
 20
122.7509933857
 11
52.4451777994
 21
123.5609440615
  0
LINE
  5
3B9
100
AcDbEntity
  8
0
100
AcDbLine
 62
7
  6
CONTINUOUS
 10
52.4451777994
 20
125.1939488957
 11
55.1895081682
 21
123.5532504991
  0
LINE
  5
3BA
100
AcDbEntity
  8
0
100
AcDbLine
 62
7
  6
CONTINUOUS
 10
87.2462658222
 20
106.7274672926
 11
87.3341346636
 21
106.5332074255
  0
LINE
  5
3BB
100
AcDbEntity
  8
0
100
AcDbLine
 62
7
  6
CONTINUOUS
 10
93.0551256113
 20
93.8123876085
 11
93.4086775297
 21
92.9550565436
  0
LINE
  5
3BC
100
AcDbEntity
  8
0
100
AcDbLine
 62
7
  6
CONTINUOUS
 10
82.4131271918
 20
125.9620217039
 11
81.2124392974
 21
130.0867806797
  0
LINE
  5
3BD
100
AcDbEntity
  8
0
100
AcDbLine
 62
7
  6
CONTINUOUS
 10
88.4822910801
 20
43.6656672578
 11
88.2234673309
 21
43.5162361884
  0
LINE
  5
3BE
100
AcDbEntity
  8
0
100
AcDbLine
 62
7
  6
CONTINUOUS
 10
58.6191687387
 20
24.9815774078
 11
57.2756714478
 21
24.2059135154
  0
LINE
  5
3BF
100
AcDbEntity
  8
0
100
AcDbLine
 62
7
  6
CONTINUOUS
 10
89.8965105304
 20
42.8491857487
 11
88.2234673309
 21
41.8832595729
  0
LINE
  5
3C0
100
AcDbEntity
  8
0
100
AcDbLine
 62
7
  6
CONTINUOUS
 10
94.9643059718
 20
44.3323220827
 11
51.1238680645
 21
19.0211845427
  0
LINE
  5
3C1
100
AcDbEntity
  8
0
100
AcDbLine
 62
7
  6
CONTINUOUS
 10
45.883895271
 20
16.1015176984
 11
51.1238680645
 21
19.0211845427
  0
LINE
  5
3C2
100
AcDbEntity
  8
0
100
AcDbLine
 62
7
  6
CONTINUOUS
 10
87.2462658218
 20
106.7274672929
 11
85.6552689402
 21
107.6460089905
  0
LINE
  5
3C3
100
AcDbEntity
  8
0
100
AcDbLine
 62
7
  6
CONTINUOUS
 10
65.6423439248
 20
123.8319194439
 11
64.2281244745
 21
124.648400953
  0
LINE
  5
3C4
100
AcDbEntity
  8
0
100
AcDbLine
 62
7
  6
CONTINUOUS
 10
62.2835712583
 20
125.975184255
 11
61.4671809389
 21
126.4465167627
  0
LINE
  5
3C5
100
AcDbEntity
  8
0
100
AcDbLine
 62
7
  6
CONTINUOUS
 10
86.726531254
 20
108.5706872903
 11
86.6333258288
 21
108.7766826028
  0
LINE
  5
3C6
100
AcDbEntity
  8
0
100
AcDbLine
 62
7
  6
CONTINUOUS
 10
83.3337508091
 20
131.3115131413
 11
84.5344387034
 21
127.1867541655
  0
LINE
  5
3C7
100
AcDbEntity
  8
0
100
AcDbLine
 62
7
  6
CONTINUOUS
 10
88.4576059937
 20
111.5578079948
 11
89.871825444
 21
110.7413264858
  0
LINE
  5
3C8
100
AcDbEntity
  8
0
100
AcDbLine
 62
7
  6
CONTINUOUS
 10
65.38093713
 20
128.7061114652
 11
66.1973274494
 21
128.2347789575
  0
LINE
  5
3C9
100
AcDbEntity
  8
0
100
AcDbLine
 62
7
  6
CONTINUOUS
 10
68.4954325841
 20
127.1121177324
 11
69.9096520344
 21
126.2956362233
  0
LINE
  5
3CA
100
AcDbEntity
  8
0
100
AcDbLine
 62
7
  6
CONTINUOUS
 10
67.8139303463
 20
131.864469479
 11
68.4575681346
 21
131.4993030644
  0
LINE
  5
3CB
100
AcDbEntity
  8
0
100
AcDbLine
 62
7
  6
CONTINUOUS
 10
68.7071096735
 20
129.6837937507
 11
68.5656877294
 21
129.7654419011
  0
LINE
  5
3CC
100
AcDbEntity
  8
0
100
AcDbLine
 62
7
  6
CONTINUOUS
 10
82.4131271918
 20
122.4510613103
 11
75.3420299403
 21
126.5334688555
  0
LINE
  5
3CD
100
AcDbEntity
  8
0
100
AcDbLine
 62
7
  6
CONTINUOUS
 10
94.9643059718
 20
117.8175396244
 11
84.5344387034
 21
123.8390900737
  0
LINE
  5
3CE
100
AcDbEntity
  8
0
100
AcDbLine
 62
7
  6
CONTINUOUS
 10
75.3420299403
 20
129.1462096845
 11
71.5589740694
 21
131.330308599
  0
LINE
  5
3CF
100
AcDbEntity
  8
0
100
AcDbLine
 62
7
  6
CONTINUOUS
 10
69.8619082133
 20
132.3100878623
 11
67.3163157185
 21
133.7797531262
  0
LINE
  5
3D0
100
AcDbEntity
  8
0
100
AcDbLine
 62
7
  6
CONTINUOUS
 10
68.5656877294
 20
129.7654419011
 11
65.9021198194
 21
131.3302950019
  0
LINE
  5
3D1
100
AcDbEntity
  8
0
100
AcDbLine
 62
7
  6
CONTINUOUS
 10
78.6089695932
 20
132.2408155166
 11
76.8610643756
 21
132.8940631765
  0
LINE
  5
3D2
100
AcDbEntity
  8
0
100
AcDbLine
 62
7
  6
CONTINUOUS
 10
79.1461875388
 20
131.9306596078
 11
78.6089695932
 21
132.2408155166
  0
LINE
  5
3D3
100
AcDbEntity
  8
0
100
AcDbLine
 62
7
  6
CONTINUOUS
 10
80.8940927566
 20
130.5656458309
 11
79.1461875388
 21
131.9306596078
  0
LINE
  5
3D4
100
AcDbEntity
  8
0
100
AcDbLine
 62
7
  6
CONTINUOUS
 10
81.2674990505
 20
133.1553920694
 11
83.0154042683
 21
131.7903782925
  0
LINE
  5
3D5
100
AcDbEntity
  8
0
100
AcDbLine
 62
7
  6
CONTINUOUS
 10
78.9823758872
 20
134.1187956381
 11
80.7302811049
 21
133.4655479782
  0
LINE
  5
3D6
100
AcDbEntity
  8
0
100
AcDbLine
 62
7
  6
CONTINUOUS
 10
80.7302811049
 20
133.4655479782
 11
81.2674990505
 21
133.1553920694
  0
ARC
  5
3D7
100
AcDbEntity
  8
0
100
AcDbCircle
 62
7
  6
CONTINUOUS
 10
21.7835987466
 20
45.9481512146
 40
5.94226519
100
AcDbArc
 50
23.3894061863
 51
24.7405687631
  0
ARC
  5
3D8
100
AcDbEntity
  8
0
100
AcDbCircle
 62
7
  6
CONTINUOUS
 10
83.2149034125
 20
131.0788011503
 40
3.8578804422
100
AcDbArc
 50
202.8852083623
 51
217.0901299212
  0
SPLINE
  5
3D9
100
AcDbEntity
  8
0
100
AcDbSpline
 62
7
  6
CONTINUOUS
 70
0
 71
3
 72
11
 73
7
 74
0
 42
0.0000001
 43
0.0000001
 44
0.0000000001
 40
0.0
 40
0.0
 40
0.0
 40
0.0
 40
0.2897016594
 40
0.5490895814
 40
0.7822189142
 40
1.0
 40
1.0
 40
1.0
 40
1.0
 10
16.3159036218
 20
26.8489242172
 30
0.0
 10
16.3159036218
 20
26.7855892598
 30
0.0
 10
16.3063011782
 20
26.6651389757
 30
0.0
 10
16.25752281
 20
26.4996453773
 30
0.0
 10
16.1753902542
 20
26.3653567975
 30
0.0
 10
16.0982426415
 20
26.3005042814
 30
0.0
 10
16.057011535
 20
26.2766954788
 30
0.0
  0
SPLINE
  5
3DA
100
AcDbEntity
  8
0
100
AcDbSpline
 62
7
  6
CONTINUOUS
 70
0
 71
3
 72
11
 73
7
 74
0
 42
0.0000001
 43
0.0000001
 44
0.0000000001
 40
0.0
 40
0.0
 40
0.0
 40
0.0
 40
0.2897016594
 40
0.5490895814
 40
0.7822189142
 40
1.0
 40
1.0
 40
1.0
 40
1.0
 10
16.3159036218
 20
29.9597984265
 30
0.0
 10
16.3159036218
 20
29.8964634691
 30
0.0
 10
16.3063011782
 20
29.776013185
 30
0.0
 10
16.25752281
 20
29.6105195866
 30
0.0
 10
16.1753902542
 20
29.4762310068
 30
0.0
 10
16.0982426415
 20
29.4113784907
 30
0.0
 10
16.057011535
 20
29.3875696881
 30
0.0
  0
SPLINE
  5
3DB
100
AcDbEntity
  8
0
100
AcDbSpline
 62
7
  6
CONTINUOUS
 70
0
 71
3
 72
11
 73
7
 74
0
 42
0.0000001
 43
0.0000001
 44
0.0000000001
 40
0.0
 40
0.0
 40
0.0
 40
0.0
 40
0.2897016594
 40
0.5490895814
 40
0.7822189142
 40
1.0
 40
1.0
 40
1.0
 40
1.0
 10
16.3159036218
 20
33.0706726358
 30
0.0
 10
16.3159036218
 20
33.0073376783
 30
0.0
 10
16.3063011782
 20
32.8868873942
 30
0.0
 10
16.25752281
 20
32.7213937958
 30
0.0
 10
16.1753902542
 20
32.5871052161
 30
0.0
 10
16.0982426415
 20
32.5222527
 30
0.0
 10
16.057011535
 20
32.4984438974
 30
0.0
  0
SPLINE
  5
3DC
100
AcDbEntity
  8
0
100
AcDbSpline
 62
7
  6
CONTINUOUS
 70
0
 71
3
 72
11
 73
7
 74
0
 42
0.0000001
 43
0.0000001
 44
0.0000000001
 40
0.0
 40
0.0
 40
0.0
 40
0.0
 40
0.2897016594
 40
0.5490895814
 40
0.7822189142
 40
1.0
 40
1.0
 40
1.0
 40
1.0
 10
16.3159036218
 20
36.181546845
 30
0.0
 10
16.3159036218
 20
36.1182118876
 30
0.0
 10
16.3063011782
 20
35.9977616035
 30
0.0
 10
16.25752281
 20
35.8322680051
 30
0.0
 10
16.1753902542
 20
35.6979794253
 30
0.0
 10
16.0982426415
 20
35.6331269092
 30
0.0
 10
16.057011535
 20
35.6093181066
 30
0.0
  0
SPLINE
  5
3DD
100
AcDbEntity
  8
0
100
AcDbSpline
 62
7
  6
CONTINUOUS
 70
0
 71
3
 72
11
 73
7
 74
0
 42
0.0000001
 43
0.0000001
 44
0.0000000001
 40
0.0
 40
0.0
 40
0.0
 40
0.0
 40
0.2897016594
 40
0.5490895814
 40
0.7822189142
 40
1.0
 40
1.0
 40
1.0
 40
1.0
 10
16.3159036218
 20
39.2924210543
 30
0.0
 10
16.3159036218
 20
39.2290860969
 30
0.0
 10
16.3063011782
 20
39.1086358127
 30
0.0
 10
16.25752281
 20
38.9431422144
 30
0.0
 10
16.1753902542
 20
38.8088536346
 30
0.0
 10
16.0982426415
 20
38.7440011185
 30
0.0
 10
16.057011535
 20
38.7201923159
 30
0.0
  0
SPLINE
  5
3DE
100
AcDbEntity
  8
0
100
AcDbSpline
 62
7
  6
CONTINUOUS
 70
0
 71
3
 72
11
 73
7
 74
0
 42
0.0000001
 43
0.0000001
 44
0.0000000001
 40
0.0
 40
0.0
 40
0.0
 40
0.0
 40
0.2897016594
 40
0.5490895814
 40
0.7822189142
 40
1.0
 40
1.0
 40
1.0
 40
1.0
 10
16.3159036218
 20
42.4032952636
 30
0.0
 10
16.3159036218
 20
42.3399603061
 30
0.0
 10
16.3063011782
 20
42.219510022
 30
0.0
 10
16.25752281
 20
42.0540164236
 30
0.0
 10
16.1753902542
 20
41.9197278439
 30
0.0
 10
16.0982426415
 20
41.8548753278
 30
0.0
 10
16.057011535
 20
41.8310665251
 30
0.0
  0
SPLINE
  5
3DF
100
AcDbEntity
  8
0
100
AcDbSpline
 62
7
  6
CONTINUOUS
 70
0
 71
3
 72
11
 73
7
 74
0
 42
0.0000001
 43
0.0000001
 44
0.0000000001
 40
0.0
 40
0.0
 40
0.0
 40
0.0
 40
0.2897016594
 40
0.5490895814
 40
0.7822189142
 40
1.0
 40
1.0
 40
1.0
 40
1.0
 10
16.3159036218
 20
45.5141694728
 30
0.0
 10
16.3159036218
 20
45.4508345154
 30
0.0
 10
16.3063011782
 20
45.3303842313
 30
0.0
 10
16.25752281
 20
45.1648906329
 30
0.0
 10
16.1753902542
 20
45.0306020531
 30
0.0
 10
16.0982426415
 20
44.965749537
 30
0.0
 10
16.057011535
 20
44.9419407344
 30
0.0
  0
SPLINE
  5
3E0
100
AcDbEntity
  8
0
100
AcDbSpline
 62
7
  6
CONTINUOUS
 70
0
 71
3
 72
11
 73
7
 74
0
 42
0.0000001
 43
0.0000001
 44
0.0000000001
 40
0.0
 40
0.0
 40
0.0
 40
0.0
 40
0.2897016594
 40
0.5490895814
 40
0.7822189142
 40
1.0
 40
1.0
 40
1.0
 40
1.0
 10
16.3159036218
 20
48.6250436821
 30
0.0
 10
16.3159036218
 20
48.5617087247
 30
0.0
 10
16.3063011782
 20
48.4412584405
 30
0.0
 10
16.25752281
 20
48.2757648422
 30
0.0
 10
16.1753902542
 20
48.1414762624
 30
0.0
 10
16.0982426415
 20
48.0766237463
 30
0.0
 10
16.057011535
 20
48.0528149437
 30
0.0
  0
SPLINE
  5
3E1
100
AcDbEntity
  8
0
100
AcDbSpline
 62
7
  6
CONTINUOUS
 70
0
 71
3
 72
11
 73
7
 74
0
 42
0.0000001
 43
0.0000001
 44
0.0000000001
 40
0.0
 40
0.0
 40
0.0
 40
0.0
 40
0.2897016594
 40
0.5490895814
 40
0.7822189142
 40
1.0
 40
1.0
 40
1.0
 40
1.0
 10
16.3159036218
 20
51.7359178913
 30
0.0
 10
16.3159036218
 20
51.6725829339
 30
0.0
 10
16.3063011782
 20
51.5521326498
 30
0.0
 10
16.25752281
 20
51.3866390514
 30
0.0
 10
16.1753902542
 20
51.2523504717
 30
0.0
 10
16.0982426415
 20
51.1874979556
 30
0.0
 10
16.057011535
 20
51.1636891529
 30
0.0
  0
SPLINE
  5
3E2
100
AcDbEntity
  8
0
100
AcDbSpline
 62
7
  6
CONTINUOUS
 70
0
 71
3
 72
11
 73
7
 74
0
 42
0.0000001
 43
0.0000001
 44
0.0000000001
 40
0.0
 40
0.0
 40
0.0
 40
0.0
 40
0.2897016594
 40
0.5490895814
 40
0.7822189142
 40
1.0
 40
1.0
 40
1.0
 40
1.0
 10
16.3159036218
 20
54.8467921006
 30
0.0
 10
16.3159036218
 20
54.7834571432
 30
0.0
 10
16.3063011782
 20
54.6630068591
 30
0.0
 10
16.25752281
 20
54.4975132607
 30
0.0
 10
16.1753902542
 20
54.3632246809
 30
0.0
 10
16.0982426415
 20
54.2983721648
 30
0.0
 10
16.057011535
 20
54.2745633622
 30
0.0
  0
SPLINE
  5
3E3
100
AcDbEntity
  8
0
100
AcDbSpline
 62
7
  6
CONTINUOUS
 70
0
 71
3
 72
11
 73
7
 74
0
 42
0.0000001
 43
0.0000001
 44
0.0000000001
 40
0.0
 40
0.0
 40
0.0
 40
0.0
 40
0.2897016594
 40
0.5490895814
 40
0.7822189142
 40
1.0
 40
1.0
 40
1.0
 40
1.0
 10
16.3159036218
 20
57.9576663099
 30
0.0
 10
16.3159036218
 20
57.8943313524
 30
0.0
 10
16.3063011782
 20
57.7738810683
 30
0.0
 10
16.25752281
 20
57.60838747
 30
0.0
 10
16.1753902542
 20
57.4740988902
 30
0.0
 10
16.0982426415
 20
57.4092463741
 30
0.0
 10
16.057011535
 20
57.3854375715
 30
0.0
  0
SPLINE
  5
3E4
100
AcDbEntity
  8
0
100
AcDbSpline
 62
7
  6
CONTINUOUS
 70
0
 71
3
 72
11
 73
7
 74
0
 42
0.0000001
 43
0.0000001
 44
0.0000000001
 40
0.0
 40
0.0
 40
0.0
 40
0.0
 40
0.2895524142
 40
0.5491440509
 40
0.7822697252
 40
1.0
 40
1.0
 40
1.0
 40
1.0
 10
12.3177936855
 20
65.7330332924
 30
0.0
 10
12.3068301488
 20
65.7267035293
 30
0.0
 10
12.2869356164
 20
65.7129839304
 30
0.0
 10
12.2631369363
 20
65.688000221
 30
0.0
 10
12.248083222
 20
65.6603396301
 30
0.0
 10
12.2445879053
 20
65.6404925355
 30
0.0
 10
12.2445879057
 20
65.6309731037
 30
0.0
  0
SPLINE
  5
3E5
100
AcDbEntity
  8
0
100
AcDbSpline
 62
7
  6
CONTINUOUS
 70
0
 71
3
 72
11
 73
7
 74
0
 42
0.0000001
 43
0.0000001
 44
0.0000000001
 40
0.0
 40
0.0
 40
0.0
 40
0.0
 40
0.289552898
 40
0.5491447048
 40
0.7822701819
 40
1.0
 40
1.0
 40
1.0
 40
1.0
 10
12.3177951574
 20
30.6642588544
 30
0.0
 10
12.3068314156
 20
30.6705886305
 30
0.0
 10
12.2869365052
 20
30.6843082818
 30
0.0
 10
12.2631373426
 20
30.7092921764
 30
0.0
 10
12.2480833026
 20
30.736953035
 30
0.0
 10
12.2445879061
 20
30.7568003585
 30
0.0
 10
12.2445879057
 20
30.7663198929
 30
0.0
  0
SPLINE
  5
3E6
100
AcDbEntity
  8
0
100
AcDbSpline
 62
7
  6
CONTINUOUS
 70
0
 71
3
 72
17
 73
13
 74
0
 42
0.0000001
 43
0.0000001
 44
0.0000000001
 40
0.0
 40
0.0
 40
0.0
 40
0.0
 40
0.0428592926
 40
0.087485474
 40
0.1353198781
 40
0.1872819044
 40
0.3045421965
 40
0.4382074305
 40
0.582548911
 40
0.7297129633
 40
0.8713059682
 40
1.0
 40
1.0
 40
1.0
 40
1.0
 10
14.8070213958
 20
59.5504969346
 30
0.0
 10
14.8378366391
 20
59.5682911222
 30
0.0
 10
14.9057743551
 20
59.5965012629
 30
0.0
 10
15.0178995218
 20
59.6129590594
 30
0.0
 10
15.1383184879
 20
59.6040868802
 30
0.0
 10
15.3132844171
 20
59.5575517057
 30
0.0
 10
15.5369512128
 20
59.4352493425
 30
0.0
 10
15.7840674829
 20
59.2164022902
 30
0.0
 10
16.0025175655
 20
58.9368067726
 30
0.0
 10
16.1744350897
 20
58.619043272
 30
0.0
 10
16.2860147497
 20
58.2891767685
 30
0.0
 10
16.3159036218
 20
58.0645143788
 30
0.0
 10
16.3159036218
 20
57.9576663099
 30
0.0
  0
SPLINE
  5
3E7
100
AcDbEntity
  8
0
100
AcDbSpline
 62
7
  6
CONTINUOUS
 70
0
 71
3
 72
11
 73
7
 74
0
 42
0.0000001
 43
0.0000001
 44
0.0000000001
 40
0.0
 40
0.0
 40
0.0
 40
0.0
 40
0.2896615486
 40
0.5491335439
 40
0.7822507594
 40
1.0
 40
1.0
 40
1.0
 40
1.0
 10
14.359786179
 20
26.1003080409
 30
0.0
 10
14.3356561569
 20
26.1142392004
 30
0.0
 10
14.2918721256
 20
26.1444043735
 30
0.0
 10
14.2395403127
 20
26.1993975619
 30
0.0
 10
14.2064256804
 20
26.2602356951
 30
0.0
 10
14.1986993506
 20
26.3038968471
 30
0.0
 10
14.1986951154
 20
26.3248423322
 30
0.0
  0
SPLINE
  5
3E8
100
AcDbEntity
  8
0
100
AcDbSpline
 62
7
  6
CONTINUOUS
 70
0
 71
3
 72
17
 73
13
 74
0
 42
0.0000001
 43
0.0000001
 44
0.0000000001
 40
0.0
 40
0.0
 40
0.0
 40
0.0
 40
0.0428592926
 40
0.087485474
 40
0.1353198781
 40
0.1872819044
 40
0.3045421965
 40
0.4382074305
 40
0.582548911
 40
0.7297129633
 40
0.8713059682
 40
1.0
 40
1.0
 40
1.0
 40
1.0
 10
14.8070213958
 20
56.4396227253
 30
0.0
 10
14.8378366391
 20
56.4574169129
 30
0.0
 10
14.9057743551
 20
56.4856270537
 30
0.0
 10
15.0178995218
 20
56.5020848501
 30
0.0
 10
15.1383184879
 20
56.493212671
 30
0.0
 10
15.3132844171
 20
56.4466774965
 30
0.0
 10
15.5369512128
 20
56.3243751333
 30
0.0
 10
15.7840674829
 20
56.1055280809
 30
0.0
 10
16.0025175655
 20
55.8259325634
 30
0.0
 10
16.1744350897
 20
55.5081690627
 30
0.0
 10
16.2860147497
 20
55.1783025592
 30
0.0
 10
16.3159036218
 20
54.9536401695
 30
0.0
 10
16.3159036218
 20
54.8467921006
 30
0.0
  0
SPLINE
  5
3E9
100
AcDbEntity
  8
0
100
AcDbSpline
 62
7
  6
CONTINUOUS
 70
0
 71
3
 72
17
 73
13
 74
0
 42
0.0000001
 43
0.0000001
 44
0.0000000001
 40
0.0
 40
0.0
 40
0.0
 40
0.0
 40
0.0428592926
 40
0.087485474
 40
0.1353198781
 40
0.1872819044
 40
0.3045421965
 40
0.4382074305
 40
0.582548911
 40
0.7297129633
 40
0.8713059682
 40
1.0
 40
1.0
 40
1.0
 40
1.0
 10
14.8070213958
 20
53.3287485161
 30
0.0
 10
14.8378366391
 20
53.3465427037
 30
0.0
 10
14.9057743551
 20
53.3747528444
 30
0.0
 10
15.0178995218
 20
53.3912106409
 30
0.0
 10
15.1383184879
 20
53.3823384617
 30
0.0
 10
15.3132844171
 20
53.3358032872
 30
0.0
 10
15.5369512128
 20
53.213500924
 30
0.0
 10
15.7840674829
 20
52.9946538716
 30
0.0
 10
16.0025175655
 20
52.7150583541
 30
0.0
 10
16.1744350897
 20
52.3972948534
 30
0.0
 10
16.2860147497
 20
52.06742835
 30
0.0
 10
16.3159036218
 20
51.8427659603
 30
0.0
 10
16.3159036218
 20
51.7359178913
 30
0.0
  0
SPLINE
  5
3EA
100
AcDbEntity
  8
0
100
AcDbSpline
 62
7
  6
CONTINUOUS
 70
0
 71
3
 72
17
 73
13
 74
0
 42
0.0000001
 43
0.0000001
 44
0.0000000001
 40
0.0
 40
0.0
 40
0.0
 40
0.0
 40
0.0428592926
 40
0.087485474
 40
0.1353198781
 40
0.1872819044
 40
0.3045421965
 40
0.4382074305
 40
0.582548911
 40
0.7297129633
 40
0.8713059682
 40
1.0
 40
1.0
 40
1.0
 40
1.0
 10
14.8070213958
 20
50.2178743068
 30
0.0
 10
14.8378366391
 20
50.2356684944
 30
0.0
 10
14.9057743551
 20
50.2638786351
 30
0.0
 10
15.0178995218
 20
50.2803364316
 30
0.0
 10
15.1383184879
 20
50.2714642525
 30
0.0
 10
15.3132844171
 20
50.2249290779
 30
0.0
 10
15.5369512128
 20
50.1026267147
 30
0.0
 10
15.7840674829
 20
49.8837796624
 30
0.0
 10
16.0025175655
 20
49.6041841448
 30
0.0
 10
16.1744350897
 20
49.2864206442
 30
0.0
 10
16.2860147497
 20
48.9565541407
 30
0.0
 10
16.3159036218
 20
48.731891751
 30
0.0
 10
16.3159036218
 20
48.6250436821
 30
0.0
  0
SPLINE
  5
3EB
100
AcDbEntity
  8
0
100
AcDbSpline
 62
7
  6
CONTINUOUS
 70
0
 71
3
 72
17
 73
13
 74
0
 42
0.0000001
 43
0.0000001
 44
0.0000000001
 40
0.0
 40
0.0
 40
0.0
 40
0.0
 40
0.0428592926
 40
0.087485474
 40
0.1353198781
 40
0.1872819044
 40
0.3045421965
 40
0.4382074305
 40
0.582548911
 40
0.7297129633
 40
0.8713059682
 40
1.0
 40
1.0
 40
1.0
 40
1.0
 10
14.8070213958
 20
47.1070000975
 30
0.0
 10
14.8378366391
 20
47.1247942851
 30
0.0
 10
14.9057743551
 20
47.1530044259
 30
0.0
 10
15.0178995218
 20
47.1694622223
 30
0.0
 10
15.1383184879
 20
47.1605900432
 30
0.0
 10
15.3132844171
 20
47.1140548687
 30
0.0
 10
15.5369512128
 20
46.9917525055
 30
0.0
 10
15.7840674829
 20
46.7729054531
 30
0.0
 10
16.0025175655
 20
46.4933099356
 30
0.0
 10
16.1744350897
 20
46.1755464349
 30
0.0
 10
16.2860147497
 20
45.8456799315
 30
0.0
 10
16.3159036218
 20
45.6210175417
 30
0.0
 10
16.3159036218
 20
45.5141694728
 30
0.0
  0
SPLINE
  5
3EC
100
AcDbEntity
  8
0
100
AcDbSpline
 62
7
  6
CONTINUOUS
 70
0
 71
3
 72
17
 73
13
 74
0
 42
0.0000001
 43
0.0000001
 44
0.0000000001
 40
0.0
 40
0.0
 40
0.0
 40
0.0
 40
0.0428592926
 40
0.087485474
 40
0.1353198781
 40
0.1872819044
 40
0.3045421965
 40
0.4382074305
 40
0.582548911
 40
0.7297129633
 40
0.8713059682
 40
1.0
 40
1.0
 40
1.0
 40
1.0
 10
14.8070213958
 20
43.9961258883
 30
0.0
 10
14.8378366391
 20
44.0139200759
 30
0.0
 10
14.9057743551
 20
44.0421302166
 30
0.0
 10
15.0178995218
 20
44.0585880131
 30
0.0
 10
15.1383184879
 20
44.0497158339
 30
0.0
 10
15.3132844171
 20
44.0031806594
 30
0.0
 10
15.5369512128
 20
43.8808782962
 30
0.0
 10
15.7840674829
 20
43.6620312438
 30
0.0
 10
16.0025175655
 20
43.3824357263
 30
0.0
 10
16.1744350897
 20
43.0646722256
 30
0.0
 10
16.2860147497
 20
42.7348057222
 30
0.0
 10
16.3159036218
 20
42.5101433325
 30
0.0
 10
16.3159036218
 20
42.4032952636
 30
0.0
  0
SPLINE
  5
3ED
100
AcDbEntity
  8
0
100
AcDbSpline
 62
7
  6
CONTINUOUS
 70
0
 71
3
 72
17
 73
13
 74
0
 42
0.0000001
 43
0.0000001
 44
0.0000000001
 40
0.0
 40
0.0
 40
0.0
 40
0.0
 40
0.0428592926
 40
0.087485474
 40
0.1353198781
 40
0.1872819044
 40
0.3045421965
 40
0.4382074305
 40
0.582548911
 40
0.7297129633
 40
0.8713059682
 40
1.0
 40
1.0
 40
1.0
 40
1.0
 10
14.8070213958
 20
40.885251679
 30
0.0
 10
14.8378366391
 20
40.9030458666
 30
0.0
 10
14.9057743551
 20
40.9312560074
 30
0.0
 10
15.0178995218
 20
40.9477138038
 30
0.0
 10
15.1383184879
 20
40.9388416247
 30
0.0
 10
15.3132844171
 20
40.8923064502
 30
0.0
 10
15.5369512128
 20
40.7700040869
 30
0.0
 10
15.7840674829
 20
40.5511570346
 30
0.0
 10
16.0025175655
 20
40.271561517
 30
0.0
 10
16.1744350897
 20
39.9537980164
 30
0.0
 10
16.2860147497
 20
39.6239315129
 30
0.0
 10
16.3159036218
 20
39.3992691232
 30
0.0
 10
16.3159036218
 20
39.2924210543
 30
0.0
  0
SPLINE
  5
3EE
100
AcDbEntity
  8
0
100
AcDbSpline
 62
7
  6
CONTINUOUS
 70
0
 71
3
 72
17
 73
13
 74
0
 42
0.0000001
 43
0.0000001
 44
0.0000000001
 40
0.0
 40
0.0
 40
0.0
 40
0.0
 40
0.0428592926
 40
0.087485474
 40
0.1353198781
 40
0.1872819044
 40
0.3045421965
 40
0.4382074305
 40
0.582548911
 40
0.7297129633
 40
0.8713059682
 40
1.0
 40
1.0
 40
1.0
 40
1.0
 10
14.8070213958
 20
37.7743774697
 30
0.0
 10
14.8378366391
 20
37.7921716574
 30
0.0
 10
14.9057743551
 20
37.8203817981
 30
0.0
 10
15.0178995218
 20
37.8368395946
 30
0.0
 10
15.1383184879
 20
37.8279674154
 30
0.0
 10
15.3132844171
 20
37.7814322409
 30
0.0
 10
15.5369512128
 20
37.6591298777
 30
0.0
 10
15.7840674829
 20
37.4402828253
 30
0.0
 10
16.0025175655
 20
37.1606873078
 30
0.0
 10
16.1744350897
 20
36.8429238071
 30
0.0
 10
16.2860147497
 20
36.5130573037
 30
0.0
 10
16.3159036218
 20
36.288394914
 30
0.0
 10
16.3159036218
 20
36.181546845
 30
0.0
  0
SPLINE
  5
3EF
100
AcDbEntity
  8
0
100
AcDbSpline
 62
7
  6
CONTINUOUS
 70
0
 71
3
 72
17
 73
13
 74
0
 42
0.0000001
 43
0.0000001
 44
0.0000000001
 40
0.0
 40
0.0
 40
0.0
 40
0.0
 40
0.0428592926
 40
0.087485474
 40
0.1353198781
 40
0.1872819044
 40
0.3045421965
 40
0.4382074305
 40
0.582548911
 40
0.7297129633
 40
0.8713059682
 40
1.0
 40
1.0
 40
1.0
 40
1.0
 10
14.8070213958
 20
34.6635032605
 30
0.0
 10
14.8378366391
 20
34.6812974481
 30
0.0
 10
14.9057743551
 20
34.7095075888
 30
0.0
 10
15.0178995218
 20
34.7259653853
 30
0.0
 10
15.1383184879
 20
34.7170932061
 30
0.0
 10
15.3132844171
 20
34.6705580316
 30
0.0
 10
15.5369512128
 20
34.5482556684
 30
0.0
 10
15.7840674829
 20
34.329408616
 30
0.0
 10
16.0025175655
 20
34.0498130985
 30
0.0
 10
16.1744350897
 20
33.7320495978
 30
0.0
 10
16.2860147497
 20
33.4021830944
 30
0.0
 10
16.3159036218
 20
33.1775207047
 30
0.0
 10
16.3159036218
 20
33.0706726358
 30
0.0
  0
SPLINE
  5
3F0
100
AcDbEntity
  8
0
100
AcDbSpline
 62
7
  6
CONTINUOUS
 70
0
 71
3
 72
17
 73
13
 74
0
 42
0.0000001
 43
0.0000001
 44
0.0000000001
 40
0.0
 40
0.0
 40
0.0
 40
0.0
 40
0.0428592926
 40
0.087485474
 40
0.1353198781
 40
0.1872819044
 40
0.3045421965
 40
0.4382074305
 40
0.582548911
 40
0.7297129633
 40
0.8713059682
 40
1.0
 40
1.0
 40
1.0
 40
1.0
 10
14.8070213958
 20
31.5526290512
 30
0.0
 10
14.8378366391
 20
31.5704232388
 30
0.0
 10
14.9057743551
 20
31.5986333796
 30
0.0
 10
15.0178995218
 20
31.615091176
 30
0.0
 10
15.1383184879
 20
31.6062189969
 30
0.0
 10
15.3132844171
 20
31.5596838224
 30
0.0
 10
15.5369512128
 20
31.4373814591
 30
0.0
 10
15.7840674829
 20
31.2185344068
 30
0.0
 10
16.0025175655
 20
30.9389388892
 30
0.0
 10
16.1744350897
 20
30.6211753886
 30
0.0
 10
16.2860147497
 20
30.2913088851
 30
0.0
 10
16.3159036218
 20
30.0666464954
 30
0.0
 10
16.3159036218
 20
29.9597984265
 30
0.0
  0
SPLINE
  5
3F1
100
AcDbEntity
  8
0
100
AcDbSpline
 62
7
  6
CONTINUOUS
 70
0
 71
3
 72
17
 73
13
 74
0
 42
0.0000001
 43
0.0000001
 44
0.0000000001
 40
0.0
 40
0.0
 40
0.0
 40
0.0
 40
0.0428592926
 40
0.087485474
 40
0.1353198781
 40
0.1872819044
 40
0.3045421965
 40
0.4382074305
 40
0.582548911
 40
0.7297129633
 40
0.8713059682
 40
1.0
 40
1.0
 40
1.0
 40
1.0
 10
14.8070213958
 20
28.441754842
 30
0.0
 10
14.8378366391
 20
28.4595490296
 30
0.0
 10
14.9057743551
 20
28.4877591703
 30
0.0
 10
15.0178995218
 20
28.5042169668
 30
0.0
 10
15.1383184879
 20
28.4953447876
 30
0.0
 10
15.3132844171
 20
28.4488096131
 30
0.0
 10
15.5369512128
 20
28.3265072499
 30
0.0
 10
15.7840674829
 20
28.1076601975
 30
0.0
 10
16.0025175655
 20
27.82806468
 30
0.0
 10
16.1744350897
 20
27.5103011793
 30
0.0
 10
16.2860147497
 20
27.1804346759
 30
0.0
 10
16.3159036218
 20
26.9557722862
 30
0.0
 10
16.3159036218
 20
26.8489242172
 30
0.0
  0
SPLINE
  5
3F2
100
AcDbEntity
  8
0
100
AcDbSpline
 62
7
  6
CONTINUOUS
 70
0
 71
3
 72
11
 73
7
 74
0
 42
0.0000001
 43
0.0000001
 44
0.0000000001
 40
0.0
 40
0.0
 40
0.0
 40
0.0
 40
0.2897016594
 40
0.5490895814
 40
0.7822189142
 40
1.0
 40
1.0
 40
1.0
 40
1.0
 10
14.548129309
 20
49.6456455684
 30
0.0
 10
14.548129309
 20
49.7089805258
 30
0.0
 10
14.5577317526
 20
49.8294308099
 30
0.0
 10
14.6065101208
 20
49.9949244083
 30
0.0
 10
14.6886426767
 20
50.1292129881
 30
0.0
 10
14.7657902893
 20
50.1940655042
 30
0.0
 10
14.8070213958
 20
50.2178743068
 30
0.0
  0
SPLINE
  5
3F3
100
AcDbEntity
  8
0
100
AcDbSpline
 62
7
  6
CONTINUOUS
 70
0
 71
3
 72
11
 73
7
 74
0
 42
0.0000001
 43
0.0000001
 44
0.0000000001
 40
0.0
 40
0.0
 40
0.0
 40
0.0
 40
0.2897016594
 40
0.5490895814
 40
0.7822189142
 40
1.0
 40
1.0
 40
1.0
 40
1.0
 10
14.548129309
 20
27.8695261035
 30
0.0
 10
14.548129309
 20
27.932861061
 30
0.0
 10
14.5577317526
 20
28.0533113451
 30
0.0
 10
14.6065101208
 20
28.2188049435
 30
0.0
 10
14.6886426767
 20
28.3530935232
 30
0.0
 10
14.7657902893
 20
28.4179460393
 30
0.0
 10
14.8070213958
 20
28.441754842
 30
0.0
  0
SPLINE
  5
3F4
100
AcDbEntity
  8
0
100
AcDbSpline
 62
7
  6
CONTINUOUS
 70
0
 71
3
 72
11
 73
7
 74
0
 42
0.0000001
 43
0.0000001
 44
0.0000000001
 40
0.0
 40
0.0
 40
0.0
 40
0.0
 40
0.2897016594
 40
0.5490895814
 40
0.7822189142
 40
1.0
 40
1.0
 40
1.0
 40
1.0
 10
14.548129309
 20
52.7565197777
 30
0.0
 10
14.548129309
 20
52.8198547351
 30
0.0
 10
14.5577317526
 20
52.9403050192
 30
0.0
 10
14.6065101208
 20
53.1057986176
 30
0.0
 10
14.6886426767
 20
53.2400871973
 30
0.0
 10
14.7657902893
 20
53.3049397134
 30
0.0
 10
14.8070213958
 20
53.3287485161
 30
0.0
  0
SPLINE
  5
3F5
100
AcDbEntity
  8
0
100
AcDbSpline
 62
7
  6
CONTINUOUS
 70
0
 71
3
 72
17
 73
13
 74
0
 42
0.0000001
 43
0.0000001
 44
0.0000000001
 40
0.0
 40
0.0
 40
0.0
 40
0.0
 40
0.0428592926
 40
0.087485474
 40
0.1353198781
 40
0.1872819044
 40
0.3045421965
 40
0.4382074305
 40
0.582548911
 40
0.7297129633
 40
0.8713059682
 40
1.0
 40
1.0
 40
1.0
 40
1.0
 10
16.057011535
 20
57.3854375715
 30
0.0
 10
16.0261962917
 20
57.3676433839
 30
0.0
 10
15.9582585757
 20
57.3394332431
 30
0.0
 10
15.8461334091
 20
57.3229754467
 30
0.0
 10
15.7257144429
 20
57.3318476258
 30
0.0
 10
15.5507485138
 20
57.3783828003
 30
0.0
 10
15.327081718
 20
57.5006851635
 30
0.0
 10
15.0799654479
 20
57.7195322159
 30
0.0
 10
14.8615153653
 20
57.9991277334
 30
0.0
 10
14.6895978411
 20
58.3168912341
 30
0.0
 10
14.5780181811
 20
58.6467577375
 30
0.0
 10
14.548129309
 20
58.8714201273
 30
0.0
 10
14.548129309
 20
58.9782681962
 30
0.0
  0
SPLINE
  5
3F6
100
AcDbEntity
  8
0
100
AcDbSpline
 62
7
  6
CONTINUOUS
 70
0
 71
3
 72
11
 73
7
 74
0
 42
0.0000001
 43
0.0000001
 44
0.0000000001
 40
0.0
 40
0.0
 40
0.0
 40
0.0
 40
0.2897016594
 40
0.5490895814
 40
0.7822189142
 40
1.0
 40
1.0
 40
1.0
 40
1.0
 10
14.548129309
 20
37.2021487313
 30
0.0
 10
14.548129309
 20
37.2654836888
 30
0.0
 10
14.5577317526
 20
37.3859339729
 30
0.0
 10
14.6065101208
 20
37.5514275713
 30
0.0
 10
14.6886426767
 20
37.685716151
 30
0.0
 10
14.7657902893
 20
37.7505686671
 30
0.0
 10
14.8070213958
 20
37.7743774697
 30
0.0
  0
SPLINE
  5
3F7
100
AcDbEntity
  8
0
100
AcDbSpline
 62
7
  6
CONTINUOUS
 70
0
 71
3
 72
11
 73
7
 74
0
 42
0.0000001
 43
0.0000001
 44
0.0000000001
 40
0.0
 40
0.0
 40
0.0
 40
0.0
 40
0.2897016594
 40
0.5490895814
 40
0.7822189142
 40
1.0
 40
1.0
 40
1.0
 40
1.0
 10
14.548129309
 20
55.8673939869
 30
0.0
 10
14.548129309
 20
55.9307289443
 30
0.0
 10
14.5577317526
 20
56.0511792285
 30
0.0
 10
14.6065101208
 20
56.2166728268
 30
0.0
 10
14.6886426767
 20
56.3509614066
 30
0.0
 10
14.7657902893
 20
56.4158139227
 30
0.0
 10
14.8070213958
 20
56.4396227253
 30
0.0
  0
SPLINE
  5
3F8
100
AcDbEntity
  8
0
100
AcDbSpline
 62
7
  6
CONTINUOUS
 70
0
 71
3
 72
17
 73
13
 74
0
 42
0.0000001
 43
0.0000001
 44
0.0000000001
 40
0.0
 40
0.0
 40
0.0
 40
0.0
 40
0.0428592926
 40
0.087485474
 40
0.1353198781
 40
0.1872819044
 40
0.3045421965
 40
0.4382074305
 40
0.582548911
 40
0.7297129633
 40
0.8713059682
 40
1.0
 40
1.0
 40
1.0
 40
1.0
 10
16.057011535
 20
54.2745633622
 30
0.0
 10
16.0261962917
 20
54.2567691746
 30
0.0
 10
15.9582585757
 20
54.2285590339
 30
0.0
 10
15.8461334091
 20
54.2121012374
 30
0.0
 10
15.7257144429
 20
54.2209734165
 30
0.0
 10
15.5507485138
 20
54.2675085911
 30
0.0
 10
15.327081718
 20
54.3898109543
 30
0.0
 10
15.0799654479
 20
54.6086580066
 30
0.0
 10
14.8615153653
 20
54.8882535242
 30
0.0
 10
14.6895978411
 20
55.2060170248
 30
0.0
 10
14.5780181811
 20
55.5358835283
 30
0.0
 10
14.548129309
 20
55.760545918
 30
0.0
 10
14.548129309
 20
55.8673939869
 30
0.0
  0
SPLINE
  5
3F9
100
AcDbEntity
  8
0
100
AcDbSpline
 62
7
  6
CONTINUOUS
 70
0
 71
3
 72
11
 73
7
 74
0
 42
0.0000001
 43
0.0000001
 44
0.0000000001
 40
0.0
 40
0.0
 40
0.0
 40
0.0
 40
0.2897016594
 40
0.5490895814
 40
0.7822189142
 40
1.0
 40
1.0
 40
1.0
 40
1.0
 10
14.548129309
 20
58.9782681962
 30
0.0
 10
14.548129309
 20
59.0416031536
 30
0.0
 10
14.5577317526
 20
59.1620534377
 30
0.0
 10
14.6065101208
 20
59.3275470361
 30
0.0
 10
14.6886426767
 20
59.4618356159
 30
0.0
 10
14.7657902893
 20
59.526688132
 30
0.0
 10
14.8070213958
 20
59.5504969346
 30
0.0
  0
SPLINE
  5
3FA
100
AcDbEntity
  8
0
100
AcDbSpline
 62
7
  6
CONTINUOUS
 70
0
 71
3
 72
17
 73
13
 74
0
 42
0.0000001
 43
0.0000001
 44
0.0000000001
 40
0.0
 40
0.0
 40
0.0
 40
0.0
 40
0.0428592926
 40
0.087485474
 40
0.1353198781
 40
0.1872819044
 40
0.3045421965
 40
0.4382074305
 40
0.582548911
 40
0.7297129633
 40
0.8713059682
 40
1.0
 40
1.0
 40
1.0
 40
1.0
 10
16.057011535
 20
51.1636891529
 30
0.0
 10
16.0261962917
 20
51.1458949653
 30
0.0
 10
15.9582585757
 20
51.1176848246
 30
0.0
 10
15.8461334091
 20
51.1012270281
 30
0.0
 10
15.7257144429
 20
51.1100992073
 30
0.0
 10
15.5507485138
 20
51.1566343818
 30
0.0
 10
15.327081718
 20
51.278936745
 30
0.0
 10
15.0799654479
 20
51.4977837974
 30
0.0
 10
14.8615153653
 20
51.7773793149
 30
0.0
 10
14.6895978411
 20
52.0951428156
 30
0.0
 10
14.5780181811
 20
52.425009319
 30
0.0
 10
14.548129309
 20
52.6496717087
 30
0.0
 10
14.548129309
 20
52.7565197777
 30
0.0
  0
SPLINE
  5
3FB
100
AcDbEntity
  8
0
100
AcDbSpline
 62
7
  6
CONTINUOUS
 70
0
 71
3
 72
17
 73
13
 74
0
 42
0.0000001
 43
0.0000001
 44
0.0000000001
 40
0.0
 40
0.0
 40
0.0
 40
0.0
 40
0.0428592926
 40
0.087485474
 40
0.1353198781
 40
0.1872819044
 40
0.3045421965
 40
0.4382074305
 40
0.582548911
 40
0.7297129633
 40
0.8713059682
 40
1.0
 40
1.0
 40
1.0
 40
1.0
 10
16.057011535
 20
48.0528149437
 30
0.0
 10
16.0261962917
 20
48.0350207561
 30
0.0
 10
15.9582585757
 20
48.0068106153
 30
0.0
 10
15.8461334091
 20
47.9903528189
 30
0.0
 10
15.7257144429
 20
47.999224998
 30
0.0
 10
15.5507485138
 20
48.0457601725
 30
0.0
 10
15.327081718
 20
48.1680625357
 30
0.0
 10
15.0799654479
 20
48.3869095881
 30
0.0
 10
14.8615153653
 20
48.6665051056
 30
0.0
 10
14.6895978411
 20
48.9842686063
 30
0.0
 10
14.5780181811
 20
49.3141351098
 30
0.0
 10
14.548129309
 20
49.5387974995
 30
0.0
 10
14.548129309
 20
49.6456455684
 30
0.0
  0
SPLINE
  5
3FC
100
AcDbEntity
  8
0
100
AcDbSpline
 62
7
  6
CONTINUOUS
 70
0
 71
3
 72
17
 73
13
 74
0
 42
0.0000001
 43
0.0000001
 44
0.0000000001
 40
0.0
 40
0.0
 40
0.0
 40
0.0
 40
0.0428592926
 40
0.087485474
 40
0.1353198781
 40
0.1872819044
 40
0.3045421965
 40
0.4382074305
 40
0.582548911
 40
0.7297129633
 40
0.8713059682
 40
1.0
 40
1.0
 40
1.0
 40
1.0
 10
16.057011535
 20
44.9419407344
 30
0.0
 10
16.0261962917
 20
44.9241465468
 30
0.0
 10
15.9582585757
 20
44.8959364061
 30
0.0
 10
15.8461334091
 20
44.8794786096
 30
0.0
 10
15.7257144429
 20
44.8883507888
 30
0.0
 10
15.5507485138
 20
44.9348859633
 30
0.0
 10
15.327081718
 20
45.0571883265
 30
0.0
 10
15.0799654479
 20
45.2760353788
 30
0.0
 10
14.8615153653
 20
45.5556308964
 30
0.0
 10
14.6895978411
 20
45.873394397
 30
0.0
 10
14.5780181811
 20
46.2032609005
 30
0.0
 10
14.548129309
 20
46.4279232902
 30
0.0
 10
14.548129309
 20
46.5347713591
 30
0.0
  0
SPLINE
  5
3FD
100
AcDbEntity
  8
0
100
AcDbSpline
 62
7
  6
CONTINUOUS
 70
0
 71
3
 72
17
 73
13
 74
0
 42
0.0000001
 43
0.0000001
 44
0.0000000001
 40
0.0
 40
0.0
 40
0.0
 40
0.0
 40
0.0428592926
 40
0.087485474
 40
0.1353198781
 40
0.1872819044
 40
0.3045421965
 40
0.4382074305
 40
0.582548911
 40
0.7297129633
 40
0.8713059682
 40
1.0
 40
1.0
 40
1.0
 40
1.0
 10
16.057011535
 20
41.8310665251
 30
0.0
 10
16.0261962917
 20
41.8132723375
 30
0.0
 10
15.9582585757
 20
41.7850621968
 30
0.0
 10
15.8461334091
 20
41.7686044003
 30
0.0
 10
15.7257144429
 20
41.7774765795
 30
0.0
 10
15.5507485138
 20
41.824011754
 30
0.0
 10
15.327081718
 20
41.9463141172
 30
0.0
 10
15.0799654479
 20
42.1651611696
 30
0.0
 10
14.8615153653
 20
42.4447566871
 30
0.0
 10
14.6895978411
 20
42.7625201878
 30
0.0
 10
14.5780181811
 20
43.0923866912
 30
0.0
 10
14.548129309
 20
43.3170490809
 30
0.0
 10
14.548129309
 20
43.4238971499
 30
0.0
  0
SPLINE
  5
3FE
100
AcDbEntity
  8
0
100
AcDbSpline
 62
7
  6
CONTINUOUS
 70
0
 71
3
 72
17
 73
13
 74
0
 42
0.0000001
 43
0.0000001
 44
0.0000000001
 40
0.0
 40
0.0
 40
0.0
 40
0.0
 40
0.0428592926
 40
0.087485474
 40
0.1353198781
 40
0.1872819044
 40
0.3045421965
 40
0.4382074305
 40
0.582548911
 40
0.7297129633
 40
0.8713059682
 40
1.0
 40
1.0
 40
1.0
 40
1.0
 10
16.057011535
 20
38.7201923159
 30
0.0
 10
16.0261962917
 20
38.7023981283
 30
0.0
 10
15.9582585757
 20
38.6741879875
 30
0.0
 10
15.8461334091
 20
38.6577301911
 30
0.0
 10
15.7257144429
 20
38.6666023702
 30
0.0
 10
15.5507485138
 20
38.7131375447
 30
0.0
 10
15.327081718
 20
38.835439908
 30
0.0
 10
15.0799654479
 20
39.0542869603
 30
0.0
 10
14.8615153653
 20
39.3338824779
 30
0.0
 10
14.6895978411
 20
39.6516459785
 30
0.0
 10
14.5780181811
 20
39.981512482
 30
0.0
 10
14.548129309
 20
40.2061748717
 30
0.0
 10
14.548129309
 20
40.3130229406
 30
0.0
  0
SPLINE
  5
3FF
100
AcDbEntity
  8
0
100
AcDbSpline
 62
7
  6
CONTINUOUS
 70
0
 71
3
 72
11
 73
7
 74
0
 42
0.0000001
 43
0.0000001
 44
0.0000000001
 40
0.0
 40
0.0
 40
0.0
 40
0.0
 40
0.2897016594
 40
0.5490895814
 40
0.7822189142
 40
1.0
 40
1.0
 40
1.0
 40
1.0
 10
14.548129309
 20
40.3130229406
 30
0.0
 10
14.548129309
 20
40.376357898
 30
0.0
 10
14.5577317526
 20
40.4968081821
 30
0.0
 10
14.6065101208
 20
40.6623017805
 30
0.0
 10
14.6886426767
 20
40.7965903603
 30
0.0
 10
14.7657902893
 20
40.8614428764
 30
0.0
 10
14.8070213958
 20
40.885251679
 30
0.0
  0
SPLINE
  5
400
100
AcDbEntity
  8
0
100
AcDbSpline
 62
7
  6
CONTINUOUS
 70
0
 71
3
 72
17
 73
13
 74
0
 42
0.0000001
 43
0.0000001
 44
0.0000000001
 40
0.0
 40
0.0
 40
0.0
 40
0.0
 40
0.0428592926
 40
0.087485474
 40
0.1353198781
 40
0.1872819044
 40
0.3045421965
 40
0.4382074305
 40
0.582548911
 40
0.7297129633
 40
0.8713059682
 40
1.0
 40
1.0
 40
1.0
 40
1.0
 10
16.057011535
 20
35.6093181066
 30
0.0
 10
16.0261962917
 20
35.591523919
 30
0.0
 10
15.9582585757
 20
35.5633137783
 30
0.0
 10
15.8461334091
 20
35.5468559818
 30
0.0
 10
15.7257144429
 20
35.555728161
 30
0.0
 10
15.5507485138
 20
35.6022633355
 30
0.0
 10
15.327081718
 20
35.7245656987
 30
0.0
 10
15.0799654479
 20
35.9434127511
 30
0.0
 10
14.8615153653
 20
36.2230082686
 30
0.0
 10
14.6895978411
 20
36.5407717693
 30
0.0
 10
14.5780181811
 20
36.8706382727
 30
0.0
 10
14.548129309
 20
37.0953006624
 30
0.0
 10
14.548129309
 20
37.2021487313
 30
0.0
  0
SPLINE
  5
401
100
AcDbEntity
  8
0
100
AcDbSpline
 62
7
  6
CONTINUOUS
 70
0
 71
3
 72
11
 73
7
 74
0
 42
0.0000001
 43
0.0000001
 44
0.0000000001
 40
0.0
 40
0.0
 40
0.0
 40
0.0
 40
0.2897016594
 40
0.5490895814
 40
0.7822189142
 40
1.0
 40
1.0
 40
1.0
 40
1.0
 10
14.548129309
 20
30.9804003128
 30
0.0
 10
14.548129309
 20
31.0437352702
 30
0.0
 10
14.5577317526
 20
31.1641855544
 30
0.0
 10
14.6065101208
 20
31.3296791527
 30
0.0
 10
14.6886426767
 20
31.4639677325
 30
0.0
 10
14.7657902893
 20
31.5288202486
 30
0.0
 10
14.8070213958
 20
31.5526290512
 30
0.0
  0
SPLINE
  5
402
100
AcDbEntity
  8
0
100
AcDbSpline
 62
7
  6
CONTINUOUS
 70
0
 71
3
 72
17
 73
13
 74
0
 42
0.0000001
 43
0.0000001
 44
0.0000000001
 40
0.0
 40
0.0
 40
0.0
 40
0.0
 40
0.0428592926
 40
0.087485474
 40
0.1353198781
 40
0.1872819044
 40
0.3045421965
 40
0.4382074305
 40
0.582548911
 40
0.7297129633
 40
0.8713059682
 40
1.0
 40
1.0
 40
1.0
 40
1.0
 10
16.057011535
 20
32.4984438974
 30
0.0
 10
16.0261962917
 20
32.4806497097
 30
0.0
 10
15.9582585757
 20
32.452439569
 30
0.0
 10
15.8461334091
 20
32.4359817725
 30
0.0
 10
15.7257144429
 20
32.4448539517
 30
0.0
 10
15.5507485138
 20
32.4913891262
 30
0.0
 10
15.327081718
 20
32.6136914894
 30
0.0
 10
15.0799654479
 20
32.8325385418
 30
0.0
 10
14.8615153653
 20
33.1121340593
 30
0.0
 10
14.6895978411
 20
33.42989756
 30
0.0
 10
14.5780181811
 20
33.7597640634
 30
0.0
 10
14.548129309
 20
33.9844264531
 30
0.0
 10
14.548129309
 20
34.0912745221
 30
0.0
  0
SPLINE
  5
403
100
AcDbEntity
  8
0
100
AcDbSpline
 62
7
  6
CONTINUOUS
 70
0
 71
3
 72
17
 73
13
 74
0
 42
0.0000001
 43
0.0000001
 44
0.0000000001
 40
0.0
 40
0.0
 40
0.0
 40
0.0
 40
0.0428592926
 40
0.087485474
 40
0.1353198781
 40
0.1872819044
 40
0.3045421965
 40
0.4382074305
 40
0.582548911
 40
0.7297129633
 40
0.8713059682
 40
1.0
 40
1.0
 40
1.0
 40
1.0
 10
16.057011535
 20
29.3875696881
 30
0.0
 10
16.0261962917
 20
29.3697755005
 30
0.0
 10
15.9582585757
 20
29.3415653597
 30
0.0
 10
15.8461334091
 20
29.3251075633
 30
0.0
 10
15.7257144429
 20
29.3339797424
 30
0.0
 10
15.5507485138
 20
29.3805149169
 30
0.0
 10
15.327081718
 20
29.5028172802
 30
0.0
 10
15.0799654479
 20
29.7216643325
 30
0.0
 10
14.8615153653
 20
30.0012598501
 30
0.0
 10
14.6895978411
 20
30.3190233507
 30
0.0
 10
14.5780181811
 20
30.6488898542
 30
0.0
 10
14.548129309
 20
30.8735522439
 30
0.0
 10
14.548129309
 20
30.9804003128
 30
0.0
  0
SPLINE
  5
404
100
AcDbEntity
  8
0
100
AcDbSpline
 62
7
  6
CONTINUOUS
 70
0
 71
3
 72
11
 73
7
 74
0
 42
0.0000001
 43
0.0000001
 44
0.0000000001
 40
0.0
 40
0.0
 40
0.0
 40
0.0
 40
0.2177492406
 40
0.4508664561
 40
0.7103384514
 40
1.0
 40
1.0
 40
1.0
 40
1.0
 10
14.1986951154
 20
61.1894955431
 30
0.0
 10
14.1986993506
 20
61.168550058
 30
0.0
 10
14.2064256804
 20
61.124888906
 30
0.0
 10
14.2395403127
 20
61.0640507728
 30
0.0
 10
14.2918721256
 20
61.0090575844
 30
0.0
 10
14.3356561569
 20
60.9788924113
 30
0.0
 10
14.359786179
 20
60.9649612518
 30
0.0
  0
SPLINE
  5
405
100
AcDbEntity
  8
0
100
AcDbSpline
 62
7
  6
CONTINUOUS
 70
0
 71
3
 72
11
 73
7
 74
0
 42
0.0000001
 43
0.0000001
 44
0.0000000001
 40
0.0
 40
0.0
 40
0.0
 40
0.0
 40
0.2177298181
 40
0.4508552952
 40
0.710447102
 40
1.0
 40
1.0
 40
1.0
 40
1.0
 10
12.2445879057
 20
65.6309731037
 30
0.0
 10
12.2445879061
 20
65.6214535693
 30
0.0
 10
12.2480833026
 20
65.6016062458
 30
0.0
 10
12.2631373426
 20
65.5739453873
 30
0.0
 10
12.2869365052
 20
65.5489614926
 30
0.0
 10
12.3068314156
 20
65.5352418414
 30
0.0
 10
12.3177951574
 20
65.5289120653
 30
0.0
  0
SPLINE
  5
406
100
AcDbEntity
  8
0
100
AcDbSpline
 62
7
  6
CONTINUOUS
 70
0
 71
3
 72
11
 73
7
 74
0
 42
0.0000001
 43
0.0000001
 44
0.0000000001
 40
0.0
 40
0.0
 40
0.0
 40
0.0
 40
0.2897016594
 40
0.5490895814
 40
0.7822189142
 40
1.0
 40
1.0
 40
1.0
 40
1.0
 10
14.548129309
 20
43.4238971499
 30
0.0
 10
14.548129309
 20
43.4872321073
 30
0.0
 10
14.5577317526
 20
43.6076823914
 30
0.0
 10
14.6065101208
 20
43.7731759898
 30
0.0
 10
14.6886426767
 20
43.9074645696
 30
0.0
 10
14.7657902893
 20
43.9723170857
 30
0.0
 10
14.8070213958
 20
43.9961258883
 30
0.0
  0
SPLINE
  5
407
100
AcDbEntity
  8
0
100
AcDbSpline
 62
7
  6
CONTINUOUS
 70
0
 71
3
 72
17
 73
13
 74
0
 42
0.0000001
 43
0.0000001
 44
0.0000000001
 40
0.0
 40
0.0
 40
0.0
 40
0.0
 40
0.0428592926
 40
0.087485474
 40
0.1353198781
 40
0.1872819044
 40
0.3045421965
 40
0.4382074305
 40
0.582548911
 40
0.7297129633
 40
0.8713059682
 40
1.0
 40
1.0
 40
1.0
 40
1.0
 10
16.057011535
 20
26.2766954788
 30
0.0
 10
16.0261962917
 20
26.2589012912
 30
0.0
 10
15.9582585757
 20
26.2306911505
 30
0.0
 10
15.8461334091
 20
26.214233354
 30
0.0
 10
15.7257144429
 20
26.2231055332
 30
0.0
 10
15.5507485138
 20
26.2696407077
 30
0.0
 10
15.327081718
 20
26.3919430709
 30
0.0
 10
15.0799654479
 20
26.6107901233
 30
0.0
 10
14.8615153653
 20
26.8903856408
 30
0.0
 10
14.6895978411
 20
27.2081491415
 30
0.0
 10
14.5780181811
 20
27.5380156449
 30
0.0
 10
14.548129309
 20
27.7626780346
 30
0.0
 10
14.548129309
 20
27.8695261035
 30
0.0
  0
SPLINE
  5
408
100
AcDbEntity
  8
0
100
AcDbSpline
 62
7
  6
CONTINUOUS
 70
0
 71
3
 72
11
 73
7
 74
0
 42
0.0000001
 43
0.0000001
 44
0.0000000001
 40
0.0
 40
0.0
 40
0.0
 40
0.0
 40
0.2897016594
 40
0.5490895814
 40
0.7822189142
 40
1.0
 40
1.0
 40
1.0
 40
1.0
 10
14.548129309
 20
46.5347713591
 30
0.0
 10
14.548129309
 20
46.5981063166
 30
0.0
 10
14.5577317526
 20
46.7185566007
 30
0.0
 10
14.6065101208
 20
46.884050199
 30
0.0
 10
14.6886426767
 20
47.0183387788
 30
0.0
 10
14.7657902893
 20
47.0831912949
 30
0.0
 10
14.8070213958
 20
47.1070000975
 30
0.0
  0
SPLINE
  5
409
100
AcDbEntity
  8
0
100
AcDbSpline
 62
7
  6
CONTINUOUS
 70
0
 71
3
 72
11
 73
7
 74
0
 42
0.0000001
 43
0.0000001
 44
0.0000000001
 40
0.0
 40
0.0
 40
0.0
 40
0.0
 40
0.2897016594
 40
0.5490895814
 40
0.7822189142
 40
1.0
 40
1.0
 40
1.0
 40
1.0
 10
14.548129309
 20
34.0912745221
 30
0.0
 10
14.548129309
 20
34.1546094795
 30
0.0
 10
14.5577317526
 20
34.2750597636
 30
0.0
 10
14.6065101208
 20
34.440553362
 30
0.0
 10
14.6886426767
 20
34.5748419418
 30
0.0
 10
14.7657902893
 20
34.6396944579
 30
0.0
 10
14.8070213958
 20
34.6635032605
 30
0.0
  0
SPLINE
  5
40A
100
AcDbEntity
  8
0
100
AcDbSpline
 62
7
  6
CONTINUOUS
 70
0
 71
3
 72
20
 73
16
 74
0
 42
0.0000001
 43
0.0000001
 44
0.0000000001
 40
0.0
 40
0.0
 40
0.0
 40
0.0
 40
0.0428308024
 40
0.087431891
 40
0.1352357998
 40
0.1871659732
 40
0.2436370295
 40
0.3046203051
 40
0.3697441964
 40
0.4383815868
 40
0.5826331819
 40
0.7296943463
 40
0.871190741
 40
0.937600271
 40
1.0
 40
1.0
 40
1.0
 40
1.0
 10
26.1321625906
 20
45.0884065173
 30
0.0
 10
26.1790032367
 20
45.1154493364
 30
0.0
 10
26.2822541138
 20
45.1583722132
 30
0.0
 10
26.4527021314
 20
45.1833536125
 30
0.0
 10
26.6357331808
 20
45.1698669454
 30
0.0
 10
26.827293137
 20
45.1189903019
 30
0.0
 10
27.0236094607
 20
45.0322216956
 30
0.0
 10
27.2207703353
 20
44.9115899193
 30
0.0
 10
27.4148112846
 20
44.7597064819
 30
0.0
 10
27.6680009326
 20
44.5157979071
 30
0.0
 10
27.9493861157
 20
44.1554604733
 30
0.0
 10
28.2105736506
 20
43.6727725158
 30
0.0
 10
28.3551247528
 20
43.2454542145
 30
0.0
 10
28.4149603001
 20
42.9088803979
 30
0.0
 10
28.4256632196
 20
42.746104756
 30
0.0
 10
28.4256632196
 20
42.6673065797
 30
0.0
  0
SPLINE
  5
40B
100
AcDbEntity
  8
0
100
AcDbSpline
 62
7
  6
CONTINUOUS
 70
0
 71
3
 72
20
 73
16
 74
0
 42
0.0000001
 43
0.0000001
 44
0.0000000001
 40
0.0
 40
0.0
 40
0.0
 40
0.0
 40
0.0428308024
 40
0.087431891
 40
0.1352357998
 40
0.1871659732
 40
0.2436370295
 40
0.3046203051
 40
0.3697441964
 40
0.4383815868
 40
0.5826331819
 40
0.7296943463
 40
0.871190741
 40
0.937600271
 40
1.0
 40
1.0
 40
1.0
 40
1.0
 10
26.1321625906
 20
41.0222244797
 30
0.0
 10
26.1790032367
 20
41.0492672988
 30
0.0
 10
26.2822541138
 20
41.0921901756
 30
0.0
 10
26.4527021314
 20
41.1171715748
 30
0.0
 10
26.6357331808
 20
41.1036849077
 30
0.0
 10
26.827293137
 20
41.0528082642
 30
0.0
 10
27.0236094607
 20
40.966039658
 30
0.0
 10
27.2207703353
 20
40.8454078817
 30
0.0
 10
27.4148112846
 20
40.6935244442
 30
0.0
 10
27.6680009326
 20
40.4496158695
 30
0.0
 10
27.9493861157
 20
40.0892784357
 30
0.0
 10
28.2105736506
 20
39.6065904782
 30
0.0
 10
28.3551247528
 20
39.1792721768
 30
0.0
 10
28.4149603001
 20
38.8426983602
 30
0.0
 10
28.4256632196
 20
38.6799227183
 30
0.0
 10
28.4256632196
 20
38.601124542
 30
0.0
  0
SPLINE
  5
40C
100
AcDbEntity
  8
0
100
AcDbSpline
 62
7
  6
CONTINUOUS
 70
0
 71
3
 72
20
 73
16
 74
0
 42
0.0000001
 43
0.0000001
 44
0.0000000001
 40
0.0
 40
0.0
 40
0.0
 40
0.0
 40
0.0428308024
 40
0.087431891
 40
0.1352357998
 40
0.1871659732
 40
0.2436370295
 40
0.3046203051
 40
0.3697441964
 40
0.4383815868
 40
0.5826331819
 40
0.7296943463
 40
0.871190741
 40
0.937600271
 40
1.0
 40
1.0
 40
1.0
 40
1.0
 10
26.1321625906
 20
36.8743922006
 30
0.0
 10
26.1790032367
 20
36.9014350197
 30
0.0
 10
26.2822541138
 20
36.9443578965
 30
0.0
 10
26.4527021314
 20
36.9693392957
 30
0.0
 10
26.6357331808
 20
36.9558526286
 30
0.0
 10
26.827293137
 20
36.9049759851
 30
0.0
 10
27.0236094607
 20
36.8182073789
 30
0.0
 10
27.2207703353
 20
36.6975756026
 30
0.0
 10
27.4148112846
 20
36.5456921651
 30
0.0
 10
27.6680009326
 20
36.3017835904
 30
0.0
 10
27.9493861157
 20
35.9414461566
 30
0.0
 10
28.2105736506
 20
35.4587581991
 30
0.0
 10
28.3551247528
 20
35.0314398977
 30
0.0
 10
28.4149603001
 20
34.6948660811
 30
0.0
 10
28.4256632196
 20
34.5320904392
 30
0.0
 10
28.4256632196
 20
34.4532922629
 30
0.0
  0
SPLINE
  5
40D
100
AcDbEntity
  8
0
100
AcDbSpline
 62
7
  6
CONTINUOUS
 70
0
 71
3
 72
20
 73
16
 74
0
 42
0.0000001
 43
0.0000001
 44
0.0000000001
 40
0.0
 40
0.0
 40
0.0
 40
0.0
 40
0.0428308024
 40
0.087431891
 40
0.1352357998
 40
0.1871659732
 40
0.2436370295
 40
0.3046203051
 40
0.3697441964
 40
0.4383815868
 40
0.5826331819
 40
0.7296943463
 40
0.871190741
 40
0.937600271
 40
1.0
 40
1.0
 40
1.0
 40
1.0
 10
26.1321625906
 20
32.7265599215
 30
0.0
 10
26.1790032367
 20
32.7536027406
 30
0.0
 10
26.2822541138
 20
32.7965256174
 30
0.0
 10
26.4527021314
 20
32.8215070166
 30
0.0
 10
26.6357331808
 20
32.8080203495
 30
0.0
 10
26.827293137
 20
32.757143706
 30
0.0
 10
27.0236094607
 20
32.6703750998
 30
0.0
 10
27.2207703353
 20
32.5497433235
 30
0.0
 10
27.4148112846
 20
32.397859886
 30
0.0
 10
27.6680009326
 20
32.1539513113
 30
0.0
 10
27.9493861157
 20
31.7936138775
 30
0.0
 10
28.2105736506
 20
31.31092592
 30
0.0
 10
28.3551247528
 20
30.8836076186
 30
0.0
 10
28.4149603001
 20
30.547033802
 30
0.0
 10
28.4256632196
 20
30.3842581601
 30
0.0
 10
28.4256632196
 20
30.3054599838
 30
0.0
  0
SPLINE
  5
40E
100
AcDbEntity
  8
0
100
AcDbSpline
 62
7
  6
CONTINUOUS
 70
0
 71
3
 72
20
 73
16
 74
0
 42
0.0000001
 43
0.0000001
 44
0.0000000001
 40
0.0
 40
0.0
 40
0.0
 40
0.0
 40
0.0428308024
 40
0.087431891
 40
0.1352357998
 40
0.1871659732
 40
0.2436370295
 40
0.3046203051
 40
0.3697441964
 40
0.4383815868
 40
0.5826331819
 40
0.7296943463
 40
0.871190741
 40
0.937600271
 40
1.0
 40
1.0
 40
1.0
 40
1.0
 10
26.1321625906
 20
28.5787276424
 30
0.0
 10
26.1790032367
 20
28.6057704615
 30
0.0
 10
26.2822541138
 20
28.6486933383
 30
0.0
 10
26.4527021314
 20
28.6736747375
 30
0.0
 10
26.6357331808
 20
28.6601880704
 30
0.0
 10
26.827293137
 20
28.6093114269
 30
0.0
 10
27.0236094607
 20
28.5225428207
 30
0.0
 10
27.2207703353
 20
28.4019110444
 30
0.0
 10
27.4148112846
 20
28.2500276069
 30
0.0
 10
27.6680009326
 20
28.0061190322
 30
0.0
 10
27.9493861157
 20
27.6457815984
 30
0.0
 10
28.2105736506
 20
27.1630936409
 30
0.0
 10
28.3551247528
 20
26.7357753395
 30
0.0
 10
28.4149603001
 20
26.3992015229
 30
0.0
 10
28.4256632196
 20
26.236425881
 30
0.0
 10
28.4256632196
 20
26.1576277047
 30
0.0
  0
SPLINE
  5
40F
100
AcDbEntity
  8
0
100
AcDbSpline
 62
7
  6
CONTINUOUS
 70
0
 71
3
 72
20
 73
16
 74
0
 42
0.0000001
 43
0.0000001
 44
0.0000000001
 40
0.0
 40
0.0
 40
0.0
 40
0.0
 40
0.0428308024
 40
0.087431891
 40
0.1352357998
 40
0.1871659732
 40
0.2436370295
 40
0.3046203051
 40
0.3697441964
 40
0.4383815868
 40
0.5826331819
 40
0.7296943463
 40
0.871190741
 40
0.937600271
 40
1.0
 40
1.0
 40
1.0
 40
1.0
 10
26.1321625906
 20
24.4308953634
 30
0.0
 10
26.1790032367
 20
24.4579381825
 30
0.0
 10
26.2822541138
 20
24.5008610593
 30
0.0
 10
26.4527021314
 20
24.5258424585
 30
0.0
 10
26.6357331808
 20
24.5123557914
 30
0.0
 10
26.827293137
 20
24.4614791479
 30
0.0
 10
27.0236094607
 20
24.3747105416
 30
0.0
 10
27.2207703353
 20
24.2540787654
 30
0.0
 10
27.4148112846
 20
24.1021953279
 30
0.0
 10
27.6680009326
 20
23.8582867532
 30
0.0
 10
27.9493861157
 20
23.4979493194
 30
0.0
 10
28.2105736506
 20
23.0152613618
 30
0.0
 10
28.3551247528
 20
22.5879430605
 30
0.0
 10
28.4149603001
 20
22.2513692439
 30
0.0
 10
28.4256632196
 20
22.088593602
 30
0.0
 10
28.4256632196
 20
22.0097954257
 30
0.0
  0
SPLINE
  5
410
100
AcDbEntity
  8
0
100
AcDbSpline
 62
7
  6
CONTINUOUS
 70
0
 71
3
 72
20
 73
16
 74
0
 42
0.0000001
 43
0.0000001
 44
0.0000000001
 40
0.0
 40
0.0
 40
0.0
 40
0.0
 40
0.0428308024
 40
0.087431891
 40
0.1352357998
 40
0.1871659732
 40
0.2436370295
 40
0.3046203051
 40
0.3697441964
 40
0.4383815868
 40
0.5826331819
 40
0.7296943463
 40
0.871190741
 40
0.937600271
 40
1.0
 40
1.0
 40
1.0
 40
1.0
 10
26.1321625906
 20
20.2830630842
 30
0.0
 10
26.1790032367
 20
20.3101059034
 30
0.0
 10
26.2822541138
 20
20.3530287802
 30
0.0
 10
26.4527021314
 20
20.3780101794
 30
0.0
 10
26.6357331808
 20
20.3645235123
 30
0.0
 10
26.827293137
 20
20.3136468688
 30
0.0
 10
27.0236094607
 20
20.2268782625
 30
0.0
 10
27.2207703353
 20
20.1062464863
 30
0.0
 10
27.4148112846
 20
19.9543630488
 30
0.0
 10
27.6680009326
 20
19.710454474
 30
0.0
 10
27.9493861157
 20
19.3501170403
 30
0.0
 10
28.2105736506
 20
18.8674290827
 30
0.0
 10
28.3551247528
 20
18.4401107814
 30
0.0
 10
28.4149603001
 20
18.1035369648
 30
0.0
 10
28.4256632196
 20
17.9407613229
 30
0.0
 10
28.4256632196
 20
17.8619631466
 30
0.0
  0
SPLINE
  5
411
100
AcDbEntity
  8
0
100
AcDbSpline
 62
7
  6
CONTINUOUS
 70
0
 71
3
 72
11
 73
7
 74
0
 42
0.0000001
 43
0.0000001
 44
0.0000000001
 40
0.0
 40
0.0
 40
0.0
 40
0.0
 40
0.2376223769
 40
0.5007684435
 40
0.7632595331
 40
1.0
 40
1.0
 40
1.0
 40
1.0
 10
33.8351616987
 20
16.9106461054
 30
0.0
 10
33.8249711895
 20
16.9047626473
 30
0.0
 10
33.8012485884
 20
16.8962417501
 30
0.0
 10
33.7633498712
 20
16.89227334
 30
0.0
 10
33.7256335339
 20
16.8968286109
 30
0.0
 10
33.7019398912
 20
16.9052999358
 30
0.0
 10
33.6919002264
 20
16.9113531023
 30
0.0
  0
SPLINE
  5
412
100
AcDbEntity
  8
0
100
AcDbSpline
 62
7
  6
CONTINUOUS
 70
0
 71
3
 72
11
 73
7
 74
0
 42
0.0000001
 43
0.0000001
 44
0.0000000001
 40
0.0
 40
0.0
 40
0.0
 40
0.0
 40
0.2897052857
 40
0.5490919933
 40
0.7822182543
 40
1.0
 40
1.0
 40
1.0
 40
1.0
 10
23.1545550099
 20
22.178828091
 30
0.0
 10
23.1282273499
 20
22.1940280286
 30
0.0
 10
23.0804623251
 20
22.2269266051
 30
0.0
 10
23.0233763892
 20
22.2869205484
 30
0.0
 10
22.9872656536
 20
22.3532885362
 30
0.0
 10
22.9788202997
 20
22.4009215303
 30
0.0
 10
22.9788203061
 20
22.4237745833
 30
0.0
  0
SPLINE
  5
413
100
AcDbEntity
  8
0
100
AcDbSpline
 62
7
  6
CONTINUOUS
 70
0
 71
3
 72
11
 73
7
 74
0
 42
0.0000001
 43
0.0000001
 44
0.0000000001
 40
0.0
 40
0.0
 40
0.0
 40
0.0
 40
0.2896200525
 40
0.5491062829
 40
0.782230388
 40
1.0
 40
1.0
 40
1.0
 40
1.0
 10
25.4667541012
 20
17.4963353364
 30
0.0
 10
25.4404344456
 20
17.5115306529
 30
0.0
 10
25.39267744
 20
17.5444420853
 30
0.0
 10
25.3355789429
 20
17.6044188871
 30
0.0
 10
25.2994454598
 20
17.6707945292
 30
0.0
 10
25.2910471
 20
17.7184303214
 30
0.0
 10
25.2910366114
 20
17.7412818743
 30
0.0
  0
SPLINE
  5
414
100
AcDbEntity
  8
0
100
AcDbSpline
 62
7
  6
CONTINUOUS
 70
0
 71
3
 72
11
 73
7
 74
0
 42
0.0000001
 43
0.0000001
 44
0.0000000001
 40
0.0
 40
0.0
 40
0.0
 40
0.0
 40
0.2439328833
 40
0.5066880841
 40
0.7658513134
 40
1.0
 40
1.0
 40
1.0
 40
1.0
 10
29.4925425274
 20
15.6065297934
 30
0.0
 10
29.4317342926
 20
15.5786040676
 30
0.0
 10
29.2967205064
 20
15.539091979
 30
0.0
 10
29.0857761584
 20
15.5244964092
 30
0.0
 10
28.8788592428
 20
15.552192529
 30
0.0
 10
28.7503946973
 20
15.6005674424
 30
0.0
 10
28.6947694878
 20
15.6326819455
 30
0.0
  0
SPLINE
  5
415
100
AcDbEntity
  8
0
100
AcDbSpline
 62
7
  6
CONTINUOUS
 70
0
 71
3
 72
13
 73
9
 74
0
 42
0.0000001
 43
0.0000001
 44
0.0000000001
 40
0.0
 40
0.0
 40
0.0
 40
0.0
 40
0.1141757996
 40
0.2375697486
 40
0.4999996443
 40
0.7624297362
 40
0.885823858
 40
1.0
 40
1.0
 40
1.0
 40
1.0
 10
33.232590202
 20
16.646171919
 30
0.0
 10
33.2084040738
 20
16.6322081347
 30
0.0
 10
33.1554578758
 20
16.6075834765
 30
0.0
 10
33.0381715853
 20
16.5718996977
 30
0.0
 10
32.8790372607
 20
16.5546574865
 30
0.0
 10
32.7199028366
 20
16.5718990109
 30
0.0
 10
32.6026161785
 20
16.6075821744
 30
0.0
 10
32.5496697222
 20
16.6322065676
 30
0.0
 10
32.5254834208
 20
16.6461702193
 30
0.0
  0
SPLINE
  5
416
100
AcDbEntity
  8
0
100
AcDbSpline
 62
7
  6
CONTINUOUS
 70
0
 71
3
 72
11
 73
7
 74
0
 42
0.0000001
 43
0.0000001
 44
0.0000000001
 40
0.0
 40
0.0
 40
0.0
 40
0.0
 40
0.2826339157
 40
0.5398875826
 40
0.7758969853
 40
1.0
 40
1.0
 40
1.0
 40
1.0
 10
25.4214499544
 20
46.9917489666
 30
0.0
 10
25.4015410168
 20
46.9772985702
 30
0.0
 10
25.3655589507
 20
46.9466345329
 30
0.0
 10
25.3233208161
 20
46.8932701213
 30
0.0
 10
25.297047462
 20
46.8358763744
 30
0.0
 10
25.2910276476
 20
46.7956137089
 30
0.0
 10
25.291036605
 20
46.7761078279
 30
0.0
  0
SPLINE
  5
417
100
AcDbEntity
  8
0
100
AcDbSpline
 62
7
  6
CONTINUOUS
 70
0
 71
3
 72
11
 73
7
 74
0
 42
0.0000001
 43
0.0000001
 44
0.0000000001
 40
0.0
 40
0.0
 40
0.0
 40
0.0
 40
0.2897048043
 40
0.5490913404
 40
0.7822177947
 40
1.0
 40
1.0
 40
1.0
 40
1.0
 10
23.1545514771
 20
51.7035449896
 30
0.0
 10
23.1282243097
 20
51.6883450831
 30
0.0
 10
23.0804601913
 20
51.6554466321
 30
0.0
 10
23.0233754152
 20
51.5954531334
 30
0.0
 10
22.9872654574
 20
51.5290857886
 30
0.0
 10
22.9788203019
 20
51.4814533438
 30
0.0
 10
22.9788203061
 20
51.4586005369
 30
0.0
  0
SPLINE
  5
418
100
AcDbEntity
  8
0
100
AcDbSpline
 62
7
  6
CONTINUOUS
 70
0
 71
3
 72
9
 73
5
 74
0
 42
0.0000001
 43
0.0000001
 44
0.0000000001
 40
0.0
 40
0.0
 40
0.0
 40
0.0
 40
0.4787976359
 40
1.0
 40
1.0
 40
1.0
 40
1.0
 10
24.3516909363
 20
41.8675773094
 30
0.0
 10
24.4335190958
 20
41.8813676359
 30
0.0
 10
24.608637763
 20
41.8875105694
 30
0.0
 10
24.7802066914
 20
41.855406978
 30
0.0
 10
24.8672379271
 20
41.8312136226
 30
0.0
  0
SPLINE
  5
419
100
AcDbEntity
  8
0
100
AcDbSpline
 62
7
  6
CONTINUOUS
 70
0
 71
3
 72
9
 73
5
 74
0
 42
0.0000001
 43
0.0000001
 44
0.0000000001
 40
0.0
 40
0.0
 40
0.0
 40
0.0
 40
0.4821661462
 40
1.0
 40
1.0
 40
1.0
 40
1.0
 10
24.3516909363
 20
50.0815916257
 30
0.0
 10
24.4218976235
 20
50.0934234101
 30
0.0
 10
24.5705739075
 20
50.1014369774
 30
0.0
 10
24.7176248264
 20
50.0806653525
 30
0.0
 10
24.7922551801
 20
50.0640231962
 30
0.0
  0
SPLINE
  5
41A
100
AcDbEntity
  8
0
100
AcDbSpline
 62
7
  6
CONTINUOUS
 70
0
 71
3
 72
9
 73
5
 74
0
 42
0.0000001
 43
0.0000001
 44
0.0000000001
 40
0.0
 40
0.0
 40
0.0
 40
0.0
 40
0.2437349461
 40
1.0
 40
1.0
 40
1.0
 40
1.0
 10
25.8294672885
 20
49.4652020534
 30
0.0
 10
25.8687151859
 20
49.4286355745
 30
0.0
 10
26.026192967
 20
49.2748255412
 30
0.0
 10
26.1696786905
 20
49.106849333
 30
0.0
 10
26.2700315324
 20
48.9740622219
 30
0.0
  0
SPLINE
  5
41B
100
AcDbEntity
  8
0
100
AcDbSpline
 62
7
  6
CONTINUOUS
 70
0
 71
3
 72
9
 73
5
 74
0
 42
0.0000001
 43
0.0000001
 44
0.0000000001
 40
0.0
 40
0.0
 40
0.0
 40
0.0
 40
0.4787976359
 40
1.0
 40
1.0
 40
1.0
 40
1.0
 10
24.3516909363
 20
46.0154095884
 30
0.0
 10
24.4335190958
 20
46.0291999149
 30
0.0
 10
24.608637763
 20
46.0353428484
 30
0.0
 10
24.7802066914
 20
46.0032392571
 30
0.0
 10
24.8672379271
 20
45.9790459016
 30
0.0
  0
SPLINE
  5
41C
100
AcDbEntity
  8
0
100
AcDbSpline
 62
7
  6
CONTINUOUS
 70
0
 71
3
 72
9
 73
5
 74
0
 42
0.0000001
 43
0.0000001
 44
0.0000000001
 40
0.0
 40
0.0
 40
0.0
 40
0.0
 40
0.4787976359
 40
1.0
 40
1.0
 40
1.0
 40
1.0
 10
24.3516909363
 20
25.2762481934
 30
0.0
 10
24.4335190958
 20
25.2900385198
 30
0.0
 10
24.608637763
 20
25.2961814533
 30
0.0
 10
24.7802066914
 20
25.2640778619
 30
0.0
 10
24.8672379271
 20
25.2398845065
 30
0.0
  0
SPLINE
  5
41D
100
AcDbEntity
  8
0
100
AcDbSpline
 62
7
  6
CONTINUOUS
 70
0
 71
3
 72
9
 73
5
 74
0
 42
0.0000001
 43
0.0000001
 44
0.0000000001
 40
0.0
 40
0.0
 40
0.0
 40
0.0
 40
0.4787976359
 40
1.0
 40
1.0
 40
1.0
 40
1.0
 10
24.3516909363
 20
29.4240804724
 30
0.0
 10
24.4335190958
 20
29.4378707989
 30
0.0
 10
24.608637763
 20
29.4440137323
 30
0.0
 10
24.7802066914
 20
29.411910141
 30
0.0
 10
24.8672379271
 20
29.3877167855
 30
0.0
  0
SPLINE
  5
41E
100
AcDbEntity
  8
0
100
AcDbSpline
 62
7
  6
CONTINUOUS
 70
0
 71
3
 72
9
 73
5
 74
0
 42
0.0000001
 43
0.0000001
 44
0.0000000001
 40
0.0
 40
0.0
 40
0.0
 40
0.0
 40
0.4787976359
 40
1.0
 40
1.0
 40
1.0
 40
1.0
 10
24.3516909363
 20
33.5719127514
 30
0.0
 10
24.4335190958
 20
33.5857030779
 30
0.0
 10
24.608637763
 20
33.5918460114
 30
0.0
 10
24.7802066914
 20
33.55974242
 30
0.0
 10
24.8672379271
 20
33.5355490646
 30
0.0
  0
SPLINE
  5
41F
100
AcDbEntity
  8
0
100
AcDbSpline
 62
7
  6
CONTINUOUS
 70
0
 71
3
 72
9
 73
5
 74
0
 42
0.0000001
 43
0.0000001
 44
0.0000000001
 40
0.0
 40
0.0
 40
0.0
 40
0.0
 40
0.4787976359
 40
1.0
 40
1.0
 40
1.0
 40
1.0
 10
24.3516909363
 20
37.7197450304
 30
0.0
 10
24.4335190958
 20
37.7335353569
 30
0.0
 10
24.608637763
 20
37.7396782904
 30
0.0
 10
24.7802066914
 20
37.707574699
 30
0.0
 10
24.8672379271
 20
37.6833813436
 30
0.0
  0
SPLINE
  5
420
100
AcDbEntity
  8
0
100
AcDbSpline
 62
7
  6
CONTINUOUS
 70
0
 71
3
 72
12
 73
8
 74
0
 42
0.0000001
 43
0.0000001
 44
0.0000000001
 40
0.0
 40
0.0
 40
0.0
 40
0.0
 40
0.2895538654
 40
0.5486502155
 40
0.7816324496
 40
0.8918397358
 40
1.0
 40
1.0
 40
1.0
 40
1.0
 10
28.4256632196
 20
17.8619631466
 30
0.0
 10
28.4256632196
 20
17.7656692605
 30
0.0
 10
28.4110556883
 20
17.5825620434
 30
0.0
 10
28.3370513858
 20
17.3311125903
 30
0.0
 10
28.230610647
 20
17.1576561456
 30
0.0
 10
28.1232000961
 20
17.0519517167
 30
0.0
 10
28.0632943235
 20
17.0101646082
 30
0.0
 10
28.0321434457
 20
16.9921800664
 30
0.0
  0
SPLINE
  5
421
100
AcDbEntity
  8
0
100
AcDbSpline
 62
7
  6
CONTINUOUS
 70
0
 71
3
 72
12
 73
8
 74
0
 42
0.0000001
 43
0.0000001
 44
0.0000000001
 40
0.0
 40
0.0
 40
0.0
 40
0.0
 40
0.2895538654
 40
0.5486502155
 40
0.7816324496
 40
0.8918397358
 40
1.0
 40
1.0
 40
1.0
 40
1.0
 10
28.4256632196
 20
22.0097954257
 30
0.0
 10
28.4256632196
 20
21.9135015396
 30
0.0
 10
28.4110556883
 20
21.7303943225
 30
0.0
 10
28.3370513858
 20
21.4789448694
 30
0.0
 10
28.230610647
 20
21.3054884247
 30
0.0
 10
28.1232000961
 20
21.1997839958
 30
0.0
 10
28.0632943235
 20
21.1579968873
 30
0.0
 10
28.0321434457
 20
21.1400123455
 30
0.0
  0
SPLINE
  5
422
100
AcDbEntity
  8
0
100
AcDbSpline
 62
7
  6
CONTINUOUS
 70
0
 71
3
 72
12
 73
8
 74
0
 42
0.0000001
 43
0.0000001
 44
0.0000000001
 40
0.0
 40
0.0
 40
0.0
 40
0.0
 40
0.2895538654
 40
0.5486502155
 40
0.7816324496
 40
0.8918397358
 40
1.0
 40
1.0
 40
1.0
 40
1.0
 10
28.4256632196
 20
26.1576277047
 30
0.0
 10
28.4256632196
 20
26.0613338186
 30
0.0
 10
28.4110556883
 20
25.8782266015
 30
0.0
 10
28.3370513858
 20
25.6267771484
 30
0.0
 10
28.230610647
 20
25.4533207037
 30
0.0
 10
28.1232000961
 20
25.3476162748
 30
0.0
 10
28.0632943235
 20
25.3058291663
 30
0.0
 10
28.0321434457
 20
25.2878446245
 30
0.0
  0
SPLINE
  5
423
100
AcDbEntity
  8
0
100
AcDbSpline
 62
7
  6
CONTINUOUS
 70
0
 71
3
 72
12
 73
8
 74
0
 42
0.0000001
 43
0.0000001
 44
0.0000000001
 40
0.0
 40
0.0
 40
0.0
 40
0.0
 40
0.2895538654
 40
0.5486502155
 40
0.7816324496
 40
0.8918397358
 40
1.0
 40
1.0
 40
1.0
 40
1.0
 10
28.4256632196
 20
30.3054599838
 30
0.0
 10
28.4256632196
 20
30.2091660977
 30
0.0
 10
28.4110556883
 20
30.0260588806
 30
0.0
 10
28.3370513858
 20
29.7746094275
 30
0.0
 10
28.230610647
 20
29.6011529828
 30
0.0
 10
28.1232000961
 20
29.4954485539
 30
0.0
 10
28.0632943235
 20
29.4536614454
 30
0.0
 10
28.0321434457
 20
29.4356769036
 30
0.0
  0
SPLINE
  5
424
100
AcDbEntity
  8
0
100
AcDbSpline
 62
7
  6
CONTINUOUS
 70
0
 71
3
 72
12
 73
8
 74
0
 42
0.0000001
 43
0.0000001
 44
0.0000000001
 40
0.0
 40
0.0
 40
0.0
 40
0.0
 40
0.2895538654
 40
0.5486502155
 40
0.7816324496
 40
0.8918397358
 40
1.0
 40
1.0
 40
1.0
 40
1.0
 10
28.4256632196
 20
34.4532922629
 30
0.0
 10
28.4256632196
 20
34.3569983768
 30
0.0
 10
28.4110556883
 20
34.1738911597
 30
0.0
 10
28.3370513858
 20
33.9224417066
 30
0.0
 10
28.230610647
 20
33.7489852619
 30
0.0
 10
28.1232000961
 20
33.643280833
 30
0.0
 10
28.0632943235
 20
33.6014937245
 30
0.0
 10
28.0321434457
 20
33.5835091827
 30
0.0
  0
SPLINE
  5
425
100
AcDbEntity
  8
0
100
AcDbSpline
 62
7
  6
CONTINUOUS
 70
0
 71
3
 72
12
 73
8
 74
0
 42
0.0000001
 43
0.0000001
 44
0.0000000001
 40
0.0
 40
0.0
 40
0.0
 40
0.0
 40
0.2895538654
 40
0.5486502155
 40
0.7816324496
 40
0.8918397358
 40
1.0
 40
1.0
 40
1.0
 40
1.0
 10
28.4256632196
 20
38.601124542
 30
0.0
 10
28.4256632196
 20
38.5048306559
 30
0.0
 10
28.4110556883
 20
38.3217234388
 30
0.0
 10
28.3370513858
 20
38.0702739857
 30
0.0
 10
28.230610647
 20
37.896817541
 30
0.0
 10
28.1232000961
 20
37.7911131121
 30
0.0
 10
28.0632943235
 20
37.7493260036
 30
0.0
 10
28.0321434457
 20
37.7313414618
 30
0.0
  0
SPLINE
  5
426
100
AcDbEntity
  8
0
100
AcDbSpline
 62
7
  6
CONTINUOUS
 70
0
 71
3
 72
12
 73
8
 74
0
 42
0.0000001
 43
0.0000001
 44
0.0000000001
 40
0.0
 40
0.0
 40
0.0
 40
0.0
 40
0.2895538654
 40
0.5486502155
 40
0.7816324496
 40
0.8918397358
 40
1.0
 40
1.0
 40
1.0
 40
1.0
 10
28.4256632196
 20
42.6673065797
 30
0.0
 10
28.4256632196
 20
42.5710126935
 30
0.0
 10
28.4110556883
 20
42.3879054764
 30
0.0
 10
28.3370513858
 20
42.1364560234
 30
0.0
 10
28.230610647
 20
41.9629995786
 30
0.0
 10
28.1232000961
 20
41.8572951497
 30
0.0
 10
28.0632943235
 20
41.8155080412
 30
0.0
 10
28.0321434457
 20
41.7975234995
 30
0.0
  0
SPLINE
  5
427
100
AcDbEntity
  8
0
100
AcDbSpline
 62
7
  6
CONTINUOUS
 70
0
 71
3
 72
20
 73
16
 74
0
 42
0.0000001
 43
0.0000001
 44
0.0000000001
 40
0.0
 40
0.0
 40
0.0
 40
0.0
 40
0.0428308024
 40
0.087431891
 40
0.1352357998
 40
0.1871659732
 40
0.2436370295
 40
0.3046203051
 40
0.3697441964
 40
0.4383815868
 40
0.5826331819
 40
0.7296943463
 40
0.871190741
 40
0.937600271
 40
1.0
 40
1.0
 40
1.0
 40
1.0
 10
28.0321434457
 20
25.2878446245
 30
0.0
 10
27.9853027997
 20
25.2608018054
 30
0.0
 10
27.8820519226
 20
25.2178789286
 30
0.0
 10
27.711603905
 20
25.1928975294
 30
0.0
 10
27.5285728556
 20
25.2063841965
 30
0.0
 10
27.3370128993
 20
25.25726084
 30
0.0
 10
27.1406965757
 20
25.3440294463
 30
0.0
 10
26.943535701
 20
25.4646612225
 30
0.0
 10
26.7494947518
 20
25.61654466
 30
0.0
 10
26.4963051038
 20
25.8604532347
 30
0.0
 10
26.2149199207
 20
26.2207906685
 30
0.0
 10
25.9537323858
 20
26.7034786261
 30
0.0
 10
25.8091812836
 20
27.1307969274
 30
0.0
 10
25.7493457362
 20
27.467370744
 30
0.0
 10
25.7386428167
 20
27.6301463859
 30
0.0
 10
25.7386428167
 20
27.7089445622
 30
0.0
  0
SPLINE
  5
428
100
AcDbEntity
  8
0
100
AcDbSpline
 62
7
  6
CONTINUOUS
 70
0
 71
3
 72
20
 73
16
 74
0
 42
0.0000001
 43
0.0000001
 44
0.0000000001
 40
0.0
 40
0.0
 40
0.0
 40
0.0
 40
0.0428308024
 40
0.087431891
 40
0.1352357998
 40
0.1871659732
 40
0.2436370295
 40
0.3046203051
 40
0.3697441964
 40
0.4383815868
 40
0.5826331819
 40
0.7296943463
 40
0.871190741
 40
0.937600271
 40
1.0
 40
1.0
 40
1.0
 40
1.0
 10
28.0321434457
 20
37.7313414618
 30
0.0
 10
27.9853027997
 20
37.7042986427
 30
0.0
 10
27.8820519226
 20
37.6613757659
 30
0.0
 10
27.711603905
 20
37.6363943667
 30
0.0
 10
27.5285728556
 20
37.6498810338
 30
0.0
 10
27.3370128993
 20
37.7007576773
 30
0.0
 10
27.1406965757
 20
37.7875262836
 30
0.0
 10
26.943535701
 20
37.9081580598
 30
0.0
 10
26.7494947518
 20
38.0600414973
 30
0.0
 10
26.4963051038
 20
38.303950072
 30
0.0
 10
26.2149199207
 20
38.6642875058
 30
0.0
 10
25.9537323858
 20
39.1469754634
 30
0.0
 10
25.8091812836
 20
39.5742937647
 30
0.0
 10
25.7493457362
 20
39.9108675813
 30
0.0
 10
25.7386428167
 20
40.0736432232
 30
0.0
 10
25.7386428167
 20
40.1524413995
 30
0.0
  0
SPLINE
  5
429
100
AcDbEntity
  8
0
100
AcDbSpline
 62
7
  6
CONTINUOUS
 70
0
 71
3
 72
9
 73
5
 74
0
 42
0.0000001
 43
0.0000001
 44
0.0000000001
 40
0.0
 40
0.0
 40
0.0
 40
0.0
 40
0.2437349461
 40
1.0
 40
1.0
 40
1.0
 40
1.0
 10
24.7922551801
 20
42.094959605
 30
0.0
 10
24.7530072827
 20
42.1315260839
 30
0.0
 10
24.5955295017
 20
42.2853361172
 30
0.0
 10
24.4520437782
 20
42.4533123254
 30
0.0
 10
24.3516909363
 20
42.5860994365
 30
0.0
  0
SPLINE
  5
42A
100
AcDbEntity
  8
0
100
AcDbSpline
 62
7
  6
CONTINUOUS
 70
0
 71
3
 72
20
 73
16
 74
0
 42
0.0000001
 43
0.0000001
 44
0.0000000001
 40
0.0
 40
0.0
 40
0.0
 40
0.0
 40
0.0428308024
 40
0.087431891
 40
0.1352357998
 40
0.1871659732
 40
0.2436370295
 40
0.3046203051
 40
0.3697441964
 40
0.4383815868
 40
0.5826331819
 40
0.7296943463
 40
0.871190741
 40
0.937600271
 40
1.0
 40
1.0
 40
1.0
 40
1.0
 10
28.0321434457
 20
33.5835091827
 30
0.0
 10
27.9853027997
 20
33.5564663636
 30
0.0
 10
27.8820519226
 20
33.5135434868
 30
0.0
 10
27.711603905
 20
33.4885620876
 30
0.0
 10
27.5285728556
 20
33.5020487547
 30
0.0
 10
27.3370128993
 20
33.5529253982
 30
0.0
 10
27.1406965757
 20
33.6396940045
 30
0.0
 10
26.943535701
 20
33.7603257807
 30
0.0
 10
26.7494947518
 20
33.9122092182
 30
0.0
 10
26.4963051038
 20
34.1561177929
 30
0.0
 10
26.2149199207
 20
34.5164552267
 30
0.0
 10
25.9537323858
 20
34.9991431843
 30
0.0
 10
25.8091812836
 20
35.4264614856
 30
0.0
 10
25.7493457362
 20
35.7630353022
 30
0.0
 10
25.7386428167
 20
35.9258109441
 30
0.0
 10
25.7386428167
 20
36.0046091204
 30
0.0
  0
SPLINE
  5
42B
100
AcDbEntity
  8
0
100
AcDbSpline
 62
7
  6
CONTINUOUS
 70
0
 71
3
 72
9
 73
5
 74
0
 42
0.0000001
 43
0.0000001
 44
0.0000000001
 40
0.0
 40
0.0
 40
0.0
 40
0.0
 40
0.2437349461
 40
1.0
 40
1.0
 40
1.0
 40
1.0
 10
24.7922551801
 20
21.3557982099
 30
0.0
 10
24.7530072827
 20
21.3923646888
 30
0.0
 10
24.5955295017
 20
21.5461747221
 30
0.0
 10
24.4520437782
 20
21.7141509303
 30
0.0
 10
24.3516909363
 20
21.8469380414
 30
0.0
  0
SPLINE
  5
42C
100
AcDbEntity
  8
0
100
AcDbSpline
 62
7
  6
CONTINUOUS
 70
0
 71
3
 72
20
 73
16
 74
0
 42
0.0000001
 43
0.0000001
 44
0.0000000001
 40
0.0
 40
0.0
 40
0.0
 40
0.0
 40
0.0428308024
 40
0.087431891
 40
0.1352357998
 40
0.1871659732
 40
0.2436370295
 40
0.3046203051
 40
0.3697441964
 40
0.4383815868
 40
0.5826331819
 40
0.7296943463
 40
0.871190741
 40
0.937600271
 40
1.0
 40
1.0
 40
1.0
 40
1.0
 10
28.0321434457
 20
21.1400123455
 30
0.0
 10
27.9853027997
 20
21.1129695264
 30
0.0
 10
27.8820519226
 20
21.0700466496
 30
0.0
 10
27.711603905
 20
21.0450652504
 30
0.0
 10
27.5285728556
 20
21.0585519174
 30
0.0
 10
27.3370128993
 20
21.109428561
 30
0.0
 10
27.1406965757
 20
21.1961971672
 30
0.0
 10
26.943535701
 20
21.3168289435
 30
0.0
 10
26.7494947518
 20
21.468712381
 30
0.0
 10
26.4963051038
 20
21.7126209557
 30
0.0
 10
26.2149199207
 20
22.0729583895
 30
0.0
 10
25.9537323858
 20
22.555646347
 30
0.0
 10
25.8091812836
 20
22.9829646484
 30
0.0
 10
25.7493457362
 20
23.319538465
 30
0.0
 10
25.7386428167
 20
23.4823141069
 30
0.0
 10
25.7386428167
 20
23.5611122832
 30
0.0
  0
SPLINE
  5
42D
100
AcDbEntity
  8
0
100
AcDbSpline
 62
7
  6
CONTINUOUS
 70
0
 71
3
 72
11
 73
7
 74
0
 42
0.0000001
 43
0.0000001
 44
0.0000000001
 40
0.0
 40
0.0
 40
0.0
 40
0.0
 40
0.2367404669
 40
0.4992315565
 40
0.7623776231
 40
1.0
 40
1.0
 40
1.0
 40
1.0
 10
33.6919002264
 20
45.9461790559
 30
0.0
 10
33.7019398912
 20
45.9401258894
 30
0.0
 10
33.7256335339
 20
45.9316545645
 30
0.0
 10
33.7633498712
 20
45.9270992936
 30
0.0
 10
33.8012485884
 20
45.9310677036
 30
0.0
 10
33.8249711895
 20
45.9395886008
 30
0.0
 10
33.8351616987
 20
45.9454720589
 30
0.0
  0
SPLINE
  5
42E
100
AcDbEntity
  8
0
100
AcDbSpline
 62
7
  6
CONTINUOUS
 70
0
 71
3
 72
13
 73
9
 74
0
 42
0.0000001
 43
0.0000001
 44
0.0000000001
 40
0.0
 40
0.0
 40
0.0
 40
0.0
 40
0.1141762243
 40
0.2375705078
 40
0.5000006893
 40
0.7624304955
 40
0.8858242827
 40
1.0
 40
1.0
 40
1.0
 40
1.0
 10
32.5254834208
 20
45.6809961729
 30
0.0
 10
32.5496697397
 20
45.6670325111
 30
0.0
 10
32.6026162618
 20
45.6424081172
 30
0.0
 10
32.7199029923
 20
45.6067249156
 30
0.0
 10
32.8790374695
 20
45.5894834401
 30
0.0
 10
33.038171741
 20
45.6067257002
 30
0.0
 10
33.1554579591
 20
45.6424094407
 30
0.0
 10
33.2084040912
 20
45.6670340984
 30
0.0
 10
33.232590202
 20
45.6809978726
 30
0.0
  0
SPLINE
  5
42F
100
AcDbEntity
  8
0
100
AcDbSpline
 62
7
  6
CONTINUOUS
 70
0
 71
3
 72
9
 73
5
 74
0
 42
0.0000001
 43
0.0000001
 44
0.0000000001
 40
0.0
 40
0.0
 40
0.0
 40
0.0
 40
0.2437349461
 40
1.0
 40
1.0
 40
1.0
 40
1.0
 10
24.7922551801
 20
25.503630489
 30
0.0
 10
24.7530072827
 20
25.5401969679
 30
0.0
 10
24.5955295017
 20
25.6940070011
 30
0.0
 10
24.4520437782
 20
25.8619832093
 30
0.0
 10
24.3516909363
 20
25.9947703205
 30
0.0
  0
SPLINE
  5
430
100
AcDbEntity
  8
0
100
AcDbSpline
 62
7
  6
CONTINUOUS
 70
0
 71
3
 72
11
 73
7
 74
0
 42
0.0000001
 43
0.0000001
 44
0.0000000001
 40
0.0
 40
0.0
 40
0.0
 40
0.0
 40
0.2341488655
 40
0.4933121613
 40
0.7560673007
 40
1.0
 40
1.0
 40
1.0
 40
1.0
 10
28.6947694878
 20
44.6675078991
 30
0.0
 10
28.7503947398
 20
44.6353933714
 30
0.0
 10
28.8788593572
 20
44.5870184479
 30
0.0
 10
29.0857763277
 20
44.5593223575
 30
0.0
 10
29.296720624
 20
44.5739179595
 30
0.0
 10
29.4317343385
 20
44.6134300423
 30
0.0
 10
29.4925425274
 20
44.641355747
 30
0.0
  0
SPLINE
  5
431
100
AcDbEntity
  8
0
100
AcDbSpline
 62
7
  6
CONTINUOUS
 70
0
 71
3
 72
20
 73
16
 74
0
 42
0.0000001
 43
0.0000001
 44
0.0000000001
 40
0.0
 40
0.0
 40
0.0
 40
0.0
 40
0.0428308024
 40
0.087431891
 40
0.1352357998
 40
0.1871659732
 40
0.2436370295
 40
0.3046203051
 40
0.3697441964
 40
0.4383815868
 40
0.5826331819
 40
0.7296943463
 40
0.871190741
 40
0.937600271
 40
1.0
 40
1.0
 40
1.0
 40
1.0
 10
28.0321434457
 20
41.7975234995
 30
0.0
 10
27.9853027997
 20
41.7704806803
 30
0.0
 10
27.8820519226
 20
41.7275578035
 30
0.0
 10
27.711603905
 20
41.7025764043
 30
0.0
 10
27.5285728556
 20
41.7160630714
 30
0.0
 10
27.3370128993
 20
41.7669397149
 30
0.0
 10
27.1406965757
 20
41.8537083212
 30
0.0
 10
26.943535701
 20
41.9743400975
 30
0.0
 10
26.7494947518
 20
42.1262235349
 30
0.0
 10
26.4963051038
 20
42.3701321097
 30
0.0
 10
26.2149199207
 20
42.7304695435
 30
0.0
 10
25.9537323858
 20
43.213157501
 30
0.0
 10
25.8091812836
 20
43.6404758023
 30
0.0
 10
25.7493457362
 20
43.9770496189
 30
0.0
 10
25.7386428167
 20
44.1398252608
 30
0.0
 10
25.7386428167
 20
44.2186234371
 30
0.0
  0
SPLINE
  5
432
100
AcDbEntity
  8
0
100
AcDbSpline
 62
7
  6
CONTINUOUS
 70
0
 71
3
 72
9
 73
5
 74
0
 42
0.0000001
 43
0.0000001
 44
0.0000000001
 40
0.0
 40
0.0
 40
0.0
 40
0.0
 40
0.2437349461
 40
1.0
 40
1.0
 40
1.0
 40
1.0
 10
24.7922551801
 20
29.651462768
 30
0.0
 10
24.7530072827
 20
29.6880292469
 30
0.0
 10
24.5955295017
 20
29.8418392801
 30
0.0
 10
24.4520437782
 20
30.0098154884
 30
0.0
 10
24.3516909363
 20
30.1426025995
 30
0.0
  0
SPLINE
  5
433
100
AcDbEntity
  8
0
100
AcDbSpline
 62
7
  6
CONTINUOUS
 70
0
 71
3
 72
20
 73
16
 74
0
 42
0.0000001
 43
0.0000001
 44
0.0000000001
 40
0.0
 40
0.0
 40
0.0
 40
0.0
 40
0.0428308024
 40
0.087431891
 40
0.1352357998
 40
0.1871659732
 40
0.2436370295
 40
0.3046203051
 40
0.3697441964
 40
0.4383815868
 40
0.5826331819
 40
0.7296943463
 40
0.871190741
 40
0.937600271
 40
1.0
 40
1.0
 40
1.0
 40
1.0
 10
28.0321434457
 20
16.9921800664
 30
0.0
 10
27.9853027997
 20
16.9651372473
 30
0.0
 10
27.8820519226
 20
16.9222143705
 30
0.0
 10
27.711603905
 20
16.8972329713
 30
0.0
 10
27.5285728556
 20
16.9107196383
 30
0.0
 10
27.3370128993
 20
16.9615962819
 30
0.0
 10
27.1406965757
 20
17.0483648881
 30
0.0
 10
26.943535701
 20
17.1689966644
 30
0.0
 10
26.7494947518
 20
17.3208801018
 30
0.0
 10
26.4963051038
 20
17.5647886766
 30
0.0
 10
26.2149199207
 20
17.9251261104
 30
0.0
 10
25.9537323858
 20
18.4078140679
 30
0.0
 10
25.8091812836
 20
18.8351323693
 30
0.0
 10
25.7493457362
 20
19.1717061859
 30
0.0
 10
25.7386428167
 20
19.3344818278
 30
0.0
 10
25.7386428167
 20
19.4132800041
 30
0.0
  0
SPLINE
  5
434
100
AcDbEntity
  8
0
100
AcDbSpline
 62
7
  6
CONTINUOUS
 70
0
 71
3
 72
9
 73
5
 74
0
 42
0.0000001
 43
0.0000001
 44
0.0000000001
 40
0.0
 40
0.0
 40
0.0
 40
0.0
 40
0.2437349461
 40
1.0
 40
1.0
 40
1.0
 40
1.0
 10
24.7922551801
 20
33.799295047
 30
0.0
 10
24.7530072827
 20
33.8358615259
 30
0.0
 10
24.5955295017
 20
33.9896715592
 30
0.0
 10
24.4520437782
 20
34.1576477674
 30
0.0
 10
24.3516909363
 20
34.2904348785
 30
0.0
  0
SPLINE
  5
435
100
AcDbEntity
  8
0
100
AcDbSpline
 62
7
  6
CONTINUOUS
 70
0
 71
3
 72
11
 73
7
 74
0
 42
0.0000001
 43
0.0000001
 44
0.0000000001
 40
0.0
 40
0.0
 40
0.0
 40
0.0
 40
0.2177697141
 40
0.450893852
 40
0.71037994
 40
1.0
 40
1.0
 40
1.0
 40
1.0
 10
25.291036605
 20
46.7761078279
 30
0.0
 10
25.2910470989
 20
46.7532562641
 30
0.0
 10
25.2994454731
 20
46.7056204593
 30
0.0
 10
25.3355789621
 20
46.6392448238
 30
0.0
 10
25.3926774368
 20
46.5792680137
 30
0.0
 10
25.4404344447
 20
46.546356607
 30
0.0
 10
25.4667541012
 20
46.53116129
 30
0.0
  0
SPLINE
  5
436
100
AcDbEntity
  8
0
100
AcDbSpline
 62
7
  6
CONTINUOUS
 70
0
 71
3
 72
9
 73
5
 74
0
 42
0.0000001
 43
0.0000001
 44
0.0000000001
 40
0.0
 40
0.0
 40
0.0
 40
0.0
 40
0.2437349461
 40
1.0
 40
1.0
 40
1.0
 40
1.0
 10
24.7922551801
 20
37.947127326
 30
0.0
 10
24.7530072827
 20
37.9836938049
 30
0.0
 10
24.5955295017
 20
38.1375038382
 30
0.0
 10
24.4520437782
 20
38.3054800464
 30
0.0
 10
24.3516909363
 20
38.4382671575
 30
0.0
  0
SPLINE
  5
437
100
AcDbEntity
  8
0
100
AcDbSpline
 62
7
  6
CONTINUOUS
 70
0
 71
3
 72
12
 73
8
 74
0
 42
0.0000001
 43
0.0000001
 44
0.0000000001
 40
0.0
 40
0.0
 40
0.0
 40
0.0
 40
0.2895538654
 40
0.5486502155
 40
0.7816324496
 40
0.8918397358
 40
1.0
 40
1.0
 40
1.0
 40
1.0
 10
25.7386428167
 20
19.4132800041
 30
0.0
 10
25.7386428167
 20
19.5095738902
 30
0.0
 10
25.7532503481
 20
19.6926811073
 30
0.0
 10
25.8272546506
 20
19.9441305603
 30
0.0
 10
25.9336953893
 20
20.1175870051
 30
0.0
 10
26.0411059402
 20
20.223291434
 30
0.0
 10
26.1010117128
 20
20.2650785425
 30
0.0
 10
26.1321625906
 20
20.2830630842
 30
0.0
  0
SPLINE
  5
438
100
AcDbEntity
  8
0
100
AcDbSpline
 62
7
  6
CONTINUOUS
 70
0
 71
3
 72
12
 73
8
 74
0
 42
0.0000001
 43
0.0000001
 44
0.0000000001
 40
0.0
 40
0.0
 40
0.0
 40
0.0
 40
0.2895538654
 40
0.5486502155
 40
0.7816324496
 40
0.8918397358
 40
1.0
 40
1.0
 40
1.0
 40
1.0
 10
25.7386428167
 20
23.5611122832
 30
0.0
 10
25.7386428167
 20
23.6574061693
 30
0.0
 10
25.7532503481
 20
23.8405133864
 30
0.0
 10
25.8272546506
 20
24.0919628395
 30
0.0
 10
25.9336953893
 20
24.2654192842
 30
0.0
 10
26.0411059402
 20
24.3711237131
 30
0.0
 10
26.1010117128
 20
24.4129108216
 30
0.0
 10
26.1321625906
 20
24.4308953634
 30
0.0
  0
SPLINE
  5
439
100
AcDbEntity
  8
0
100
AcDbSpline
 62
7
  6
CONTINUOUS
 70
0
 71
3
 72
12
 73
8
 74
0
 42
0.0000001
 43
0.0000001
 44
0.0000000001
 40
0.0
 40
0.0
 40
0.0
 40
0.0
 40
0.2895538654
 40
0.5486502155
 40
0.7816324496
 40
0.8918397358
 40
1.0
 40
1.0
 40
1.0
 40
1.0
 10
25.7386428167
 20
27.7089445622
 30
0.0
 10
25.7386428167
 20
27.8052384483
 30
0.0
 10
25.7532503481
 20
27.9883456654
 30
0.0
 10
25.8272546506
 20
28.2397951185
 30
0.0
 10
25.9336953893
 20
28.4132515632
 30
0.0
 10
26.0411059402
 20
28.5189559921
 30
0.0
 10
26.1010117128
 20
28.5607431006
 30
0.0
 10
26.1321625906
 20
28.5787276424
 30
0.0
  0
SPLINE
  5
43A
100
AcDbEntity
  8
0
100
AcDbSpline
 62
7
  6
CONTINUOUS
 70
0
 71
3
 72
12
 73
8
 74
0
 42
0.0000001
 43
0.0000001
 44
0.0000000001
 40
0.0
 40
0.0
 40
0.0
 40
0.0
 40
0.2895538654
 40
0.5486502155
 40
0.7816324496
 40
0.8918397358
 40
1.0
 40
1.0
 40
1.0
 40
1.0
 10
25.7386428167
 20
31.8567768413
 30
0.0
 10
25.7386428167
 20
31.9530707274
 30
0.0
 10
25.7532503481
 20
32.1361779445
 30
0.0
 10
25.8272546506
 20
32.3876273976
 30
0.0
 10
25.9336953893
 20
32.5610838423
 30
0.0
 10
26.0411059402
 20
32.6667882712
 30
0.0
 10
26.1010117128
 20
32.7085753797
 30
0.0
 10
26.1321625906
 20
32.7265599215
 30
0.0
  0
SPLINE
  5
43B
100
AcDbEntity
  8
0
100
AcDbSpline
 62
7
  6
CONTINUOUS
 70
0
 71
3
 72
11
 73
7
 74
0
 42
0.0000001
 43
0.0000001
 44
0.0000000001
 40
0.0
 40
0.0
 40
0.0
 40
0.0
 40
0.2177817009
 40
0.4509079353
 40
0.7102947134
 40
1.0
 40
1.0
 40
1.0
 40
1.0
 10
22.9788203061
 20
51.4586005369
 30
0.0
 10
22.9788203104
 20
51.4357474886
 30
0.0
 10
22.9872656435
 20
51.3881145023
 30
0.0
 10
23.0233763818
 20
51.3217465114
 30
0.0
 10
23.0804623247
 20
51.2617525709
 30
0.0
 10
23.1282273499
 20
51.2288539822
 30
0.0
 10
23.1545550099
 20
51.2136540445
 30
0.0
  0
SPLINE
  5
43C
100
AcDbEntity
  8
0
100
AcDbSpline
 62
7
  6
CONTINUOUS
 70
0
 71
3
 72
12
 73
8
 74
0
 42
0.0000001
 43
0.0000001
 44
0.0000000001
 40
0.0
 40
0.0
 40
0.0
 40
0.0
 40
0.2895538654
 40
0.5486502155
 40
0.7816324496
 40
0.8918397358
 40
1.0
 40
1.0
 40
1.0
 40
1.0
 10
25.7386428167
 20
36.0046091204
 30
0.0
 10
25.7386428167
 20
36.1009030065
 30
0.0
 10
25.7532503481
 20
36.2840102236
 30
0.0
 10
25.8272546506
 20
36.5354596767
 30
0.0
 10
25.9336953893
 20
36.7089161214
 30
0.0
 10
26.0411059402
 20
36.8146205503
 30
0.0
 10
26.1010117128
 20
36.8564076588
 30
0.0
 10
26.1321625906
 20
36.8743922006
 30
0.0
  0
SPLINE
  5
43D
100
AcDbEntity
  8
0
100
AcDbSpline
 62
7
  6
CONTINUOUS
 70
0
 71
3
 72
12
 73
8
 74
0
 42
0.0000001
 43
0.0000001
 44
0.0000000001
 40
0.0
 40
0.0
 40
0.0
 40
0.0
 40
0.2895538654
 40
0.5486502155
 40
0.7816324496
 40
0.8918397358
 40
1.0
 40
1.0
 40
1.0
 40
1.0
 10
25.7386428167
 20
40.1524413995
 30
0.0
 10
25.7386428167
 20
40.2487352856
 30
0.0
 10
25.7532503481
 20
40.4318425027
 30
0.0
 10
25.8272546506
 20
40.6832919558
 30
0.0
 10
25.9336953893
 20
40.8567484005
 30
0.0
 10
26.0411059402
 20
40.9624528294
 30
0.0
 10
26.1010117128
 20
41.0042399379
 30
0.0
 10
26.1321625906
 20
41.0222244797
 30
0.0
  0
SPLINE
  5
43E
100
AcDbEntity
  8
0
100
AcDbSpline
 62
7
  6
CONTINUOUS
 70
0
 71
3
 72
20
 73
16
 74
0
 42
0.0000001
 43
0.0000001
 44
0.0000000001
 40
0.0
 40
0.0
 40
0.0
 40
0.0
 40
0.0428308024
 40
0.087431891
 40
0.1352357998
 40
0.1871659732
 40
0.2436370295
 40
0.3046203051
 40
0.3697441964
 40
0.4383815868
 40
0.5826331819
 40
0.7296943463
 40
0.871190741
 40
0.937600271
 40
1.0
 40
1.0
 40
1.0
 40
1.0
 10
28.0321434457
 20
29.4356769036
 30
0.0
 10
27.9853027997
 20
29.4086340845
 30
0.0
 10
27.8820519226
 20
29.3657112077
 30
0.0
 10
27.711603905
 20
29.3407298085
 30
0.0
 10
27.5285728556
 20
29.3542164756
 30
0.0
 10
27.3370128993
 20
29.4050931191
 30
0.0
 10
27.1406965757
 20
29.4918617254
 30
0.0
 10
26.943535701
 20
29.6124935016
 30
0.0
 10
26.7494947518
 20
29.7643769391
 30
0.0
 10
26.4963051038
 20
30.0082855138
 30
0.0
 10
26.2149199207
 20
30.3686229476
 30
0.0
 10
25.9537323858
 20
30.8513109052
 30
0.0
 10
25.8091812836
 20
31.2786292065
 30
0.0
 10
25.7493457362
 20
31.6152030231
 30
0.0
 10
25.7386428167
 20
31.777978665
 30
0.0
 10
25.7386428167
 20
31.8567768413
 30
0.0
  0
SPLINE
  5
43F
100
AcDbEntity
  8
0
100
AcDbSpline
 62
7
  6
CONTINUOUS
 70
0
 71
3
 72
12
 73
8
 74
0
 42
0.0000001
 43
0.0000001
 44
0.0000000001
 40
0.0
 40
0.0
 40
0.0
 40
0.0
 40
0.2895538654
 40
0.5486502155
 40
0.7816324496
 40
0.8918397358
 40
1.0
 40
1.0
 40
1.0
 40
1.0
 10
25.7386428167
 20
44.2186234371
 30
0.0
 10
25.7386428167
 20
44.3149173233
 30
0.0
 10
25.7532503481
 20
44.4980245403
 30
0.0
 10
25.8272546506
 20
44.7494739934
 30
0.0
 10
25.9336953893
 20
44.9229304381
 30
0.0
 10
26.0411059402
 20
45.028634867
 30
0.0
 10
26.1010117128
 20
45.0704219756
 30
0.0
 10
26.1321625906
 20
45.0884065173
 30
0.0
  0
SPLINE
  5
440
100
AcDbEntity
  8
0
100
AcDbSpline
 62
7
  6
CONTINUOUS
 70
0
 71
3
 72
9
 73
5
 74
0
 42
0.0000001
 43
0.0000001
 44
0.0000000001
 40
0.0
 40
0.0
 40
0.0
 40
0.0
 40
0.2422643276
 40
1.0
 40
1.0
 40
1.0
 40
1.0
 10
24.8672379272
 20
46.09335624
 30
0.0
 10
24.8210193543
 20
46.1338755857
 30
0.0
 10
24.6349850875
 20
46.3065013685
 30
0.0
 10
24.4676015354
 20
46.4989083025
 30
0.0
 10
24.3516909363
 20
46.6522814738
 30
0.0
  0
SPLINE
  5
441
100
AcDbEntity
  8
0
100
AcDbSpline
 62
7
  6
CONTINUOUS
 70
0
 71
3
 72
11
 73
7
 74
0
 42
0.0000001
 43
0.0000001
 44
0.0000000001
 40
0.0
 40
0.0
 40
0.0
 40
0.0
 40
0.2367285468
 40
0.4989100111
 40
0.7616834297
 40
1.0
 40
1.0
 40
1.0
 40
1.0
 10
17.8190471136
 20
104.6072207191
 30
0.0
 10
17.8190471136
 20
104.6759518753
 30
0.0
 10
17.8445471352
 20
104.8209020496
 30
0.0
 10
17.9336723229
 20
105.0250480066
 30
0.0
 10
18.0644124011
 20
105.2059690147
 30
0.0
 10
18.1765078318
 20
105.302229179
 30
0.0
 10
18.2359050177
 20
105.3377191416
 30
0.0
  0
SPLINE
  5
442
100
AcDbEntity
  8
0
100
AcDbSpline
 62
7
  6
CONTINUOUS
 70
0
 71
3
 72
9
 73
5
 74
0
 42
0.0000001
 43
0.0000001
 44
0.0000000001
 40
0.0
 40
0.0
 40
0.0
 40
0.0
 40
0.2414052662
 40
1.0
 40
1.0
 40
1.0
 40
1.0
 10
82.178010724
 20
88.5185841876
 30
0.0
 10
82.1828980366
 20
88.520349786
 30
0.0
 10
82.2029630336
 20
88.5281587148
 30
0.0
 10
82.2222801857
 20
88.5378456408
 30
0.0
 10
82.2364218877
 20
88.5460103075
 30
0.0
  0
SPLINE
  5
443
100
AcDbEntity
  8
0
100
AcDbSpline
 62
7
  6
CONTINUOUS
 70
0
 71
3
 72
11
 73
7
 74
0
 42
0.0000001
 43
0.0000001
 44
0.0000000001
 40
0.0
 40
0.0
 40
0.0
 40
0.0
 40
0.2177231375
 40
0.4508717887
 40
0.7104673698
 40
1.0
 40
1.0
 40
1.0
 40
1.0
 10
64.6235286347
 20
96.2925530534
 30
0.0
 10
64.5811550539
 20
96.3170147253
 30
0.0
 10
64.5018055072
 20
96.3836024204
 30
0.0
 10
64.4173655547
 20
96.5216970155
 30
0.0
 10
64.3673161199
 20
96.6918421346
 30
0.0
 10
64.3573799255
 20
96.8156537543
 30
0.0
 10
64.3573799255
 20
96.8807184445
 30
0.0
  0
SPLINE
  5
444
100
AcDbEntity
  8
0
100
AcDbSpline
 62
7
  6
CONTINUOUS
 70
0
 71
3
 72
11
 73
7
 74
0
 42
0.0000001
 43
0.0000001
 44
0.0000000001
 40
0.0
 40
0.0
 40
0.0
 40
0.0
 40
0.2177505635
 40
0.4508989791
 40
0.7104722024
 40
1.0
 40
1.0
 40
1.0
 40
1.0
 10
64.6235309211
 20
29.3393589688
 30
0.0
 10
64.5811521807
 20
29.3638241389
 30
0.0
 10
64.5017910068
 20
29.4304089656
 30
0.0
 10
64.417362058
 20
29.5685130815
 30
0.0
 10
64.3673102673
 20
29.7386498831
 30
0.0
 10
64.3573799258
 20
29.8624565639
 30
0.0
 10
64.3573799258
 20
29.9275202401
 30
0.0
  0
SPLINE
  5
445
100
AcDbEntity
  8
0
100
AcDbSpline
 62
7
  6
CONTINUOUS
 70
0
 71
3
 72
11
 73
7
 74
0
 42
0.0000001
 43
0.0000001
 44
0.0000000001
 40
0.0
 40
0.0
 40
0.0
 40
0.0
 40
0.2177833598
 40
0.4509104088
 40
0.7102966711
 40
1.0
 40
1.0
 40
1.0
 40
1.0
 10
16.8494130377
 20
101.5341390474
 30
0.0
 10
16.7504532607
 20
101.4770049168
 30
0.0
 10
16.5653035852
 20
101.3213499541
 30
0.0
 10
16.3681898119
 20
100.9990599595
 30
0.0
 10
16.2511158224
 20
100.6018788682
 30
0.0
 10
16.2280696622
 20
100.3127986197
 30
0.0
 10
16.2280696622
 20
100.1607941866
 30
0.0
  0
SPLINE
  5
446
100
AcDbEntity
  8
0
100
AcDbSpline
 62
7
  6
CONTINUOUS
 70
0
 71
3
 72
11
 73
7
 74
0
 42
0.0000001
 43
0.0000001
 44
0.0000000001
 40
0.0
 40
0.0
 40
0.0
 40
0.0
 40
0.2177231375
 40
0.4508717887
 40
0.7104673698
 40
1.0
 40
1.0
 40
1.0
 40
1.0
 10
91.5109284572
 20
111.8360628086
 30
0.0
 10
91.4697061375
 20
111.8598598736
 30
0.0
 10
91.3925124638
 20
111.9246384265
 30
0.0
 10
91.3103666871
 20
112.0589810858
 30
0.0
 10
91.2616770612
 20
112.2245034783
 30
0.0
 10
91.2520108264
 20
112.344951221
 30
0.0
 10
91.2520108264
 20
112.4082481481
 30
0.0
  0
SPLINE
  5
447
100
AcDbEntity
  8
0
100
AcDbSpline
 62
7
  6
CONTINUOUS
 70
0
 71
3
 72
11
 73
7
 74
0
 42
0.0000001
 43
0.0000001
 44
0.0000000001
 40
0.0
 40
0.0
 40
0.0
 40
0.0
 40
0.2177669599
 40
0.450898211
 40
0.7103709681
 40
1.0
 40
1.0
 40
1.0
 40
1.0
 10
77.7526070542
 20
130.5232963119
 30
0.0
 10
77.8268360847
 20
130.5661129048
 30
0.0
 10
77.9973022451
 20
130.6281209191
 30
0.0
 10
78.2806027704
 20
130.6352368551
 30
0.0
 10
78.5824547979
 20
130.562289302
 30
0.0
 10
78.7788765202
 20
130.468891971
 30
0.0
 10
78.8775785661
 20
130.4119076074
 30
0.0
  0
SPLINE
  5
448
100
AcDbEntity
  8
0
100
AcDbSpline
 62
7
  6
CONTINUOUS
 70
0
 71
3
 72
9
 73
5
 74
0
 42
0.0000001
 43
0.0000001
 44
0.0000000001
 40
0.0
 40
0.0
 40
0.0
 40
0.0
 40
0.4833989262
 40
1.0
 40
1.0
 40
1.0
 40
1.0
 10
76.6347620456
 20
132.8886456887
 30
0.0
 10
76.6149174771
 20
132.877224149
 30
0.0
 10
76.5777220563
 20
132.8462969762
 30
0.0
 10
76.5525438594
 20
132.8051944083
 30
0.0
 10
76.5427178346
 20
132.7827846314
 30
0.0
  0
SPLINE
  5
449
100
AcDbEntity
  8
0
100
AcDbSpline
 62
7
  6
CONTINUOUS
 70
0
 71
3
 72
9
 73
5
 74
0
 42
0.0000001
 43
0.0000001
 44
0.0000000001
 40
0.0
 40
0.0
 40
0.0
 40
0.0
 40
0.46441261
 40
1.0
 40
1.0
 40
1.0
 40
1.0
 10
78.7560735573
 20
134.1133781503
 30
0.0
 10
78.7872142817
 20
134.1313011915
 30
0.0
 10
78.8660358157
 20
134.150823422
 30
0.0
 10
78.9435612503
 20
134.1333019
 30
0.0
 10
78.9823758872
 20
134.1187956381
 30
0.0
  0
SPLINE
  5
44A
100
AcDbEntity
  8
0
100
AcDbSpline
 62
7
  6
CONTINUOUS
 70
0
 71
3
 72
11
 73
7
 74
0
 42
0.0000001
 43
0.0000001
 44
0.0000000001
 40
0.0
 40
0.0
 40
0.0
 40
0.0
 40
0.2177231375
 40
0.4508717887
 40
0.7104673698
 40
1.0
 40
1.0
 40
1.0
 40
1.0
 10
91.5109284572
 20
44.882864604
 30
0.0
 10
91.4697061375
 20
44.9066616689
 30
0.0
 10
91.3925124638
 20
44.9714402219
 30
0.0
 10
91.3103666871
 20
45.1057828812
 30
0.0
 10
91.2616770612
 20
45.2713052737
 30
0.0
 10
91.2520108264
 20
45.3917530164
 30
0.0
 10
91.2520108264
 20
45.4550499434
 30
0.0
  0
SPLINE
  5
44B
100
AcDbEntity
  8
0
100
AcDbSpline
 62
7
  6
CONTINUOUS
 70
0
 71
3
 72
16
 73
12
 74
0
 42
0.0000001
 43
0.0000001
 44
0.0000000001
 40
0.0
 40
0.0
 40
0.0
 40
0.0
 40
0.1287426802
 40
0.2704244162
 40
0.4176433442
 40
0.5620439557
 40
0.6957561457
 40
0.8130635989
 40
0.9124674061
 40
0.9571185644
 40
1.0
 40
1.0
 40
1.0
 40
1.0
 10
64.3573799258
 20
29.9275202401
 30
0.0
 10
64.3573799258
 20
30.0373446449
 30
0.0
 10
64.3881303579
 20
30.2682902454
 30
0.0
 10
64.502771894
 20
30.6073887849
 30
0.0
 10
64.6795708141
 20
30.9340166178
 30
0.0
 10
64.9039656394
 20
31.2213953102
 30
0.0
 10
65.1583701164
 20
31.4463986118
 30
0.0
 10
65.4230304561
 20
31.591585346
 30
0.0
 10
65.6476941569
 20
31.635419514
 30
0.0
 10
65.8068727396
 20
31.6121733005
 30
0.0
 10
65.8766794149
 20
31.5830858667
 30
0.0
 10
65.9083602274
 20
31.5647983191
 30
0.0
  0
SPLINE
  5
44C
100
AcDbEntity
  8
0
100
AcDbSpline
 62
7
  6
CONTINUOUS
 70
0
 71
3
 72
16
 73
12
 74
0
 42
0.0000001
 43
0.0000001
 44
0.0000000001
 40
0.0
 40
0.0
 40
0.0
 40
0.0
 40
0.1287410646
 40
0.2704217334
 40
0.4176260079
 40
0.5620272452
 40
0.6957527047
 40
0.8130676178
 40
0.9124709781
 40
0.9571206991
 40
1.0
 40
1.0
 40
1.0
 40
1.0
 10
64.3573799255
 20
96.8807184445
 30
0.0
 10
64.3573799255
 20
96.9905414813
 30
0.0
 10
64.388128865
 20
97.2214850946
 30
0.0
 10
64.5027677235
 20
97.5605686251
 30
0.0
 10
64.6795504789
 20
97.8871900873
 30
0.0
 10
64.9039430952
 20
98.1745702423
 30
0.0
 10
65.1583586581
 20
98.399588603
 30
0.0
 10
65.4230342734
 20
98.5447851951
 30
0.0
 10
65.6477032395
 20
98.5886172444
 30
0.0
 10
65.8068782118
 20
98.5653717603
 30
0.0
 10
65.8766823245
 20
98.5362855768
 30
0.0
 10
65.9083609828
 20
98.5179979331
 30
0.0
  0
SPLINE
  5
44D
100
AcDbEntity
  8
0
100
AcDbSpline
 62
7
  6
CONTINUOUS
 70
0
 71
3
 72
16
 73
12
 74
0
 42
0.0000001
 43
0.0000001
 44
0.0000000001
 40
0.0
 40
0.0
 40
0.0
 40
0.0
 40
0.1287410646
 40
0.2704217334
 40
0.4176260079
 40
0.5620272452
 40
0.6957527047
 40
0.8130676178
 40
0.9124709781
 40
0.9571206991
 40
1.0
 40
1.0
 40
1.0
 40
1.0
 10
91.2520108264
 20
112.4082481481
 30
0.0
 10
91.2520108264
 20
112.515087368
 30
0.0
 10
91.2819243382
 20
112.7397564012
 30
0.0
 10
91.3934485373
 20
113.069627264
 30
0.0
 10
91.5654282262
 20
113.3873746443
 30
0.0
 10
91.7837242484
 20
113.666946877
 30
0.0
 10
92.0312275144
 20
113.8858516426
 30
0.0
 10
92.2887120742
 20
114.0271033426
 30
0.0
 10
92.507276938
 20
114.0697445051
 30
0.0
 10
92.6621272352
 20
114.0471305849
 30
0.0
 10
92.7300348179
 20
114.0188346531
 30
0.0
 10
92.7608527887
 20
114.0010438722
 30
0.0
  0
SPLINE
  5
44E
100
AcDbEntity
  8
0
100
AcDbSpline
 62
7
  6
CONTINUOUS
 70
0
 71
3
 72
16
 73
12
 74
0
 42
0.0000001
 43
0.0000001
 44
0.0000000001
 40
0.0
 40
0.0
 40
0.0
 40
0.0
 40
0.1287410646
 40
0.2704217334
 40
0.4176260079
 40
0.5620272452
 40
0.6957527047
 40
0.8130676178
 40
0.9124709781
 40
0.9571206991
 40
1.0
 40
1.0
 40
1.0
 40
1.0
 10
91.2520108264
 20
45.4550499434
 30
0.0
 10
91.2520108264
 20
45.5618891634
 30
0.0
 10
91.2819243382
 20
45.7865581965
 30
0.0
 10
91.3934485373
 20
46.1164290593
 30
0.0
 10
91.5654282262
 20
46.4341764397
 30
0.0
 10
91.7837242484
 20
46.7137486723
 30
0.0
 10
92.0312275144
 20
46.932653438
 30
0.0
 10
92.2887120742
 20
47.073905138
 30
0.0
 10
92.507276938
 20
47.1165463005
 30
0.0
 10
92.6621272352
 20
47.0939323803
 30
0.0
 10
92.7300348179
 20
47.0656364484
 30
0.0
 10
92.7608527887
 20
47.0478456676
 30
0.0
  0
SPLINE
  5
44F
100
AcDbEntity
  8
0
100
AcDbSpline
 62
7
  6
CONTINUOUS
 70
0
 71
3
 72
11
 73
7
 74
0
 42
0.0000001
 43
0.0000001
 44
0.0000000001
 40
0.0
 40
0.0
 40
0.0
 40
0.0
 40
0.289702329
 40
0.5490881649
 40
0.7822156414
 40
1.0
 40
1.0
 40
1.0
 40
1.0
 10
29.3095995795
 20
75.7883904342
 30
0.0
 10
29.4412360515
 20
75.712391801
 30
0.0
 10
29.7031034413
 20
75.5878163499
 30
0.0
 10
30.1055988301
 20
75.4906209252
 30
0.0
 10
30.4832572552
 20
75.5001831683
 30
0.0
 10
30.7106277916
 20
75.5826976967
 30
0.0
 10
30.8095853773
 20
75.6398305621
 30
0.0
  0
SPLINE
  5
450
100
AcDbEntity
  8
0
100
AcDbSpline
 62
7
  6
CONTINUOUS
 70
0
 71
3
 72
15
 73
11
 74
0
 42
0.0000001
 43
0.0000001
 44
0.0000000001
 40
0.0
 40
0.0
 40
0.0
 40
0.0
 40
0.1141241597
 40
0.2373483675
 40
0.3669736385
 40
0.5000010132
 40
0.6330282464
 40
0.7626531027
 40
0.8858766831
 40
1.0
 40
1.0
 40
1.0
 40
1.0
 10
16.2280696622
 20
85.7903516451
 30
0.0
 10
16.2280696622
 20
85.6227102352
 30
0.0
 10
16.2588509537
 20
85.2737429589
 30
0.0
 10
16.3811972052
 20
84.7473044652
 30
0.0
 10
16.5774256013
 20
84.2140609275
 30
0.0
 10
16.8398795401
 20
83.6940838135
 30
0.0
 10
17.1589678818
 20
83.2068054612
 30
0.0
 10
17.5226572738
 20
82.7702481061
 30
0.0
 10
17.9173935984
 20
82.4010782862
 30
0.0
 10
18.2042173668
 20
82.1999407955
 30
0.0
 10
18.3493988355
 20
82.1161221317
 30
0.0
  0
SPLINE
  5
451
100
AcDbEntity
  8
0
100
AcDbSpline
 62
7
  6
CONTINUOUS
 70
0
 71
3
 72
10
 73
6
 74
0
 42
0.0000001
 43
0.0000001
 44
0.0000000001
 40
0.0
 40
0.0
 40
0.0
 40
0.0
 40
0.4901447369
 40
0.7483148445
 40
1.0
 40
1.0
 40
1.0
 40
1.0
 10
83.0154042683
 20
131.7903782925
 30
0.0
 10
83.0903726276
 20
131.7318323014
 30
0.0
 10
83.1882305882
 20
131.6201413792
 30
0.0
 10
83.2838537868
 20
131.4510765793
 30
0.0
 10
83.3200994282
 20
131.3584101376
 30
0.0
 10
83.3337508091
 20
131.3115131413
 30
0.0
  0
SPLINE
  5
452
100
AcDbEntity
  8
0
100
AcDbSpline
 62
7
  6
CONTINUOUS
 70
0
 71
3
 72
17
 73
13
 74
0
 42
0.0000001
 43
0.0000001
 44
0.0000000001
 40
0.0
 40
0.0
 40
0.0
 40
0.0
 40
0.1286880245
 40
0.270278509
 40
0.4174305517
 40
0.5617723386
 40
0.6954448884
 40
0.8127093339
 40
0.8646747764
 40
0.9125085238
 40
0.9571389706
 40
1.0
 40
1.0
 40
1.0
 40
1.0
 10
78.8775785661
 20
130.4119076074
 30
0.0
 10
79.0441323425
 20
130.3157499151
 30
0.0
 10
79.3674351706
 20
130.066965962
 30
0.0
 10
79.7812301779
 20
129.5961921701
 30
0.0
 10
80.1218408427
 20
129.0422271264
 30
0.0
 10
80.3610995296
 20
128.4500728365
 30
0.0
 10
80.479862117
 20
127.8678743296
 30
0.0
 10
80.4692098793
 20
127.4091168306
 30
0.0
 10
80.3842852318
 20
127.0944745701
 30
0.0
 10
80.2897261046
 20
126.8987714793
 30
0.0
 10
80.1631860412
 20
126.7387619297
 30
0.0
 10
80.0580352179
 20
126.6582628174
 30
0.0
 10
80.002550078
 20
126.6262580259
 30
0.0
  0
SPLINE
  5
453
100
AcDbEntity
  8
0
100
AcDbSpline
 62
7
  6
CONTINUOUS
 70
0
 71
3
 72
11
 73
7
 74
0
 42
0.0000001
 43
0.0000001
 44
0.0000000001
 40
0.0
 40
0.0
 40
0.0
 40
0.0
 40
0.2177231375
 40
0.4508717887
 40
0.7104673698
 40
1.0
 40
1.0
 40
1.0
 40
1.0
 10
92.7608527887
 20
47.0478456676
 30
0.0
 10
92.8020751083
 20
47.0240486026
 30
0.0
 10
92.879268782
 20
46.9592700497
 30
0.0
 10
92.9614145588
 20
46.8249273904
 30
0.0
 10
93.0101041846
 20
46.6594049979
 30
0.0
 10
93.0197704194
 20
46.5389572552
 30
0.0
 10
93.0197704194
 20
46.4756603281
 30
0.0
  0
SPLINE
  5
454
100
AcDbEntity
  8
0
100
AcDbSpline
 62
7
  6
CONTINUOUS
 70
0
 71
3
 72
11
 73
7
 74
0
 42
0.0000001
 43
0.0000001
 44
0.0000000001
 40
0.0
 40
0.0
 40
0.0
 40
0.0
 40
0.2897033281
 40
0.5490895198
 40
0.7822165953
 40
1.0
 40
1.0
 40
1.0
 40
1.0
 10
33.7643714156
 20
78.3603811307
 30
0.0
 10
33.7643714156
 20
78.2083766975
 30
0.0
 10
33.7413253072
 20
77.9192964815
 30
0.0
 10
33.6242512879
 20
77.5221154136
 30
0.0
 10
33.4271375214
 20
77.1998254381
 30
0.0
 10
33.2419878644
 20
77.0441703664
 30
0.0
 10
33.1430280401
 20
76.9870362699
 30
0.0
  0
SPLINE
  5
455
100
AcDbEntity
  8
0
100
AcDbSpline
 62
7
  6
CONTINUOUS
 70
0
 71
3
 72
15
 73
11
 74
0
 42
0.0000001
 43
0.0000001
 44
0.0000000001
 40
0.0
 40
0.0
 40
0.0
 40
0.0
 40
0.1141232787
 40
0.2373467935
 40
0.3669716251
 40
0.4999988493
 40
0.6330262331
 40
0.7626515288
 40
0.885875802
 40
1.0
 40
1.0
 40
1.0
 40
1.0
 10
31.6430422402
 20
96.4050531871
 30
0.0
 10
31.7882236602
 20
96.3212345514
 30
0.0
 10
32.0750473336
 20
96.120097192
 30
0.0
 10
32.4697835164
 20
95.7509274949
 30
0.0
 10
32.8334728646
 20
95.3143702967
 30
0.0
 10
33.1525612446
 20
94.8270920114
 30
0.0
 10
33.4150152608
 20
94.3071148965
 30
0.0
 10
33.6112437711
 20
93.7738712417
 30
0.0
 10
33.733590058
 20
93.2474325631
 30
0.0
 10
33.7643714156
 20
92.8984651384
 30
0.0
 10
33.7643714156
 20
92.7308236722
 30
0.0
  0
SPLINE
  5
456
100
AcDbEntity
  8
0
100
AcDbSpline
 62
7
  6
CONTINUOUS
 70
0
 71
3
 72
11
 73
7
 74
0
 42
0.0000001
 43
0.0000001
 44
0.0000000001
 40
0.0
 40
0.0
 40
0.0
 40
0.0
 40
0.2177231993
 40
0.4508753011
 40
0.7104743705
 40
1.0
 40
1.0
 40
1.0
 40
1.0
 10
65.9083602274
 20
31.5647983191
 30
0.0
 10
65.9507345407
 20
31.5403380163
 30
0.0
 10
66.0300838188
 20
31.4737484789
 30
0.0
 10
66.1145254529
 20
31.3356535299
 30
0.0
 10
66.1645723716
 20
31.1655077411
 30
0.0
 10
66.1745096917
 20
31.0416973691
 30
0.0
 10
66.1745096917
 20
30.9766343372
 30
0.0
  0
SPLINE
  5
457
100
AcDbEntity
  8
0
100
AcDbSpline
 62
7
  6
CONTINUOUS
 70
0
 71
3
 72
11
 73
7
 74
0
 42
0.0000001
 43
0.0000001
 44
0.0000000001
 40
0.0
 40
0.0
 40
0.0
 40
0.0
 40
0.2177833598
 40
0.4509104088
 40
0.7102966711
 40
1.0
 40
1.0
 40
1.0
 40
1.0
 10
30.8095853773
 20
75.6398305621
 30
0.0
 10
30.9085451543
 20
75.6969646927
 30
0.0
 10
31.0936948297
 20
75.8526196555
 30
0.0
 10
31.2908086031
 20
76.1749096501
 30
0.0
 10
31.4078825926
 20
76.5720907413
 30
0.0
 10
31.4309287528
 20
76.8611709898
 30
0.0
 10
31.4309287528
 20
77.0131754229
 30
0.0
  0
SPLINE
  5
458
100
AcDbEntity
  8
0
100
AcDbSpline
 62
7
  6
CONTINUOUS
 70
0
 71
3
 72
10
 73
6
 74
0
 42
0.0000001
 43
0.0000001
 44
0.0000000001
 40
0.0
 40
0.0
 40
0.0
 40
0.0
 40
0.2770344517
 40
0.6883068258
 40
1.0
 40
1.0
 40
1.0
 40
1.0
 10
84.5804843553
 20
104.633165189
 30
0.0
 10
84.6196634572
 20
104.6105456357
 30
0.0
 10
84.7176281559
 20
104.5554268815
 30
0.0
 10
84.8580051887
 20
104.4719692465
 30
0.0
 10
84.9606683393
 20
104.4136658608
 30
0.0
 10
85.0047484246
 20
104.388215484
 30
0.0
  0
SPLINE
  5
459
100
AcDbEntity
  8
0
100
AcDbSpline
 62
7
  6
CONTINUOUS
 70
0
 71
3
 72
11
 73
7
 74
0
 42
0.0000001
 43
0.0000001
 44
0.0000000001
 40
0.0
 40
0.0
 40
0.0
 40
0.0
 40
0.1950528943
 40
0.5780213258
 40
0.7961460464
 40
1.0
 40
1.0
 40
1.0
 40
1.0
 10
86.3270326002
 20
105.1516320518
 30
0.0
 10
86.2994479669
 20
105.1675585026
 30
0.0
 10
86.2173703964
 20
105.2141769683
 30
0.0
 10
86.1052488306
 20
105.2799961513
 30
0.0
 10
85.991660307
 20
105.3461531528
 30
0.0
 10
85.9315981911
 20
105.3799373219
 30
0.0
 10
85.9027685315
 20
105.3965817571
 30
0.0
  0
SPLINE
  5
45A
100
AcDbEntity
  8
0
100
AcDbSpline
 62
7
  6
CONTINUOUS
 70
0
 71
3
 72
11
 73
7
 74
0
 42
0.0000001
 43
0.0000001
 44
0.0000000001
 40
0.0
 40
0.0
 40
0.0
 40
0.0
 40
0.2371406221
 40
0.4997837169
 40
0.7625434961
 40
1.0
 40
1.0
 40
1.0
 40
1.0
 10
66.8256555186
 20
131.8634954037
 30
0.0
 10
66.8957672222
 20
131.9039741731
 30
0.0
 10
67.0587800263
 20
131.9630921683
 30
0.0
 10
67.3194735892
 20
131.9915888517
 30
0.0
 10
67.5803289334
 20
131.9635769467
 30
0.0
 10
67.7436039321
 20
131.9047913063
 30
0.0
 10
67.8139303463
 20
131.864469479
 30
0.0
  0
SPLINE
  5
45B
100
AcDbEntity
  8
0
100
AcDbSpline
 62
7
  6
CONTINUOUS
 70
0
 71
3
 72
11
 73
7
 74
0
 42
0.0000001
 43
0.0000001
 44
0.0000000001
 40
0.0
 40
0.0
 40
0.0
 40
0.0
 40
0.2177843137
 40
0.4509117637
 40
0.7102976701
 40
1.0
 40
1.0
 40
1.0
 40
1.0
 10
19.1828557005
 20
102.8813447552
 30
0.0
 10
19.2818132922
 20
102.9384775626
 30
0.0
 10
19.5091837439
 20
103.0209921617
 30
0.0
 10
19.8868421894
 20
103.0305544007
 30
0.0
 10
20.2893375841
 20
102.9333589383
 30
0.0
 10
20.5512050282
 20
102.8087835155
 30
0.0
 10
20.6828415004
 20
102.7327848822
 30
0.0
  0
SPLINE
  5
45C
100
AcDbEntity
  8
0
100
AcDbSpline
 62
7
  6
CONTINUOUS
 70
0
 71
3
 72
11
 73
7
 74
0
 42
0.0000001
 43
0.0000001
 44
0.0000000001
 40
0.0
 40
0.0
 40
0.0
 40
0.0
 40
0.2177231375
 40
0.4508717887
 40
0.7104673698
 40
1.0
 40
1.0
 40
1.0
 40
1.0
 10
65.9083609828
 20
98.5179979331
 30
0.0
 10
65.9507345637
 20
98.4935362613
 30
0.0
 10
66.0300841104
 20
98.4269485661
 30
0.0
 10
66.1145240629
 20
98.2888539711
 30
0.0
 10
66.1645734977
 20
98.118708852
 30
0.0
 10
66.1745096921
 20
97.9948972323
 30
0.0
 10
66.1745096921
 20
97.9298325421
 30
0.0
  0
SPLINE
  5
45D
100
AcDbEntity
  8
0
100
AcDbSpline
 62
7
  6
CONTINUOUS
 70
0
 71
3
 72
11
 73
7
 74
0
 42
0.0000001
 43
0.0000001
 44
0.0000000001
 40
0.0
 40
0.0
 40
0.0
 40
0.0
 40
0.1950529534
 40
0.5780214147
 40
0.7961460471
 40
1.0
 40
1.0
 40
1.0
 40
1.0
 10
86.3270326002
 20
105.7068536954
 30
0.0
 10
86.2994479589
 20
105.7227801509
 30
0.0
 10
86.2180369461
 20
105.7705531357
 30
0.0
 10
86.1049754614
 20
105.834744354
 30
0.0
 10
85.9908875393
 20
105.9000363363
 30
0.0
 10
85.9315981907
 20
105.9351589657
 30
0.0
 10
85.9027685315
 20
105.9518034007
 30
0.0
  0
SPLINE
  5
45E
100
AcDbEntity
  8
0
100
AcDbSpline
 62
7
  6
CONTINUOUS
 70
0
 71
3
 72
16
 73
12
 74
0
 42
0.0000001
 43
0.0000001
 44
0.0000000001
 40
0.0
 40
0.0
 40
0.0
 40
0.0
 40
0.1287384341
 40
0.2704126171
 40
0.4176117646
 40
0.5620104189
 40
0.6957362742
 40
0.8130529929
 40
0.9124610459
 40
0.9571149178
 40
1.0
 40
1.0
 40
1.0
 40
1.0
 10
66.1745096917
 20
30.9766343372
 30
0.0
 10
66.1745096917
 20
30.8668135308
 30
0.0
 10
66.1437628563
 20
30.6358775853
 30
0.0
 10
66.0291302032
 20
30.2968049821
 30
0.0
 10
65.8523588864
 20
29.9701912313
 30
0.0
 10
65.6279749966
 20
29.6828122483
 30
0.0
 10
65.3735655159
 20
29.4577877108
 30
0.0
 10
65.1088893694
 20
29.3125800066
 30
0.0
 10
64.8842139501
 20
29.2687360025
 30
0.0
 10
64.7250245566
 20
29.2919756244
 30
0.0
 10
64.6552136863
 20
29.3210685659
 30
0.0
 10
64.6235309211
 20
29.3393589688
 30
0.0
  0
SPLINE
  5
45F
100
AcDbEntity
  8
0
100
AcDbSpline
 62
7
  6
CONTINUOUS
 70
0
 71
3
 72
16
 73
12
 74
0
 42
0.0000001
 43
0.0000001
 44
0.0000000001
 40
0.0
 40
0.0
 40
0.0
 40
0.0
 40
0.1287410646
 40
0.2704217334
 40
0.4176260079
 40
0.5620272452
 40
0.6957527047
 40
0.8130676178
 40
0.9124709781
 40
0.9571206991
 40
1.0
 40
1.0
 40
1.0
 40
1.0
 10
66.1745096921
 20
97.9298325421
 30
0.0
 10
66.1745096921
 20
97.8200095052
 30
0.0
 10
66.1437607526
 20
97.589065892
 30
0.0
 10
66.0291218941
 20
97.2499823615
 30
0.0
 10
65.8523391386
 20
96.9233608993
 30
0.0
 10
65.6279465224
 20
96.6359807443
 30
0.0
 10
65.3735309595
 20
96.4109623836
 30
0.0
 10
65.1088553441
 20
96.2657657915
 30
0.0
 10
64.8841863781
 20
96.2219337422
 30
0.0
 10
64.7250114057
 20
96.2451792263
 30
0.0
 10
64.655207293
 20
96.2742654098
 30
0.0
 10
64.6235286347
 20
96.2925530534
 30
0.0
  0
SPLINE
  5
460
100
AcDbEntity
  8
0
100
AcDbSpline
 62
7
  6
CONTINUOUS
 70
0
 71
3
 72
11
 73
7
 74
0
 42
0.0000001
 43
0.0000001
 44
0.0000000001
 40
0.0
 40
0.0
 40
0.0
 40
0.0
 40
0.2177669599
 40
0.450898211
 40
0.7103709681
 40
1.0
 40
1.0
 40
1.0
 40
1.0
 10
80.002550078
 20
126.6262580259
 30
0.0
 10
79.9283210474
 20
126.5834414329
 30
0.0
 10
79.757854887
 20
126.5214334187
 30
0.0
 10
79.4745543617
 20
126.5143174827
 30
0.0
 10
79.1727023342
 20
126.5872650357
 30
0.0
 10
78.976280612
 20
126.6806623667
 30
0.0
 10
78.8775785661
 20
126.7376467303
 30
0.0
  0
SPLINE
  5
461
100
AcDbEntity
  8
0
100
AcDbSpline
 62
7
  6
CONTINUOUS
 70
0
 71
3
 72
16
 73
12
 74
0
 42
0.0000001
 43
0.0000001
 44
0.0000000001
 40
0.0
 40
0.0
 40
0.0
 40
0.0
 40
0.1287410646
 40
0.2704217334
 40
0.4176260079
 40
0.5620272452
 40
0.6957527047
 40
0.8130676178
 40
0.9124709781
 40
0.9571206991
 40
1.0
 40
1.0
 40
1.0
 40
1.0
 10
93.0197704194
 20
113.4288585327
 30
0.0
 10
93.0197704194
 20
113.3220193128
 30
0.0
 10
92.9898569076
 20
113.0973502796
 30
0.0
 10
92.8783327085
 20
112.7674794169
 30
0.0
 10
92.7063530197
 20
112.4497320365
 30
0.0
 10
92.4880569974
 20
112.1701598038
 30
0.0
 10
92.2405537315
 20
111.9512550382
 30
0.0
 10
91.9830691716
 20
111.8100033382
 30
0.0
 10
91.7645043078
 20
111.7673621757
 30
0.0
 10
91.6096540106
 20
111.7899760959
 30
0.0
 10
91.541746428
 20
111.8182720277
 30
0.0
 10
91.5109284572
 20
111.8360628086
 30
0.0
  0
SPLINE
  5
462
100
AcDbEntity
  8
0
100
AcDbSpline
 62
7
  6
CONTINUOUS
 70
0
 71
3
 72
16
 73
12
 74
0
 42
0.0000001
 43
0.0000001
 44
0.0000000001
 40
0.0
 40
0.0
 40
0.0
 40
0.0
 40
0.1287410646
 40
0.2704217334
 40
0.4176260079
 40
0.5620272452
 40
0.6957527047
 40
0.8130676178
 40
0.9124709781
 40
0.9571206991
 40
1.0
 40
1.0
 40
1.0
 40
1.0
 10
93.0197704194
 20
46.4756603281
 30
0.0
 10
93.0197704194
 20
46.3688211081
 30
0.0
 10
92.9898569076
 20
46.144152075
 30
0.0
 10
92.8783327085
 20
45.8142812122
 30
0.0
 10
92.7063530197
 20
45.4965338319
 30
0.0
 10
92.4880569974
 20
45.2169615992
 30
0.0
 10
92.2405537315
 20
44.9980568336
 30
0.0
 10
91.9830691716
 20
44.8568051336
 30
0.0
 10
91.7645043078
 20
44.8141639711
 30
0.0
 10
91.6096540106
 20
44.8367778913
 30
0.0
 10
91.541746428
 20
44.8650738231
 30
0.0
 10
91.5109284572
 20
44.882864604
 30
0.0
  0
SPLINE
  5
463
100
AcDbEntity
  8
0
100
AcDbSpline
 62
7
  6
CONTINUOUS
 70
0
 71
3
 72
11
 73
7
 74
0
 42
0.0000001
 43
0.0000001
 44
0.0000000001
 40
0.0
 40
0.0
 40
0.0
 40
0.0
 40
0.2177231375
 40
0.4508717887
 40
0.7104673698
 40
1.0
 40
1.0
 40
1.0
 40
1.0
 10
92.7608527887
 20
114.0010438722
 30
0.0
 10
92.8020751083
 20
113.9772468072
 30
0.0
 10
92.879268782
 20
113.9124682543
 30
0.0
 10
92.9614145588
 20
113.778125595
 30
0.0
 10
93.0101041846
 20
113.6126032025
 30
0.0
 10
93.0197704194
 20
113.4921554598
 30
0.0
 10
93.0197704194
 20
113.4288585327
 30
0.0
  0
SPLINE
  5
464
100
AcDbEntity
  8
0
100
AcDbSpline
 62
7
  6
CONTINUOUS
 70
0
 71
3
 72
15
 73
11
 74
0
 42
0.0000001
 43
0.0000001
 44
0.0000000001
 40
0.0
 40
0.0
 40
0.0
 40
0.0
 40
0.1141241598
 40
0.2373483675
 40
0.3669736385
 40
0.5000010132
 40
0.6330282465
 40
0.7626531028
 40
0.8858766831
 40
1.0
 40
1.0
 40
1.0
 40
1.0
 10
31.4309287528
 20
91.3836179644
 30
0.0
 10
31.4309287528
 20
91.5512593744
 30
0.0
 10
31.4001474613
 20
91.900226651
 30
0.0
 10
31.2778012096
 20
92.4266651451
 30
0.0
 10
31.0815728132
 20
92.9599086831
 30
0.0
 10
30.8191188741
 20
93.4798857974
 30
0.0
 10
30.5000305321
 20
93.9671641498
 30
0.0
 10
30.1363411397
 20
94.4037215051
 30
0.0
 10
29.7416048147
 20
94.7728913248
 30
0.0
 10
29.4547810461
 20
94.9740288156
 30
0.0
 10
29.3095995774
 20
95.0578474794
 30
0.0
  0
SPLINE
  5
465
100
AcDbEntity
  8
0
100
AcDbSpline
 62
7
  6
CONTINUOUS
 70
0
 71
3
 72
11
 73
7
 74
0
 42
0.0000001
 43
0.0000001
 44
0.0000000001
 40
0.0
 40
0.0
 40
0.0
 40
0.0
 40
0.289702329
 40
0.5490881649
 40
0.7822156415
 40
1.0
 40
1.0
 40
1.0
 40
1.0
 10
18.3493988376
 20
101.3855791744
 30
0.0
 10
18.2177623654
 20
101.4615778078
 30
0.0
 10
17.9558949752
 20
101.5861532591
 30
0.0
 10
17.5533995859
 20
101.6833486842
 30
0.0
 10
17.1757411603
 20
101.6737864414
 30
0.0
 10
16.9483706235
 20
101.5912719129
 30
0.0
 10
16.8494130377
 20
101.5341390474
 30
0.0
  0
SPLINE
  5
466
100
AcDbEntity
  8
0
100
AcDbSpline
 62
7
  6
CONTINUOUS
 70
0
 71
3
 72
9
 73
5
 74
0
 42
0.0000001
 43
0.0000001
 44
0.0000000001
 40
0.0
 40
0.0
 40
0.0
 40
0.0
 40
0.4562744505
 40
1.0
 40
1.0
 40
1.0
 40
1.0
 10
86.6333258288
 20
108.7766826028
 30
0.0
 10
86.6064899135
 20
108.7921759688
 30
0.0
 10
86.5356717605
 20
108.8062615132
 30
0.0
 10
86.469110793
 20
108.7847270827
 30
0.0
 10
86.4357708797
 20
108.7688523048
 30
0.0
  0
SPLINE
  5
467
100
AcDbEntity
  8
0
100
AcDbSpline
 62
7
  6
CONTINUOUS
 70
0
 71
3
 72
9
 73
5
 74
0
 42
0.0000001
 43
0.0000001
 44
0.0000000001
 40
0.0
 40
0.0
 40
0.0
 40
0.0
 40
0.53558739
 40
1.0
 40
1.0
 40
1.0
 40
1.0
 10
76.8610643756
 20
132.8940631765
 30
0.0
 10
76.8222497386
 20
132.9085694384
 30
0.0
 10
76.7447243041
 20
132.9260909604
 30
0.0
 10
76.6659027701
 20
132.9065687299
 30
0.0
 10
76.6347620456
 20
132.8886456887
 30
0.0
  0
SPLINE
  5
468
100
AcDbEntity
  8
0
100
AcDbSpline
 62
7
  6
CONTINUOUS
 70
0
 71
3
 72
10
 73
6
 74
0
 42
0.0000001
 43
0.0000001
 44
0.0000000001
 40
0.0
 40
0.0
 40
0.0
 40
0.0
 40
0.2516851555
 40
0.5098552631
 40
1.0
 40
1.0
 40
1.0
 40
1.0
 10
81.2124392974
 20
130.0867806797
 30
0.0
 10
81.1987879166
 20
130.133677676
 30
0.0
 10
81.1625422752
 20
130.2263441177
 30
0.0
 10
81.0669190766
 20
130.3954089176
 30
0.0
 10
80.969061116
 20
130.5070998397
 30
0.0
 10
80.8940927566
 20
130.5656458309
 30
0.0
  0
SPLINE
  5
469
100
AcDbEntity
  8
0
100
AcDbSpline
 62
7
  6
CONTINUOUS
 70
0
 71
3
 72
11
 73
7
 74
0
 42
0.0000001
 43
0.0000001
 44
0.0000000001
 40
0.0
 40
0.0
 40
0.0
 40
0.0
 40
0.2383165703
 40
0.5010899889
 40
0.7632714532
 40
1.0
 40
1.0
 40
1.0
 40
1.0
 10
45.883895271
 20
89.3755056399
 30
0.0
 10
45.824498085
 20
89.3400156773
 30
0.0
 10
45.7124026543
 20
89.243755513
 30
0.0
 10
45.5816625761
 20
89.0628345049
 30
0.0
 10
45.4925373884
 20
88.8586885479
 30
0.0
 10
45.4670373668
 20
88.7137383735
 30
0.0
 10
45.4670373668
 20
88.6450072174
 30
0.0
  0
SPLINE
  5
46A
100
AcDbEntity
  8
0
100
AcDbSpline
 62
7
  6
CONTINUOUS
 70
0
 71
3
 72
17
 73
13
 74
0
 42
0.0000001
 43
0.0000001
 44
0.0000000001
 40
0.0
 40
0.0
 40
0.0
 40
0.0
 40
0.1286880245
 40
0.270278509
 40
0.4174305517
 40
0.5617723386
 40
0.6954448884
 40
0.8127093339
 40
0.8646747764
 40
0.9125085238
 40
0.9571389706
 40
1.0
 40
1.0
 40
1.0
 40
1.0
 10
78.8775785661
 20
126.7376467303
 30
0.0
 10
78.7110247896
 20
126.8338044226
 30
0.0
 10
78.3877219615
 20
127.0825883757
 30
0.0
 10
77.9739269543
 20
127.5533621676
 30
0.0
 10
77.6333162894
 20
128.1073272114
 30
0.0
 10
77.3940576025
 20
128.6994815012
 30
0.0
 10
77.2752950151
 20
129.2816800081
 30
0.0
 10
77.2859472528
 20
129.7404375071
 30
0.0
 10
77.3708719003
 20
130.0550797676
 30
0.0
 10
77.4654310275
 20
130.2507828584
 30
0.0
 10
77.5919710909
 20
130.410792408
 30
0.0
 10
77.6971219142
 20
130.4912915203
 30
0.0
 10
77.7526070542
 20
130.5232963119
 30
0.0
  0
ENDSEC
  0
SECTION
  2
OBJECTS
  0
DICTIONARY
  5
C
100
AcDbDictionary
280
0
281
1
  3
ACAD_GROUP
350
D
  3
ACAD_MLINESTYLE
350
17
  3
ACAD_LAYOUT
350
1A
  3
ACAD_PLOTSETTINGS
350
19
  3
ACAD_PLOTSTYLENAME
350
E
  0
DICTIONARY
  5
D
102
{ACAD_REACTORS
330
C
102
}
100
AcDbDictionary
280
0
281
1
  0
ACDBDICTIONARYWDFLT
  5
E
102
{ACAD_REACTORS
330
C
102
}
100
AcDbDictionary
281
1
  3
Normal
350
F
100
AcDbDictionaryWithDefault
340
F
  0
DICTIONARY
  5
17
102
{ACAD_REACTORS
330
C
102
}
100
AcDbDictionary
280
0
281
1
  3
Standard
350
18
  0
DICTIONARY
  5
19
102
{ACAD_REACTORS
330
C
102
}
100
AcDbDictionary
281
1
  0
DICTIONARY
  5
1A
102
{ACAD_REACTORS
330
C
102
}
100
AcDbDictionary
281
1
  3
Model
350
46B
  3
Layout1
350
46C
  0
ACDBPLACEHOLDER
  5
F
102
{ACAD_REACTORS
330
E
102
}
  0
MLINESTYLE
  5
18
102
{ACAD_REACTORS
330
17
102
}
100
AcDbMlineStyle
  2
STANDARD
 70
0
  3

 62
256
 51
90.0
 52
90.0
 71
2
 49
0.5
 62
256
  6
BYLAYER
 49
-0.5
 62
256
  6
BYLAYER
  0
LAYOUT
  5
46B
102
{ACAD_REACTORS
330
1A
102
}
100
AcDbPlotSettings
  1

  2
none_device
  4

  6

 40
0.0
 41
0.0
 42
0.0
 43
0.0
 44
210.0
 45
297.0
 46
0.0
 47
0.0
 48
0.0
 49
0.0
140
0.0
141
0.0
142
1.0
143
1.0
 70
1024
 72
1
 73
0
 74
0
  7

 75
0
147
1.0
148
0.0
149
0.0
100
AcDbLayout
  1
Model
 70
0
 71
0
 10
0.0
 20
0.0
 11
210.0
 21
297.0
 12
0.0
 22
0.0
 32
0.0
 14
0.0
 24
0.0
 34
0.0
 15
0.0
 25
0.0
 35
0.0
146
0.0
 13
0.0
 23
0.0
 33
0.0
 16
1.0
 26
0.0
 36
0.0
 17
0.0
 27
1.0
 37
0.0
 76
0
330
210
345
0
346
0
  0
LAYOUT
  5
46C
102
{ACAD_REACTORS
330
1A
102
}
100
AcDbPlotSettings
  1

  2
none_device
  4

  6

 40
0.0
 41
0.0
 42
0.0
 43
0.0
 44
210.0
 45
297.0
 46
0.0
 47
0.0
 48
0.0
 49
0.0
140
0.0
141
0.0
142
1.0
143
1.0
 70
0
 72
1
 73
0
 74
0
  7

 75
0
147
1.0
148
0.0
149
0.0
100
AcDbLayout
  1
Layout1
 70
0
 71
1
 10
0.0
 20
0.0
 11
210.0
 21
297.0
 12
0.0
 22
0.0
 32
0.0
 14
0.0
 24
0.0
 34
0.0
 15
0.0
 25
0.0
 35
0.0
146
0.0
 13
0.0
 23
0.0
 33
0.0
 16
1.0
 26
0.0
 36
0.0
 17
0.0
 27
1.0
 37
0.0
 76
0
330
211
345
0
346
0
  0
ENDSEC
  0
EOF
