  0
SECTION
  2
HEADER
  9
$ACADVER
  1
AC1009
  9
$DWGCODEPAGE
  3
ansi_1250
  9
$INSBASE
 10
0.0
 20
0.0
 30
0.0
  9
$EXTMIN
 10
-1.511024
 20
-4.55175
 30
0.0
  9
$EXTMAX
 10
4.027559
 20
5.148425
 30
0.0
  9
$LIMMIN
 10
0.0
 20
0.0
  9
$LIMMAX
 10
0.0
 20
0.0
  9
$ORTHOMODE
 70
     0
  9
$REGENMODE
 70
     1
  9
$FILLMODE
 70
     1
  9
$QTEXTMODE
 70
     0
  9
$MIRRTEXT
 70
     1
  9
$DRAGMODE
 70
     2
  9
$LTSCALE
 40
1.0
  9
$OSMODE
 70
     0
  9
$ATTMODE
 70
     1
  9
$TEXTSIZE
 40
0.2
  9
$TRACEWID
 40
0.05
  9
$TEXTSTYLE
  7
STANDARD
  9
$CLAYER
  8
0
  9
$CELTYPE
  6
CONTINUOUS
  9
$CECOLOR
 62
   256
  9
$DIMSCALE
 40
1.0
  9
$DIMASZ
 40
0.18
  9
$DIMEXO
 40
0.0625
  9
$DIMDLI
 40
0.38
  9
$DIMRND
 40
0.0
  9
$DIMDLE
 40
0.0
  9
$DIMEXE
 40
0.18
  9
$DIMTP
 40
0.0
  9
$DIMTM
 40
0.0
  9
$DIMTXT
 40
0.18
  9
$DIMCEN
 40
0.09
  9
$DIMTSZ
 40
0.0
  9
$DIMTOL
 70
     0
  9
$DIMLIM
 70
     0
  9
$DIMTIH
 70
     1
  9
$DIMTOH
 70
     1
  9
$DIMSE1
 70
     0
  9
$DIMSE2
 70
     0
  9
$DIMTAD
 70
     0
  9
$DIMZIN
 70
     0
  9
$DIMBLK
  1

  9
$DIMASO
 70
     1
  9
$DIMSHO
 70
     1
  9
$DIMPOST
  1

  9
$DIMAPOST
  1

  9
$DIMALT
 70
     0
  9
$DIMALTD
 70
     2
  9
$DIMALTF
 40
25.4
  9
$DIMLFAC
 40
1.0
  9
$DIMTOFL
 70
     0
  9
$DIMTVP
 40
0.0
  9
$DIMTIX
 70
     0
  9
$DIMSOXD
 70
     0
  9
$DIMSAH
 70
     0
  9
$DIMBLK1
  1

  9
$DIMBLK2
  1

  9
$DIMSTYLE
  2
STANDARD
  9
$DIMCLRD
 70
     0
  9
$DIMCLRE
 70
     0
  9
$DIMCLRT
 70
     0
  9
$DIMTFAC
 40
1.0
  9
$DIMGAP
 40
0.09
  9
$LUNITS
 70
     2
  9
$LUPREC
 70
     4
  9
$AXISMODE
 70
     0
  9
$AXISUNIT
 10
0.0
 20
0.0
  9
$SKETCHINC
 40
0.1
  9
$FILLETRAD
 40
0.0
  9
$AUNITS
 70
     0
  9
$AUPREC
 70
     0
  9
$MENU
  1
acad
  9
$ELEVATION
 40
0.0
  9
$PELEVATION
 40
0.0
  9
$THICKNESS
 40
0.0
  9
$LIMCHECK
 70
     0
  9
$BLIPMODE
 70
     1
  9
$CHAMFERA
 40
0.0
  9
$CHAMFERB
 40
0.0
  9
$SKPOLY
 70
     0
  9
$TDCREATE
 40
0.000000000
  9
$TDUPDATE
 40
0.000000000
  9
$TDINDWG
 40
0.0000000000
  9
$TDUSRTIMER
 40
0.0000000000
  9
$USRTIMER
 70
     1
  9
$ANGBASE
 50
0.0
  9
$ANGDIR
 70
     0
  9
$PDMODE
 70
     0
  9
$PDSIZE
 40
0.0
  9
$PLINEWID
 40
0.0
  9
$COORDS
 70
     0
  9
$SPLFRAME
 70
     0
  9
$SPLINETYPE
 70
     6
  9
$SPLINESEGS
 70
     8
  9
$ATTDIA
 70
     0
  9
$ATTREQ
 70
     1
  9
$HANDLING
 70
     1
  9
$HANDSEED
  5
568
  9
$SURFTAB1
 70
     6
  9
$SURFTAB2
 70
     6
  9
$SURFTYPE
 70
     6
  9
$SURFU
 70
     6
  9
$SURFV
 70
     6
  9
$UCSNAME
  2

  9
$UCSORG
 10
0.0
 20
0.0
 30
0.0
  9
$UCSXDIR
 10
1.0
 20
0.0
 30
0.0
  9
$UCSYDIR
 10
0.0
 20
1.0
 30
0.0
  9
$PUCSNAME
  2

  9
$PUCSORG
 10
0.0
 20
0.0
 30
0.0
  9
$PUCSXDIR
 10
1.0
 20
0.0
 30
0.0
  9
$PUCSYDIR
 10
0.0
 20
1.0
 30
0.0
  9
$USERI1
 70
     0
  9
$USERI2
 70
     0
  9
$USERI3
 70
     0
  9
$USERI4
 70
     0
  9
$USERI5
 70
     0
  9
$USERR1
 40
0.0
  9
$USERR2
 40
0.0
  9
$USERR3
 40
0.0
  9
$USERR4
 40
0.0
  9
$USERR5
 40
0.0
  9
$WORLDVIEW
 70
     1
  9
$SHADEDGE
 70
     3
  9
$SHADEDIF
 70
    70
  9
$TILEMODE
 70
     1
  9
$MAXACTVP
 70
    16
  9
$PINSBASE
 10
0.0
 20
0.0
 30
0.0
  9
$PLIMCHECK
 70
     0
  9
$PEXTMIN
 10
1.000000E+20
 20
1.000000E+20
 30
1.000000E+20
  9
$PEXTMAX
 10
-1.000000E+20
 20
-1.000000E+20
 30
-1.000000E+20
  9
$PLIMMIN
 10
0.0
 20
0.0
  9
$PLIMMAX
 10
12.0
 20
9.0
  9
$UNITMODE
 70
     0
  9
$VISRETAIN
 70
     0
  9
$PLINEGEN
 70
     1
  9
$PSLTSCALE
 70
     0
  9
$TREEDEPTH
 70
  3020
  0
ENDSEC
  0
SECTION
  2
TABLES
  0
TABLE
  2
VPORT
 70
     1
  0
VPORT
  2
*ACTIVE
 70
     0
 10
0.0
 20
0.0
 11
1.0
 21
1.0
 12
6.591288
 22
4.579184
 13
0.0
 23
0.0
 14
1.0
 24
1.0
 15
0.0
 25
0.0
 16
0.0
 26
0.0
 36
1.0
 17
0.0
 27
0.0
 37
0.0
 40
9.158369
 41
0.688564
 42
50.0
 43
0.0
 44
0.0
 50
0.0
 51
0.0
 71
     0
 72
   100
 73
     1
 74
     1
 75
     0
 76
     0
 77
     0
 78
     0
  0
ENDTAB
  0
TABLE
  2
LTYPE
 70
     5
  0
LTYPE
  2
CONTINUOUS
 70
    64
  3
Solid line
 72
    65
 73
     0
 40
0.0
  0
LTYPE
  2
CENTER
 70
    64
  3
Center ____ _ ____ _ ____ _ ____ _ ____ _ ____
 72
    65
 73
     4
 40
50.8
 49
31.75
 49
-6.35
 49
6.35
 49
-6.35
  0
LTYPE
  2
HIDDEN
 70
    64
  3
Hidden __ __ __ __ __ __ __ __ __ __ __ __ __ __
 72
    65
 73
     2
 40
9.525
 49
6.35
 49
-3.175
  0
LTYPE
  2
CENTER2
 70
    64
  3
Center (.5x) ___ _ ___ _ ___ _ ___ _ ___ _ ___
 72
    65
 73
     4
 40
28.575
 49
19.05
 49
-3.175
 49
3.175
 49
-3.175
  0
LTYPE
  2
HIDDEN2
 70
    64
  3
Hidden (.5x) _ _ _ _ _ _ _ _ _ _ _ _ _ _ _ _ _
 72
    65
 73
     2
 40
4.7625
 49
3.175
 49
-1.5875
  0
ENDTAB
  0
TABLE
  2
LAYER
 70
     1
  0
LAYER
  2
0
 70
     0
 62
     7
  6
CONTINUOUS
  0
ENDTAB
  0
TABLE
  2
STYLE
 70
     1
  0
STYLE
  2
STANDARD
 70
     0
 40
0.0
 41
1.0
 50
0.0
 71
     0
 42
0.0
  3
txt
  4

  0
ENDTAB
  0
TABLE
  2
VIEW
 70
     0
  0
ENDTAB
  0
TABLE
  2
UCS
 70
     0
  0
ENDTAB
  0
TABLE
  2
APPID
 70
     1
  0
APPID
  2
ACAD
 70
     0
  0
ENDTAB
  0
TABLE
  2
DIMSTYLE
 70
     1
  0
DIMSTYLE
  2
STANDARD
 70
     0
  3

  4

  5

  6

  7

 40
1.0
 41
0.18
 42
0.0625
 43
0.38
 44
0.18
 45
0.0
 46
0.0
 47
0.0
 48
0.0
 71
     0
 72
     0
 73
     1
 74
     1
 75
     0
 76
     0
 77
     0
 78
     0
140
0.18
141
0.09
142
0.0
143
25.4
144
1.0
145
0.0
146
1.0
147
0.09
170
     0
171
     2
172
     0
173
     0
174
     0
175
     0
176
     0
177
     0
178
     0
  0
ENDTAB
  0
ENDSEC
  0
SECTION
  2
BLOCKS
  0
ENDSEC
  0
SECTION
  2
ENTITIES
  0
LINE
  8
0
  6
CONTINUOUS
 62
     7
  5
2E5
 10
2.767717
 20
-1.350394
 30
0.0
 11
2.767717
 21
-2.61811
 31
0.0
  0
LINE
  8
0
  6
CONTINUOUS
 62
     7
  5
2E6
 10
0.0
 20
-1.597539
 30
0.0
 11
0.0
 21
-0.759843
 31
0.0
  0
LINE
  8
0
  6
CONTINUOUS
 62
     7
  5
2E7
 10
0.0
 20
-2.61811
 30
0.0
 11
0.0
 21
-1.804035
 31
0.0
  0
LINE
  8
0
  6
CONTINUOUS
 62
     7
  5
2E8
 10
1.234646
 20
-2.688976
 30
0.0
 11
1.234646
 21
-2.944882
 31
0.0
  0
LINE
  8
0
  6
CONTINUOUS
 62
     7
  5
2E9
 10
1.234646
 20
-2.944882
 30
0.0
 11
1.36063
 21
-2.944882
 31
0.0
  0
LINE
  8
0
  6
CONTINUOUS
 62
     7
  5
2EA
 10
1.36063
 20
-2.944882
 30
0.0
 11
1.955118
 21
-2.944882
 31
0.0
  0
LINE
  8
0
  6
CONTINUOUS
 62
     7
  5
2EB
 10
1.955118
 20
-2.944882
 30
0.0
 11
2.081102
 21
-2.944882
 31
0.0
  0
LINE
  8
0
  6
CONTINUOUS
 62
     7
  5
2EC
 10
2.081102
 20
-2.688976
 30
0.0
 11
2.081102
 21
-2.944882
 31
0.0
  0
LINE
  8
0
  6
CONTINUOUS
 62
     7
  5
2ED
 10
0.401575
 20
-2.61811
 30
0.0
 11
0.401575
 21
-2.688976
 31
0.0
  0
LINE
  8
0
  6
CONTINUOUS
 62
     7
  5
2EE
 10
0.401575
 20
-2.688976
 30
0.0
 11
0.519685
 21
-2.688976
 31
0.0
  0
LINE
  8
0
  6
CONTINUOUS
 62
     7
  5
2EF
 10
0.519685
 20
-2.688976
 30
0.0
 11
2.299213
 21
-2.688976
 31
0.0
  0
LINE
  8
0
  6
CONTINUOUS
 62
     7
  5
2F0
 10
2.299213
 20
-2.688976
 30
0.0
 11
2.311024
 21
-2.688976
 31
0.0
  0
LINE
  8
0
  6
CONTINUOUS
 62
     7
  5
2F1
 10
2.311024
 20
-2.61811
 30
0.0
 11
2.311024
 21
-2.688976
 31
0.0
  0
LINE
  8
0
  6
CONTINUOUS
 62
     7
  5
2F2
 10
2.767717
 20
-2.61811
 30
0.0
 11
2.590551
 21
-2.61811
 31
0.0
  0
LINE
  8
0
  6
CONTINUOUS
 62
     7
  5
2F3
 10
2.590551
 20
-2.61811
 30
0.0
 11
0.496063
 21
-2.61811
 31
0.0
  0
LINE
  8
0
  6
CONTINUOUS
 62
     7
  5
2F4
 10
0.496063
 20
-2.61811
 30
0.0
 11
0.267717
 21
-2.61811
 31
0.0
  0
LINE
  8
0
  6
CONTINUOUS
 62
     7
  5
2F5
 10
0.109843
 20
-2.61811
 30
0.0
 11
0.106299
 21
-2.61811
 31
0.0
  0
LINE
  8
0
  6
CONTINUOUS
 62
     7
  5
2F6
 10
0.267717
 20
-2.61811
 30
0.0
 11
0.259843
 21
-2.61811
 31
0.0
  0
LINE
  8
0
  6
CONTINUOUS
 62
     7
  5
2F7
 10
0.106299
 20
-2.61811
 30
0.0
 11
0.0
 21
-2.61811
 31
0.0
  0
LINE
  8
0
  6
CONTINUOUS
 62
     7
  5
2F8
 10
0.350394
 20
-2.338583
 30
0.0
 11
0.350394
 21
-2.5
 31
0.0
  0
LINE
  8
0
  6
CONTINUOUS
 62
     7
  5
2F9
 10
0.295276
 20
-2.338583
 30
0.0
 11
0.350394
 21
-2.338583
 31
0.0
  0
ARC
  8
0
  6
CONTINUOUS
 62
     7
  5
2FA
 10
0.295276
 20
-2.527559
 30
0.0
 40
0.188976
 50
90.0
 51
180.0
  0
LINE
  8
0
  6
CONTINUOUS
 62
     7
  5
2FB
 10
0.106299
 20
-2.61811
 30
0.0
 11
0.106299
 21
-2.527559
 31
0.0
  0
LINE
  8
0
  6
CONTINUOUS
 62
     7
  5
2FC
 10
0.267717
 20
-2.527559
 30
0.0
 11
0.267717
 21
-2.61811
 31
0.0
  0
ARC
  8
0
  6
CONTINUOUS
 62
     7
  5
2FD
 10
0.295276
 20
-2.527559
 30
0.0
 40
0.027559
 50
90.0
 51
180.0
  0
LINE
  8
0
  6
CONTINUOUS
 62
     7
  5
2FE
 10
0.496063
 20
-2.61811
 30
0.0
 11
0.496063
 21
-2.5
 31
0.0
  0
LINE
  8
0
  6
CONTINUOUS
 62
     7
  5
2FF
 10
0.496063
 20
-2.5
 30
0.0
 11
0.295276
 21
-2.5
 31
0.0
  0
LINE
  8
0
  6
CONTINUOUS
 62
     7
  5
300
 10
0.350394
 20
-2.338583
 30
0.0
 11
0.350394
 21
-2.275591
 31
0.0
  0
LINE
  8
0
  6
CONTINUOUS
 62
     7
  5
301
 10
0.350394
 20
-2.275591
 30
0.0
 11
2.590551
 21
-2.275591
 31
0.0
  0
LINE
  8
0
  6
CONTINUOUS
 62
     7
  5
302
 10
2.590551
 20
-2.275591
 30
0.0
 11
2.590551
 21
-2.61811
 31
0.0
  0
LINE
  8
0
  6
CONTINUOUS
 62
     7
  5
303
 10
2.767717
 20
-1.350394
 30
0.0
 11
2.748031
 21
-1.350394
 31
0.0
  0
LINE
  8
0
  6
CONTINUOUS
 62
     7
  5
304
 10
2.748031
 20
-1.350394
 30
0.0
 11
2.748031
 21
-1.086614
 31
0.0
  0
LINE
  8
0
  6
CONTINUOUS
 62
     7
  5
305
 10
2.748031
 20
-1.086614
 30
0.0
 11
1.692913
 21
-1.086614
 31
0.0
  0
LINE
  8
0
  6
CONTINUOUS
 62
     7
  5
306
 10
1.692913
 20
-1.086614
 30
0.0
 11
1.692913
 21
-0.759843
 31
0.0
  0
LINE
  8
0
  6
CONTINUOUS
 62
     7
  5
307
 10
1.692913
 20
-0.759843
 30
0.0
 11
0.0
 21
-0.759843
 31
0.0
  0
LINE
  8
0
  6
CONTINUOUS
 62
     7
  5
308
 10
0.275591
 20
-0.759843
 30
0.0
 11
0.275591
 21
-0.740158
 31
0.0
  0
LINE
  8
0
  6
CONTINUOUS
 62
     7
  5
309
 10
0.0
 20
-2.61811
 30
0.0
 11
0.0
 21
-2.620079
 31
0.0
  0
LINE
  8
0
  6
CONTINUOUS
 62
     7
  5
30A
 10
0.0
 20
-2.9
 30
0.0
 11
0.0
 21
-3.0
 31
0.0
  0
LINE
  8
0
  6
CONTINUOUS
 62
     7
  5
30B
 10
0.0
 20
-3.0
 30
0.0
 11
0.0
 21
-3.118091
 31
0.0
  0
LINE
  8
0
  6
CONTINUOUS
 62
     7
  5
30C
 10
0.0
 20
-3.860136
 30
0.0
 11
0.0
 21
-3.118091
 31
0.0
  0
LINE
  8
0
  6
CONTINUOUS
 62
     7
  5
30D
 10
0.0
 20
-3.860136
 30
0.0
 11
0.0
 21
-4.199213
 31
0.0
  0
LINE
  8
0
  6
CONTINUOUS
 62
     7
  5
30E
 10
0.0
 20
-1.597539
 30
0.0
 11
0.0
 21
-1.804035
 31
0.0
  0
LINE
  8
0
  6
CONTINUOUS
 62
     7
  5
30F
 10
-0.837205
 20
-4.334477
 30
0.0
 11
-0.837205
 21
-4.488596
 31
0.0
  0
LINE
  8
0
  6
CONTINUOUS
 62
     7
  5
310
 10
-0.837205
 20
-4.334477
 30
0.0
 11
-0.837205
 21
-3.793966
 31
0.0
  0
LINE
  8
0
  6
CONTINUOUS
 62
     7
  5
311
 10
-0.837205
 20
-3.788401
 30
0.0
 11
-0.837205
 21
-3.793966
 31
0.0
  0
LINE
  8
0
  6
CONTINUOUS
 62
     7
  5
312
 10
-0.837205
 20
-3.77501
 30
0.0
 11
-0.837205
 21
-3.788401
 31
0.0
  0
LINE
  8
0
  6
CONTINUOUS
 62
     7
  5
313
 10
-0.837205
 20
-3.768226
 30
0.0
 11
-0.837205
 21
-3.77501
 31
0.0
  0
LINE
  8
0
  6
CONTINUOUS
 62
     7
  5
314
 10
-0.837205
 20
-3.734413
 30
0.0
 11
-0.837205
 21
-3.768226
 31
0.0
  0
LINE
  8
0
  6
CONTINUOUS
 62
     7
  5
315
 10
-0.837205
 20
-3.627461
 30
0.0
 11
-0.837205
 21
-3.734413
 31
0.0
  0
LINE
  8
0
  6
CONTINUOUS
 62
     7
  5
316
 10
-0.837205
 20
-3.582579
 30
0.0
 11
-0.837205
 21
-3.627461
 31
0.0
  0
LINE
  8
0
  6
CONTINUOUS
 62
     7
  5
317
 10
-0.837205
 20
-4.488596
 30
0.0
 11
-0.837205
 21
-4.55175
 31
0.0
  0
LINE
  8
0
  6
CONTINUOUS
 62
     7
  5
318
 10
-0.759252
 20
-4.488596
 30
0.0
 11
-0.759252
 21
-4.334477
 31
0.0
  0
LINE
  8
0
  6
CONTINUOUS
 62
     7
  5
319
 10
-0.759252
 20
-4.55175
 30
0.0
 11
-0.759252
 21
-4.488596
 31
0.0
  0
LINE
  8
0
  6
CONTINUOUS
 62
     7
  5
31A
 10
-0.759252
 20
-3.627461
 30
0.0
 11
-0.759252
 21
-3.582579
 31
0.0
  0
LINE
  8
0
  6
CONTINUOUS
 62
     7
  5
31B
 10
-0.759252
 20
-3.716261
 30
0.0
 11
-0.759252
 21
-3.627461
 31
0.0
  0
LINE
  8
0
  6
CONTINUOUS
 62
     7
  5
31C
 10
-0.837205
 20
-3.788401
 30
0.0
 11
-0.836911
 21
-3.788401
 31
0.0
  0
LINE
  8
0
  6
CONTINUOUS
 62
     7
  5
31D
 10
-0.837205
 20
-3.582579
 30
0.0
 11
-0.759252
 21
-3.582579
 31
0.0
  0
LINE
  8
0
  6
CONTINUOUS
 62
     7
  5
31E
 10
-0.680315
 20
-3.703978
 30
0.0
 11
-0.687354
 21
-3.704068
 31
0.0
  0
LINE
  8
0
  6
CONTINUOUS
 62
     7
  5
31F
 10
-0.687354
 20
-3.704068
 30
0.0
 11
-0.694378
 21
-3.70434
 31
0.0
  0
LINE
  8
0
  6
CONTINUOUS
 62
     7
  5
320
 10
-0.694378
 20
-3.70434
 30
0.0
 11
-0.701375
 21
-3.704792
 31
0.0
  0
LINE
  8
0
  6
CONTINUOUS
 62
     7
  5
321
 10
-0.701375
 20
-3.704792
 30
0.0
 11
-0.708329
 21
-3.705424
 31
0.0
  0
LINE
  8
0
  6
CONTINUOUS
 62
     7
  5
322
 10
-0.708329
 20
-3.705424
 30
0.0
 11
-0.715226
 21
-3.706234
 31
0.0
  0
LINE
  8
0
  6
CONTINUOUS
 62
     7
  5
323
 10
-0.715226
 20
-3.706234
 30
0.0
 11
-0.722053
 21
-3.707221
 31
0.0
  0
LINE
  8
0
  6
CONTINUOUS
 62
     7
  5
324
 10
-0.722053
 20
-3.707221
 30
0.0
 11
-0.728797
 21
-3.708382
 31
0.0
  0
LINE
  8
0
  6
CONTINUOUS
 62
     7
  5
325
 10
-0.728797
 20
-3.708382
 30
0.0
 11
-0.735442
 21
-3.709716
 31
0.0
  0
LINE
  8
0
  6
CONTINUOUS
 62
     7
  5
326
 10
-0.735442
 20
-3.709716
 30
0.0
 11
-0.741977
 21
-3.711219
 31
0.0
  0
LINE
  8
0
  6
CONTINUOUS
 62
     7
  5
327
 10
-0.741977
 20
-3.711219
 30
0.0
 11
-0.748387
 21
-3.712889
 31
0.0
  0
LINE
  8
0
  6
CONTINUOUS
 62
     7
  5
328
 10
-0.748387
 20
-3.712889
 30
0.0
 11
-0.75466
 21
-3.714723
 31
0.0
  0
LINE
  8
0
  6
CONTINUOUS
 62
     7
  5
329
 10
-0.75466
 20
-3.714723
 30
0.0
 11
-0.760784
 21
-3.716716
 31
0.0
  0
LINE
  8
0
  6
CONTINUOUS
 62
     7
  5
32A
 10
-0.760784
 20
-3.716716
 30
0.0
 11
-0.766745
 21
-3.718864
 31
0.0
  0
LINE
  8
0
  6
CONTINUOUS
 62
     7
  5
32B
 10
-0.766745
 20
-3.718864
 30
0.0
 11
-0.772532
 21
-3.721164
 31
0.0
  0
LINE
  8
0
  6
CONTINUOUS
 62
     7
  5
32C
 10
-0.772532
 20
-3.721164
 30
0.0
 11
-0.778134
 21
-3.72361
 31
0.0
  0
LINE
  8
0
  6
CONTINUOUS
 62
     7
  5
32D
 10
-0.778134
 20
-3.72361
 30
0.0
 11
-0.783539
 21
-3.726198
 31
0.0
  0
LINE
  8
0
  6
CONTINUOUS
 62
     7
  5
32E
 10
-0.783539
 20
-3.726198
 30
0.0
 11
-0.788736
 21
-3.728923
 31
0.0
  0
LINE
  8
0
  6
CONTINUOUS
 62
     7
  5
32F
 10
-0.788736
 20
-3.728923
 30
0.0
 11
-0.793714
 21
-3.731778
 31
0.0
  0
LINE
  8
0
  6
CONTINUOUS
 62
     7
  5
330
 10
-0.793714
 20
-3.731778
 30
0.0
 11
-0.798464
 21
-3.734759
 31
0.0
  0
LINE
  8
0
  6
CONTINUOUS
 62
     7
  5
331
 10
-0.798464
 20
-3.734759
 30
0.0
 11
-0.802976
 21
-3.737859
 31
0.0
  0
LINE
  8
0
  6
CONTINUOUS
 62
     7
  5
332
 10
-0.802976
 20
-3.737859
 30
0.0
 11
-0.807241
 21
-3.741072
 31
0.0
  0
LINE
  8
0
  6
CONTINUOUS
 62
     7
  5
333
 10
-0.807241
 20
-3.741072
 30
0.0
 11
-0.811251
 21
-3.744392
 31
0.0
  0
LINE
  8
0
  6
CONTINUOUS
 62
     7
  5
334
 10
-0.811251
 20
-3.744392
 30
0.0
 11
-0.814997
 21
-3.747811
 31
0.0
  0
LINE
  8
0
  6
CONTINUOUS
 62
     7
  5
335
 10
-0.814997
 20
-3.747811
 30
0.0
 11
-0.818471
 21
-3.751323
 31
0.0
  0
LINE
  8
0
  6
CONTINUOUS
 62
     7
  5
336
 10
-0.818471
 20
-3.751323
 30
0.0
 11
-0.821668
 21
-3.754921
 31
0.0
  0
LINE
  8
0
  6
CONTINUOUS
 62
     7
  5
337
 10
-0.821668
 20
-3.754921
 30
0.0
 11
-0.824579
 21
-3.758598
 31
0.0
  0
LINE
  8
0
  6
CONTINUOUS
 62
     7
  5
338
 10
-0.824579
 20
-3.758598
 30
0.0
 11
-0.827201
 21
-3.762346
 31
0.0
  0
LINE
  8
0
  6
CONTINUOUS
 62
     7
  5
339
 10
-0.827201
 20
-3.762346
 30
0.0
 11
-0.829526
 21
-3.766158
 31
0.0
  0
LINE
  8
0
  6
CONTINUOUS
 62
     7
  5
33A
 10
-0.829526
 20
-3.766158
 30
0.0
 11
-0.831551
 21
-3.770026
 31
0.0
  0
LINE
  8
0
  6
CONTINUOUS
 62
     7
  5
33B
 10
-0.831551
 20
-3.770026
 30
0.0
 11
-0.833271
 21
-3.773942
 31
0.0
  0
LINE
  8
0
  6
CONTINUOUS
 62
     7
  5
33C
 10
-0.833271
 20
-3.773942
 30
0.0
 11
-0.834683
 21
-3.777898
 31
0.0
  0
LINE
  8
0
  6
CONTINUOUS
 62
     7
  5
33D
 10
-0.834683
 20
-3.777898
 30
0.0
 11
-0.835785
 21
-3.781887
 31
0.0
  0
LINE
  8
0
  6
CONTINUOUS
 62
     7
  5
33E
 10
-0.835785
 20
-3.781887
 30
0.0
 11
-0.836573
 21
-3.785899
 31
0.0
  0
LINE
  8
0
  6
CONTINUOUS
 62
     7
  5
33F
 10
-0.836573
 20
-3.785899
 30
0.0
 11
-0.837047
 21
-3.789929
 31
0.0
  0
LINE
  8
0
  6
CONTINUOUS
 62
     7
  5
340
 10
-0.837047
 20
-3.789929
 30
0.0
 11
-0.837205
 21
-3.793966
 31
0.0
  0
LINE
  8
0
  6
CONTINUOUS
 62
     7
  5
341
 10
-0.837205
 20
-4.334477
 30
0.0
 11
-0.837047
 21
-4.33044
 31
0.0
  0
LINE
  8
0
  6
CONTINUOUS
 62
     7
  5
342
 10
-0.837047
 20
-4.33044
 30
0.0
 11
-0.836573
 21
-4.326411
 31
0.0
  0
LINE
  8
0
  6
CONTINUOUS
 62
     7
  5
343
 10
-0.836573
 20
-4.326411
 30
0.0
 11
-0.835785
 21
-4.322398
 31
0.0
  0
LINE
  8
0
  6
CONTINUOUS
 62
     7
  5
344
 10
-0.835785
 20
-4.322398
 30
0.0
 11
-0.834683
 21
-4.318409
 31
0.0
  0
LINE
  8
0
  6
CONTINUOUS
 62
     7
  5
345
 10
-0.834683
 20
-4.318409
 30
0.0
 11
-0.833271
 21
-4.314453
 31
0.0
  0
LINE
  8
0
  6
CONTINUOUS
 62
     7
  5
346
 10
-0.833271
 20
-4.314453
 30
0.0
 11
-0.831551
 21
-4.310537
 31
0.0
  0
LINE
  8
0
  6
CONTINUOUS
 62
     7
  5
347
 10
-0.831551
 20
-4.310537
 30
0.0
 11
-0.829526
 21
-4.306669
 31
0.0
  0
LINE
  8
0
  6
CONTINUOUS
 62
     7
  5
348
 10
-0.829526
 20
-4.306669
 30
0.0
 11
-0.827201
 21
-4.302858
 31
0.0
  0
LINE
  8
0
  6
CONTINUOUS
 62
     7
  5
349
 10
-0.827201
 20
-4.302858
 30
0.0
 11
-0.824579
 21
-4.29911
 31
0.0
  0
LINE
  8
0
  6
CONTINUOUS
 62
     7
  5
34A
 10
-0.824579
 20
-4.29911
 30
0.0
 11
-0.821668
 21
-4.295433
 31
0.0
  0
LINE
  8
0
  6
CONTINUOUS
 62
     7
  5
34B
 10
-0.821668
 20
-4.295433
 30
0.0
 11
-0.818471
 21
-4.291835
 31
0.0
  0
LINE
  8
0
  6
CONTINUOUS
 62
     7
  5
34C
 10
-0.818471
 20
-4.291835
 30
0.0
 11
-0.814997
 21
-4.288322
 31
0.0
  0
LINE
  8
0
  6
CONTINUOUS
 62
     7
  5
34D
 10
-0.814997
 20
-4.288322
 30
0.0
 11
-0.811251
 21
-4.284903
 31
0.0
  0
LINE
  8
0
  6
CONTINUOUS
 62
     7
  5
34E
 10
-0.811251
 20
-4.284903
 30
0.0
 11
-0.807241
 21
-4.281583
 31
0.0
  0
LINE
  8
0
  6
CONTINUOUS
 62
     7
  5
34F
 10
-0.807241
 20
-4.281583
 30
0.0
 11
-0.802976
 21
-4.278371
 31
0.0
  0
LINE
  8
0
  6
CONTINUOUS
 62
     7
  5
350
 10
-0.802976
 20
-4.278371
 30
0.0
 11
-0.798464
 21
-4.275271
 31
0.0
  0
LINE
  8
0
  6
CONTINUOUS
 62
     7
  5
351
 10
-0.798464
 20
-4.275271
 30
0.0
 11
-0.793714
 21
-4.27229
 31
0.0
  0
LINE
  8
0
  6
CONTINUOUS
 62
     7
  5
352
 10
-0.793714
 20
-4.27229
 30
0.0
 11
-0.788736
 21
-4.269434
 31
0.0
  0
LINE
  8
0
  6
CONTINUOUS
 62
     7
  5
353
 10
-0.788736
 20
-4.269434
 30
0.0
 11
-0.783539
 21
-4.26671
 31
0.0
  0
LINE
  8
0
  6
CONTINUOUS
 62
     7
  5
354
 10
-0.783539
 20
-4.26671
 30
0.0
 11
-0.778134
 21
-4.264122
 31
0.0
  0
LINE
  8
0
  6
CONTINUOUS
 62
     7
  5
355
 10
-0.778134
 20
-4.264122
 30
0.0
 11
-0.772532
 21
-4.261675
 31
0.0
  0
LINE
  8
0
  6
CONTINUOUS
 62
     7
  5
356
 10
-0.772532
 20
-4.261675
 30
0.0
 11
-0.766745
 21
-4.259375
 31
0.0
  0
LINE
  8
0
  6
CONTINUOUS
 62
     7
  5
357
 10
-0.766745
 20
-4.259375
 30
0.0
 11
-0.760784
 21
-4.257227
 31
0.0
  0
LINE
  8
0
  6
CONTINUOUS
 62
     7
  5
358
 10
-0.760784
 20
-4.257227
 30
0.0
 11
-0.75466
 21
-4.255234
 31
0.0
  0
LINE
  8
0
  6
CONTINUOUS
 62
     7
  5
359
 10
-0.75466
 20
-4.255234
 30
0.0
 11
-0.748387
 21
-4.253401
 31
0.0
  0
LINE
  8
0
  6
CONTINUOUS
 62
     7
  5
35A
 10
-0.748387
 20
-4.253401
 30
0.0
 11
-0.741977
 21
-4.251731
 31
0.0
  0
LINE
  8
0
  6
CONTINUOUS
 62
     7
  5
35B
 10
-0.741977
 20
-4.251731
 30
0.0
 11
-0.735442
 21
-4.250227
 31
0.0
  0
LINE
  8
0
  6
CONTINUOUS
 62
     7
  5
35C
 10
-0.735442
 20
-4.250227
 30
0.0
 11
-0.728797
 21
-4.248893
 31
0.0
  0
LINE
  8
0
  6
CONTINUOUS
 62
     7
  5
35D
 10
-0.728797
 20
-4.248893
 30
0.0
 11
-0.722053
 21
-4.247732
 31
0.0
  0
LINE
  8
0
  6
CONTINUOUS
 62
     7
  5
35E
 10
-0.722053
 20
-4.247732
 30
0.0
 11
-0.715226
 21
-4.246745
 31
0.0
  0
LINE
  8
0
  6
CONTINUOUS
 62
     7
  5
35F
 10
-0.715226
 20
-4.246745
 30
0.0
 11
-0.708329
 21
-4.245935
 31
0.0
  0
LINE
  8
0
  6
CONTINUOUS
 62
     7
  5
360
 10
-0.708329
 20
-4.245935
 30
0.0
 11
-0.701375
 21
-4.245303
 31
0.0
  0
LINE
  8
0
  6
CONTINUOUS
 62
     7
  5
361
 10
-0.701375
 20
-4.245303
 30
0.0
 11
-0.694378
 21
-4.244851
 31
0.0
  0
LINE
  8
0
  6
CONTINUOUS
 62
     7
  5
362
 10
-0.694378
 20
-4.244851
 30
0.0
 11
-0.687354
 21
-4.24458
 31
0.0
  0
LINE
  8
0
  6
CONTINUOUS
 62
     7
  5
363
 10
-0.687354
 20
-4.24458
 30
0.0
 11
-0.680315
 21
-4.244489
 31
0.0
  0
LINE
  8
0
  6
CONTINUOUS
 62
     7
  5
364
 10
-0.680315
 20
-4.289201
 30
0.0
 11
-0.683856
 21
-4.289246
 31
0.0
  0
LINE
  8
0
  6
CONTINUOUS
 62
     7
  5
365
 10
-0.683856
 20
-4.289246
 30
0.0
 11
-0.687391
 21
-4.289383
 31
0.0
  0
LINE
  8
0
  6
CONTINUOUS
 62
     7
  5
366
 10
-0.687391
 20
-4.289383
 30
0.0
 11
-0.690911
 21
-4.289611
 31
0.0
  0
LINE
  8
0
  6
CONTINUOUS
 62
     7
  5
367
 10
-0.690911
 20
-4.289611
 30
0.0
 11
-0.69441
 21
-4.289928
 31
0.0
  0
LINE
  8
0
  6
CONTINUOUS
 62
     7
  5
368
 10
-0.69441
 20
-4.289928
 30
0.0
 11
-0.69788
 21
-4.290336
 31
0.0
  0
LINE
  8
0
  6
CONTINUOUS
 62
     7
  5
369
 10
-0.69788
 20
-4.290336
 30
0.0
 11
-0.701315
 21
-4.290833
 31
0.0
  0
LINE
  8
0
  6
CONTINUOUS
 62
     7
  5
36A
 10
-0.701315
 20
-4.290833
 30
0.0
 11
-0.704708
 21
-4.291417
 31
0.0
  0
LINE
  8
0
  6
CONTINUOUS
 62
     7
  5
36B
 10
-0.704708
 20
-4.291417
 30
0.0
 11
-0.708051
 21
-4.292088
 31
0.0
  0
LINE
  8
0
  6
CONTINUOUS
 62
     7
  5
36C
 10
-0.708051
 20
-4.292088
 30
0.0
 11
-0.711339
 21
-4.292844
 31
0.0
  0
LINE
  8
0
  6
CONTINUOUS
 62
     7
  5
36D
 10
-0.711339
 20
-4.292844
 30
0.0
 11
-0.714564
 21
-4.293685
 31
0.0
  0
LINE
  8
0
  6
CONTINUOUS
 62
     7
  5
36E
 10
-0.714564
 20
-4.293685
 30
0.0
 11
-0.717721
 21
-4.294607
 31
0.0
  0
LINE
  8
0
  6
CONTINUOUS
 62
     7
  5
36F
 10
-0.717721
 20
-4.294607
 30
0.0
 11
-0.720802
 21
-4.29561
 31
0.0
  0
LINE
  8
0
  6
CONTINUOUS
 62
     7
  5
370
 10
-0.720802
 20
-4.29561
 30
0.0
 11
-0.723801
 21
-4.296691
 31
0.0
  0
LINE
  8
0
  6
CONTINUOUS
 62
     7
  5
371
 10
-0.723801
 20
-4.296691
 30
0.0
 11
-0.726713
 21
-4.297848
 31
0.0
  0
LINE
  8
0
  6
CONTINUOUS
 62
     7
  5
372
 10
-0.726713
 20
-4.297848
 30
0.0
 11
-0.729531
 21
-4.299079
 31
0.0
  0
LINE
  8
0
  6
CONTINUOUS
 62
     7
  5
373
 10
-0.729531
 20
-4.299079
 30
0.0
 11
-0.732251
 21
-4.300381
 31
0.0
  0
LINE
  8
0
  6
CONTINUOUS
 62
     7
  5
374
 10
-0.732251
 20
-4.300381
 30
0.0
 11
-0.734865
 21
-4.301752
 31
0.0
  0
LINE
  8
0
  6
CONTINUOUS
 62
     7
  5
375
 10
-0.734865
 20
-4.301752
 30
0.0
 11
-0.73737
 21
-4.303188
 31
0.0
  0
LINE
  8
0
  6
CONTINUOUS
 62
     7
  5
376
 10
-0.73737
 20
-4.303188
 30
0.0
 11
-0.73976
 21
-4.304688
 31
0.0
  0
LINE
  8
0
  6
CONTINUOUS
 62
     7
  5
377
 10
-0.73976
 20
-4.304688
 30
0.0
 11
-0.74203
 21
-4.306248
 31
0.0
  0
LINE
  8
0
  6
CONTINUOUS
 62
     7
  5
378
 10
-0.74203
 20
-4.306248
 30
0.0
 11
-0.744176
 21
-4.307864
 31
0.0
  0
LINE
  8
0
  6
CONTINUOUS
 62
     7
  5
379
 10
-0.744176
 20
-4.307864
 30
0.0
 11
-0.746194
 21
-4.309535
 31
0.0
  0
LINE
  8
0
  6
CONTINUOUS
 62
     7
  5
37A
 10
-0.746194
 20
-4.309535
 30
0.0
 11
-0.748078
 21
-4.311255
 31
0.0
  0
LINE
  8
0
  6
CONTINUOUS
 62
     7
  5
37B
 10
-0.748078
 20
-4.311255
 30
0.0
 11
-0.749827
 21
-4.313022
 31
0.0
  0
LINE
  8
0
  6
CONTINUOUS
 62
     7
  5
37C
 10
-0.749827
 20
-4.313022
 30
0.0
 11
-0.751435
 21
-4.314833
 31
0.0
  0
LINE
  8
0
  6
CONTINUOUS
 62
     7
  5
37D
 10
-0.751435
 20
-4.314833
 30
0.0
 11
-0.7529
 21
-4.316683
 31
0.0
  0
LINE
  8
0
  6
CONTINUOUS
 62
     7
  5
37E
 10
-0.7529
 20
-4.316683
 30
0.0
 11
-0.754219
 21
-4.318568
 31
0.0
  0
LINE
  8
0
  6
CONTINUOUS
 62
     7
  5
37F
 10
-0.754219
 20
-4.318568
 30
0.0
 11
-0.755389
 21
-4.320486
 31
0.0
  0
LINE
  8
0
  6
CONTINUOUS
 62
     7
  5
380
 10
-0.755389
 20
-4.320486
 30
0.0
 11
-0.756407
 21
-4.322432
 31
0.0
  0
LINE
  8
0
  6
CONTINUOUS
 62
     7
  5
381
 10
-0.756407
 20
-4.322432
 30
0.0
 11
-0.757273
 21
-4.324402
 31
0.0
  0
LINE
  8
0
  6
CONTINUOUS
 62
     7
  5
382
 10
-0.757273
 20
-4.324402
 30
0.0
 11
-0.757983
 21
-4.326393
 31
0.0
  0
LINE
  8
0
  6
CONTINUOUS
 62
     7
  5
383
 10
-0.757983
 20
-4.326393
 30
0.0
 11
-0.758538
 21
-4.3284
 31
0.0
  0
LINE
  8
0
  6
CONTINUOUS
 62
     7
  5
384
 10
-0.758538
 20
-4.3284
 30
0.0
 11
-0.758934
 21
-4.330419
 31
0.0
  0
LINE
  8
0
  6
CONTINUOUS
 62
     7
  5
385
 10
-0.758934
 20
-4.330419
 30
0.0
 11
-0.759172
 21
-4.332446
 31
0.0
  0
LINE
  8
0
  6
CONTINUOUS
 62
     7
  5
386
 10
-0.759172
 20
-4.332446
 30
0.0
 11
-0.759252
 21
-4.334477
 31
0.0
  0
LINE
  8
0
  6
CONTINUOUS
 62
     7
  5
387
 10
-0.15689
 20
-3.703978
 30
0.0
 11
-0.680315
 21
-3.703978
 31
0.0
  0
LINE
  8
0
  6
CONTINUOUS
 62
     7
  5
388
 10
-0.15689
 20
-4.244489
 30
0.0
 11
-0.680315
 21
-4.244489
 31
0.0
  0
LINE
  8
0
  6
CONTINUOUS
 62
     7
  5
389
 10
-0.680315
 20
-4.289201
 30
0.0
 11
-0.15689
 21
-4.289201
 31
0.0
  0
LINE
  8
0
  6
CONTINUOUS
 62
     7
  5
38A
 10
-0.15689
 20
-4.289201
 30
0.0
 11
-0.149851
 21
-4.28911
 31
0.0
  0
LINE
  8
0
  6
CONTINUOUS
 62
     7
  5
38B
 10
-0.149851
 20
-4.28911
 30
0.0
 11
-0.142826
 21
-4.288839
 31
0.0
  0
LINE
  8
0
  6
CONTINUOUS
 62
     7
  5
38C
 10
-0.142826
 20
-4.288839
 30
0.0
 11
-0.13583
 21
-4.288386
 31
0.0
  0
LINE
  8
0
  6
CONTINUOUS
 62
     7
  5
38D
 10
-0.13583
 20
-4.288386
 30
0.0
 11
-0.128876
 21
-4.287755
 31
0.0
  0
LINE
  8
0
  6
CONTINUOUS
 62
     7
  5
38E
 10
-0.128876
 20
-4.287755
 30
0.0
 11
-0.121979
 21
-4.286945
 31
0.0
  0
LINE
  8
0
  6
CONTINUOUS
 62
     7
  5
38F
 10
-0.121979
 20
-4.286945
 30
0.0
 11
-0.115151
 21
-4.285958
 31
0.0
  0
LINE
  8
0
  6
CONTINUOUS
 62
     7
  5
390
 10
-0.115151
 20
-4.285958
 30
0.0
 11
-0.108408
 21
-4.284797
 31
0.0
  0
LINE
  8
0
  6
CONTINUOUS
 62
     7
  5
391
 10
-0.108408
 20
-4.284797
 30
0.0
 11
-0.101763
 21
-4.283463
 31
0.0
  0
LINE
  8
0
  6
CONTINUOUS
 62
     7
  5
392
 10
-0.101763
 20
-4.283463
 30
0.0
 11
-0.095228
 21
-4.281959
 31
0.0
  0
LINE
  8
0
  6
CONTINUOUS
 62
     7
  5
393
 10
-0.095228
 20
-4.281959
 30
0.0
 11
-0.088818
 21
-4.280289
 31
0.0
  0
LINE
  8
0
  6
CONTINUOUS
 62
     7
  5
394
 10
-0.088818
 20
-4.280289
 30
0.0
 11
-0.082545
 21
-4.278456
 31
0.0
  0
LINE
  8
0
  6
CONTINUOUS
 62
     7
  5
395
 10
-0.082545
 20
-4.278456
 30
0.0
 11
-0.076421
 21
-4.276463
 31
0.0
  0
LINE
  8
0
  6
CONTINUOUS
 62
     7
  5
396
 10
-0.076421
 20
-4.276463
 30
0.0
 11
-0.07046
 21
-4.274314
 31
0.0
  0
LINE
  8
0
  6
CONTINUOUS
 62
     7
  5
397
 10
-0.07046
 20
-4.274314
 30
0.0
 11
-0.064672
 21
-4.272015
 31
0.0
  0
LINE
  8
0
  6
CONTINUOUS
 62
     7
  5
398
 10
-0.064672
 20
-4.272015
 30
0.0
 11
-0.059071
 21
-4.269568
 31
0.0
  0
LINE
  8
0
  6
CONTINUOUS
 62
     7
  5
399
 10
-0.059071
 20
-4.269568
 30
0.0
 11
-0.053666
 21
-4.26698
 31
0.0
  0
LINE
  8
0
  6
CONTINUOUS
 62
     7
  5
39A
 10
-0.053666
 20
-4.26698
 30
0.0
 11
-0.048469
 21
-4.264256
 31
0.0
  0
LINE
  8
0
  6
CONTINUOUS
 62
     7
  5
39B
 10
-0.048469
 20
-4.264256
 30
0.0
 11
-0.043491
 21
-4.2614
 31
0.0
  0
LINE
  8
0
  6
CONTINUOUS
 62
     7
  5
39C
 10
-0.043491
 20
-4.2614
 30
0.0
 11
-0.038741
 21
-4.258419
 31
0.0
  0
LINE
  8
0
  6
CONTINUOUS
 62
     7
  5
39D
 10
-0.038741
 20
-4.258419
 30
0.0
 11
-0.034228
 21
-4.255319
 31
0.0
  0
LINE
  8
0
  6
CONTINUOUS
 62
     7
  5
39E
 10
-0.034228
 20
-4.255319
 30
0.0
 11
-0.029963
 21
-4.252106
 31
0.0
  0
LINE
  8
0
  6
CONTINUOUS
 62
     7
  5
39F
 10
-0.029963
 20
-4.252106
 30
0.0
 11
-0.025954
 21
-4.248787
 31
0.0
  0
LINE
  8
0
  6
CONTINUOUS
 62
     7
  5
3A0
 10
-0.025954
 20
-4.248787
 30
0.0
 11
-0.022208
 21
-4.245368
 31
0.0
  0
LINE
  8
0
  6
CONTINUOUS
 62
     7
  5
3A1
 10
-0.022208
 20
-4.245368
 30
0.0
 11
-0.018733
 21
-4.241855
 31
0.0
  0
LINE
  8
0
  6
CONTINUOUS
 62
     7
  5
3A2
 10
-0.018733
 20
-4.241855
 30
0.0
 11
-0.015537
 21
-4.238257
 31
0.0
  0
LINE
  8
0
  6
CONTINUOUS
 62
     7
  5
3A3
 10
-0.015537
 20
-4.238257
 30
0.0
 11
-0.012625
 21
-4.23458
 31
0.0
  0
LINE
  8
0
  6
CONTINUOUS
 62
     7
  5
3A4
 10
-0.012625
 20
-4.23458
 30
0.0
 11
-0.010004
 21
-4.230832
 31
0.0
  0
LINE
  8
0
  6
CONTINUOUS
 62
     7
  5
3A5
 10
-0.010004
 20
-4.230832
 30
0.0
 11
-0.007679
 21
-4.227021
 31
0.0
  0
LINE
  8
0
  6
CONTINUOUS
 62
     7
  5
3A6
 10
-0.007679
 20
-4.227021
 30
0.0
 11
-0.005654
 21
-4.223153
 31
0.0
  0
LINE
  8
0
  6
CONTINUOUS
 62
     7
  5
3A7
 10
-0.005654
 20
-4.223153
 30
0.0
 11
-0.003934
 21
-4.219237
 31
0.0
  0
LINE
  8
0
  6
CONTINUOUS
 62
     7
  5
3A8
 10
-0.003934
 20
-4.219237
 30
0.0
 11
-0.002521
 21
-4.215281
 31
0.0
  0
LINE
  8
0
  6
CONTINUOUS
 62
     7
  5
3A9
 10
-0.002521
 20
-4.215281
 30
0.0
 11
-0.00142
 21
-4.211292
 31
0.0
  0
LINE
  8
0
  6
CONTINUOUS
 62
     7
  5
3AA
 10
-0.00142
 20
-4.211292
 30
0.0
 11
-0.000632
 21
-4.207279
 31
0.0
  0
LINE
  8
0
  6
CONTINUOUS
 62
     7
  5
3AB
 10
-0.000632
 20
-4.207279
 30
0.0
 11
-0.000158
 21
-4.20325
 31
0.0
  0
LINE
  8
0
  6
CONTINUOUS
 62
     7
  5
3AC
 10
-0.000158
 20
-4.20325
 30
0.0
 11
0.0
 21
-4.199213
 31
0.0
  0
LINE
  8
0
  6
CONTINUOUS
 62
     7
  5
3AD
 10
-0.077953
 20
-3.658701
 30
0.0
 11
-0.078032
 21
-3.660733
 31
0.0
  0
LINE
  8
0
  6
CONTINUOUS
 62
     7
  5
3AE
 10
-0.078032
 20
-3.660733
 30
0.0
 11
-0.078271
 21
-3.66276
 31
0.0
  0
LINE
  8
0
  6
CONTINUOUS
 62
     7
  5
3AF
 10
-0.078271
 20
-3.66276
 30
0.0
 11
-0.078667
 21
-3.664779
 31
0.0
  0
LINE
  8
0
  6
CONTINUOUS
 62
     7
  5
3B0
 10
-0.078667
 20
-3.664779
 30
0.0
 11
-0.079221
 21
-3.666786
 31
0.0
  0
LINE
  8
0
  6
CONTINUOUS
 62
     7
  5
3B1
 10
-0.079221
 20
-3.666786
 30
0.0
 11
-0.079932
 21
-3.668776
 31
0.0
  0
LINE
  8
0
  6
CONTINUOUS
 62
     7
  5
3B2
 10
-0.079932
 20
-3.668776
 30
0.0
 11
-0.080797
 21
-3.670746
 31
0.0
  0
LINE
  8
0
  6
CONTINUOUS
 62
     7
  5
3B3
 10
-0.080797
 20
-3.670746
 30
0.0
 11
-0.081816
 21
-3.672692
 31
0.0
  0
LINE
  8
0
  6
CONTINUOUS
 62
     7
  5
3B4
 10
-0.081816
 20
-3.672692
 30
0.0
 11
-0.082986
 21
-3.67461
 31
0.0
  0
LINE
  8
0
  6
CONTINUOUS
 62
     7
  5
3B5
 10
-0.082986
 20
-3.67461
 30
0.0
 11
-0.084305
 21
-3.676496
 31
0.0
  0
LINE
  8
0
  6
CONTINUOUS
 62
     7
  5
3B6
 10
-0.084305
 20
-3.676496
 30
0.0
 11
-0.08577
 21
-3.678346
 31
0.0
  0
LINE
  8
0
  6
CONTINUOUS
 62
     7
  5
3B7
 10
-0.08577
 20
-3.678346
 30
0.0
 11
-0.087378
 21
-3.680156
 31
0.0
  0
LINE
  8
0
  6
CONTINUOUS
 62
     7
  5
3B8
 10
-0.087378
 20
-3.680156
 30
0.0
 11
-0.089126
 21
-3.681923
 31
0.0
  0
LINE
  8
0
  6
CONTINUOUS
 62
     7
  5
3B9
 10
-0.089126
 20
-3.681923
 30
0.0
 11
-0.091011
 21
-3.683644
 31
0.0
  0
LINE
  8
0
  6
CONTINUOUS
 62
     7
  5
3BA
 10
-0.091011
 20
-3.683644
 30
0.0
 11
-0.093028
 21
-3.685314
 31
0.0
  0
LINE
  8
0
  6
CONTINUOUS
 62
     7
  5
3BB
 10
-0.093028
 20
-3.685314
 30
0.0
 11
-0.095174
 21
-3.686931
 31
0.0
  0
LINE
  8
0
  6
CONTINUOUS
 62
     7
  5
3BC
 10
-0.095174
 20
-3.686931
 30
0.0
 11
-0.097445
 21
-3.68849
 31
0.0
  0
LINE
  8
0
  6
CONTINUOUS
 62
     7
  5
3BD
 10
-0.097445
 20
-3.68849
 30
0.0
 11
-0.099834
 21
-3.68999
 31
0.0
  0
LINE
  8
0
  6
CONTINUOUS
 62
     7
  5
3BE
 10
-0.099834
 20
-3.68999
 30
0.0
 11
-0.102339
 21
-3.691427
 31
0.0
  0
LINE
  8
0
  6
CONTINUOUS
 62
     7
  5
3BF
 10
-0.102339
 20
-3.691427
 30
0.0
 11
-0.104954
 21
-3.692798
 31
0.0
  0
LINE
  8
0
  6
CONTINUOUS
 62
     7
  5
3C0
 10
-0.104954
 20
-3.692798
 30
0.0
 11
-0.107673
 21
-3.6941
 31
0.0
  0
LINE
  8
0
  6
CONTINUOUS
 62
     7
  5
3C1
 10
-0.107673
 20
-3.6941
 30
0.0
 11
-0.110492
 21
-3.695331
 31
0.0
  0
LINE
  8
0
  6
CONTINUOUS
 62
     7
  5
3C2
 10
-0.110492
 20
-3.695331
 30
0.0
 11
-0.113404
 21
-3.696488
 31
0.0
  0
LINE
  8
0
  6
CONTINUOUS
 62
     7
  5
3C3
 10
-0.113404
 20
-3.696488
 30
0.0
 11
-0.116403
 21
-3.697569
 31
0.0
  0
LINE
  8
0
  6
CONTINUOUS
 62
     7
  5
3C4
 10
-0.116403
 20
-3.697569
 30
0.0
 11
-0.119484
 21
-3.698571
 31
0.0
  0
LINE
  8
0
  6
CONTINUOUS
 62
     7
  5
3C5
 10
-0.119484
 20
-3.698571
 30
0.0
 11
-0.12264
 21
-3.699494
 31
0.0
  0
LINE
  8
0
  6
CONTINUOUS
 62
     7
  5
3C6
 10
-0.12264
 20
-3.699494
 30
0.0
 11
-0.125866
 21
-3.700334
 31
0.0
  0
LINE
  8
0
  6
CONTINUOUS
 62
     7
  5
3C7
 10
-0.125866
 20
-3.700334
 30
0.0
 11
-0.129153
 21
-3.701091
 31
0.0
  0
LINE
  8
0
  6
CONTINUOUS
 62
     7
  5
3C8
 10
-0.129153
 20
-3.701091
 30
0.0
 11
-0.132497
 21
-3.701762
 31
0.0
  0
LINE
  8
0
  6
CONTINUOUS
 62
     7
  5
3C9
 10
-0.132497
 20
-3.701762
 30
0.0
 11
-0.13589
 21
-3.702346
 31
0.0
  0
LINE
  8
0
  6
CONTINUOUS
 62
     7
  5
3CA
 10
-0.13589
 20
-3.702346
 30
0.0
 11
-0.139325
 21
-3.702842
 31
0.0
  0
LINE
  8
0
  6
CONTINUOUS
 62
     7
  5
3CB
 10
-0.139325
 20
-3.702842
 30
0.0
 11
-0.142795
 21
-3.70325
 31
0.0
  0
LINE
  8
0
  6
CONTINUOUS
 62
     7
  5
3CC
 10
-0.142795
 20
-3.70325
 30
0.0
 11
-0.146294
 21
-3.703568
 31
0.0
  0
LINE
  8
0
  6
CONTINUOUS
 62
     7
  5
3CD
 10
-0.146294
 20
-3.703568
 30
0.0
 11
-0.149814
 21
-3.703795
 31
0.0
  0
LINE
  8
0
  6
CONTINUOUS
 62
     7
  5
3CE
 10
-0.149814
 20
-3.703795
 30
0.0
 11
-0.153348
 21
-3.703932
 31
0.0
  0
LINE
  8
0
  6
CONTINUOUS
 62
     7
  5
3CF
 10
-0.153348
 20
-3.703932
 30
0.0
 11
-0.15689
 21
-3.703978
 31
0.0
  0
LINE
  8
0
  6
CONTINUOUS
 62
     7
  5
3D0
 10
-0.077953
 20
-4.199213
 30
0.0
 11
-0.078032
 21
-4.201244
 31
0.0
  0
LINE
  8
0
  6
CONTINUOUS
 62
     7
  5
3D1
 10
-0.078032
 20
-4.201244
 30
0.0
 11
-0.078271
 21
-4.203271
 31
0.0
  0
LINE
  8
0
  6
CONTINUOUS
 62
     7
  5
3D2
 10
-0.078271
 20
-4.203271
 30
0.0
 11
-0.078667
 21
-4.20529
 31
0.0
  0
LINE
  8
0
  6
CONTINUOUS
 62
     7
  5
3D3
 10
-0.078667
 20
-4.20529
 30
0.0
 11
-0.079221
 21
-4.207297
 31
0.0
  0
LINE
  8
0
  6
CONTINUOUS
 62
     7
  5
3D4
 10
-0.079221
 20
-4.207297
 30
0.0
 11
-0.079932
 21
-4.209288
 31
0.0
  0
LINE
  8
0
  6
CONTINUOUS
 62
     7
  5
3D5
 10
-0.079932
 20
-4.209288
 30
0.0
 11
-0.080797
 21
-4.211258
 31
0.0
  0
LINE
  8
0
  6
CONTINUOUS
 62
     7
  5
3D6
 10
-0.080797
 20
-4.211258
 30
0.0
 11
-0.081816
 21
-4.213204
 31
0.0
  0
LINE
  8
0
  6
CONTINUOUS
 62
     7
  5
3D7
 10
-0.081816
 20
-4.213204
 30
0.0
 11
-0.082986
 21
-4.215122
 31
0.0
  0
LINE
  8
0
  6
CONTINUOUS
 62
     7
  5
3D8
 10
-0.082986
 20
-4.215122
 30
0.0
 11
-0.084305
 21
-4.217007
 31
0.0
  0
LINE
  8
0
  6
CONTINUOUS
 62
     7
  5
3D9
 10
-0.084305
 20
-4.217007
 30
0.0
 11
-0.08577
 21
-4.218857
 31
0.0
  0
LINE
  8
0
  6
CONTINUOUS
 62
     7
  5
3DA
 10
-0.08577
 20
-4.218857
 30
0.0
 11
-0.087378
 21
-4.220668
 31
0.0
  0
LINE
  8
0
  6
CONTINUOUS
 62
     7
  5
3DB
 10
-0.087378
 20
-4.220668
 30
0.0
 11
-0.089126
 21
-4.222435
 31
0.0
  0
LINE
  8
0
  6
CONTINUOUS
 62
     7
  5
3DC
 10
-0.089126
 20
-4.222435
 30
0.0
 11
-0.091011
 21
-4.224155
 31
0.0
  0
LINE
  8
0
  6
CONTINUOUS
 62
     7
  5
3DD
 10
-0.091011
 20
-4.224155
 30
0.0
 11
-0.093028
 21
-4.225825
 31
0.0
  0
LINE
  8
0
  6
CONTINUOUS
 62
     7
  5
3DE
 10
-0.093028
 20
-4.225825
 30
0.0
 11
-0.095174
 21
-4.227442
 31
0.0
  0
LINE
  8
0
  6
CONTINUOUS
 62
     7
  5
3DF
 10
-0.095174
 20
-4.227442
 30
0.0
 11
-0.097445
 21
-4.229002
 31
0.0
  0
LINE
  8
0
  6
CONTINUOUS
 62
     7
  5
3E0
 10
-0.097445
 20
-4.229002
 30
0.0
 11
-0.099834
 21
-4.230501
 31
0.0
  0
LINE
  8
0
  6
CONTINUOUS
 62
     7
  5
3E1
 10
-0.099834
 20
-4.230501
 30
0.0
 11
-0.102339
 21
-4.231938
 31
0.0
  0
LINE
  8
0
  6
CONTINUOUS
 62
     7
  5
3E2
 10
-0.102339
 20
-4.231938
 30
0.0
 11
-0.104954
 21
-4.233309
 31
0.0
  0
LINE
  8
0
  6
CONTINUOUS
 62
     7
  5
3E3
 10
-0.104954
 20
-4.233309
 30
0.0
 11
-0.107673
 21
-4.234611
 31
0.0
  0
LINE
  8
0
  6
CONTINUOUS
 62
     7
  5
3E4
 10
-0.107673
 20
-4.234611
 30
0.0
 11
-0.110492
 21
-4.235842
 31
0.0
  0
LINE
  8
0
  6
CONTINUOUS
 62
     7
  5
3E5
 10
-0.110492
 20
-4.235842
 30
0.0
 11
-0.113404
 21
-4.236999
 31
0.0
  0
LINE
  8
0
  6
CONTINUOUS
 62
     7
  5
3E6
 10
-0.113404
 20
-4.236999
 30
0.0
 11
-0.116403
 21
-4.23808
 31
0.0
  0
LINE
  8
0
  6
CONTINUOUS
 62
     7
  5
3E7
 10
-0.116403
 20
-4.23808
 30
0.0
 11
-0.119484
 21
-4.239083
 31
0.0
  0
LINE
  8
0
  6
CONTINUOUS
 62
     7
  5
3E8
 10
-0.119484
 20
-4.239083
 30
0.0
 11
-0.12264
 21
-4.240005
 31
0.0
  0
LINE
  8
0
  6
CONTINUOUS
 62
     7
  5
3E9
 10
-0.12264
 20
-4.240005
 30
0.0
 11
-0.125866
 21
-4.240846
 31
0.0
  0
LINE
  8
0
  6
CONTINUOUS
 62
     7
  5
3EA
 10
-0.125866
 20
-4.240846
 30
0.0
 11
-0.129153
 21
-4.241602
 31
0.0
  0
LINE
  8
0
  6
CONTINUOUS
 62
     7
  5
3EB
 10
-0.129153
 20
-4.241602
 30
0.0
 11
-0.132497
 21
-4.242273
 31
0.0
  0
LINE
  8
0
  6
CONTINUOUS
 62
     7
  5
3EC
 10
-0.132497
 20
-4.242273
 30
0.0
 11
-0.13589
 21
-4.242857
 31
0.0
  0
LINE
  8
0
  6
CONTINUOUS
 62
     7
  5
3ED
 10
-0.13589
 20
-4.242857
 30
0.0
 11
-0.139325
 21
-4.243354
 31
0.0
  0
LINE
  8
0
  6
CONTINUOUS
 62
     7
  5
3EE
 10
-0.139325
 20
-4.243354
 30
0.0
 11
-0.142795
 21
-4.243761
 31
0.0
  0
LINE
  8
0
  6
CONTINUOUS
 62
     7
  5
3EF
 10
-0.142795
 20
-4.243761
 30
0.0
 11
-0.146294
 21
-4.244079
 31
0.0
  0
LINE
  8
0
  6
CONTINUOUS
 62
     7
  5
3F0
 10
-0.146294
 20
-4.244079
 30
0.0
 11
-0.149814
 21
-4.244307
 31
0.0
  0
LINE
  8
0
  6
CONTINUOUS
 62
     7
  5
3F1
 10
-0.149814
 20
-4.244307
 30
0.0
 11
-0.153348
 21
-4.244443
 31
0.0
  0
LINE
  8
0
  6
CONTINUOUS
 62
     7
  5
3F2
 10
-0.153348
 20
-4.244443
 30
0.0
 11
-0.15689
 21
-4.244489
 31
0.0
  0
LINE
  8
0
  6
CONTINUOUS
 62
     7
  5
3F3
 10
-0.444882
 20
-4.445724
 30
0.0
 11
-0.444882
 21
-4.289406
 31
0.0
  0
LINE
  8
0
  6
CONTINUOUS
 62
     7
  5
3F4
 10
-0.307882
 20
-4.445724
 30
0.0
 11
-0.307882
 21
-4.289406
 31
0.0
  0
LINE
  8
0
  6
CONTINUOUS
 62
     7
  5
3F5
 10
-1.194882
 20
-4.113218
 30
0.0
 11
-1.194882
 21
-4.296231
 31
0.0
  0
LINE
  8
0
  6
CONTINUOUS
 62
     7
  5
3F6
 10
-1.069882
 20
-4.079724
 30
0.0
 11
-1.069882
 21
-4.329724
 31
0.0
  0
LINE
  8
0
  6
CONTINUOUS
 62
     7
  5
3F7
 10
0.109843
 20
-2.527559
 30
0.0
 11
0.109843
 21
-2.620079
 31
0.0
  0
ARC
  8
0
  6
CONTINUOUS
 62
     7
  5
3F8
 10
0.141732
 20
-2.78189
 30
0.0
 40
0.11811
 50
270.0
 51
0.0
  0
LINE
  8
0
  6
CONTINUOUS
 62
     7
  5
3F9
 10
0.259843
 20
-2.78189
 30
0.0
 11
0.259843
 21
-2.402328
 31
0.0
  0
ARC
  8
0
  6
CONTINUOUS
 62
     7
  5
3FA
 10
0.220472
 20
-2.402328
 30
0.0
 40
0.03937
 50
0.0
 51
120.717853
  0
ARC
  8
0
  6
CONTINUOUS
 62
     7
  5
3FB
 10
0.294882
 20
-2.527559
 30
0.0
 40
0.185039
 50
120.717853
 51
180.0
  0
LINE
  8
0
  6
CONTINUOUS
 62
     7
  5
3FC
 10
-0.077953
 20
-2.620079
 30
0.0
 11
-0.077953
 21
-2.542126
 31
0.0
  0
LINE
  8
0
  6
CONTINUOUS
 62
     7
  5
3FD
 10
0.0
 20
-2.542126
 30
0.0
 11
-0.077953
 21
-2.542126
 31
0.0
  0
LINE
  8
0
  6
CONTINUOUS
 62
     7
  5
3FE
 10
-0.077953
 20
-1.806061
 30
0.0
 11
0.0
 21
-1.806061
 31
0.0
  0
LINE
  8
0
  6
CONTINUOUS
 62
     7
  5
3FF
 10
-0.077953
 20
-1.806061
 30
0.0
 11
-0.077953
 21
-2.483071
 31
0.0
  0
LINE
  8
0
  6
CONTINUOUS
 62
     7
  5
400
 10
-0.077953
 20
-2.483071
 30
0.0
 11
-0.077953
 21
-2.542126
 31
0.0
  0
LINE
  8
0
  6
CONTINUOUS
 62
     7
  5
401
 10
-0.077953
 20
-1.551181
 30
0.0
 11
-0.077953
 21
-1.552756
 31
0.0
  0
LINE
  8
0
  6
CONTINUOUS
 62
     7
  5
402
 10
-0.077953
 20
-1.551181
 30
0.0
 11
-0.077953
 21
-1.806061
 31
0.0
  0
LINE
  8
0
  6
CONTINUOUS
 62
     7
  5
403
 10
0.07874
 20
-2.620079
 30
0.0
 11
-0.077953
 21
-2.620079
 31
0.0
  0
LINE
  8
0
  6
CONTINUOUS
 62
     7
  5
404
 10
0.109843
 20
-2.620079
 30
0.0
 11
0.07874
 21
-2.620079
 31
0.0
  0
LINE
  8
0
  6
CONTINUOUS
 62
     7
  5
405
 10
0.141732
 20
-2.9
 30
0.0
 11
0.07874
 21
-2.9
 31
0.0
  0
LINE
  8
0
  6
CONTINUOUS
 62
     7
  5
406
 10
-0.077953
 20
-2.9
 30
0.0
 11
-0.077953
 21
-2.620079
 31
0.0
  0
LINE
  8
0
  6
CONTINUOUS
 62
     7
  5
407
 10
0.07874
 20
-2.9
 30
0.0
 11
-0.077953
 21
-2.9
 31
0.0
  0
LINE
  8
0
  6
CONTINUOUS
 62
     7
  5
408
 10
-0.077953
 20
-3.0
 30
0.0
 11
-0.077953
 21
-2.9
 31
0.0
  0
LINE
  8
0
  6
CONTINUOUS
 62
     7
  5
409
 10
0.0
 20
-3.0
 30
0.0
 11
-0.077953
 21
-3.0
 31
0.0
  0
LINE
  8
0
  6
CONTINUOUS
 62
     7
  5
40A
 10
-0.077953
 20
-4.199213
 30
0.0
 11
-0.077953
 21
-3.860136
 31
0.0
  0
LINE
  8
0
  6
CONTINUOUS
 62
     7
  5
40B
 10
-0.077953
 20
-3.860136
 30
0.0
 11
-0.077953
 21
-3.118091
 31
0.0
  0
LINE
  8
0
  6
CONTINUOUS
 62
     7
  5
40C
 10
-0.077953
 20
-3.118091
 30
0.0
 11
-0.077953
 21
-3.0
 31
0.0
  0
LINE
  8
0
  6
CONTINUOUS
 62
     7
  5
40D
 10
-0.739764
 20
-2.909848
 30
0.0
 11
-1.139764
 21
-2.909848
 31
0.0
  0
LINE
  8
0
  6
CONTINUOUS
 62
     7
  5
40E
 10
-0.739764
 20
-2.704123
 30
0.0
 11
-0.739764
 21
-2.909848
 31
0.0
  0
LINE
  8
0
  6
CONTINUOUS
 62
     7
  5
40F
 10
-0.798819
 20
-2.662365
 30
0.0
 11
-0.796169
 21
-2.662407
 31
0.0
  0
LINE
  8
0
  6
CONTINUOUS
 62
     7
  5
410
 10
-0.796169
 20
-2.662407
 30
0.0
 11
-0.793525
 21
-2.662533
 31
0.0
  0
LINE
  8
0
  6
CONTINUOUS
 62
     7
  5
411
 10
-0.793525
 20
-2.662533
 30
0.0
 11
-0.790892
 21
-2.662743
 31
0.0
  0
LINE
  8
0
  6
CONTINUOUS
 62
     7
  5
412
 10
-0.790892
 20
-2.662743
 30
0.0
 11
-0.788274
 21
-2.663036
 31
0.0
  0
LINE
  8
0
  6
CONTINUOUS
 62
     7
  5
413
 10
-0.788274
 20
-2.663036
 30
0.0
 11
-0.785678
 21
-2.663412
 31
0.0
  0
LINE
  8
0
  6
CONTINUOUS
 62
     7
  5
414
 10
-0.785678
 20
-2.663412
 30
0.0
 11
-0.783108
 21
-2.66387
 31
0.0
  0
LINE
  8
0
  6
CONTINUOUS
 62
     7
  5
415
 10
-0.783108
 20
-2.66387
 30
0.0
 11
-0.78057
 21
-2.664409
 31
0.0
  0
LINE
  8
0
  6
CONTINUOUS
 62
     7
  5
416
 10
-0.78057
 20
-2.664409
 30
0.0
 11
-0.778068
 21
-2.665027
 31
0.0
  0
LINE
  8
0
  6
CONTINUOUS
 62
     7
  5
417
 10
-0.778068
 20
-2.665027
 30
0.0
 11
-0.775609
 21
-2.665725
 31
0.0
  0
LINE
  8
0
  6
CONTINUOUS
 62
     7
  5
418
 10
-0.775609
 20
-2.665725
 30
0.0
 11
-0.773196
 21
-2.6665
 31
0.0
  0
LINE
  8
0
  6
CONTINUOUS
 62
     7
  5
419
 10
-0.773196
 20
-2.6665
 30
0.0
 11
-0.770835
 21
-2.667351
 31
0.0
  0
LINE
  8
0
  6
CONTINUOUS
 62
     7
  5
41A
 10
-0.770835
 20
-2.667351
 30
0.0
 11
-0.76853
 21
-2.668276
 31
0.0
  0
LINE
  8
0
  6
CONTINUOUS
 62
     7
  5
41B
 10
-0.76853
 20
-2.668276
 30
0.0
 11
-0.766286
 21
-2.669273
 31
0.0
  0
LINE
  8
0
  6
CONTINUOUS
 62
     7
  5
41C
 10
-0.766286
 20
-2.669273
 30
0.0
 11
-0.764107
 21
-2.67034
 31
0.0
  0
LINE
  8
0
  6
CONTINUOUS
 62
     7
  5
41D
 10
-0.764107
 20
-2.67034
 30
0.0
 11
-0.761999
 21
-2.671475
 31
0.0
  0
LINE
  8
0
  6
CONTINUOUS
 62
     7
  5
41E
 10
-0.761999
 20
-2.671475
 30
0.0
 11
-0.759964
 21
-2.672676
 31
0.0
  0
LINE
  8
0
  6
CONTINUOUS
 62
     7
  5
41F
 10
-0.759964
 20
-2.672676
 30
0.0
 11
-0.758008
 21
-2.67394
 31
0.0
  0
LINE
  8
0
  6
CONTINUOUS
 62
     7
  5
420
 10
-0.758008
 20
-2.67394
 30
0.0
 11
-0.756134
 21
-2.675265
 31
0.0
  0
LINE
  8
0
  6
CONTINUOUS
 62
     7
  5
421
 10
-0.756134
 20
-2.675265
 30
0.0
 11
-0.754346
 21
-2.676649
 31
0.0
  0
LINE
  8
0
  6
CONTINUOUS
 62
     7
  5
422
 10
-0.754346
 20
-2.676649
 30
0.0
 11
-0.752648
 21
-2.678087
 31
0.0
  0
LINE
  8
0
  6
CONTINUOUS
 62
     7
  5
423
 10
-0.752648
 20
-2.678087
 30
0.0
 11
-0.751042
 21
-2.679578
 31
0.0
  0
LINE
  8
0
  6
CONTINUOUS
 62
     7
  5
424
 10
-0.751042
 20
-2.679578
 30
0.0
 11
-0.749533
 21
-2.681119
 31
0.0
  0
LINE
  8
0
  6
CONTINUOUS
 62
     7
  5
425
 10
-0.749533
 20
-2.681119
 30
0.0
 11
-0.748123
 21
-2.682705
 31
0.0
  0
LINE
  8
0
  6
CONTINUOUS
 62
     7
  5
426
 10
-0.748123
 20
-2.682705
 30
0.0
 11
-0.746815
 21
-2.684335
 31
0.0
  0
LINE
  8
0
  6
CONTINUOUS
 62
     7
  5
427
 10
-0.746815
 20
-2.684335
 30
0.0
 11
-0.745612
 21
-2.686005
 31
0.0
  0
LINE
  8
0
  6
CONTINUOUS
 62
     7
  5
428
 10
-0.745612
 20
-2.686005
 30
0.0
 11
-0.744516
 21
-2.687711
 31
0.0
  0
LINE
  8
0
  6
CONTINUOUS
 62
     7
  5
429
 10
-0.744516
 20
-2.687711
 30
0.0
 11
-0.743529
 21
-2.68945
 31
0.0
  0
LINE
  8
0
  6
CONTINUOUS
 62
     7
  5
42A
 10
-0.743529
 20
-2.68945
 30
0.0
 11
-0.742654
 21
-2.691219
 31
0.0
  0
LINE
  8
0
  6
CONTINUOUS
 62
     7
  5
42B
 10
-0.742654
 20
-2.691219
 30
0.0
 11
-0.741892
 21
-2.693014
 31
0.0
  0
LINE
  8
0
  6
CONTINUOUS
 62
     7
  5
42C
 10
-0.741892
 20
-2.693014
 30
0.0
 11
-0.741244
 21
-2.694831
 31
0.0
  0
LINE
  8
0
  6
CONTINUOUS
 62
     7
  5
42D
 10
-0.741244
 20
-2.694831
 30
0.0
 11
-0.740713
 21
-2.696667
 31
0.0
  0
LINE
  8
0
  6
CONTINUOUS
 62
     7
  5
42E
 10
-0.740713
 20
-2.696667
 30
0.0
 11
-0.740298
 21
-2.698518
 31
0.0
  0
LINE
  8
0
  6
CONTINUOUS
 62
     7
  5
42F
 10
-0.740298
 20
-2.698518
 30
0.0
 11
-0.740002
 21
-2.70038
 31
0.0
  0
LINE
  8
0
  6
CONTINUOUS
 62
     7
  5
430
 10
-0.740002
 20
-2.70038
 30
0.0
 11
-0.739823
 21
-2.70225
 31
0.0
  0
LINE
  8
0
  6
CONTINUOUS
 62
     7
  5
431
 10
-0.739823
 20
-2.70225
 30
0.0
 11
-0.739764
 21
-2.704123
 31
0.0
  0
LINE
  8
0
  6
CONTINUOUS
 62
     7
  5
432
 10
-1.080709
 20
-2.662365
 30
0.0
 11
-0.798819
 21
-2.662365
 31
0.0
  0
LINE
  8
0
  6
CONTINUOUS
 62
     7
  5
433
 10
-1.139764
 20
-2.704123
 30
0.0
 11
-1.139704
 21
-2.70225
 31
0.0
  0
LINE
  8
0
  6
CONTINUOUS
 62
     7
  5
434
 10
-1.139704
 20
-2.70225
 30
0.0
 11
-1.139526
 21
-2.70038
 31
0.0
  0
LINE
  8
0
  6
CONTINUOUS
 62
     7
  5
435
 10
-1.139526
 20
-2.70038
 30
0.0
 11
-1.139229
 21
-2.698518
 31
0.0
  0
LINE
  8
0
  6
CONTINUOUS
 62
     7
  5
436
 10
-1.139229
 20
-2.698518
 30
0.0
 11
-1.138815
 21
-2.696667
 31
0.0
  0
LINE
  8
0
  6
CONTINUOUS
 62
     7
  5
437
 10
-1.138815
 20
-2.696667
 30
0.0
 11
-1.138283
 21
-2.694831
 31
0.0
  0
LINE
  8
0
  6
CONTINUOUS
 62
     7
  5
438
 10
-1.138283
 20
-2.694831
 30
0.0
 11
-1.137636
 21
-2.693014
 31
0.0
  0
LINE
  8
0
  6
CONTINUOUS
 62
     7
  5
439
 10
-1.137636
 20
-2.693014
 30
0.0
 11
-1.136873
 21
-2.691219
 31
0.0
  0
LINE
  8
0
  6
CONTINUOUS
 62
     7
  5
43A
 10
-1.136873
 20
-2.691219
 30
0.0
 11
-1.135998
 21
-2.68945
 31
0.0
  0
LINE
  8
0
  6
CONTINUOUS
 62
     7
  5
43B
 10
-1.135998
 20
-2.68945
 30
0.0
 11
-1.135011
 21
-2.687711
 31
0.0
  0
LINE
  8
0
  6
CONTINUOUS
 62
     7
  5
43C
 10
-1.135011
 20
-2.687711
 30
0.0
 11
-1.133915
 21
-2.686005
 31
0.0
  0
LINE
  8
0
  6
CONTINUOUS
 62
     7
  5
43D
 10
-1.133915
 20
-2.686005
 30
0.0
 11
-1.132712
 21
-2.684335
 31
0.0
  0
LINE
  8
0
  6
CONTINUOUS
 62
     7
  5
43E
 10
-1.132712
 20
-2.684335
 30
0.0
 11
-1.131404
 21
-2.682705
 31
0.0
  0
LINE
  8
0
  6
CONTINUOUS
 62
     7
  5
43F
 10
-1.131404
 20
-2.682705
 30
0.0
 11
-1.129994
 21
-2.681119
 31
0.0
  0
LINE
  8
0
  6
CONTINUOUS
 62
     7
  5
440
 10
-1.129994
 20
-2.681119
 30
0.0
 11
-1.128485
 21
-2.679578
 31
0.0
  0
LINE
  8
0
  6
CONTINUOUS
 62
     7
  5
441
 10
-1.128485
 20
-2.679578
 30
0.0
 11
-1.12688
 21
-2.678087
 31
0.0
  0
LINE
  8
0
  6
CONTINUOUS
 62
     7
  5
442
 10
-1.12688
 20
-2.678087
 30
0.0
 11
-1.125181
 21
-2.676649
 31
0.0
  0
LINE
  8
0
  6
CONTINUOUS
 62
     7
  5
443
 10
-1.125181
 20
-2.676649
 30
0.0
 11
-1.123393
 21
-2.675265
 31
0.0
  0
LINE
  8
0
  6
CONTINUOUS
 62
     7
  5
444
 10
-1.123393
 20
-2.675265
 30
0.0
 11
-1.121519
 21
-2.67394
 31
0.0
  0
LINE
  8
0
  6
CONTINUOUS
 62
     7
  5
445
 10
-1.121519
 20
-2.67394
 30
0.0
 11
-1.119563
 21
-2.672676
 31
0.0
  0
LINE
  8
0
  6
CONTINUOUS
 62
     7
  5
446
 10
-1.119563
 20
-2.672676
 30
0.0
 11
-1.117529
 21
-2.671475
 31
0.0
  0
LINE
  8
0
  6
CONTINUOUS
 62
     7
  5
447
 10
-1.117529
 20
-2.671475
 30
0.0
 11
-1.11542
 21
-2.67034
 31
0.0
  0
LINE
  8
0
  6
CONTINUOUS
 62
     7
  5
448
 10
-1.11542
 20
-2.67034
 30
0.0
 11
-1.113242
 21
-2.669273
 31
0.0
  0
LINE
  8
0
  6
CONTINUOUS
 62
     7
  5
449
 10
-1.113242
 20
-2.669273
 30
0.0
 11
-1.110998
 21
-2.668276
 31
0.0
  0
LINE
  8
0
  6
CONTINUOUS
 62
     7
  5
44A
 10
-1.110998
 20
-2.668276
 30
0.0
 11
-1.108693
 21
-2.667351
 31
0.0
  0
LINE
  8
0
  6
CONTINUOUS
 62
     7
  5
44B
 10
-1.108693
 20
-2.667351
 30
0.0
 11
-1.106332
 21
-2.6665
 31
0.0
  0
LINE
  8
0
  6
CONTINUOUS
 62
     7
  5
44C
 10
-1.106332
 20
-2.6665
 30
0.0
 11
-1.103919
 21
-2.665725
 31
0.0
  0
LINE
  8
0
  6
CONTINUOUS
 62
     7
  5
44D
 10
-1.103919
 20
-2.665725
 30
0.0
 11
-1.101459
 21
-2.665027
 31
0.0
  0
LINE
  8
0
  6
CONTINUOUS
 62
     7
  5
44E
 10
-1.101459
 20
-2.665027
 30
0.0
 11
-1.098958
 21
-2.664409
 31
0.0
  0
LINE
  8
0
  6
CONTINUOUS
 62
     7
  5
44F
 10
-1.098958
 20
-2.664409
 30
0.0
 11
-1.096419
 21
-2.66387
 31
0.0
  0
LINE
  8
0
  6
CONTINUOUS
 62
     7
  5
450
 10
-1.096419
 20
-2.66387
 30
0.0
 11
-1.09385
 21
-2.663412
 31
0.0
  0
LINE
  8
0
  6
CONTINUOUS
 62
     7
  5
451
 10
-1.09385
 20
-2.663412
 30
0.0
 11
-1.091253
 21
-2.663036
 31
0.0
  0
LINE
  8
0
  6
CONTINUOUS
 62
     7
  5
452
 10
-1.091253
 20
-2.663036
 30
0.0
 11
-1.088636
 21
-2.662743
 31
0.0
  0
LINE
  8
0
  6
CONTINUOUS
 62
     7
  5
453
 10
-1.088636
 20
-2.662743
 30
0.0
 11
-1.086002
 21
-2.662533
 31
0.0
  0
LINE
  8
0
  6
CONTINUOUS
 62
     7
  5
454
 10
-1.086002
 20
-2.662533
 30
0.0
 11
-1.083358
 21
-2.662407
 31
0.0
  0
LINE
  8
0
  6
CONTINUOUS
 62
     7
  5
455
 10
-1.083358
 20
-2.662407
 30
0.0
 11
-1.080709
 21
-2.662365
 31
0.0
  0
LINE
  8
0
  6
CONTINUOUS
 62
     7
  5
456
 10
-1.139764
 20
-2.909848
 30
0.0
 11
-1.139764
 21
-2.704123
 31
0.0
  0
LINE
  8
0
  6
CONTINUOUS
 62
     7
  5
457
 10
-1.139764
 20
-2.649002
 30
0.0
 11
-1.139704
 21
-2.647129
 31
0.0
  0
LINE
  8
0
  6
CONTINUOUS
 62
     7
  5
458
 10
-1.139704
 20
-2.647129
 30
0.0
 11
-1.139526
 21
-2.645259
 31
0.0
  0
LINE
  8
0
  6
CONTINUOUS
 62
     7
  5
459
 10
-1.139526
 20
-2.645259
 30
0.0
 11
-1.139229
 21
-2.643397
 31
0.0
  0
LINE
  8
0
  6
CONTINUOUS
 62
     7
  5
45A
 10
-1.139229
 20
-2.643397
 30
0.0
 11
-1.138815
 21
-2.641546
 31
0.0
  0
LINE
  8
0
  6
CONTINUOUS
 62
     7
  5
45B
 10
-1.138815
 20
-2.641546
 30
0.0
 11
-1.138283
 21
-2.63971
 31
0.0
  0
LINE
  8
0
  6
CONTINUOUS
 62
     7
  5
45C
 10
-1.138283
 20
-2.63971
 30
0.0
 11
-1.137636
 21
-2.637893
 31
0.0
  0
LINE
  8
0
  6
CONTINUOUS
 62
     7
  5
45D
 10
-1.137636
 20
-2.637893
 30
0.0
 11
-1.136873
 21
-2.636098
 31
0.0
  0
LINE
  8
0
  6
CONTINUOUS
 62
     7
  5
45E
 10
-1.136873
 20
-2.636098
 30
0.0
 11
-1.135998
 21
-2.634329
 31
0.0
  0
LINE
  8
0
  6
CONTINUOUS
 62
     7
  5
45F
 10
-1.135998
 20
-2.634329
 30
0.0
 11
-1.135011
 21
-2.63259
 31
0.0
  0
LINE
  8
0
  6
CONTINUOUS
 62
     7
  5
460
 10
-1.135011
 20
-2.63259
 30
0.0
 11
-1.133915
 21
-2.630884
 31
0.0
  0
LINE
  8
0
  6
CONTINUOUS
 62
     7
  5
461
 10
-1.133915
 20
-2.630884
 30
0.0
 11
-1.132712
 21
-2.629214
 31
0.0
  0
LINE
  8
0
  6
CONTINUOUS
 62
     7
  5
462
 10
-1.132712
 20
-2.629214
 30
0.0
 11
-1.131404
 21
-2.627584
 31
0.0
  0
LINE
  8
0
  6
CONTINUOUS
 62
     7
  5
463
 10
-1.131404
 20
-2.627584
 30
0.0
 11
-1.129994
 21
-2.625998
 31
0.0
  0
LINE
  8
0
  6
CONTINUOUS
 62
     7
  5
464
 10
-1.129994
 20
-2.625998
 30
0.0
 11
-1.128485
 21
-2.624457
 31
0.0
  0
LINE
  8
0
  6
CONTINUOUS
 62
     7
  5
465
 10
-1.128485
 20
-2.624457
 30
0.0
 11
-1.12688
 21
-2.622966
 31
0.0
  0
LINE
  8
0
  6
CONTINUOUS
 62
     7
  5
466
 10
-1.12688
 20
-2.622966
 30
0.0
 11
-1.125181
 21
-2.621528
 31
0.0
  0
LINE
  8
0
  6
CONTINUOUS
 62
     7
  5
467
 10
-1.125181
 20
-2.621528
 30
0.0
 11
-1.123393
 21
-2.620145
 31
0.0
  0
LINE
  8
0
  6
CONTINUOUS
 62
     7
  5
468
 10
-1.123393
 20
-2.620145
 30
0.0
 11
-1.121519
 21
-2.618819
 31
0.0
  0
LINE
  8
0
  6
CONTINUOUS
 62
     7
  5
469
 10
-1.121519
 20
-2.618819
 30
0.0
 11
-1.119563
 21
-2.617555
 31
0.0
  0
LINE
  8
0
  6
CONTINUOUS
 62
     7
  5
46A
 10
-1.119563
 20
-2.617555
 30
0.0
 11
-1.117529
 21
-2.616354
 31
0.0
  0
LINE
  8
0
  6
CONTINUOUS
 62
     7
  5
46B
 10
-1.117529
 20
-2.616354
 30
0.0
 11
-1.11542
 21
-2.615219
 31
0.0
  0
LINE
  8
0
  6
CONTINUOUS
 62
     7
  5
46C
 10
-1.11542
 20
-2.615219
 30
0.0
 11
-1.113242
 21
-2.614152
 31
0.0
  0
LINE
  8
0
  6
CONTINUOUS
 62
     7
  5
46D
 10
-1.113242
 20
-2.614152
 30
0.0
 11
-1.110998
 21
-2.613155
 31
0.0
  0
LINE
  8
0
  6
CONTINUOUS
 62
     7
  5
46E
 10
-1.110998
 20
-2.613155
 30
0.0
 11
-1.108693
 21
-2.61223
 31
0.0
  0
LINE
  8
0
  6
CONTINUOUS
 62
     7
  5
46F
 10
-1.108693
 20
-2.61223
 30
0.0
 11
-1.106332
 21
-2.611379
 31
0.0
  0
LINE
  8
0
  6
CONTINUOUS
 62
     7
  5
470
 10
-1.106332
 20
-2.611379
 30
0.0
 11
-1.103919
 21
-2.610604
 31
0.0
  0
LINE
  8
0
  6
CONTINUOUS
 62
     7
  5
471
 10
-1.103919
 20
-2.610604
 30
0.0
 11
-1.101459
 21
-2.609907
 31
0.0
  0
LINE
  8
0
  6
CONTINUOUS
 62
     7
  5
472
 10
-1.101459
 20
-2.609907
 30
0.0
 11
-1.098958
 21
-2.609288
 31
0.0
  0
LINE
  8
0
  6
CONTINUOUS
 62
     7
  5
473
 10
-1.098958
 20
-2.609288
 30
0.0
 11
-1.096419
 21
-2.608749
 31
0.0
  0
LINE
  8
0
  6
CONTINUOUS
 62
     7
  5
474
 10
-1.096419
 20
-2.608749
 30
0.0
 11
-1.09385
 21
-2.608291
 31
0.0
  0
LINE
  8
0
  6
CONTINUOUS
 62
     7
  5
475
 10
-1.09385
 20
-2.608291
 30
0.0
 11
-1.091253
 21
-2.607915
 31
0.0
  0
LINE
  8
0
  6
CONTINUOUS
 62
     7
  5
476
 10
-1.091253
 20
-2.607915
 30
0.0
 11
-1.088636
 21
-2.607622
 31
0.0
  0
LINE
  8
0
  6
CONTINUOUS
 62
     7
  5
477
 10
-1.088636
 20
-2.607622
 30
0.0
 11
-1.086002
 21
-2.607412
 31
0.0
  0
LINE
  8
0
  6
CONTINUOUS
 62
     7
  5
478
 10
-1.086002
 20
-2.607412
 30
0.0
 11
-1.083358
 21
-2.607286
 31
0.0
  0
LINE
  8
0
  6
CONTINUOUS
 62
     7
  5
479
 10
-1.083358
 20
-2.607286
 30
0.0
 11
-1.080709
 21
-2.607244
 31
0.0
  0
LINE
  8
0
  6
CONTINUOUS
 62
     7
  5
47A
 10
-1.139764
 20
-2.649002
 30
0.0
 11
-1.139764
 21
-2.704123
 31
0.0
  0
LINE
  8
0
  6
CONTINUOUS
 62
     7
  5
47B
 10
-1.080709
 20
-2.607244
 30
0.0
 11
-0.798819
 21
-2.607244
 31
0.0
  0
LINE
  8
0
  6
CONTINUOUS
 62
     7
  5
47C
 10
-0.739764
 20
-2.649002
 30
0.0
 11
-0.739764
 21
-2.704123
 31
0.0
  0
LINE
  8
0
  6
CONTINUOUS
 62
     7
  5
47D
 10
-0.798819
 20
-2.607244
 30
0.0
 11
-0.796169
 21
-2.607286
 31
0.0
  0
LINE
  8
0
  6
CONTINUOUS
 62
     7
  5
47E
 10
-0.796169
 20
-2.607286
 30
0.0
 11
-0.793525
 21
-2.607412
 31
0.0
  0
LINE
  8
0
  6
CONTINUOUS
 62
     7
  5
47F
 10
-0.793525
 20
-2.607412
 30
0.0
 11
-0.790892
 21
-2.607622
 31
0.0
  0
LINE
  8
0
  6
CONTINUOUS
 62
     7
  5
480
 10
-0.790892
 20
-2.607622
 30
0.0
 11
-0.788274
 21
-2.607915
 31
0.0
  0
LINE
  8
0
  6
CONTINUOUS
 62
     7
  5
481
 10
-0.788274
 20
-2.607915
 30
0.0
 11
-0.785678
 21
-2.608291
 31
0.0
  0
LINE
  8
0
  6
CONTINUOUS
 62
     7
  5
482
 10
-0.785678
 20
-2.608291
 30
0.0
 11
-0.783108
 21
-2.608749
 31
0.0
  0
LINE
  8
0
  6
CONTINUOUS
 62
     7
  5
483
 10
-0.783108
 20
-2.608749
 30
0.0
 11
-0.78057
 21
-2.609288
 31
0.0
  0
LINE
  8
0
  6
CONTINUOUS
 62
     7
  5
484
 10
-0.78057
 20
-2.609288
 30
0.0
 11
-0.778068
 21
-2.609907
 31
0.0
  0
LINE
  8
0
  6
CONTINUOUS
 62
     7
  5
485
 10
-0.778068
 20
-2.609907
 30
0.0
 11
-0.775609
 21
-2.610604
 31
0.0
  0
LINE
  8
0
  6
CONTINUOUS
 62
     7
  5
486
 10
-0.775609
 20
-2.610604
 30
0.0
 11
-0.773196
 21
-2.611379
 31
0.0
  0
LINE
  8
0
  6
CONTINUOUS
 62
     7
  5
487
 10
-0.773196
 20
-2.611379
 30
0.0
 11
-0.770835
 21
-2.61223
 31
0.0
  0
LINE
  8
0
  6
CONTINUOUS
 62
     7
  5
488
 10
-0.770835
 20
-2.61223
 30
0.0
 11
-0.76853
 21
-2.613155
 31
0.0
  0
LINE
  8
0
  6
CONTINUOUS
 62
     7
  5
489
 10
-0.76853
 20
-2.613155
 30
0.0
 11
-0.766286
 21
-2.614152
 31
0.0
  0
LINE
  8
0
  6
CONTINUOUS
 62
     7
  5
48A
 10
-0.766286
 20
-2.614152
 30
0.0
 11
-0.764107
 21
-2.615219
 31
0.0
  0
LINE
  8
0
  6
CONTINUOUS
 62
     7
  5
48B
 10
-0.764107
 20
-2.615219
 30
0.0
 11
-0.761999
 21
-2.616354
 31
0.0
  0
LINE
  8
0
  6
CONTINUOUS
 62
     7
  5
48C
 10
-0.761999
 20
-2.616354
 30
0.0
 11
-0.759964
 21
-2.617555
 31
0.0
  0
LINE
  8
0
  6
CONTINUOUS
 62
     7
  5
48D
 10
-0.759964
 20
-2.617555
 30
0.0
 11
-0.758008
 21
-2.618819
 31
0.0
  0
LINE
  8
0
  6
CONTINUOUS
 62
     7
  5
48E
 10
-0.758008
 20
-2.618819
 30
0.0
 11
-0.756134
 21
-2.620145
 31
0.0
  0
LINE
  8
0
  6
CONTINUOUS
 62
     7
  5
48F
 10
-0.756134
 20
-2.620145
 30
0.0
 11
-0.754346
 21
-2.621528
 31
0.0
  0
LINE
  8
0
  6
CONTINUOUS
 62
     7
  5
490
 10
-0.754346
 20
-2.621528
 30
0.0
 11
-0.752648
 21
-2.622966
 31
0.0
  0
LINE
  8
0
  6
CONTINUOUS
 62
     7
  5
491
 10
-0.752648
 20
-2.622966
 30
0.0
 11
-0.751042
 21
-2.624457
 31
0.0
  0
LINE
  8
0
  6
CONTINUOUS
 62
     7
  5
492
 10
-0.751042
 20
-2.624457
 30
0.0
 11
-0.749533
 21
-2.625998
 31
0.0
  0
LINE
  8
0
  6
CONTINUOUS
 62
     7
  5
493
 10
-0.749533
 20
-2.625998
 30
0.0
 11
-0.748123
 21
-2.627584
 31
0.0
  0
LINE
  8
0
  6
CONTINUOUS
 62
     7
  5
494
 10
-0.748123
 20
-2.627584
 30
0.0
 11
-0.746815
 21
-2.629214
 31
0.0
  0
LINE
  8
0
  6
CONTINUOUS
 62
     7
  5
495
 10
-0.746815
 20
-2.629214
 30
0.0
 11
-0.745612
 21
-2.630884
 31
0.0
  0
LINE
  8
0
  6
CONTINUOUS
 62
     7
  5
496
 10
-0.745612
 20
-2.630884
 30
0.0
 11
-0.744516
 21
-2.63259
 31
0.0
  0
LINE
  8
0
  6
CONTINUOUS
 62
     7
  5
497
 10
-0.744516
 20
-2.63259
 30
0.0
 11
-0.743529
 21
-2.634329
 31
0.0
  0
LINE
  8
0
  6
CONTINUOUS
 62
     7
  5
498
 10
-0.743529
 20
-2.634329
 30
0.0
 11
-0.742654
 21
-2.636098
 31
0.0
  0
LINE
  8
0
  6
CONTINUOUS
 62
     7
  5
499
 10
-0.742654
 20
-2.636098
 30
0.0
 11
-0.741892
 21
-2.637893
 31
0.0
  0
LINE
  8
0
  6
CONTINUOUS
 62
     7
  5
49A
 10
-0.741892
 20
-2.637893
 30
0.0
 11
-0.741244
 21
-2.63971
 31
0.0
  0
LINE
  8
0
  6
CONTINUOUS
 62
     7
  5
49B
 10
-0.741244
 20
-2.63971
 30
0.0
 11
-0.740713
 21
-2.641546
 31
0.0
  0
LINE
  8
0
  6
CONTINUOUS
 62
     7
  5
49C
 10
-0.740713
 20
-2.641546
 30
0.0
 11
-0.740298
 21
-2.643397
 31
0.0
  0
LINE
  8
0
  6
CONTINUOUS
 62
     7
  5
49D
 10
-0.740298
 20
-2.643397
 30
0.0
 11
-0.740002
 21
-2.645259
 31
0.0
  0
LINE
  8
0
  6
CONTINUOUS
 62
     7
  5
49E
 10
-0.740002
 20
-2.645259
 30
0.0
 11
-0.739823
 21
-2.647129
 31
0.0
  0
LINE
  8
0
  6
CONTINUOUS
 62
     7
  5
49F
 10
-0.739823
 20
-2.647129
 30
0.0
 11
-0.739764
 21
-2.649002
 31
0.0
  0
LINE
  8
0
  6
CONTINUOUS
 62
     7
  5
4A0
 10
-1.139764
 20
-2.909848
 30
0.0
 11
-1.139764
 21
-3.309843
 31
0.0
  0
LINE
  8
0
  6
CONTINUOUS
 62
     7
  5
4A1
 10
-0.155906
 20
-3.0
 30
0.0
 11
-0.739764
 21
-3.0
 31
0.0
  0
LINE
  8
0
  6
CONTINUOUS
 62
     7
  5
4A2
 10
-0.077953
 20
-3.0
 30
0.0
 11
-0.155906
 21
-3.0
 31
0.0
  0
LINE
  8
0
  6
CONTINUOUS
 62
     7
  5
4A3
 10
-0.739764
 20
-3.0
 30
0.0
 11
-0.739764
 21
-2.909848
 31
0.0
  0
LINE
  8
0
  6
CONTINUOUS
 62
     7
  5
4A4
 10
0.0
 20
-3.118091
 30
0.0
 11
-0.077953
 21
-3.118091
 31
0.0
  0
LINE
  8
0
  6
CONTINUOUS
 62
     7
  5
4A5
 10
0.0
 20
-3.860136
 30
0.0
 11
-0.077953
 21
-3.860136
 31
0.0
  0
LINE
  8
0
  6
CONTINUOUS
 62
     7
  5
4A6
 10
-0.077953
 20
-3.564961
 30
0.0
 11
-0.155906
 21
-3.564961
 31
0.0
  0
LINE
  8
0
  6
CONTINUOUS
 62
     7
  5
4A7
 10
-0.155906
 20
-3.564961
 30
0.0
 11
-1.511024
 21
-3.564961
 31
0.0
  0
LINE
  8
0
  6
CONTINUOUS
 62
     7
  5
4A8
 10
-1.456677
 20
-2.739764
 30
0.0
 11
-1.511024
 21
-3.503543
 31
0.0
  0
LINE
  8
0
  6
CONTINUOUS
 62
     7
  5
4A9
 10
-1.511024
 20
-3.564961
 30
0.0
 11
-1.511024
 21
-3.503543
 31
0.0
  0
LINE
  8
0
  6
CONTINUOUS
 62
     7
  5
4AA
 10
-1.249213
 20
-3.309843
 30
0.0
 11
-1.276396
 21
-2.739764
 31
0.0
  0
LINE
  8
0
  6
CONTINUOUS
 62
     7
  5
4AB
 10
-1.276396
 20
-2.739764
 30
0.0
 11
-1.456677
 21
-2.739764
 31
0.0
  0
LINE
  8
0
  6
CONTINUOUS
 62
     7
  5
4AC
 10
-1.139764
 20
-3.309843
 30
0.0
 11
-1.249213
 21
-3.309843
 31
0.0
  0
LINE
  8
0
  6
CONTINUOUS
 62
     7
  5
4AD
 10
2.767717
 20
-1.066929
 30
0.0
 11
2.767717
 21
-1.350394
 31
0.0
  0
LINE
  8
0
  6
CONTINUOUS
 62
     7
  5
4AE
 10
2.767717
 20
2.61811
 30
0.0
 11
2.688976
 21
2.61811
 31
0.0
  0
LINE
  8
0
  6
CONTINUOUS
 62
     7
  5
4AF
 10
0.496063
 20
2.61811
 30
0.0
 11
0.267717
 21
2.61811
 31
0.0
  0
LINE
  8
0
  6
CONTINUOUS
 62
     7
  5
4B0
 10
0.106299
 20
2.61811
 30
0.0
 11
0.0
 21
2.61811
 31
0.0
  0
LINE
  8
0
  6
CONTINUOUS
 62
     7
  5
4B1
 10
2.767717
 20
2.61811
 30
0.0
 11
2.767717
 21
-1.066929
 31
0.0
  0
LINE
  8
0
  6
CONTINUOUS
 62
     7
  5
4B2
 10
0.350394
 20
2.5
 30
0.0
 11
0.350394
 21
2.338583
 31
0.0
  0
ARC
  8
0
  6
CONTINUOUS
 62
     7
  5
4B3
 10
0.295276
 20
2.527559
 30
0.0
 40
0.027559
 50
180.0
 51
270.0
  0
LINE
  8
0
  6
CONTINUOUS
 62
     7
  5
4B4
 10
0.267717
 20
2.61811
 30
0.0
 11
0.267717
 21
2.527559
 31
0.0
  0
LINE
  8
0
  6
CONTINUOUS
 62
     7
  5
4B5
 10
0.106299
 20
2.527559
 30
0.0
 11
0.106299
 21
2.61811
 31
0.0
  0
ARC
  8
0
  6
CONTINUOUS
 62
     7
  5
4B6
 10
0.295276
 20
2.527559
 30
0.0
 40
0.188976
 50
180.0
 51
270.0
  0
LINE
  8
0
  6
CONTINUOUS
 62
     7
  5
4B7
 10
0.350394
 20
2.338583
 30
0.0
 11
0.295276
 21
2.338583
 31
0.0
  0
LINE
  8
0
  6
CONTINUOUS
 62
     7
  5
4B8
 10
0.0
 20
0.809835
 30
0.0
 11
0.0
 21
2.61811
 31
0.0
  0
ARC
  8
0
  6
CONTINUOUS
 62
     7
  5
4B9
 10
0.19685
 20
0.809838
 30
0.0
 40
0.19685
 50
180.000602
 51
210.000023
  0
LINE
  8
0
  6
CONTINUOUS
 62
     7
  5
4BA
 10
0.026373
 20
0.711412
 30
0.0
 11
0.095016
 21
0.59252
 31
0.0
  0
ARC
  8
0
  6
CONTINUOUS
 62
     7
  5
4BB
 10
0.105244
 20
0.598425
 30
0.0
 40
0.011811
 50
210.000023
 51
270.0
  0
LINE
  8
0
  6
CONTINUOUS
 62
     7
  5
4BC
 10
0.105244
 20
0.586614
 30
0.0
 11
0.146583
 21
0.586614
 31
0.0
  0
ARC
  8
0
  6
CONTINUOUS
 62
     7
  5
4BD
 10
0.146586
 20
0.598425
 30
0.0
 40
0.011811
 50
269.983018
 51
325.135103
  0
LINE
  8
0
  6
CONTINUOUS
 62
     7
  5
4BE
 10
0.156277
 20
0.591673
 30
0.0
 11
0.22441
 21
0.688976
 31
0.0
  0
LINE
  8
0
  6
CONTINUOUS
 62
     7
  5
4BF
 10
0.22441
 20
0.688976
 30
0.0
 11
0.26106
 21
0.688976
 31
0.0
  0
LINE
  8
0
  6
CONTINUOUS
 62
     7
  5
4C0
 10
0.26106
 20
0.688976
 30
0.0
 11
0.26106
 21
-0.740158
 31
0.0
  0
LINE
  8
0
  6
CONTINUOUS
 62
     7
  5
4C1
 10
1.712598
 20
-0.740157
 30
0.0
 11
0.26106
 21
-0.740157
 31
0.0
  0
LINE
  8
0
  6
CONTINUOUS
 62
     7
  5
4C2
 10
1.712598
 20
-1.066929
 30
0.0
 11
1.712598
 21
-0.740157
 31
0.0
  0
LINE
  8
0
  6
CONTINUOUS
 62
     7
  5
4C3
 10
2.767717
 20
-1.066929
 30
0.0
 11
1.712598
 21
-1.066929
 31
0.0
  0
LINE
  8
0
  6
CONTINUOUS
 62
     7
  5
4C4
 10
2.688976
 20
2.61811
 30
0.0
 11
2.688976
 21
2.275591
 31
0.0
  0
LINE
  8
0
  6
CONTINUOUS
 62
     7
  5
4C5
 10
2.688976
 20
2.275591
 30
0.0
 11
0.350394
 21
2.275591
 31
0.0
  0
LINE
  8
0
  6
CONTINUOUS
 62
     7
  5
4C6
 10
0.350394
 20
2.275591
 30
0.0
 11
0.350394
 21
2.338583
 31
0.0
  0
LINE
  8
0
  6
CONTINUOUS
 62
     7
  5
4C7
 10
0.295276
 20
2.5
 30
0.0
 11
0.496063
 21
2.5
 31
0.0
  0
LINE
  8
0
  6
CONTINUOUS
 62
     7
  5
4C8
 10
0.496063
 20
2.5
 30
0.0
 11
0.496063
 21
2.61811
 31
0.0
  0
LINE
  8
0
  6
CONTINUOUS
 62
     7
  5
4C9
 10
0.267717
 20
2.61811
 30
0.0
 11
0.106299
 21
2.61811
 31
0.0
  0
ARC
  8
0
  6
CONTINUOUS
 62
     7
  5
4CA
 10
0.495496
 20
2.606299
 30
0.0
 40
0.011811
 50
0.500015
 51
87.250279
  0
LINE
  8
0
  6
CONTINUOUS
 62
     7
  5
4CB
 10
0.507725
 20
2.55854
 30
0.0
 11
0.507307
 21
2.606402
 31
0.0
  0
ARC
  8
0
  6
CONTINUOUS
 62
     7
  5
4CC
 10
0.566778
 20
2.559055
 30
0.0
 40
0.059055
 50
180.500015
 51
270.0
  0
LINE
  8
0
  6
CONTINUOUS
 62
     7
  5
4CD
 10
2.61763
 20
2.5
 30
0.0
 11
0.566778
 21
2.5
 31
0.0
  0
ARC
  8
0
  6
CONTINUOUS
 62
     7
  5
4CE
 10
2.61763
 20
2.559055
 30
0.0
 40
0.059055
 50
270.0
 51
360.0
  0
LINE
  8
0
  6
CONTINUOUS
 62
     7
  5
4CF
 10
2.676685
 20
2.61811
 30
0.0
 11
2.676685
 21
2.559055
 31
0.0
  0
LINE
  8
0
  6
CONTINUOUS
 62
     7
  5
4D0
 10
2.688976
 20
2.61811
 30
0.0
 11
2.676685
 21
2.61811
 31
0.0
  0
LINE
  8
0
  6
CONTINUOUS
 62
     7
  5
4D1
 10
2.767819
 20
2.61811
 30
0.0
 11
2.767717
 21
2.61811
 31
0.0
  0
ARC
  8
0
  6
CONTINUOUS
 62
     7
  5
4D2
 10
2.767819
 20
2.606299
 30
0.0
 40
0.011811
 50
0.499995
 51
90.0
  0
LINE
  8
0
  6
CONTINUOUS
 62
     7
  5
4D3
 10
2.781594
 20
2.381374
 30
0.0
 11
2.77963
 21
2.606402
 31
0.0
  0
ARC
  8
0
  6
CONTINUOUS
 62
     7
  5
4D4
 10
2.840646
 20
2.38189
 30
0.0
 40
0.059055
 50
180.499995
 51
270.0
  0
LINE
  8
0
  6
CONTINUOUS
 62
     7
  5
4D5
 10
3.073855
 20
2.322835
 30
0.0
 11
2.840646
 21
2.322835
 31
0.0
  0
LINE
  8
0
  6
CONTINUOUS
 62
     7
  5
4D6
 10
-0.621546
 20
3.731102
 30
0.0
 11
-0.815354
 21
3.731102
 31
0.0
  0
LINE
  8
0
  6
CONTINUOUS
 62
     7
  5
4D7
 10
-0.815354
 20
1.998819
 30
0.0
 11
-0.059055
 21
1.998819
 31
0.0
  0
ARC
  8
0
  6
CONTINUOUS
 62
     7
  5
4D8
 10
-0.059055
 20
2.057874
 30
0.0
 40
0.059055
 50
270.0
 51
0.0
  0
LINE
  8
0
  6
CONTINUOUS
 62
     7
  5
4D9
 10
3.323622
 20
2.468504
 30
0.0
 11
3.323622
 21
2.480315
 31
0.0
  0
LINE
  8
0
  6
CONTINUOUS
 62
     7
  5
4DA
 10
3.149213
 20
2.480315
 30
0.0
 11
3.323622
 21
2.480315
 31
0.0
  0
LINE
  8
0
  6
CONTINUOUS
 62
     7
  5
4DB
 10
3.141732
 20
2.322835
 30
0.0
 11
3.141732
 21
2.291339
 31
0.0
  0
LINE
  8
0
  6
CONTINUOUS
 62
     7
  5
4DC
 10
2.768717
 20
2.291339
 30
0.0
 11
2.768717
 21
-2.606299
 31
0.0
  0
LINE
  8
0
  6
CONTINUOUS
 62
     7
  5
4DD
 10
3.141732
 20
-2.606299
 30
0.0
 11
3.141732
 21
-1.523622
 31
0.0
  0
LINE
  8
0
  6
CONTINUOUS
 62
     7
  5
4DE
 10
3.323622
 20
-1.523622
 30
0.0
 11
3.323622
 21
2.468504
 31
0.0
  0
LINE
  8
0
  6
CONTINUOUS
 62
     7
  5
4DF
 10
3.640776
 20
-0.563302
 30
0.0
 11
3.484252
 21
-0.51458
 31
0.0
  0
ARC
  8
0
  6
CONTINUOUS
 62
     7
  5
4E0
 10
3.664178
 20
-0.48812
 30
0.0
 40
0.07874
 50
252.71
 51
269.71
  0
LINE
  8
0
  6
CONTINUOUS
 62
     7
  5
4E1
 10
3.909193
 20
-0.568101
 30
0.0
 11
3.66378
 21
-0.566859
 31
0.0
  0
ARC
  8
0
  6
CONTINUOUS
 62
     7
  5
4E2
 10
3.909353
 20
-0.536605
 30
0.0
 40
0.031496
 50
269.71
 51
343.475616
  0
ARC
  8
0
  6
CONTINUOUS
 62
     7
  5
4E3
 10
1.901575
 20
0.059055
 30
0.0
 40
2.12577
 50
343.475616
 51
344.758905
  0
ARC
  8
0
  6
CONTINUOUS
 62
     7
  5
4E4
 10
3.92219
 20
-0.49149
 30
0.0
 40
0.031496
 50
344.758905
 51
67.9
  0
LINE
  8
0
  6
CONTINUOUS
 62
     7
  5
4E5
 10
3.484252
 20
-0.279669
 30
0.0
 11
3.934039
 21
-0.462308
 31
0.0
  0
LINE
  8
0
  6
CONTINUOUS
 62
     7
  5
4E6
 10
3.65726
 20
0.633265
 30
0.0
 11
3.484252
 21
0.568546
 31
0.0
  0
ARC
  8
0
  6
CONTINUOUS
 62
     7
  5
4E7
 10
3.629672
 20
0.707014
 30
0.0
 40
0.07874
 50
290.51
 51
307.51
  0
LINE
  8
0
  6
CONTINUOUS
 62
     7
  5
4E8
 10
3.872293
 20
0.793988
 30
0.0
 11
3.677617
 21
0.644554
 31
0.0
  0
ARC
  8
0
  6
CONTINUOUS
 62
     7
  5
4E9
 10
3.853115
 20
0.818972
 30
0.0
 40
0.031496
 50
307.51
 51
21.275616
  0
ARC
  8
0
  6
CONTINUOUS
 62
     7
  5
4EA
 10
1.901575
 20
0.059055
 30
0.0
 40
2.12577
 50
21.275616
 51
22.558905
  0
ARC
  8
0
  6
CONTINUOUS
 62
     7
  5
4EB
 10
3.835607
 20
0.862488
 30
0.0
 40
0.031496
 50
22.558905
 51
105.7
  0
LINE
  8
0
  6
CONTINUOUS
 62
     7
  5
4EC
 10
3.484252
 20
0.796443
 30
0.0
 11
3.827084
 21
0.892809
 31
0.0
  0
LINE
  8
0
  6
CONTINUOUS
 62
     7
  5
4ED
 10
2.346457
 20
-2.61811
 30
0.0
 11
2.346457
 21
-2.69685
 31
0.0
  0
LINE
  8
0
  6
CONTINUOUS
 62
     7
  5
4EE
 10
2.346457
 20
-2.69685
 30
0.0
 11
2.385827
 21
-2.69685
 31
0.0
  0
LINE
  8
0
  6
CONTINUOUS
 62
     7
  5
4EF
 10
2.385827
 20
-2.69685
 30
0.0
 11
3.141732
 21
-2.69685
 31
0.0
  0
LINE
  8
0
  6
CONTINUOUS
 62
     7
  5
4F0
 10
3.141732
 20
-2.69685
 30
0.0
 11
3.141732
 21
-2.606299
 31
0.0
  0
LINE
  8
0
  6
CONTINUOUS
 62
     7
  5
4F1
 10
2.768717
 20
-2.61811
 30
0.0
 11
3.141732
 21
-2.61811
 31
0.0
  0
LINE
  8
0
  6
CONTINUOUS
 62
     7
  5
4F2
 10
3.323622
 20
-1.490945
 30
0.0
 11
3.484252
 21
-1.490945
 31
0.0
  0
LINE
  8
0
  6
CONTINUOUS
 62
     7
  5
4F3
 10
3.484252
 20
-1.490945
 30
0.0
 11
3.484252
 21
-1.327559
 31
0.0
  0
LINE
  8
0
  6
CONTINUOUS
 62
     7
  5
4F4
 10
3.484252
 20
-1.327559
 30
0.0
 11
3.484252
 21
0.806693
 31
0.0
  0
LINE
  8
0
  6
CONTINUOUS
 62
     7
  5
4F5
 10
3.484252
 20
0.806693
 30
0.0
 11
3.484252
 21
0.970079
 31
0.0
  0
LINE
  8
0
  6
CONTINUOUS
 62
     7
  5
4F6
 10
3.323622
 20
0.970079
 30
0.0
 11
3.484252
 21
0.970079
 31
0.0
  0
LINE
  8
0
  6
CONTINUOUS
 62
     7
  5
4F7
 10
3.141732
 20
-1.535433
 30
0.0
 11
3.323622
 21
-1.535433
 31
0.0
  0
LINE
  8
0
  6
CONTINUOUS
 62
     7
  5
4F8
 10
3.323622
 20
-1.535433
 30
0.0
 11
3.323622
 21
-1.523622
 31
0.0
  0
LINE
  8
0
  6
CONTINUOUS
 62
     7
  5
4F9
 10
3.141732
 20
-2.61811
 30
0.0
 11
3.141732
 21
-2.606299
 31
0.0
  0
LINE
  8
0
  6
CONTINUOUS
 62
     7
  5
4FA
 10
2.768717
 20
-2.606299
 30
0.0
 11
2.768717
 21
-2.61811
 31
0.0
  0
LINE
  8
0
  6
CONTINUOUS
 62
     7
  5
4FB
 10
2.768717
 20
2.30315
 30
0.0
 11
3.141732
 21
2.30315
 31
0.0
  0
LINE
  8
0
  6
CONTINUOUS
 62
     7
  5
4FC
 10
2.768717
 20
2.30315
 30
0.0
 11
2.768717
 21
2.291339
 31
0.0
  0
LINE
  8
0
  6
CONTINUOUS
 62
     7
  5
4FD
 10
3.149213
 20
2.61811
 30
0.0
 11
3.149213
 21
2.322835
 31
0.0
  0
LINE
  8
0
  6
CONTINUOUS
 62
     7
  5
4FE
 10
2.882336
 20
4.41304
 30
0.0
 11
2.797809
 21
4.288583
 31
0.0
  0
LINE
  8
0
  6
CONTINUOUS
 62
     7
  5
4FF
 10
2.53322
 20
4.465853
 30
0.0
 11
2.653617
 21
4.288583
 31
0.0
  0
ARC
  8
0
  6
CONTINUOUS
 62
     7
  5
500
 10
2.75507
 20
4.499475
 30
0.0
 40
0.153843
 50
325.816798
 51
330.759966
  0
LINE
  8
0
  6
CONTINUOUS
 62
     7
  5
501
 10
2.848303
 20
4.895794
 30
0.0
 11
2.900114
 21
4.56732
 31
0.0
  0
ARC
  8
0
  6
CONTINUOUS
 62
     7
  5
502
 10
2.877858
 20
4.900456
 30
0.0
 40
0.029921
 50
150.000001
 51
188.963563
  0
LINE
  8
0
  6
CONTINUOUS
 62
     7
  5
503
 10
2.919551
 20
5.032512
 30
0.0
 11
2.851946
 21
4.915416
 31
0.0
  0
LINE
  8
0
  6
CONTINUOUS
 62
     7
  5
504
 10
2.838145
 20
5.079512
 30
0.0
 11
2.919551
 21
5.032512
 31
0.0
  0
LINE
  8
0
  6
CONTINUOUS
 62
     7
  5
505
 10
2.770539
 20
4.962416
 30
0.0
 11
2.838145
 21
5.079512
 31
0.0
  0
ARC
  8
0
  6
CONTINUOUS
 62
     7
  5
506
 10
2.877858
 20
4.900456
 30
0.0
 40
0.123921
 50
150.000001
 51
188.963563
  0
LINE
  8
0
  6
CONTINUOUS
 62
     7
  5
507
 10
2.814182
 20
4.508798
 30
0.0
 11
2.755451
 21
4.881148
 31
0.0
  0
ARC
  8
0
  6
CONTINUOUS
 62
     7
  5
508
 10
2.75507
 20
4.499475
 30
0.0
 40
0.059843
 50
325.816798
 51
8.963563
  0
LINE
  8
0
  6
CONTINUOUS
 62
     7
  5
509
 10
2.684178
 20
4.288583
 30
0.0
 11
2.804575
 21
4.465853
 31
0.0
  0
LINE
  8
0
  6
CONTINUOUS
 62
     7
  5
50A
 10
2.539987
 20
4.288583
 30
0.0
 11
2.455459
 21
4.41304
 31
0.0
  0
ARC
  8
0
  6
CONTINUOUS
 62
     7
  5
50B
 10
2.582725
 20
4.499475
 30
0.0
 40
0.153843
 50
209.447491
 51
214.183202
  0
LINE
  8
0
  6
CONTINUOUS
 62
     7
  5
50C
 10
2.437841
 20
4.568333
 30
0.0
 11
2.489493
 21
4.895794
 31
0.0
  0
ARC
  8
0
  6
CONTINUOUS
 62
     7
  5
50D
 10
2.459937
 20
4.900456
 30
0.0
 40
0.029921
 50
351.036437
 51
29.999999
  0
LINE
  8
0
  6
CONTINUOUS
 62
     7
  5
50E
 10
2.485849
 20
4.915416
 30
0.0
 11
2.418244
 21
5.032512
 31
0.0
  0
LINE
  8
0
  6
CONTINUOUS
 62
     7
  5
50F
 10
2.418244
 20
5.032512
 30
0.0
 11
2.499651
 21
5.079512
 31
0.0
  0
LINE
  8
0
  6
CONTINUOUS
 62
     7
  5
510
 10
2.499651
 20
5.079512
 30
0.0
 11
2.567256
 21
4.962416
 31
0.0
  0
ARC
  8
0
  6
CONTINUOUS
 62
     7
  5
511
 10
2.459937
 20
4.900456
 30
0.0
 40
0.123921
 50
351.036437
 51
29.999999
  0
LINE
  8
0
  6
CONTINUOUS
 62
     7
  5
512
 10
2.582345
 20
4.881148
 30
0.0
 11
2.523613
 21
4.508798
 31
0.0
  0
ARC
  8
0
  6
CONTINUOUS
 62
     7
  5
513
 10
2.582725
 20
4.499475
 30
0.0
 40
0.059843
 50
171.036437
 51
214.183202
  0
LINE
  8
0
  6
CONTINUOUS
 62
     7
  5
514
 10
-0.543254
 20
4.951575
 30
0.0
 11
-0.851188
 21
4.951575
 31
0.0
  0
LINE
  8
0
  6
CONTINUOUS
 62
     7
  5
515
 10
-0.851188
 20
4.951575
 30
0.0
 11
-0.894094
 21
4.951575
 31
0.0
  0
LINE
  8
0
  6
CONTINUOUS
 62
     7
  5
516
 10
-0.894094
 20
3.731102
 30
0.0
 11
-0.894094
 21
4.951575
 31
0.0
  0
LINE
  8
0
  6
CONTINUOUS
 62
     7
  5
517
 10
-0.894094
 20
1.998819
 30
0.0
 11
-0.815354
 21
1.998819
 31
0.0
  0
LINE
  8
0
  6
CONTINUOUS
 62
     7
  5
518
 10
-0.894094
 20
1.998819
 30
0.0
 11
-0.894094
 21
3.731102
 31
0.0
  0
LINE
  8
0
  6
CONTINUOUS
 62
     7
  5
519
 10
-0.815354
 20
3.731102
 30
0.0
 11
-0.894094
 21
3.731102
 31
0.0
  0
LINE
  8
0
  6
CONTINUOUS
 62
     7
  5
51A
 10
-0.46144
 20
5.148425
 30
0.0
 11
-0.450394
 21
5.148425
 31
0.0
  0
ARC
  8
0
  6
CONTINUOUS
 62
     7
  5
51B
 10
-0.46144
 20
5.08937
 30
0.0
 40
0.059055
 50
90.0
 51
170.924647
  0
LINE
  8
0
  6
CONTINUOUS
 62
     7
  5
51C
 10
-0.591986
 20
4.646495
 30
0.0
 11
-0.519756
 21
5.098685
 31
0.0
  0
LINE
  8
0
  6
CONTINUOUS
 62
     7
  5
51D
 10
-0.596457
 20
4.209842
 30
0.0
 11
-0.592723
 21
4.637695
 31
0.0
  0
ARC
  8
0
  6
CONTINUOUS
 62
     7
  5
51E
 10
-0.53367
 20
4.63718
 30
0.0
 40
0.059055
 50
170.924647
 51
179.500001
  0
ARC
  8
0
  6
CONTINUOUS
 62
     7
  5
51F
 10
0.890523
 20
5.116929
 30
0.0
 40
0.031496
 50
90.0
 51
176.020196
  0
LINE
  8
0
  6
CONTINUOUS
 62
     7
  5
520
 10
0.802595
 20
4.306902
 30
0.0
 11
0.859103
 21
5.119115
 31
0.0
  0
ARC
  8
0
  6
CONTINUOUS
 62
     7
  5
521
 10
0.782957
 20
4.308268
 30
0.0
 40
0.019685
 50
270.0
 51
356.020196
  0
ARC
  8
0
  6
CONTINUOUS
 62
     7
  5
522
 10
0.619564
 20
4.308268
 30
0.0
 40
0.019685
 50
183.982601
 51
270.0
  0
LINE
  8
0
  6
CONTINUOUS
 62
     7
  5
523
 10
0.543379
 20
5.119117
 30
0.0
 11
0.599927
 21
4.306901
 31
0.0
  0
ARC
  8
0
  6
CONTINUOUS
 62
     7
  5
524
 10
2.202334
 20
5.116929
 30
0.0
 40
0.031496
 50
90.0
 51
176.020196
  0
LINE
  8
0
  6
CONTINUOUS
 62
     7
  5
525
 10
2.114406
 20
4.306902
 30
0.0
 11
2.170914
 21
5.119115
 31
0.0
  0
ARC
  8
0
  6
CONTINUOUS
 62
     7
  5
526
 10
2.094768
 20
4.308268
 30
0.0
 40
0.019685
 50
270.0
 51
356.020196
  0
ARC
  8
0
  6
CONTINUOUS
 62
     7
  5
527
 10
1.931494
 20
4.308268
 30
0.0
 40
0.019685
 50
183.982595
 51
270.0
  0
LINE
  8
0
  6
CONTINUOUS
 62
     7
  5
528
 10
1.855308
 20
5.119117
 30
0.0
 11
1.911856
 21
4.306901
 31
0.0
  0
LINE
  8
0
  6
CONTINUOUS
 62
     7
  5
529
 10
-0.367717
 20
5.148425
 30
0.0
 11
-0.284486
 21
5.148425
 31
0.0
  0
LINE
  8
0
  6
CONTINUOUS
 62
     7
  5
52A
 10
0.375037
 20
5.148425
 30
0.0
 11
0.458268
 21
5.148425
 31
0.0
  0
LINE
  8
0
  6
CONTINUOUS
 62
     7
  5
52B
 10
0.375037
 20
5.148425
 30
0.0
 11
0.511959
 21
5.148425
 31
0.0
  0
ARC
  8
0
  6
CONTINUOUS
 62
     7
  5
52C
 10
0.375037
 20
5.08937
 30
0.0
 40
0.059055
 50
90.0
 51
175.67954
  0
LINE
  8
0
  6
CONTINUOUS
 62
     7
  5
52D
 10
0.25669
 20
4.306785
 30
0.0
 11
0.31615
 21
5.093819
 31
0.0
  0
ARC
  8
0
  6
CONTINUOUS
 62
     7
  5
52E
 10
0.237061
 20
4.308268
 30
0.0
 40
0.019685
 50
270.0
 51
355.67954
  0
ARC
  8
0
  6
CONTINUOUS
 62
     7
  5
52F
 10
-0.14651
 20
4.308268
 30
0.0
 40
0.019685
 50
184.32046
 51
270.0
  0
LINE
  8
0
  6
CONTINUOUS
 62
     7
  5
530
 10
-0.225599
 20
5.093819
 30
0.0
 11
-0.166139
 21
4.306785
 31
0.0
  0
ARC
  8
0
  6
CONTINUOUS
 62
     7
  5
531
 10
-0.284486
 20
5.08937
 30
0.0
 40
0.059055
 50
4.32046
 51
90.0
  0
LINE
  8
0
  6
CONTINUOUS
 62
     7
  5
532
 10
0.944094
 20
5.148425
 30
0.0
 11
1.078161
 21
5.148425
 31
0.0
  0
LINE
  8
0
  6
CONTINUOUS
 62
     7
  5
533
 10
1.636249
 20
5.148425
 30
0.0
 11
1.770079
 21
5.148425
 31
0.0
  0
LINE
  8
0
  6
CONTINUOUS
 62
     7
  5
534
 10
1.636249
 20
5.148425
 30
0.0
 11
1.823888
 21
5.148425
 31
0.0
  0
ARC
  8
0
  6
CONTINUOUS
 62
     7
  5
535
 10
1.636249
 20
5.08937
 30
0.0
 40
0.059055
 50
90.0
 51
147.500021
  0
LINE
  8
0
  6
CONTINUOUS
 62
     7
  5
536
 10
1.516792
 20
5.011771
 30
0.0
 11
1.586442
 21
5.1211
 31
0.0
  0
ARC
  8
0
  6
CONTINUOUS
 62
     7
  5
537
 10
1.566598
 20
4.98004
 30
0.0
 40
0.059055
 50
147.500021
 51
177.5
  0
LINE
  8
0
  6
CONTINUOUS
 62
     7
  5
538
 10
1.487002
 20
4.510869
 30
0.0
 11
1.507599
 21
4.982616
 31
0.0
  0
ARC
  8
0
  6
CONTINUOUS
 62
     7
  5
539
 10
1.357205
 20
4.516536
 30
0.0
 40
0.129921
 50
182.5
 51
357.5
  0
LINE
  8
0
  6
CONTINUOUS
 62
     7
  5
53A
 10
1.20681
 20
4.982616
 30
0.0
 11
1.227407
 21
4.510869
 31
0.0
  0
ARC
  8
0
  6
CONTINUOUS
 62
     7
  5
53B
 10
1.147811
 20
4.98004
 30
0.0
 40
0.059055
 50
2.5
 51
32.499979
  0
LINE
  8
0
  6
CONTINUOUS
 62
     7
  5
53C
 10
1.127967
 20
5.1211
 30
0.0
 11
1.197618
 21
5.011771
 31
0.0
  0
ARC
  8
0
  6
CONTINUOUS
 62
     7
  5
53D
 10
1.078161
 20
5.08937
 30
0.0
 40
0.059055
 50
32.499979
 51
90.0
  0
LINE
  8
0
  6
CONTINUOUS
 62
     7
  5
53E
 10
2.998778
 20
5.148425
 30
0.0
 11
3.08189
 21
5.148425
 31
0.0
  0
LINE
  8
0
  6
CONTINUOUS
 62
     7
  5
53F
 10
2.998778
 20
5.148425
 30
0.0
 11
3.193585
 21
5.148425
 31
0.0
  0
ARC
  8
0
  6
CONTINUOUS
 62
     7
  5
540
 10
2.998778
 20
5.08937
 30
0.0
 40
0.059055
 50
90.0
 51
175.679546
  0
LINE
  8
0
  6
CONTINUOUS
 62
     7
  5
541
 10
2.88043
 20
4.306785
 30
0.0
 11
2.93989
 21
5.093819
 31
0.0
  0
ARC
  8
0
  6
CONTINUOUS
 62
     7
  5
542
 10
2.860801
 20
4.308268
 30
0.0
 40
0.019685
 50
270.0
 51
355.679546
  0
ARC
  8
0
  6
CONTINUOUS
 62
     7
  5
543
 10
2.47723
 20
4.308268
 30
0.0
 40
0.019685
 50
184.320457
 51
270.0
  0
LINE
  8
0
  6
CONTINUOUS
 62
     7
  5
544
 10
2.398141
 20
5.093819
 30
0.0
 11
2.457601
 21
4.306785
 31
0.0
  0
ARC
  8
0
  6
CONTINUOUS
 62
     7
  5
545
 10
2.339254
 20
5.08937
 30
0.0
 40
0.059055
 50
4.320457
 51
90.0
  0
LINE
  8
0
  6
CONTINUOUS
 62
     7
  5
546
 10
-0.6774
 20
2.665354
 30
0.0
 11
-0.596457
 21
4.209842
 31
0.0
  0
LINE
  8
0
  6
CONTINUOUS
 62
     7
  5
547
 10
-0.586838
 20
2.665354
 30
0.0
 11
-0.6774
 21
2.665354
 31
0.0
  0
LINE
  8
0
  6
CONTINUOUS
 62
     7
  5
548
 10
-0.505895
 20
4.209842
 30
0.0
 11
-0.586838
 21
2.665354
 31
0.0
  0
LINE
  8
0
  6
CONTINUOUS
 62
     7
  5
549
 10
2.976239
 20
4.209842
 30
0.0
 11
-0.505895
 21
4.209842
 31
0.0
  0
ARC
  8
0
  6
CONTINUOUS
 62
     7
  5
54A
 10
2.976239
 20
4.198031
 30
0.0
 40
0.011811
 50
2.999999
 51
90.0
  0
LINE
  8
0
  6
CONTINUOUS
 62
     7
  5
54B
 10
3.071361
 20
2.608671
 30
0.0
 11
2.988034
 21
4.19865
 31
0.0
  0
LINE
  8
0
  6
CONTINUOUS
 62
     7
  5
54C
 10
3.073855
 20
2.322835
 30
0.0
 11
3.071361
 21
2.608671
 31
0.0
  0
LINE
  8
0
  6
CONTINUOUS
 62
     7
  5
54D
 10
-0.596457
 20
4.209843
 30
0.0
 11
-0.505895
 21
4.209843
 31
0.0
  0
LINE
  8
0
  6
CONTINUOUS
 62
     7
  5
54E
 10
3.149213
 20
2.322835
 30
0.0
 11
3.073855
 21
2.322835
 31
0.0
  0
LINE
  8
0
  6
CONTINUOUS
 62
     7
  5
54F
 10
3.666535
 20
2.61811
 30
0.0
 11
3.149213
 21
2.61811
 31
0.0
  0
LINE
  8
0
  6
CONTINUOUS
 62
     7
  5
550
 10
3.666535
 20
3.116535
 30
0.0
 11
3.666535
 21
2.61811
 31
0.0
  0
LINE
  8
0
  6
CONTINUOUS
 62
     7
  5
551
 10
3.224344
 20
5.123705
 30
0.0
 11
3.666535
 21
3.116535
 31
0.0
  0
ARC
  8
0
  6
CONTINUOUS
 62
     7
  5
552
 10
3.193585
 20
5.116929
 30
0.0
 40
0.031496
 50
12.424142
 51
90.0
  0
LINE
  8
0
  6
CONTINUOUS
 62
     7
  5
553
 10
2.47723
 20
4.288583
 30
0.0
 11
2.860801
 21
4.288583
 31
0.0
  0
LINE
  8
0
  6
CONTINUOUS
 62
     7
  5
554
 10
2.202334
 20
5.148425
 30
0.0
 11
2.339254
 21
5.148425
 31
0.0
  0
LINE
  8
0
  6
CONTINUOUS
 62
     7
  5
555
 10
1.931494
 20
4.288583
 30
0.0
 11
2.094768
 21
4.288583
 31
0.0
  0
ARC
  8
0
  6
CONTINUOUS
 62
     7
  5
556
 10
1.823888
 20
5.116929
 30
0.0
 40
0.031496
 50
3.982595
 51
90.0
  0
LINE
  8
0
  6
CONTINUOUS
 62
     7
  5
557
 10
0.890523
 20
5.148425
 30
0.0
 11
1.078161
 21
5.148425
 31
0.0
  0
LINE
  8
0
  6
CONTINUOUS
 62
     7
  5
558
 10
0.619564
 20
4.288583
 30
0.0
 11
0.782957
 21
4.288583
 31
0.0
  0
ARC
  8
0
  6
CONTINUOUS
 62
     7
  5
559
 10
0.511959
 20
5.116929
 30
0.0
 40
0.031496
 50
3.982601
 51
90.0
  0
LINE
  8
0
  6
CONTINUOUS
 62
     7
  5
55A
 10
-0.14651
 20
4.288583
 30
0.0
 11
0.237061
 21
4.288583
 31
0.0
  0
LINE
  8
0
  6
CONTINUOUS
 62
     7
  5
55B
 10
-0.46144
 20
5.148425
 30
0.0
 11
-0.284486
 21
5.148425
 31
0.0
  0
LINE
  8
0
  6
CONTINUOUS
 62
     7
  5
55C
 10
-0.837205
 20
-4.55175
 30
0.0
 11
-0.759252
 21
-4.55175
 31
0.0
  0
LINE
  8
0
  6
CONTINUOUS
 62
     7
  5
55D
 10
-0.758816
 20
-4.329724
 30
0.0
 11
-0.444882
 21
-4.329724
 31
0.0
  0
LINE
  8
0
  6
CONTINUOUS
 62
     7
  5
55E
 10
-0.444882
 20
-4.445724
 30
0.0
 11
-0.307882
 21
-4.445724
 31
0.0
  0
LINE
  8
0
  6
CONTINUOUS
 62
     7
  5
55F
 10
-1.069882
 20
-4.079724
 30
0.0
 11
-1.194882
 21
-4.113218
 31
0.0
  0
LINE
  8
0
  6
CONTINUOUS
 62
     7
  5
560
 10
-1.194882
 20
-4.296231
 30
0.0
 11
-1.069882
 21
-4.329724
 31
0.0
  0
LINE
  8
0
  6
CONTINUOUS
 62
     7
  5
561
 10
-0.837205
 20
-4.079724
 30
0.0
 11
-1.069882
 21
-4.079724
 31
0.0
  0
LINE
  8
0
  6
CONTINUOUS
 62
     7
  5
562
 10
-1.069882
 20
-4.329724
 30
0.0
 11
-0.837205
 21
-4.329724
 31
0.0
  0
LINE
  8
0
  6
CONTINUOUS
 62
     7
  5
563
 10
0.0
 20
-1.551181
 30
0.0
 11
-0.077953
 21
-1.551181
 31
0.0
  0
LINE
  8
0
  6
CONTINUOUS
 62
     3
  5
564
 10
1.901575
 20
0.15748
 30
0.0
 11
1.901575
 21
-0.03937
 31
0.0
  0
LINE
  8
0
  6
CONTINUOUS
 62
     3
  5
565
 10
1.80315
 20
0.059055
 30
0.0
 11
4.027559
 21
0.059055
 31
0.0
  0
ENDSEC
  0
EOF
