999
DXF file: C:\Users\sesa63760\Dev\_Creo\CAD\MCADID0000011_3D-CAD\drw0001_5.dxf
999
Pro/ENGINEER 2019471 by Parametric Technology Corporation
  0
SECTION
  2
HEADER
  9
$ACADVER
  1
AC1024
  9
$DWGCODEPAGE
  3
ANSI_1252
  9
$EXTMAX
 10
53.6414141414
 20
75.8642857143
 30
0.0
  9
$EXTMIN
 10
0.0
 20
0.0
 30
0.0
  9
$LIMMIN
 10
0.0
 20
0.0
  9
$LIMMAX
 10
53.6414141414
 20
75.8642857143
  9
$VIEWCTR
 10
26.8207070707
 20
37.9321428571
  9
$VIEWSIZE
 40
75.8642857143
  9
$CLAYER
  8
0
  9
$LTSCALE
 40
4.9452275132
  9
$CELTYPE
  6
BYLAYER
  9
$DIMSCALE
 40
1.0
  9
$DIMASZ
 40
0.6385882636
  9
$DIMEXO
 40
1.0
  9
$DIMDLI
 40
3.4167026455
  9
$DIMEXE
 40
1.0
  9
$DIMCEN
 40
0.8092190476
  9
$DIMLFAC
 40
1.0
  9
$DIMBLK
  1
_FILLED
  9
$DIMALT
 70
0
  9
$DIMALTF
 40
0.0393700787
  9
$DIMTXT
 40
0.894023569
  9
$DIMTOL
 70
1
  9
$DIMLIM
 70
0
  9
$DIMTFAC
 40
1.0
  9
$DIMTP
 40
0.01
  9
$DIMTM
 40
0.01
  9
$DIMGAP
 40
0.625
  9
$DIMDSEP
 70
46
  9
$AUNITS
 70
0
  9
$PDMODE
 70
3
  9
$PDSIZE
 40
0.3125
  9
$HANDSEED
  5
288
  9
$TILEMODE
 70
1
  9
$MEASUREMENT
 70
1
  9
$INSUNITS
 70
4
  0
ENDSEC
  0
SECTION
  2
CLASSES
  0
CLASS
  1
ACDBDICTIONARYWDFLT
  2
AcDbDictionaryWithDefault
  3
AutoCAD 2000
 90
0
 91
1
280
0
281
0
  0
CLASS
  1
ACDBPLACEHOLDER
  2
AcDbPlaceHolder
  3
AutoCAD 2000
 90
0
 91
1
280
0
281
0
  0
CLASS
  1
LAYOUT
  2
AcDbLayout
  3
AutoCAD 2000
 90
0
 91
0
280
0
281
0
  0
ENDSEC
  0
SECTION
  2
TABLES
  0
TABLE
  2
VPORT
  5
8
100
AcDbSymbolTable
 70
2
  0
VPORT
  5
1F4
100
AcDbSymbolTableRecord
100
AcDbViewportTableRecord
  2
*ACTIVE
 70
0
 10
0.0
 20
0.0
 11
1.0
 21
1.0
 12
26.8207070707
 22
37.9321428571
 13
0.0
 23
0.0
 14
1.0
 24
1.0
 15
0.0
 25
0.0
 16
0.0
 26
0.0
 36
1.0
 17
0.0
 27
0.0
 37
0.0
 40
75.8642857143
 41
0.7070707071
 42
50.0
 43
0.0
 44
0.0
 50
0.0
 51
0.0
 71
0
 72
100
 73
1
 74
1
 75
0
 76
0
 77
0
 78
0
  0
ENDTAB
  0
TABLE
  2
LTYPE
  5
5
100
AcDbSymbolTable
 70
6
  0
LTYPE
  5
14
100
AcDbSymbolTableRecord
100
AcDbLinetypeTableRecord
  2
BYBLOCK
 70
0
  3

 72
65
 73
0
 40
0.0
  0
LTYPE
  5
15
100
AcDbSymbolTableRecord
100
AcDbLinetypeTableRecord
  2
BYLAYER
 70
0
  3

 72
65
 73
0
 40
0.0
  0
LTYPE
  5
16
100
AcDbSymbolTableRecord
100
AcDbLinetypeTableRecord
  2
CONTINUOUS
 70
64
  3
Solid line
 72
65
 73
0
 40
0.0
  0
LTYPE
  5
1F5
100
AcDbSymbolTableRecord
100
AcDbLinetypeTableRecord
  2
CENTER
 70
64
  3
____ _ ____ _ ____ _ ____ _ ____ _ ____ _ ____
 72
65
 73
4
 40
0.6
 49
0.375
 74
0
 49
-0.075
 74
0
 49
0.075
 74
0
 49
-0.075
 74
0
  0
LTYPE
  5
1F6
100
AcDbSymbolTableRecord
100
AcDbLinetypeTableRecord
  2
HIDDEN
 70
64
  3
- - - - - - - - - - - - - - - - - - - -
 72
65
 73
2
 40
0.2
 49
0.1
 74
0
 49
-0.1
 74
0
  0
LTYPE
  5
1F7
100
AcDbSymbolTableRecord
100
AcDbLinetypeTableRecord
  2
PHANTOM
 70
64
  3
_____ _ _ _____ _ _ _____ _ _ _____
 72
65
 73
6
 40
0.8
 49
0.45
 74
0
 49
-0.05
 74
0
 49
0.1
 74
0
 49
-0.05
 74
0
 49
0.1
 74
0
 49
-0.05
 74
0
  0
LTYPE
  5
1F8
100
AcDbSymbolTableRecord
100
AcDbLinetypeTableRecord
  2
DOT
 70
64
  3
. . . . . . . . . . . . . . . . . . . .
 72
65
 73
2
 40
0.2
 49
0.1
 74
0
 49
-0.1
 74
0
  0
LTYPE
  5
1F9
100
AcDbSymbolTableRecord
100
AcDbLinetypeTableRecord
  2
DASHED
 70
64
  3
- - - - - - - - - - - - - - - - - - - -
 72
65
 73
2
 40
0.2
 49
0.1
 74
0
 49
-0.1
 74
0
  0
ENDTAB
  0
TABLE
  2
LAYER
  5
2
100
AcDbSymbolTable
 70
36
  0
LAYER
  5
10
100
AcDbSymbolTableRecord
100
AcDbLayerTableRecord
  2
0
 70
0
 62
7
  6
CONTINUOUS
370
-3
390
F
  0
LAYER
  5
1FA
100
AcDbSymbolTableRecord
100
AcDbLayerTableRecord
  2
DEFAULT_1
 70
0
 62
7
  6
CENTER
370
-3
390
F
  0
LAYER
  5
1FB
100
AcDbSymbolTableRecord
100
AcDbLayerTableRecord
  2
DEFAULT_2
 70
0
 62
8
  6
HIDDEN
370
-3
390
F
  0
LAYER
  5
1FC
100
AcDbSymbolTableRecord
100
AcDbLayerTableRecord
  2
DEFAULT_3
 70
0
 62
7
  6
PHANTOM
370
-3
390
F
  0
LAYER
  5
1FD
100
AcDbSymbolTableRecord
100
AcDbLayerTableRecord
  2
00_COMPONENTS
 70
0
 62
7
  6
CONTINUOUS
370
-3
390
F
  0
LAYER
  5
1FE
100
AcDbSymbolTableRecord
100
AcDbLayerTableRecord
  2
01_1_DEFAULT_DATUMS
 70
0
 62
7
  6
CONTINUOUS
370
-3
390
F
  0
LAYER
  5
1FF
100
AcDbSymbolTableRecord
100
AcDbLayerTableRecord
  2
01_PLANES
 70
0
 62
7
  6
CONTINUOUS
370
-3
390
F
  0
LAYER
  5
200
100
AcDbSymbolTableRecord
100
AcDbLayerTableRecord
  2
02_COORD_SYS
 70
0
 62
7
  6
CONTINUOUS
370
-3
390
F
  0
LAYER
  5
201
100
AcDbSymbolTableRecord
100
AcDbLayerTableRecord
  2
03_AXES
 70
0
 62
7
  6
CONTINUOUS
370
-3
390
F
  0
LAYER
  5
202
100
AcDbSymbolTableRecord
100
AcDbLayerTableRecord
  2
04_POINTS
 70
0
 62
7
  6
CONTINUOUS
370
-3
390
F
  0
LAYER
  5
203
100
AcDbSymbolTableRecord
100
AcDbLayerTableRecord
  2
05_CURVES
 70
0
 62
7
  6
CONTINUOUS
370
-3
390
F
  0
LAYER
  5
204
100
AcDbSymbolTableRecord
100
AcDbLayerTableRecord
  2
06_SURFS
 70
0
 62
7
  6
CONTINUOUS
370
-3
390
F
  0
LAYER
  5
205
100
AcDbSymbolTableRecord
100
AcDbLayerTableRecord
  2
07_COSMETICS
 70
0
 62
7
  6
CONTINUOUS
370
-3
390
F
  0
LAYER
  5
206
100
AcDbSymbolTableRecord
100
AcDbLayerTableRecord
  2
10_NOTES
 70
0
 62
7
  6
CONTINUOUS
370
-3
390
F
  0
LAYER
  5
207
100
AcDbSymbolTableRecord
100
AcDbLayerTableRecord
  2
11_NOTES_PUB
 70
0
 62
7
  6
CONTINUOUS
370
-3
390
F
  0
LAYER
  5
208
100
AcDbSymbolTableRecord
100
AcDbLayerTableRecord
  2
13_REF_GTOL
 70
0
 62
7
  6
CONTINUOUS
370
-3
390
F
  0
LAYER
  5
209
100
AcDbSymbolTableRecord
100
AcDbLayerTableRecord
  2
16_MISC
 70
0
 62
7
  6
CONTINUOUS
370
-3
390
F
  0
LAYER
  5
20A
100
AcDbSymbolTableRecord
100
AcDbLayerTableRecord
  2
17_NO_PRINT
 70
0
 62
7
  6
CONTINUOUS
370
-3
390
F
  0
LAYER
  5
20B
100
AcDbSymbolTableRecord
100
AcDbLayerTableRecord
  2
18_DATUM_CAMS_JOINTS
 70
0
 62
7
  6
CONTINUOUS
370
-3
390
F
  0
LAYER
  5
20C
100
AcDbSymbolTableRecord
100
AcDbLayerTableRecord
  2
19_DATUM_FUNCTIONAL
 70
0
 62
7
  6
CONTINUOUS
370
-3
390
F
  0
LAYER
  5
20D
100
AcDbSymbolTableRecord
100
AcDbLayerTableRecord
  2
20_DATUM_KINEMATIC_SCHEME
 70
0
 62
7
  6
CONTINUOUS
370
-3
390
F
  0
ENDTAB
  0
TABLE
  2
STYLE
  5
3
100
AcDbSymbolTable
 70
1
  0
STYLE
  5
11
100
AcDbSymbolTableRecord
100
AcDbTextStyleTableRecord
  2
STANDARD
 70
0
 40
0.0
 41
0.8
 50
0.0
 71
0
 42
0.2
  3
txt
  4

  0
STYLE
  5
20E
100
AcDbSymbolTableRecord
100
AcDbTextStyleTableRecord
  2
TEXTSTYLE_1
 70
0
 40
0.0
 41
0.8
 50
0.0
 71
0
 42
0.2
  3
gdt
  4

  0
ENDTAB
  0
TABLE
  2
VIEW
  5
6
100
AcDbSymbolTable
 70
0
  0
ENDTAB
  0
TABLE
  2
UCS
  5
7
100
AcDbSymbolTable
 70
0
  0
ENDTAB
  0
TABLE
  2
APPID
  5
9
100
AcDbSymbolTable
 70
1
  0
APPID
  5
20F
100
AcDbSymbolTableRecord
100
AcDbRegAppTableRecord
  2
ACAD
 70
0
  0
ENDTAB
  0
TABLE
  2
BLOCK_RECORD
  5
1
100
AcDbSymbolTable
 70
0
  0
BLOCK_RECORD
  5
210
100
AcDbSymbolTableRecord
100
AcDbBlockTableRecord
  2
*Model_Space
  0
BLOCK_RECORD
  5
211
100
AcDbSymbolTableRecord
100
AcDbBlockTableRecord
  2
*Paper_Space
  0
BLOCK_RECORD
  5
212
100
AcDbSymbolTableRecord
100
AcDbBlockTableRecord
  2
_FILLED
  0
ENDTAB
  0
TABLE
  2
DIMSTYLE
  5
A
100
AcDbSymbolTable
 70
1
100
AcDbDimStyleTable
 71
0
  0
DIMSTYLE
105
213
100
AcDbSymbolTableRecord
100
AcDbDimStyleTableRecord
  2
STANDARD
 70
0
  3

  4

 40
1.0
 41
0.6385882636
 42
1.0
 43
0.38
 44
1.0
 45
0.0
 46
0.0
 47
0.01
 48
0.01
140
0.894023569
141
0.09
142
0.0
143
25.4
144
1.0
145
0.0
146
1.0
147
0.625
 71
1
 72
0
 73
0
 74
0
 75
0
 76
0
 77
1
 78
8
 79
2
170
0
171
1
172
0
173
0
174
0
175
0
176
0
177
0
178
0
270
2
179
2
271
2
272
2
273
2
274
2
275
0
280
0
281
0
282
0
283
1
284
8
285
0
286
0
287
3
288
0
340
11
278
46
341
212
342
212
343
212
344
212
  0
ENDTAB
  0
ENDSEC
  0
SECTION
  2
BLOCKS
  0
BLOCK
  5
20
100
AcDbEntity
  8
0
100
AcDbBlockBegin
  2
*Model_Space
 70
0
 10
0.0
 20
0.0
 30
0.0
  3
*Model_Space
  1

  0
ENDBLK
  5
21
100
AcDbEntity
  8
0
100
AcDbBlockEnd
  0
BLOCK
  5
1C
100
AcDbEntity
  8
0
100
AcDbBlockBegin
  2
*Paper_Space
 70
0
 10
0.0
 20
0.0
 30
0.0
  3
*Paper_Space
  1

  0
ENDBLK
  5
1D
100
AcDbEntity
  8
0
100
AcDbBlockEnd
  0
BLOCK
  5
214
100
AcDbEntity
  8
0
100
AcDbBlockBegin
  2
_FILLED
 70
64
 10
0.0
 20
0.0
  3
_FILLED
  1

  0
SOLID
  5
215
100
AcDbEntity
  8
0
  6
BYBLOCK
 62
0
100
AcDbTrace
 10
0.0
 20
0.0
 11
-1.0
 21
0.25
 12
-1.0
 22
-0.25
 13
-1.0
 23
-0.25
  0
ENDBLK
  5
216
100
AcDbEntity
  8
0
  6
BYBLOCK
 62
0
100
AcDbBlockEnd
  0
ENDSEC
  0
SECTION
  2
ENTITIES
  0
LINE
  5
217
100
AcDbEntity
  8
0
100
AcDbLine
 62
7
  6
CONTINUOUS
 10
7.1173142136
 20
8.8249999998
 11
7.3673142137
 21
8.5750000001
  0
LWPOLYLINE
  5
218
100
AcDbEntity
  8
0
100
AcDbPolyline
 62
7
  6
CONTINUOUS
 90
4
 70
0
 10
42.8578377315
 20
7.8749999619
 10
43.5723164023
 20
8.0563547534
 10
43.8723248262
 20
8.2707383495
 10
44.2122022351
 20
8.7305965669
  0
LINE
  5
219
100
AcDbEntity
  8
0
100
AcDbLine
 62
7
  6
CONTINUOUS
 10
13.1173142136
 20
6.175
 11
25.6173142136
 21
6.175
  0
LINE
  5
21A
100
AcDbEntity
  8
0
100
AcDbLine
 62
7
  6
CONTINUOUS
 10
16.5173142136
 20
6.375
 11
29.8250892136
 21
6.375
  0
LINE
  5
21B
100
AcDbEntity
  8
0
100
AcDbLine
 62
7
  6
CONTINUOUS
 10
26.3835999636
 20
6.875
 11
37.4311982136
 21
6.875
  0
LINE
  5
21C
100
AcDbEntity
  8
0
100
AcDbLine
 62
7
  6
CONTINUOUS
 10
39.2200284636
 20
7.375
 11
29.0160707136
 21
7.375
  0
LINE
  5
21D
100
AcDbEntity
  8
0
100
AcDbLine
 62
7
  6
CONTINUOUS
 10
16.5173142136
 20
7.675
 11
13.1173142136
 21
7.675
  0
LINE
  5
21E
100
AcDbEntity
  8
0
100
AcDbLine
 62
7
  6
CONTINUOUS
 10
18.0173142136
 20
7.875
 11
42.8576684524
 21
7.875
  0
LINE
  5
21F
100
AcDbEntity
  8
0
100
AcDbLine
 62
7
  6
CONTINUOUS
 10
18.0173142136
 20
8.5424008811
 11
29.6803325509
 21
8.5424008811
  0
LINE
  5
220
100
AcDbEntity
  8
0
100
AcDbLine
 62
7
  6
CONTINUOUS
 10
7.3673142138
 20
8.575
 11
13.1173142136
 21
8.575
  0
LINE
  5
221
100
AcDbEntity
  8
0
100
AcDbLine
 62
7
  6
CONTINUOUS
 10
19.7673142126
 20
63.8750000018
 11
16.8248142146
 21
62.1761468311
  0
LINE
  5
222
100
AcDbEntity
  8
0
100
AcDbLine
 62
7
  6
CONTINUOUS
 10
7.3673142138
 20
11.575
 11
13.1173142136
 21
11.575
  0
LINE
  5
223
100
AcDbEntity
  8
0
100
AcDbLine
 62
7
  6
CONTINUOUS
 10
29.67658173
 20
12.0427104595
 11
18.0173142136
 21
12.0427104595
  0
LINE
  5
224
100
AcDbEntity
  8
0
100
AcDbLine
 62
7
  6
CONTINUOUS
 10
29.5541468963
 20
12.6583482409
 11
18.0173142136
 21
12.6583482409
  0
LINE
  5
225
100
AcDbEntity
  8
0
100
AcDbLine
 62
7
  6
CONTINUOUS
 10
7.1173142136
 20
8.825167033
 11
7.1173142136
 21
11.324832967
  0
LINE
  5
226
100
AcDbEntity
  8
0
100
AcDbLine
 62
7
  6
CONTINUOUS
 10
7.1173142136
 20
38.925167033
 11
7.1173142136
 21
41.424832967
  0
LINE
  5
227
100
AcDbEntity
  8
0
100
AcDbLine
 62
7
  6
CONTINUOUS
 10
7.3673142136
 20
8.575
 11
7.3673142136
 21
11.575
  0
LINE
  5
228
100
AcDbEntity
  8
0
100
AcDbLine
 62
7
  6
CONTINUOUS
 10
7.3673142136
 20
38.675
 11
7.3673142136
 21
41.675
  0
LINE
  5
229
100
AcDbEntity
  8
0
100
AcDbLine
 62
7
  6
CONTINUOUS
 10
7.1173142136
 20
41.4250000002
 11
7.3673142137
 21
41.6749999999
  0
LINE
  5
22A
100
AcDbEntity
  8
0
100
AcDbLine
 62
7
  6
CONTINUOUS
 10
46.1173142136
 20
21.975
 11
35.2385204387
 21
21.975
  0
LINE
  5
22B
100
AcDbEntity
  8
0
100
AcDbLine
 62
7
  6
CONTINUOUS
 10
46.6173142136
 20
22.975
 11
46.1173142136
 21
22.975
  0
LINE
  5
22C
100
AcDbEntity
  8
0
100
AcDbLine
 62
7
  6
CONTINUOUS
 10
13.1173142136
 20
6.175
 11
13.1173142136
 21
51.875
  0
LINE
  5
22D
100
AcDbEntity
  8
0
100
AcDbLine
 62
7
  6
CONTINUOUS
 10
7.1173142136
 20
38.9249999998
 11
7.3673142137
 21
38.6750000001
  0
LINE
  5
22E
100
AcDbEntity
  8
0
100
AcDbLine
 62
7
  6
CONTINUOUS
 10
16.5173142136
 20
36.075
 11
16.5173142136
 21
6.175
  0
LINE
  5
22F
100
AcDbEntity
  8
0
100
AcDbLine
 62
7
  6
CONTINUOUS
 10
16.8248142136
 20
62.1761468329
 11
16.8248142136
 21
51.875
  0
LINE
  5
230
100
AcDbEntity
  8
0
100
AcDbLine
 62
7
  6
CONTINUOUS
 10
18.0173142136
 20
7.875
 11
18.0173142136
 21
34.575
  0
LINE
  5
231
100
AcDbEntity
  8
0
100
AcDbLine
 62
7
  6
CONTINUOUS
 10
19.7673142136
 20
63.9050753774
 11
19.7673142136
 21
63.8750000023
  0
LINE
  5
232
100
AcDbEntity
  8
0
100
AcDbLine
 62
7
  6
CONTINUOUS
 10
16.5173142136
 20
36.075
 11
18.0173142136
 21
34.575
  0
LINE
  5
233
100
AcDbEntity
  8
0
100
AcDbLine
 62
7
  6
CONTINUOUS
 10
24.6210642136
 20
62.1761468329
 11
24.6210642136
 21
51.875
  0
LINE
  5
234
100
AcDbEntity
  8
0
100
AcDbLine
 62
7
  6
CONTINUOUS
 10
18.0173142136
 20
34.575
 11
37.2218497848
 21
34.575
  0
LINE
  5
235
100
AcDbEntity
  8
0
100
AcDbLine
 62
7
  6
CONTINUOUS
 10
25.6173142136
 20
44.3884142789
 11
25.6173142136
 21
34.575
  0
LINE
  5
236
100
AcDbEntity
  8
0
100
AcDbLine
 62
7
  6
CONTINUOUS
 10
25.6173142136
 20
6.175
 11
25.6173142136
 21
6.375
  0
LINE
  5
237
100
AcDbEntity
  8
0
100
AcDbLine
 62
7
  6
CONTINUOUS
 10
26.3835999636
 20
6.375
 11
26.3835999636
 21
6.875
  0
LINE
  5
238
100
AcDbEntity
  8
0
100
AcDbLine
 62
7
  6
CONTINUOUS
 10
16.5173142136
 20
36.075
 11
36.4003009834
 21
36.075
  0
LINE
  5
239
100
AcDbEntity
  8
0
100
AcDbLine
 62
7
  6
CONTINUOUS
 10
29.0160707136
 20
6.875
 11
29.0160707136
 21
7.375
  0
LINE
  5
23A
100
AcDbEntity
  8
0
100
AcDbLine
 62
7
  6
CONTINUOUS
 10
29.6807298474
 20
11.9988577995
 11
29.6807298474
 21
8.5544467916
  0
LINE
  5
23B
100
AcDbEntity
  8
0
100
AcDbLine
 62
7
  6
CONTINUOUS
 10
29.8250892136
 20
6.375
 11
29.8250892136
 21
6.875
  0
LINE
  5
23C
100
AcDbEntity
  8
0
100
AcDbLine
 62
7
  6
CONTINUOUS
 10
7.3673142138
 20
38.675
 11
13.1173142136
 21
38.675
  0
LINE
  5
23D
100
AcDbEntity
  8
0
100
AcDbLine
 62
7
  6
CONTINUOUS
 10
46.6173142136
 20
39.975
 11
46.1173142136
 21
39.975
  0
LINE
  5
23E
100
AcDbEntity
  8
0
100
AcDbLine
 62
7
  6
CONTINUOUS
 10
43.0792928656
 20
40.075
 11
25.6173142136
 21
40.075
  0
LINE
  5
23F
100
AcDbEntity
  8
0
100
AcDbLine
 62
7
  6
CONTINUOUS
 10
32.4173142136
 20
51.875
 11
32.4173142136
 21
42.9928857052
  0
LINE
  5
240
100
AcDbEntity
  8
0
100
AcDbLine
 62
7
  6
CONTINUOUS
 10
7.1173142136
 20
11.3250000002
 11
7.3673142137
 21
11.5749999999
  0
LINE
  5
241
100
AcDbEntity
  8
0
100
AcDbLine
 62
7
  6
CONTINUOUS
 10
7.3673142138
 20
41.675
 11
13.1173142136
 21
41.675
  0
LINE
  5
242
100
AcDbEntity
  8
0
100
AcDbLine
 62
7
  6
CONTINUOUS
 10
13.1173142136
 20
42.575
 11
25.6173142136
 21
42.575
  0
LINE
  5
243
100
AcDbEntity
  8
0
100
AcDbLine
 62
7
  6
CONTINUOUS
 10
40.7022402845
 20
42.575
 11
43.8241140197
 21
42.575
  0
LINE
  5
244
100
AcDbEntity
  8
0
100
AcDbLine
 62
7
  6
CONTINUOUS
 10
25.6173142136
 20
42.9928857052
 11
32.4173142136
 21
42.9928857052
  0
LINE
  5
245
100
AcDbEntity
  8
0
100
AcDbLine
 62
7
  6
CONTINUOUS
 10
35.2385204387
 20
36.075
 11
35.2385204387
 21
21.975
  0
LINE
  5
246
100
AcDbEntity
  8
0
100
AcDbLine
 62
7
  6
CONTINUOUS
 10
25.6173142136
 20
44.075
 11
13.1173142136
 21
44.075
  0
LINE
  5
247
100
AcDbEntity
  8
0
100
AcDbLine
 62
7
  6
CONTINUOUS
 10
40.7022402845
 20
44.075
 11
42.4990148844
 21
44.075
  0
LINE
  5
248
100
AcDbEntity
  8
0
100
AcDbLine
 62
7
  6
CONTINUOUS
 10
25.6173142136
 20
44.3884142789
 11
32.4173142136
 21
44.3884142789
  0
LINE
  5
249
100
AcDbEntity
  8
0
100
AcDbLine
 62
7
  6
CONTINUOUS
 10
35.9641449207
 20
34.575
 11
35.9641449207
 21
21.975
  0
LINE
  5
24A
100
AcDbEntity
  8
0
100
AcDbLine
 62
7
  6
CONTINUOUS
 10
37.4311982136
 20
6.875
 11
37.4311982136
 21
7.375
  0
LINE
  5
24B
100
AcDbEntity
  8
0
100
AcDbLine
 62
7
  6
CONTINUOUS
 10
39.2200284636
 20
7.375
 11
39.2200284636
 21
7.875
  0
LINE
  5
24C
100
AcDbEntity
  8
0
100
AcDbLine
 62
7
  6
CONTINUOUS
 10
40.2135642136
 20
62.1761468329
 11
40.2135642136
 21
51.875
  0
LINE
  5
24D
100
AcDbEntity
  8
0
100
AcDbLine
 62
7
  6
CONTINUOUS
 10
44.6173142136
 20
48.575
 11
13.1173142136
 21
48.575
  0
LINE
  5
24E
100
AcDbEntity
  8
0
100
AcDbLine
 62
7
  6
CONTINUOUS
 10
40.7022402845
 20
42.575
 11
40.7022402845
 21
44.075
  0
LINE
  5
24F
100
AcDbEntity
  8
0
100
AcDbLine
 62
7
  6
CONTINUOUS
 10
41.8110007479
 20
44.075
 11
41.8110007479
 21
40.075
  0
LINE
  5
250
100
AcDbEntity
  8
0
100
AcDbLine
 62
7
  6
CONTINUOUS
 10
48.0098142136
 20
51.875
 11
13.1173142136
 21
51.875
  0
LINE
  5
251
100
AcDbEntity
  8
0
100
AcDbLine
 62
7
  6
CONTINUOUS
 10
43.0792928656
 20
42.575
 11
43.0792928656
 21
40.075
  0
LINE
  5
252
100
AcDbEntity
  8
0
100
AcDbLine
 62
7
  6
CONTINUOUS
 10
44.6173142136
 20
51.875
 11
44.6173142136
 21
48.575
  0
LINE
  5
253
100
AcDbEntity
  8
0
100
AcDbLine
 62
7
  6
CONTINUOUS
 10
45.0673142136
 20
63.9050753774
 11
45.0673142136
 21
63.8750000023
  0
LINE
  5
254
100
AcDbEntity
  8
0
100
AcDbLine
 62
7
  6
CONTINUOUS
 10
45.7421353102
 20
45.5987326447
 11
45.7419571322
 21
45.5988771325
  0
LINE
  5
255
100
AcDbEntity
  8
0
100
AcDbLine
 62
7
  6
CONTINUOUS
 10
46.1173142136
 20
17.1752025712
 11
46.1173142136
 21
44.6067792439
  0
LINE
  5
256
100
AcDbEntity
  8
0
100
AcDbLine
 62
7
  6
CONTINUOUS
 10
46.6173142136
 20
39.975
 11
46.6173142136
 21
22.975
  0
LINE
  5
257
100
AcDbEntity
  8
0
100
AcDbLine
 62
7
  6
CONTINUOUS
 10
48.0098142136
 20
62.1761468329
 11
48.0098142136
 21
51.875
  0
LWPOLYLINE
  5
258
100
AcDbEntity
  8
0
100
AcDbPolyline
 62
7
  6
CONTINUOUS
 90
4
 70
0
 10
46.1173142136
 20
44.6068557169
 10
46.0590107829
 20
45.0117833359
 10
45.8933701193
 20
45.3918047451
 10
45.7422596591
 20
45.598890487
  0
LINE
  5
259
100
AcDbEntity
  8
0
100
AcDbLine
 62
7
  6
CONTINUOUS
 10
45.0673142136
 20
63.875
 11
19.7673142136
 21
63.875
  0
LINE
  5
25A
100
AcDbEntity
  8
0
100
AcDbLine
 62
7
  6
CONTINUOUS
 10
19.7673142136
 20
63.9050753774
 11
45.0673142136
 21
63.9050753774
  0
LINE
  5
25B
100
AcDbEntity
  8
0
100
AcDbLine
 62
7
  6
CONTINUOUS
 10
25.1676979129
 20
69.875
 11
39.6671094167
 21
69.875
  0
LINE
  5
25C
100
AcDbEntity
  8
0
100
AcDbLine
 62
7
  6
CONTINUOUS
 10
45.0673142146
 20
63.8750000018
 11
48.0098142126
 21
62.1761468311
  0
LINE
  5
25D
100
AcDbEntity
  8
0
100
AcDbLine
 62
7
  6
CONTINUOUS
 10
44.2119943014
 20
8.7302292017
 11
44.2119726414
 21
8.7302162705
  0
ARC
  5
25E
100
AcDbEntity
  8
0
100
AcDbCircle
 62
7
  6
CONTINUOUS
 10
26.4501713565
 20
17.175
 40
19.6671428571
100
AcDbArc
 50
334.5714801868
 51
359.9998405566
  0
ARC
  5
25F
100
AcDbEntity
  8
0
100
AcDbCircle
 62
7
  6
CONTINUOUS
 10
25.7673142136
 20
63.9050753774
 40
6.0
100
AcDbArc
 50
95.7391704773
 51
180.0
  0
ARC
  5
260
100
AcDbEntity
  8
0
100
AcDbCircle
 62
7
  6
CONTINUOUS
 10
39.0673142136
 20
63.9050753774
 40
6.0
100
AcDbArc
 50
0.0
 51
84.2608295227
  0
ARC
  5
261
100
AcDbEntity
  8
0
100
AcDbCircle
 62
7
  6
CONTINUOUS
 10
43.1585893189
 20
48.832247823
 40
4.7165932246
100
AcDbArc
 50
281.4425962517
 51
282.5494207257
  0
ARC
  5
262
100
AcDbEntity
  8
0
100
AcDbCircle
 62
7
  6
CONTINUOUS
 10
49.1173142136
 20
48.575
 40
4.5
100
AcDbArc
 50
180.0
 51
221.4061781779
  0
ARC
  5
263
100
AcDbEntity
  8
0
100
AcDbCircle
 62
7
  6
CONTINUOUS
 10
44.196320924
 20
46.2948671972
 40
3.699075053
100
AcDbArc
 50
279.9576899791
 51
281.2494688399
  0
ARC
  5
264
100
AcDbEntity
  8
0
100
AcDbCircle
 62
7
  6
CONTINUOUS
 10
18.0173142136
 20
6.375
 40
1.5
100
AcDbArc
 50
90.0
 51
170.8013851746
  0
ARC
  5
265
100
AcDbEntity
  8
0
100
AcDbCircle
 62
7
  6
CONTINUOUS
 10
29.5020123519
 20
8.5543117195
 40
0.1787175465
100
AcDbArc
 50
356.178623754
 51
0.043303324
  0
SPLINE
  5
266
100
AcDbEntity
  8
0
100
AcDbSpline
 62
7
  6
CONTINUOUS
 70
0
 71
3
 72
10
 73
6
 74
0
 42
0.0000001
 43
0.0000001
 44
0.0000000001
 40
0.0
 40
0.0
 40
0.0
 40
0.0
 40
0.5377650313
 40
0.7785392753
 40
1.0
 40
1.0
 40
1.0
 40
1.0
 10
42.4990052862
 20
44.075
 30
0.0
 10
42.7863768125
 20
44.0750004164
 30
0.0
 10
43.2028653697
 20
44.0886735717
 30
0.0
 10
43.7343922078
 20
44.1456083065
 30
0.0
 10
43.9782960552
 20
44.1859186046
 30
0.0
 10
44.0942867482
 20
44.2094040853
 30
0.0
  0
SPLINE
  5
267
100
AcDbEntity
  8
0
100
AcDbSpline
 62
7
  6
CONTINUOUS
 70
0
 71
3
 72
11
 73
7
 74
0
 42
0.0000001
 43
0.0000001
 44
0.0000000001
 40
0.0
 40
0.0
 40
0.0
 40
0.0
 40
0.2614378162
 40
0.5175367247
 40
0.7642600526
 40
1.0
 40
1.0
 40
1.0
 40
1.0
 10
43.0792928656
 20
42.575
 30
0.0
 10
43.0792928656
 20
42.7121069045
 30
0.0
 10
43.0477341114
 20
42.9846045035
 30
0.0
 10
42.9082495512
 20
43.3644543039
 30
0.0
 10
42.686235771
 20
43.6870128144
 30
0.0
 10
42.4881438775
 20
43.8511088128
 30
0.0
 10
42.3819561055
 20
43.914421926
 30
0.0
  0
SPLINE
  5
268
100
AcDbEntity
  8
0
100
AcDbSpline
 62
7
  6
CONTINUOUS
 70
0
 71
3
 72
9
 73
5
 74
0
 42
0.0000001
 43
0.0000001
 44
0.0000000001
 40
0.0
 40
0.0
 40
0.0
 40
0.0
 40
0.5050610573
 40
1.0
 40
1.0
 40
1.0
 40
1.0
 10
42.3819561055
 20
43.914421926
 30
0.0
 10
42.2954053771
 20
43.9660267009
 30
0.0
 10
42.1101953194
 20
44.0469649336
 30
0.0
 10
41.909748692
 20
44.075
 30
0.0
 10
41.8110007479
 20
44.075
 30
0.0
  0
SPLINE
  5
269
100
AcDbEntity
  8
0
100
AcDbSpline
 62
7
  6
CONTINUOUS
 70
0
 71
3
 72
16
 73
12
 74
0
 42
0.0000001
 43
0.0000001
 44
0.0000000001
 40
0.0
 40
0.0
 40
0.0
 40
0.0
 40
0.0435037251
 40
0.0880244763
 40
0.1829432434
 40
0.2895131749
 40
0.40996796
 40
0.5441179176
 40
0.689453106
 40
0.8426154632
 40
1.0
 40
1.0
 40
1.0
 40
1.0
 10
36.4003010474
 20
36.075
 30
0.0
 10
36.4272645984
 20
36.075
 30
0.0
 10
36.4819445216
 20
36.0698569496
 30
0.0
 10
36.5916584946
 20
36.0393237464
 30
0.0
 10
36.7260284256
 20
35.9621308801
 30
0.0
 10
36.8685186706
 20
35.8199844395
 30
0.0
 10
36.9908216643
 20
35.6308800306
 30
0.0
 10
37.0898384019
 20
35.4027187068
 30
0.0
 10
37.1641617848
 20
35.1443965886
 30
0.0
 10
37.2109290182
 20
34.865185123
 30
0.0
 10
37.2218498599
 20
34.672546727
 30
0.0
 10
37.2218498603
 20
34.575
 30
0.0
  0
SPLINE
  5
26A
100
AcDbEntity
  8
0
100
AcDbSpline
 62
7
  6
CONTINUOUS
 70
0
 71
3
 72
19
 73
15
 74
0
 42
0.0000001
 43
0.0000001
 44
0.0000000001
 40
0.0
 40
0.0
 40
0.0
 40
0.0
 40
0.0816274531
 40
0.1626925671
 40
0.2425702139
 40
0.3206619531
 40
0.3964710614
 40
0.469525834
 40
0.6054296919
 40
0.7258269479
 40
0.8298212297
 40
0.9192458267
 40
0.960272658
 40
1.0
 40
1.0
 40
1.0
 40
1.0
 10
35.9641449207
 20
34.575
 30
0.0
 10
35.9641449207
 20
34.6239581694
 30
0.0
 10
35.961904273
 20
34.7215582418
 30
0.0
 10
35.9510956216
 20
34.8667040924
 30
0.0
 10
35.9336191962
 20
35.0090510753
 30
0.0
 10
35.9102844248
 20
35.1473655182
 30
0.0
 10
35.8802580055
 20
35.280224084
 30
0.0
 10
35.8327112155
 20
35.4443355912
 30
0.0
 10
35.7612388921
 20
35.6291493139
 30
0.0
 10
35.6531811534
 20
35.8175149407
 30
0.0
 10
35.5286520682
 20
35.9606292598
 30
0.0
 10
35.408925936
 20
36.0394532014
 30
0.0
 10
35.3109117705
 20
36.0699318978
 30
0.0
 10
35.2623479363
 20
36.075
 30
0.0
 10
35.2385204387
 20
36.075
 30
0.0
  0
SPLINE
  5
26B
100
AcDbEntity
  8
0
100
AcDbSpline
 62
7
  6
CONTINUOUS
 70
0
 71
3
 72
16
 73
12
 74
0
 42
0.0000001
 43
0.0000001
 44
0.0000000001
 40
0.0
 40
0.0
 40
0.0
 40
0.0
 40
0.1239648189
 40
0.2482633645
 40
0.3726694521
 40
0.4971886634
 40
0.5596346686
 40
0.6222700536
 40
0.7478634299
 40
0.8737236375
 40
1.0
 40
1.0
 40
1.0
 40
1.0
 10
35.9641449207
 20
21.975
 30
0.0
 10
35.9641449207
 20
21.4586137916
 30
0.0
 10
35.8963340298
 20
20.4232146048
 30
0.0
 10
35.5933170497
 20
18.8963061334
 30
0.0
 10
35.0889346967
 20
17.420701901
 30
0.0
 10
34.5004765321
 20
16.2593795774
 30
0.0
 10
33.9305087329
 20
15.3887381726
 30
0.0
 10
33.2933122664
 20
14.5604146264
 30
0.0
 10
32.3777292503
 20
13.6176733255
 30
0.0
 10
31.1113630765
 20
12.6728928173
 30
0.0
 10
30.1694148538
 20
12.193625792
 30
0.0
 10
29.6807790059
 20
11.9988773917
 30
0.0
  0
SPLINE
  5
26C
100
AcDbEntity
  8
0
100
AcDbSpline
 62
7
  6
CONTINUOUS
 70
0
 71
3
 72
36
 73
32
 74
0
 42
0.0000001
 43
0.0000001
 44
0.0000000001
 40
0.0
 40
0.0
 40
0.0
 40
0.0
 40
0.2237771664
 40
0.3294907081
 40
0.4294185539
 40
0.5225283382
 40
0.6081853828
 40
0.6857972457
 40
0.7547893989
 40
0.8149149582
 40
0.8662156265
 40
0.8885728027
 40
0.9087431731
 40
0.9267358273
 40
0.9425921416
 40
0.9563754457
 40
0.9681493794
 40
0.9779774617
 40
0.9821816254
 40
0.9859230891
 40
0.9892097584
 40
0.9920495332
 40
0.9944503099
 40
0.9964198857
 40
0.9979618462
 40
0.9985718474
 40
0.999074118
 40
0.9994683516
 40
0.9997542466
 40
0.9999315177
 40
1.0
 40
1.0
 40
1.0
 40
1.0
 10
29.6807304413
 20
8.5544467504
 30
0.0
 10
30.7648285747
 20
8.5560599026
 30
0.0
 10
32.3610594268
 20
8.5596776979
 30
0.0
 10
34.4413833177
 20
8.567706427
 30
0.0
 10
35.8886793962
 20
8.575108574
 30
0.0
 10
37.2388001208
 20
8.584075959
 30
0.0
 10
38.4807949063
 20
8.5946610956
 30
0.0
 10
39.60592973
 20
8.6068923438
 30
0.0
 10
40.6073452515
 20
8.6209092748
 30
0.0
 10
41.4812534912
 20
8.6365319298
 30
0.0
 10
42.1292149093
 20
8.6510205007
 30
0.0
 10
42.5836078308
 20
8.6631950632
 30
0.0
 10
42.8766691962
 20
8.6720024446
 30
0.0
 10
43.1382185478
 20
8.6808822079
 30
0.0
 10
43.3688084845
 20
8.6896750744
 30
0.0
 10
43.5692602893
 20
8.6981413445
 30
0.0
 10
43.7405035392
 20
8.7060620805
 30
0.0
 10
43.8653668487
 20
8.712310893
 30
0.0
 10
43.9513533946
 20
8.716837854
 30
0.0
 10
44.0056894355
 20
8.7197758468
 30
0.0
 10
44.0534223809
 20
8.7224103481
 30
0.0
 10
44.0946686017
 20
8.7247130619
 30
0.0
 10
44.1295443671
 20
8.7266598831
 30
0.0
 10
44.1581439107
 20
8.7282154838
 30
0.0
 10
44.178085713
 20
8.729249677
 30
0.0
 10
44.1909272139
 20
8.7298639919
 30
0.0
 10
44.198222289
 20
8.730212189
 30
0.0
 10
44.2039341885
 20
8.7304116297
 30
0.0
 10
44.2081114094
 20
8.7306531725
 30
0.0
 10
44.2106382439
 20
8.7305466531
 30
0.0
 10
44.2118834983
 20
8.7307377561
 30
0.0
 10
44.2121900123
 20
8.7306108002
 30
0.0
  0
SPLINE
  5
26D
100
AcDbEntity
  8
0
100
AcDbSpline
 62
7
  6
CONTINUOUS
 70
0
 71
3
 72
13
 73
9
 74
0
 42
0.0000001
 43
0.0000001
 44
0.0000000001
 40
0.0
 40
0.0
 40
0.0
 40
0.0
 40
0.2586536312
 40
0.38671829
 40
0.5133912927
 40
0.6382432071
 40
0.7609991366
 40
1.0
 40
1.0
 40
1.0
 40
1.0
 10
32.4173142136
 20
44.3884142789
 30
0.0
 10
33.1322071809
 20
44.3884142789
 30
0.0
 10
34.2010891
 20
44.3626211496
 30
0.0
 10
35.6186011142
 20
44.2987788814
 30
0.0
 10
36.6662468737
 20
44.2424639327
 30
0.0
 10
37.6990213966
 20
44.1829303969
 30
0.0
 10
39.0418980334
 20
44.1098277067
 30
0.0
 10
40.041665617
 20
44.075
 30
0.0
 10
40.7022402845
 20
44.075
 30
0.0
  0
SPLINE
  5
26E
100
AcDbEntity
  8
0
100
AcDbSpline
 62
7
  6
CONTINUOUS
 70
0
 71
3
 72
18
 73
14
 74
0
 42
0.0000001
 43
0.0000001
 44
0.0000000001
 40
0.0
 40
0.0
 40
0.0
 40
0.0
 40
0.194828288
 40
0.381194311
 40
0.5529551556
 40
0.7039083085
 40
0.8278622736
 40
0.8781726539
 40
0.9202511484
 40
0.9537854869
 40
0.978463203
 40
0.9939717921
 40
1.0
 40
1.0
 40
1.0
 40
1.0
 10
45.452427062
 20
44.9692184554
 30
0.0
 10
45.4734894263
 20
45.0090197566
 30
0.0
 10
45.5135685478
 20
45.0874953824
 30
0.0
 10
45.5690769334
 20
45.2026250497
 30
0.0
 10
45.6182580053
 20
45.3095235787
 30
0.0
 10
45.6600726059
 20
45.4039170397
 30
0.0
 10
45.6898480943
 20
45.4729379781
 30
0.0
 10
45.7093867279
 20
45.5189642638
 30
0.0
 10
45.7206878759
 20
45.5457893157
 30
0.0
 10
45.7295125221
 20
45.5672140193
 30
0.0
 10
45.7361354651
 20
45.5829375206
 30
0.0
 10
45.7398205433
 20
45.5929276566
 30
0.0
 10
45.7419672652
 20
45.5974762644
 30
0.0
 10
45.7422562295
 20
45.5988392719
 30
0.0
  0
SPLINE
  5
26F
100
AcDbEntity
  8
0
100
AcDbSpline
 62
7
  6
CONTINUOUS
 70
0
 71
3
 72
16
 73
12
 74
0
 42
0.0000001
 43
0.0000001
 44
0.0000000001
 40
0.0
 40
0.0
 40
0.0
 40
0.0
 40
0.1174506704
 40
0.236225799
 40
0.356968064
 40
0.418341052
 40
0.4804598493
 40
0.6069620798
 40
0.7363227674
 40
0.8676380531
 40
1.0
 40
1.0
 40
1.0
 40
1.0
 10
42.4990149111
 20
44.075
 30
0.0
 10
42.5857909755
 20
44.075
 30
0.0
 10
42.7608896299
 20
44.0547151255
 30
0.0
 10
43.0118856074
 20
43.9679314961
 30
0.0
 10
43.2037740649
 20
43.8521885083
 30
0.0
 10
43.3420642589
 20
43.7358304102
 30
0.0
 10
43.4703566194
 20
43.6025377222
 30
0.0
 10
43.6073115123
 20
43.4097917277
 30
0.0
 10
43.7292935615
 20
43.1494745179
 30
0.0
 10
43.806103791
 20
42.8680144451
 30
0.0
 10
43.82411405
 20
42.672792961
 30
0.0
 10
43.82411405
 20
42.575
 30
0.0
  0
SPLINE
  5
270
100
AcDbEntity
  8
0
100
AcDbSpline
 62
7
  6
CONTINUOUS
 70
0
 71
3
 72
11
 73
7
 74
0
 42
0.0000001
 43
0.0000001
 44
0.0000000001
 40
0.0
 40
0.0
 40
0.0
 40
0.0
 40
0.2477287418
 40
0.4965005849
 40
0.7470877708
 40
1.0
 40
1.0
 40
1.0
 40
1.0
 10
46.1173142136
 20
43.7672912745
 30
0.0
 10
46.1173142136
 20
43.8852519583
 30
0.0
 10
46.0862700785
 20
44.1226262433
 30
0.0
 10
45.9534300979
 20
44.4564962261
 30
0.0
 10
45.7399418095
 20
44.7486529277
 30
0.0
 10
45.5535614106
 20
44.9038352534
 30
0.0
 10
45.4524270622
 20
44.9692184559
 30
0.0
  0
SPLINE
  5
271
100
AcDbEntity
  8
0
100
AcDbSpline
 62
7
  6
CONTINUOUS
 70
0
 71
3
 72
11
 73
7
 74
0
 42
0.0000001
 43
0.0000001
 44
0.0000000001
 40
0.0
 40
0.0
 40
0.0
 40
0.0
 40
0.2616388475
 40
0.5144910013
 40
0.7595946807
 40
1.0
 40
1.0
 40
1.0
 40
1.0
 10
16.8248142136
 20
62.1761468329
 30
0.0
 10
17.1364220939
 20
62.356053727
 30
0.0
 10
17.7633026673
 20
62.6864742303
 30
0.0
 10
18.7353337179
 20
63.0756607446
 30
0.0
 10
19.7233867876
 20
63.324747999
 30
0.0
 10
20.3923264272
 20
63.3822309052
 30
0.0
 10
20.7229392136
 20
63.3822309052
 30
0.0
  0
SPLINE
  5
272
100
AcDbEntity
  8
0
100
AcDbSpline
 62
7
  6
CONTINUOUS
 70
0
 71
3
 72
15
 73
11
 74
0
 42
0.0000001
 43
0.0000001
 44
0.0000000001
 40
0.0
 40
0.0
 40
0.0
 40
0.0
 40
0.1147567481
 40
0.2232638812
 40
0.3302508686
 40
0.4407704825
 40
0.5595450063
 40
0.6905158561
 40
0.8367086386
 40
1.0
 40
1.0
 40
1.0
 40
1.0
 10
46.1173142136
 20
43.7672912739
 30
0.0
 10
46.1173142136
 20
43.6990877061
 30
0.0
 10
46.1062500877
 20
43.5659414099
 30
0.0
 10
46.0503630462
 20
43.3762602674
 30
0.0
 10
45.9551762671
 20
43.2056241774
 30
0.0
 10
45.8210946048
 20
43.0554320707
 30
0.0
 10
45.6489827387
 20
42.926091946
 30
0.0
 10
45.4393081863
 20
42.8173444234
 30
0.0
 10
45.192246605
 20
42.728988333
 30
0.0
 10
45.0131241133
 20
42.6858024036
 30
0.0
 10
44.9179410339
 20
42.6668621439
 30
0.0
  0
SPLINE
  5
273
100
AcDbEntity
  8
0
100
AcDbSpline
 62
7
  6
CONTINUOUS
 70
0
 71
3
 72
15
 73
11
 74
0
 42
0.0000001
 43
0.0000001
 44
0.0000000001
 40
0.0
 40
0.0
 40
0.0
 40
0.0
 40
0.1308288509
 40
0.2572471221
 40
0.3797992281
 40
0.5
 40
0.6202007719
 40
0.7427528779
 40
0.8691711491
 40
1.0
 40
1.0
 40
1.0
 40
1.0
 10
40.2135642136
 20
62.1761468329
 30
0.0
 10
40.525195593
 20
62.3560672942
 30
0.0
 10
41.1519214621
 20
62.6868589598
 30
0.0
 10
42.1241513665
 20
63.0754258565
 30
0.0
 10
43.1123001377
 20
63.324792893
 30
0.0
 10
44.1116892136
 20
63.4107787551
 30
0.0
 10
45.1110782895
 20
63.324792893
 30
0.0
 10
46.0992270607
 20
63.0754258565
 30
0.0
 10
47.0714569652
 20
62.6868589598
 30
0.0
 10
47.6981828343
 20
62.3560672942
 30
0.0
 10
48.0098142136
 20
62.1761468329
 30
0.0
  0
SPLINE
  5
274
100
AcDbEntity
  8
0
100
AcDbSpline
 62
7
  6
CONTINUOUS
 70
0
 71
3
 72
15
 73
11
 74
0
 42
0.0000001
 43
0.0000001
 44
0.0000000001
 40
0.0
 40
0.0
 40
0.0
 40
0.0
 40
0.1250045405
 40
0.2500069602
 40
0.3750050345
 40
0.5
 40
0.6249949655
 40
0.7499930398
 40
0.8749954595
 40
1.0
 40
1.0
 40
1.0
 40
1.0
 10
24.6210642136
 20
62.1761468329
 30
0.0
 10
25.2547171229
 20
62.3590666723
 30
0.0
 10
26.531135141
 20
62.6946449466
 30
0.0
 10
28.4731394703
 20
63.0803887577
 30
0.0
 10
30.4382962568
 20
63.3261790784
 30
0.0
 10
32.4173142136
 20
63.4103638359
 30
0.0
 10
34.3963321704
 20
63.3261790784
 30
0.0
 10
36.3614889569
 20
63.0803887577
 30
0.0
 10
38.3034932863
 20
62.6946449466
 30
0.0
 10
39.5799113043
 20
62.3590666723
 30
0.0
 10
40.2135642136
 20
62.1761468329
 30
0.0
  0
SPLINE
  5
275
100
AcDbEntity
  8
0
100
AcDbSpline
 62
7
  6
CONTINUOUS
 70
0
 71
3
 72
11
 73
7
 74
0
 42
0.0000001
 43
0.0000001
 44
0.0000000001
 40
0.0
 40
0.0
 40
0.0
 40
0.0
 40
0.2404055719
 40
0.485509251
 40
0.7383612931
 40
1.0
 40
1.0
 40
1.0
 40
1.0
 10
20.7229392136
 20
63.3822309052
 30
0.0
 10
21.0535523632
 20
63.3822309052
 30
0.0
 10
21.7224921989
 20
63.3247468403
 30
0.0
 10
22.710546156
 20
63.0756623105
 30
0.0
 10
23.6825766076
 20
62.6864746488
 30
0.0
 10
24.309456486
 20
62.3560536388
 30
0.0
 10
24.6210642136
 20
62.1761468329
 30
0.0
  0
SPLINE
  5
276
100
AcDbEntity
  8
0
100
AcDbSpline
 62
7
  6
CONTINUOUS
 70
0
 71
3
 72
13
 73
9
 74
0
 42
0.0000001
 43
0.0000001
 44
0.0000000001
 40
0.0
 40
0.0
 40
0.0
 40
0.0
 40
0.3081596396
 40
0.5721724384
 40
0.6896623871
 40
0.7989577858
 40
0.9017103921
 40
1.0
 40
1.0
 40
1.0
 40
1.0
 10
44.1834184384
 20
44.2283389486
 30
0.0
 10
44.3350483702
 20
44.2621230585
 30
0.0
 10
44.613791155
 20
44.3391678114
 30
0.0
 10
44.9335451368
 20
44.4808163219
 30
0.0
 10
45.1413878455
 20
44.6159689506
 30
0.0
 10
45.2690106551
 20
44.7230720714
 30
0.0
 10
45.3739687976
 20
44.8398243095
 30
0.0
 10
45.4292512135
 20
44.9254233283
 30
0.0
 10
45.452427062
 20
44.9692184554
 30
0.0
  0
SPLINE
  5
277
100
AcDbEntity
  8
0
100
AcDbSpline
 62
7
  6
CONTINUOUS
 70
0
 71
3
 72
16
 73
12
 74
0
 42
0.0000001
 43
0.0000001
 44
0.0000000001
 40
0.0
 40
0.0
 40
0.0
 40
0.0
 40
0.1252024552
 40
0.2503209907
 40
0.3754915253
 40
0.4380365849
 40
0.5004856294
 40
0.625269732
 40
0.750206814
 40
0.8752185726
 40
1.0
 40
1.0
 40
1.0
 40
1.0
 10
29.5541447317
 20
12.6583533574
 30
0.0
 10
29.9978315237
 20
12.8460636715
 30
0.0
 10
30.8524327439
 20
13.3030641183
 30
0.0
 10
31.9986779834
 20
14.1922166037
 30
0.0
 10
32.8260571958
 20
15.0737104942
 30
0.0
 10
33.401475961
 20
15.8463309648
 30
0.0
 10
33.9167171268
 20
16.658597123
 30
0.0
 10
34.4483608938
 20
17.7405295018
 30
0.0
 10
34.9037456927
 20
19.1130400394
 30
0.0
 10
35.1773220207
 20
20.5326052941
 30
0.0
 10
35.2385204387
 20
21.4948596022
 30
0.0
 10
35.2385204387
 20
21.975
 30
0.0
  0
SPLINE
  5
278
100
AcDbEntity
  8
0
100
AcDbSpline
 62
7
  6
CONTINUOUS
 70
0
 71
3
 72
11
 73
7
 74
0
 42
0.0000001
 43
0.0000001
 44
0.0000000001
 40
0.0
 40
0.0
 40
0.0
 40
0.0
 40
0.2476315572
 40
0.4972955539
 40
0.7483220152
 40
1.0
 40
1.0
 40
1.0
 40
1.0
 10
29.6173364724
 20
12.3435166308
 30
0.0
 10
29.6121728466
 20
12.3695145196
 30
0.0
 10
29.6016754496
 20
12.4216979715
 30
0.0
 10
29.5862241374
 20
12.5002930555
 30
0.0
 10
29.5700199473
 20
12.5791742031
 30
0.0
 10
29.5589574703
 20
12.6318420397
 30
0.0
 10
29.5541489045
 20
12.6583482409
 30
0.0
  0
SPLINE
  5
279
100
AcDbEntity
  8
0
100
AcDbSpline
 62
7
  6
CONTINUOUS
 70
0
 71
3
 72
9
 73
5
 74
0
 42
0.0000001
 43
0.0000001
 44
0.0000000001
 40
0.0
 40
0.0
 40
0.0
 40
0.0
 40
0.4915978393
 40
1.0
 40
1.0
 40
1.0
 40
1.0
 10
29.6765816674
 20
12.0427104595
 30
0.0
 10
29.6668180902
 20
12.0919914715
 30
0.0
 10
29.6474164062
 20
12.1923285151
 30
0.0
 10
29.6274574264
 20
12.2925558735
 30
0.0
 10
29.6173357476
 20
12.3435166308
 30
0.0
  0
SPLINE
  5
27A
100
AcDbEntity
  8
0
100
AcDbSpline
 62
7
  6
CONTINUOUS
 70
0
 71
3
 72
8
 73
4
 74
0
 42
0.0000001
 43
0.0000001
 44
0.0000000001
 40
0.0
 40
0.0
 40
0.0
 40
0.0
 40
1.0
 40
1.0
 40
1.0
 40
1.0
 10
29.6807298474
 20
11.9988577995
 30
0.0
 10
29.6807298474
 20
12.0135406037
 30
0.0
 10
29.6794352306
 20
12.028307603
 30
0.0
 10
29.67658173
 20
12.0427104595
 30
0.0
  0
SPLINE
  5
27B
100
AcDbEntity
  8
0
100
AcDbSpline
 62
7
  6
CONTINUOUS
 70
0
 71
3
 72
11
 73
7
 74
0
 42
0.0000001
 43
0.0000001
 44
0.0000000001
 40
0.0
 40
0.0
 40
0.0
 40
0.0
 40
0.1982481176
 40
0.4332520309
 40
0.7018196133
 40
1.0
 40
1.0
 40
1.0
 40
1.0
 10
29.6263343566
 20
8.0523324911
 30
0.0
 10
29.632521475
 20
8.0843369751
 30
0.0
 10
29.6435280617
 20
8.1547564825
 30
0.0
 10
29.6575683142
 20
8.2693029838
 30
0.0
 10
29.6701664838
 20
8.4005440596
 30
0.0
 10
29.6770270775
 20
8.4934839744
 30
0.0
 10
29.6803325483
 20
8.5424008811
 30
0.0
  0
SPLINE
  5
27C
100
AcDbEntity
  8
0
100
AcDbSpline
 62
7
  6
CONTINUOUS
 70
0
 71
3
 72
15
 73
11
 74
0
 42
0.0000001
 43
0.0000001
 44
0.0000000001
 40
0.0
 40
0.0
 40
0.0
 40
0.0
 40
0.0160056255
 40
0.0400000841
 40
0.1081717539
 40
0.1976383648
 40
0.3076905163
 40
0.4419936185
 40
0.6023243305
 40
1.0
 40
1.0
 40
1.0
 40
1.0
 10
29.5541908357
 20
7.875
 30
0.0
 10
29.5552453892
 20
7.8749999884
 30
0.0
 10
29.5578318706
 20
7.8758003146
 30
0.0
 10
29.5641359711
 20
7.8790934361
 30
0.0
 10
29.5734367743
 20
7.8868983256
 30
0.0
 10
29.5840429654
 20
7.9011617249
 30
0.0
 10
29.5930892062
 20
7.921332685
 30
0.0
 10
29.6014598973
 20
7.9466526622
 30
0.0
 10
29.6135441836
 20
7.9906538959
 30
0.0
 10
29.6213626076
 20
8.0266073605
 30
0.0
 10
29.6263357991
 20
8.0523324911
 30
0.0
  0
SPLINE
  5
27D
100
AcDbEntity
  8
0
100
AcDbSpline
 62
7
  6
CONTINUOUS
 70
0
 71
3
 72
26
 73
22
 74
0
 42
0.0000001
 43
0.0000001
 44
0.0000000001
 40
0.0
 40
0.0
 40
0.0
 40
0.0
 40
0.1962565405
 40
0.3851732759
 40
0.4744702268
 40
0.5590414162
 40
0.6379369812
 40
0.7103983768
 40
0.7758074657
 40
0.8335540639
 40
0.8831755231
 40
0.9243874812
 40
0.9417547271
 40
0.9569176321
 40
0.9698429581
 40
0.9804983823
 40
0.9888528408
 40
0.9948764942
 40
0.9985483569
 40
0.9995207214
 40
1.0
 40
1.0
 40
1.0
 40
1.0
 10
18.0173142136
 20
12.042706244
 30
0.0
 10
17.9191459551
 20
12.0427062432
 30
0.0
 10
17.7264808352
 20
12.0428832142
 30
0.0
 10
17.4891494723
 20
12.0433330087
 30
0.0
 10
17.3076834764
 20
12.0436952208
 30
0.0
 10
17.1812503258
 20
12.043923062
 30
0.0
 10
17.0632382759
 20
12.0440808845
 30
0.0
 10
16.9548110636
 20
12.0441201132
 30
0.0
 10
16.8569626733
 20
12.0439844875
 30
0.0
 10
16.770539521
 20
12.0436156415
 30
0.0
 10
16.6962216202
 20
12.042975518
 30
0.0
 10
16.6421046995
 20
12.0421874028
 30
0.0
 10
16.6052267929
 20
12.0413753044
 30
0.0
 10
16.5825000725
 20
12.0407329379
 30
0.0
 10
16.5631290081
 20
12.0400201049
 30
0.0
 10
16.5471846005
 20
12.0392500281
 30
0.0
 10
16.5346599871
 20
12.038400861
 30
0.0
 10
16.5257392389
 20
12.0375595936
 30
0.0
 10
16.5203456119
 20
12.0366621779
 30
0.0
 10
16.5180025805
 20
12.0359616323
 30
0.0
 10
16.5173142141
 20
12.0354208251
 30
0.0
 10
16.5173142136
 20
12.0351810882
 30
0.0
  0
SPLINE
  5
27E
100
AcDbEntity
  8
0
100
AcDbSpline
 62
7
  6
CONTINUOUS
 70
0
 71
3
 72
13
 73
9
 74
0
 42
0.0000001
 43
0.0000001
 44
0.0000000001
 40
0.0
 40
0.0
 40
0.0
 40
0.0
 40
0.091173263
 40
0.1874414639
 40
0.2922457531
 40
0.4079434606
 40
0.676903084
 40
1.0
 40
1.0
 40
1.0
 40
1.0
 10
16.5173142136
 20
12.0351810882
 30
0.0
 10
16.5173142164
 20
12.0549765129
 30
0.0
 10
16.5225710066
 20
12.0958251011
 30
0.0
 10
16.5453497216
 20
12.1555520804
 30
0.0
 10
16.582180734
 20
12.2140771645
 30
0.0
 10
16.6528651162
 20
12.293927586
 30
0.0
 10
16.7771615031
 20
12.386714893
 30
0.0
 10
16.8927586319
 20
12.4440510215
 30
0.0
 10
16.9574076222
 20
12.471283105
 30
0.0
  0
SPLINE
  5
27F
100
AcDbEntity
  8
0
100
AcDbSpline
 62
7
  6
CONTINUOUS
 70
0
 71
3
 72
11
 73
7
 74
0
 42
0.0000001
 43
0.0000001
 44
0.0000000001
 40
0.0
 40
0.0
 40
0.0
 40
0.0
 40
0.2214148003
 40
0.467260015
 40
0.7296394791
 40
1.0
 40
1.0
 40
1.0
 40
1.0
 10
16.9574088452
 20
12.4712773054
 30
0.0
 10
17.031031022
 20
12.5022886566
 30
0.0
 10
17.1911781343
 20
12.5565753913
 30
0.0
 10
17.4485372156
 20
12.6137371203
 30
0.0
 10
17.7274588475
 20
12.6498733442
 30
0.0
 10
17.9197675085
 20
12.6583482409
 30
0.0
 10
18.0173142136
 20
12.6583482409
 30
0.0
  0
SPLINE
  5
280
100
AcDbEntity
  8
0
100
AcDbSpline
 62
7
  6
CONTINUOUS
 70
0
 71
3
 72
20
 73
16
 74
0
 42
0.0000001
 43
0.0000001
 44
0.0000000001
 40
0.0
 40
0.0
 40
0.0
 40
0.0
 40
0.141519122
 40
0.2754491912
 40
0.339304373
 40
0.4011600337
 40
0.4613075191
 40
0.5201798882
 40
0.5781867525
 40
0.6358421003
 40
0.6937986206
 40
0.7528124652
 40
0.8132348116
 40
0.874868466
 40
1.0
 40
1.0
 40
1.0
 40
1.0
 10
36.4003009834
 20
36.075
 30
0.0
 10
36.7617378117
 20
36.075
 30
0.0
 10
37.4655332232
 20
36.0952334148
 30
0.0
 10
38.3279037377
 20
36.2008641631
 30
0.0
 10
38.9744831747
 20
36.3508459834
 30
0.0
 10
39.4268907028
 20
36.4966975729
 30
0.0
 10
39.8511949227
 20
36.6815763575
 30
0.0
 10
40.2434397525
 20
36.9085330641
 30
0.0
 10
40.6002845113
 20
37.1776238922
 30
0.0
 10
40.9177398816
 20
37.4890623028
 30
0.0
 10
41.1918513914
 20
37.8427060369
 30
0.0
 10
41.4171622974
 20
38.2374024706
 30
0.0
 10
41.5923183639
 20
38.6667595397
 30
0.0
 10
41.7607270535
 20
39.2761905679
 30
0.0
 10
41.8110007479
 20
39.7554167229
 30
0.0
 10
41.8110007479
 20
40.075
 30
0.0
  0
SPLINE
  5
281
100
AcDbEntity
  8
0
100
AcDbSpline
 62
7
  6
CONTINUOUS
 70
0
 71
3
 72
13
 73
9
 74
0
 42
0.0000001
 43
0.0000001
 44
0.0000000001
 40
0.0
 40
0.0
 40
0.0
 40
0.0
 40
0.249879336
 40
0.3749306014
 40
0.5000215209
 40
0.62509535
 40
0.7501149385
 40
1.0
 40
1.0
 40
1.0
 40
1.0
 10
40.7022402845
 20
42.575
 30
0.0
 10
40.0111600174
 20
42.575
 30
0.0
 10
38.9743163106
 20
42.6199950965
 30
0.0
 10
37.5950312826
 20
42.7182611637
 30
0.0
 10
36.5603388039
 20
42.7977059012
 30
0.0
 10
35.5254235163
 20
42.8729754371
 30
0.0
 10
34.1453071336
 20
42.9580481815
 30
0.0
 10
33.1084103154
 20
42.9928857052
 30
0.0
 10
32.4173142136
 20
42.9928857052
 30
0.0
  0
SPLINE
  5
282
100
AcDbEntity
  8
0
100
AcDbSpline
 62
7
  6
CONTINUOUS
 70
0
 71
3
 72
21
 73
17
 74
0
 42
0.0000001
 43
0.0000001
 44
0.0000000001
 40
0.0
 40
0.0
 40
0.0
 40
0.0
 40
0.0718010606
 40
0.1428717322
 40
0.2123643028
 40
0.279514308
 40
0.3437271656
 40
0.4050830997
 40
0.4642821681
 40
0.5220266935
 40
0.5789675804
 40
0.6357247997
 40
0.6930129707
 40
0.7514015289
 40
0.8725744686
 40
1.0
 40
1.0
 40
1.0
 40
1.0
 10
43.0792928656
 20
40.075
 30
0.0
 10
43.0792928656
 20
39.8544405506
 30
0.0
 10
43.0609631715
 20
39.4153458889
 30
0.0
 10
42.9791718436
 20
38.7673857904
 30
0.0
 10
42.843662185
 20
38.1429681874
 30
0.0
 10
42.6551688165
 20
37.5543385267
 30
0.0
 10
42.4127183633
 20
37.0127223993
 30
0.0
 10
42.1171838701
 20
36.5263612995
 30
0.0
 10
41.7742930737
 20
36.097310768
 30
0.0
 10
41.3881859757
 20
35.7260254258
 30
0.0
 10
40.9631735649
 20
35.4125164496
 30
0.0
 10
40.5027851644
 20
35.1569064485
 30
0.0
 10
40.0117787487
 20
34.9553774397
 30
0.0
 10
39.3129801913
 20
34.7490975662
 30
0.0
 10
38.3774908442
 20
34.6028830865
 30
0.0
 10
37.6132772205
 20
34.575
 30
0.0
 10
37.2218497848
 20
34.575
 30
0.0
  0
SPLINE
  5
283
100
AcDbEntity
  8
0
100
AcDbSpline
 62
7
  6
CONTINUOUS
 70
0
 71
3
 72
9
 73
5
 74
0
 42
0.0000001
 43
0.0000001
 44
0.0000000001
 40
0.0
 40
0.0
 40
0.0
 40
0.0
 40
0.4675565488
 40
1.0
 40
1.0
 40
1.0
 40
1.0
 10
44.8359682509
 20
42.6515185697
 30
0.0
 10
44.6800641683
 20
42.6241085705
 30
0.0
 10
44.3430728096
 20
42.5853966154
 30
0.0
 10
44.0043773003
 20
42.5750027269
 30
0.0
 10
43.8241140197
 20
42.5750027677
 30
0.0
  0
SPLINE
  5
284
100
AcDbEntity
  8
0
100
AcDbSpline
 62
7
  6
CONTINUOUS
 70
0
 71
3
 72
9
 73
5
 74
0
 42
0.0000001
 43
0.0000001
 44
0.0000000001
 40
0.0
 40
0.0
 40
0.0
 40
0.0
 40
0.2503308075
 40
1.0
 40
1.0
 40
1.0
 40
1.0
 10
16.5269948567
 20
6.6131966339
 30
0.0
 10
16.5333125122
 20
6.6908171943
 30
0.0
 10
16.5708450391
 20
6.9996966941
 30
0.0
 10
16.6578269034
 20
7.3031182595
 30
0.0
 10
16.7516441898
 20
7.5166362056
 30
0.0
  0
SPLINE
  5
285
100
AcDbEntity
  8
0
100
AcDbSpline
 62
7
  6
CONTINUOUS
 70
0
 71
3
 72
11
 73
7
 74
0
 42
0.0000001
 43
0.0000001
 44
0.0000000001
 40
0.0
 40
0.0
 40
0.0
 40
0.0
 40
0.2496131307
 40
0.4995464304
 40
0.7497479556
 40
1.0
 40
1.0
 40
1.0
 40
1.0
 10
16.7516441898
 20
7.5166362056
 30
0.0
 10
16.8090540188
 20
7.6472947362
 30
0.0
 10
16.9461299151
 20
7.899870199
 30
0.0
 10
17.2256499536
 20
8.2301793122
 30
0.0
 10
17.586015439
 20
8.4742133806
 30
0.0
 10
17.8742374393
 20
8.5433889811
 30
0.0
 10
18.0173142136
 20
8.5424008811
 30
0.0
  0
ENDSEC
  0
SECTION
  2
OBJECTS
  0
DICTIONARY
  5
C
100
AcDbDictionary
280
0
281
1
  3
ACAD_GROUP
350
D
  3
ACAD_MLINESTYLE
350
17
  3
ACAD_LAYOUT
350
1A
  3
ACAD_PLOTSETTINGS
350
19
  3
ACAD_PLOTSTYLENAME
350
E
  0
DICTIONARY
  5
D
102
{ACAD_REACTORS
330
C
102
}
100
AcDbDictionary
280
0
281
1
  0
ACDBDICTIONARYWDFLT
  5
E
102
{ACAD_REACTORS
330
C
102
}
100
AcDbDictionary
281
1
  3
Normal
350
F
100
AcDbDictionaryWithDefault
340
F
  0
DICTIONARY
  5
17
102
{ACAD_REACTORS
330
C
102
}
100
AcDbDictionary
280
0
281
1
  3
Standard
350
18
  0
DICTIONARY
  5
19
102
{ACAD_REACTORS
330
C
102
}
100
AcDbDictionary
281
1
  0
DICTIONARY
  5
1A
102
{ACAD_REACTORS
330
C
102
}
100
AcDbDictionary
281
1
  3
Model
350
286
  3
Layout1
350
287
  0
ACDBPLACEHOLDER
  5
F
102
{ACAD_REACTORS
330
E
102
}
  0
MLINESTYLE
  5
18
102
{ACAD_REACTORS
330
17
102
}
100
AcDbMlineStyle
  2
STANDARD
 70
0
  3

 62
256
 51
90.0
 52
90.0
 71
2
 49
0.5
 62
256
  6
BYLAYER
 49
-0.5
 62
256
  6
BYLAYER
  0
LAYOUT
  5
286
102
{ACAD_REACTORS
330
1A
102
}
100
AcDbPlotSettings
  1

  2
none_device
  4

  6

 40
0.0
 41
0.0
 42
0.0
 43
0.0
 44
210.0
 45
297.0
 46
0.0
 47
0.0
 48
0.0
 49
0.0
140
0.0
141
0.0
142
1.0
143
1.0
 70
1024
 72
1
 73
0
 74
0
  7

 75
0
147
1.0
148
0.0
149
0.0
100
AcDbLayout
  1
Model
 70
0
 71
0
 10
0.0
 20
0.0
 11
210.0
 21
297.0
 12
0.0
 22
0.0
 32
0.0
 14
0.0
 24
0.0
 34
0.0
 15
0.0
 25
0.0
 35
0.0
146
0.0
 13
0.0
 23
0.0
 33
0.0
 16
1.0
 26
0.0
 36
0.0
 17
0.0
 27
1.0
 37
0.0
 76
0
330
210
345
0
346
0
  0
LAYOUT
  5
287
102
{ACAD_REACTORS
330
1A
102
}
100
AcDbPlotSettings
  1

  2
none_device
  4

  6

 40
0.0
 41
0.0
 42
0.0
 43
0.0
 44
210.0
 45
297.0
 46
0.0
 47
0.0
 48
0.0
 49
0.0
140
0.0
141
0.0
142
1.0
143
1.0
 70
0
 72
1
 73
0
 74
0
  7

 75
0
147
1.0
148
0.0
149
0.0
100
AcDbLayout
  1
Layout1
 70
0
 71
1
 10
0.0
 20
0.0
 11
210.0
 21
297.0
 12
0.0
 22
0.0
 32
0.0
 14
0.0
 24
0.0
 34
0.0
 15
0.0
 25
0.0
 35
0.0
146
0.0
 13
0.0
 23
0.0
 33
0.0
 16
1.0
 26
0.0
 36
0.0
 17
0.0
 27
1.0
 37
0.0
 76
0
330
211
345
0
346
0
  0
ENDSEC
  0
EOF
