999
DXF file: C:\Users\sesa63760\Dev\_Creo\CAD\MCADID0004795_3D-CAD\drw0001_1.dxf
999
Pro/ENGINEER 2019471 by Parametric Technology Corporation
  0
SECTION
  2
HEADER
  9
$ACADVER
  1
AC1024
  9
$DWGCODEPAGE
  3
ANSI_1252
  9
$EXTMAX
 10
72.3215390743
 20
102.2833195479
 30
0.0
  9
$EXTMIN
 10
0.0
 20
0.0
 30
0.0
  9
$LIMMIN
 10
0.0
 20
0.0
  9
$LIMMAX
 10
72.3215390743
 20
102.2833195479
  9
$VIEWCTR
 10
36.1607695371
 20
51.141659774
  9
$VIEWSIZE
 40
102.2833195479
  9
$CLAYER
  8
0
  9
$LTSCALE
 40
6.6673571261
  9
$CELTYPE
  6
BYLAYER
  9
$DIMSCALE
 40
1.0
  9
$DIMASZ
 40
0.8609707033
  9
$DIMEXO
 40
1.0
  9
$DIMDLI
 40
4.6065376508
  9
$DIMEXE
 40
1.0
  9
$DIMCEN
 40
1.0910220752
  9
$DIMLFAC
 40
1.0
  9
$DIMBLK
  1
_FILLED
  9
$DIMALT
 70
0
  9
$DIMALTF
 40
0.0393700787
  9
$DIMTXT
 40
1.2053589846
  9
$DIMTOL
 70
1
  9
$DIMLIM
 70
0
  9
$DIMTFAC
 40
1.0
  9
$DIMTP
 40
0.01
  9
$DIMTM
 40
0.01
  9
$DIMGAP
 40
0.625
  9
$DIMDSEP
 70
46
  9
$AUNITS
 70
0
  9
$PDMODE
 70
3
  9
$PDSIZE
 40
0.3125
  9
$HANDSEED
  5
424
  9
$TILEMODE
 70
1
  9
$MEASUREMENT
 70
1
  9
$INSUNITS
 70
4
  0
ENDSEC
  0
SECTION
  2
CLASSES
  0
CLASS
  1
ACDBDICTIONARYWDFLT
  2
AcDbDictionaryWithDefault
  3
AutoCAD 2000
 90
0
 91
1
280
0
281
0
  0
CLASS
  1
ACDBPLACEHOLDER
  2
AcDbPlaceHolder
  3
AutoCAD 2000
 90
0
 91
1
280
0
281
0
  0
CLASS
  1
LAYOUT
  2
AcDbLayout
  3
AutoCAD 2000
 90
0
 91
0
280
0
281
0
  0
ENDSEC
  0
SECTION
  2
TABLES
  0
TABLE
  2
VPORT
  5
8
100
AcDbSymbolTable
 70
2
  0
VPORT
  5
1F4
100
AcDbSymbolTableRecord
100
AcDbViewportTableRecord
  2
*ACTIVE
 70
0
 10
0.0
 20
0.0
 11
1.0
 21
1.0
 12
36.1607695371
 22
51.141659774
 13
0.0
 23
0.0
 14
1.0
 24
1.0
 15
0.0
 25
0.0
 16
0.0
 26
0.0
 36
1.0
 17
0.0
 27
0.0
 37
0.0
 40
102.2833195479
 41
0.7070707071
 42
50.0
 43
0.0
 44
0.0
 50
0.0
 51
0.0
 71
0
 72
100
 73
1
 74
1
 75
0
 76
0
 77
0
 78
0
  0
ENDTAB
  0
TABLE
  2
LTYPE
  5
5
100
AcDbSymbolTable
 70
6
  0
LTYPE
  5
14
100
AcDbSymbolTableRecord
100
AcDbLinetypeTableRecord
  2
BYBLOCK
 70
0
  3

 72
65
 73
0
 40
0.0
  0
LTYPE
  5
15
100
AcDbSymbolTableRecord
100
AcDbLinetypeTableRecord
  2
BYLAYER
 70
0
  3

 72
65
 73
0
 40
0.0
  0
LTYPE
  5
16
100
AcDbSymbolTableRecord
100
AcDbLinetypeTableRecord
  2
CONTINUOUS
 70
64
  3
Solid line
 72
65
 73
0
 40
0.0
  0
LTYPE
  5
1F5
100
AcDbSymbolTableRecord
100
AcDbLinetypeTableRecord
  2
CENTER
 70
64
  3
____ _ ____ _ ____ _ ____ _ ____ _ ____ _ ____
 72
65
 73
4
 40
0.6
 49
0.375
 74
0
 49
-0.075
 74
0
 49
0.075
 74
0
 49
-0.075
 74
0
  0
LTYPE
  5
1F6
100
AcDbSymbolTableRecord
100
AcDbLinetypeTableRecord
  2
HIDDEN
 70
64
  3
- - - - - - - - - - - - - - - - - - - -
 72
65
 73
2
 40
0.2
 49
0.1
 74
0
 49
-0.1
 74
0
  0
LTYPE
  5
1F7
100
AcDbSymbolTableRecord
100
AcDbLinetypeTableRecord
  2
PHANTOM
 70
64
  3
_____ _ _ _____ _ _ _____ _ _ _____
 72
65
 73
6
 40
0.8
 49
0.45
 74
0
 49
-0.05
 74
0
 49
0.1
 74
0
 49
-0.05
 74
0
 49
0.1
 74
0
 49
-0.05
 74
0
  0
LTYPE
  5
1F8
100
AcDbSymbolTableRecord
100
AcDbLinetypeTableRecord
  2
DOT
 70
64
  3
. . . . . . . . . . . . . . . . . . . .
 72
65
 73
2
 40
0.2
 49
0.1
 74
0
 49
-0.1
 74
0
  0
LTYPE
  5
1F9
100
AcDbSymbolTableRecord
100
AcDbLinetypeTableRecord
  2
DASHED
 70
64
  3
- - - - - - - - - - - - - - - - - - - -
 72
65
 73
2
 40
0.2
 49
0.1
 74
0
 49
-0.1
 74
0
  0
ENDTAB
  0
TABLE
  2
LAYER
  5
2
100
AcDbSymbolTable
 70
36
  0
LAYER
  5
10
100
AcDbSymbolTableRecord
100
AcDbLayerTableRecord
  2
0
 70
0
 62
7
  6
CONTINUOUS
370
-3
390
F
  0
LAYER
  5
1FA
100
AcDbSymbolTableRecord
100
AcDbLayerTableRecord
  2
DEFAULT_1
 70
0
 62
7
  6
CENTER
370
-3
390
F
  0
LAYER
  5
1FB
100
AcDbSymbolTableRecord
100
AcDbLayerTableRecord
  2
DEFAULT_2
 70
0
 62
7
  6
HIDDEN
370
-3
390
F
  0
LAYER
  5
1FC
100
AcDbSymbolTableRecord
100
AcDbLayerTableRecord
  2
DEFAULT_3
 70
0
 62
7
  6
PHANTOM
370
-3
390
F
  0
LAYER
  5
1FD
100
AcDbSymbolTableRecord
100
AcDbLayerTableRecord
  2
00_COMPONENTS
 70
0
 62
7
  6
CONTINUOUS
370
-3
390
F
  0
LAYER
  5
1FE
100
AcDbSymbolTableRecord
100
AcDbLayerTableRecord
  2
01_1_DEFAULT_DATUMS
 70
0
 62
7
  6
CONTINUOUS
370
-3
390
F
  0
LAYER
  5
1FF
100
AcDbSymbolTableRecord
100
AcDbLayerTableRecord
  2
01_PLANES
 70
0
 62
7
  6
CONTINUOUS
370
-3
390
F
  0
LAYER
  5
200
100
AcDbSymbolTableRecord
100
AcDbLayerTableRecord
  2
02_COORD_SYS
 70
0
 62
7
  6
CONTINUOUS
370
-3
390
F
  0
LAYER
  5
201
100
AcDbSymbolTableRecord
100
AcDbLayerTableRecord
  2
03_AXES
 70
0
 62
7
  6
CONTINUOUS
370
-3
390
F
  0
LAYER
  5
202
100
AcDbSymbolTableRecord
100
AcDbLayerTableRecord
  2
04_POINTS
 70
0
 62
7
  6
CONTINUOUS
370
-3
390
F
  0
LAYER
  5
203
100
AcDbSymbolTableRecord
100
AcDbLayerTableRecord
  2
05_CURVES
 70
0
 62
7
  6
CONTINUOUS
370
-3
390
F
  0
LAYER
  5
204
100
AcDbSymbolTableRecord
100
AcDbLayerTableRecord
  2
06_SURFS
 70
0
 62
7
  6
CONTINUOUS
370
-3
390
F
  0
LAYER
  5
205
100
AcDbSymbolTableRecord
100
AcDbLayerTableRecord
  2
07_COSMETICS
 70
0
 62
7
  6
CONTINUOUS
370
-3
390
F
  0
LAYER
  5
206
100
AcDbSymbolTableRecord
100
AcDbLayerTableRecord
  2
10_NOTES
 70
0
 62
7
  6
CONTINUOUS
370
-3
390
F
  0
LAYER
  5
207
100
AcDbSymbolTableRecord
100
AcDbLayerTableRecord
  2
11_NOTES_PUB
 70
0
 62
7
  6
CONTINUOUS
370
-3
390
F
  0
LAYER
  5
208
100
AcDbSymbolTableRecord
100
AcDbLayerTableRecord
  2
13_REF_GTOL
 70
0
 62
7
  6
CONTINUOUS
370
-3
390
F
  0
LAYER
  5
209
100
AcDbSymbolTableRecord
100
AcDbLayerTableRecord
  2
16_MISC
 70
0
 62
7
  6
CONTINUOUS
370
-3
390
F
  0
LAYER
  5
20A
100
AcDbSymbolTableRecord
100
AcDbLayerTableRecord
  2
17_NO_PRINT
 70
0
 62
7
  6
CONTINUOUS
370
-3
390
F
  0
LAYER
  5
20B
100
AcDbSymbolTableRecord
100
AcDbLayerTableRecord
  2
18_DATUM_CAMS_JOINTS
 70
0
 62
7
  6
CONTINUOUS
370
-3
390
F
  0
LAYER
  5
20C
100
AcDbSymbolTableRecord
100
AcDbLayerTableRecord
  2
19_DATUM_FUNCTIONAL
 70
0
 62
7
  6
CONTINUOUS
370
-3
390
F
  0
LAYER
  5
20D
100
AcDbSymbolTableRecord
100
AcDbLayerTableRecord
  2
20_DATUM_KINEMATIC_SCHEME
 70
0
 62
7
  6
CONTINUOUS
370
-3
390
F
  0
ENDTAB
  0
TABLE
  2
STYLE
  5
3
100
AcDbSymbolTable
 70
1
  0
STYLE
  5
11
100
AcDbSymbolTableRecord
100
AcDbTextStyleTableRecord
  2
STANDARD
 70
0
 40
0.0
 41
1.0
 50
0.0
 71
0
 42
0.2
  3
ARIAL.TTF
  4

  0
STYLE
  5
20E
100
AcDbSymbolTableRecord
100
AcDbTextStyleTableRecord
  2
TEXTSTYLE_1
 70
0
 40
0.0
 41
0.8
 50
0.0
 71
0
 42
0.2
  3
gdt
  4

  0
ENDTAB
  0
TABLE
  2
VIEW
  5
6
100
AcDbSymbolTable
 70
0
  0
ENDTAB
  0
TABLE
  2
UCS
  5
7
100
AcDbSymbolTable
 70
0
  0
ENDTAB
  0
TABLE
  2
APPID
  5
9
100
AcDbSymbolTable
 70
1
  0
APPID
  5
20F
100
AcDbSymbolTableRecord
100
AcDbRegAppTableRecord
  2
ACAD
 70
0
  0
ENDTAB
  0
TABLE
  2
BLOCK_RECORD
  5
1
100
AcDbSymbolTable
 70
0
  0
BLOCK_RECORD
  5
210
100
AcDbSymbolTableRecord
100
AcDbBlockTableRecord
  2
*Model_Space
  0
BLOCK_RECORD
  5
211
100
AcDbSymbolTableRecord
100
AcDbBlockTableRecord
  2
*Paper_Space
  0
BLOCK_RECORD
  5
212
100
AcDbSymbolTableRecord
100
AcDbBlockTableRecord
  2
_FILLED
  0
ENDTAB
  0
TABLE
  2
DIMSTYLE
  5
A
100
AcDbSymbolTable
 70
1
100
AcDbDimStyleTable
 71
0
  0
DIMSTYLE
105
213
100
AcDbSymbolTableRecord
100
AcDbDimStyleTableRecord
  2
STANDARD
 70
0
  3

  4

 40
1.0
 41
0.8609707033
 42
1.0
 43
0.38
 44
1.0
 45
0.0
 46
0.0
 47
0.01
 48
0.01
140
1.2053589846
141
0.09
142
0.0
143
25.4
144
1.0
145
0.0
146
1.0
147
0.625
 71
1
 72
0
 73
0
 74
0
 75
0
 76
0
 77
1
 78
8
 79
2
170
0
171
1
172
0
173
0
174
0
175
0
176
0
177
0
178
0
270
2
179
2
271
2
272
2
273
2
274
2
275
0
280
0
281
0
282
0
283
1
284
8
285
0
286
0
287
3
288
0
340
11
278
46
341
212
342
212
343
212
344
212
  0
ENDTAB
  0
ENDSEC
  0
SECTION
  2
BLOCKS
  0
BLOCK
  5
20
100
AcDbEntity
  8
0
100
AcDbBlockBegin
  2
*Model_Space
 70
0
 10
0.0
 20
0.0
 30
0.0
  3
*Model_Space
  1

  0
ENDBLK
  5
21
100
AcDbEntity
  8
0
100
AcDbBlockEnd
  0
BLOCK
  5
1C
100
AcDbEntity
  8
0
100
AcDbBlockBegin
  2
*Paper_Space
 70
0
 10
0.0
 20
0.0
 30
0.0
  3
*Paper_Space
  1

  0
ENDBLK
  5
1D
100
AcDbEntity
  8
0
100
AcDbBlockEnd
  0
BLOCK
  5
214
100
AcDbEntity
  8
0
100
AcDbBlockBegin
  2
_FILLED
 70
64
 10
0.0
 20
0.0
  3
_FILLED
  1

  0
SOLID
  5
215
100
AcDbEntity
  8
0
  6
BYBLOCK
 62
0
100
AcDbTrace
 10
0.0
 20
0.0
 11
-1.0
 21
0.25
 12
-1.0
 22
-0.25
 13
-1.0
 23
-0.25
  0
ENDBLK
  5
216
100
AcDbEntity
  8
0
  6
BYBLOCK
 62
0
100
AcDbBlockEnd
  0
ENDSEC
  0
SECTION
  2
ENTITIES
  0
LINE
  5
217
100
AcDbEntity
  8
0
100
AcDbLine
 62
7
  6
BYLAYER
 10
29.1134573524
 20
93.635116085
 11
25.5779381663
 21
91.5938953157
  0
LINE
  5
218
100
AcDbEntity
  8
0
100
AcDbLine
 62
7
  6
BYLAYER
 10
36.6474550718
 20
8.7838943235
 11
33.3207431831
 21
9.2985225159
  0
LINE
  5
219
100
AcDbEntity
  8
0
100
AcDbLine
 62
7
  6
BYLAYER
 10
27.5779292125
 20
91.3957981996
 11
31.1134483986
 21
93.437018969
  0
LINE
  5
21A
100
AcDbEntity
  8
0
100
AcDbLine
 62
7
  6
BYLAYER
 10
27.088620231
 20
89.303923713
 11
27.4448551916
 21
89.4313707405
  0
LINE
  5
21B
100
AcDbEntity
  8
0
100
AcDbLine
 62
7
  6
BYLAYER
 10
30.3516764327
 20
12.2073317765
 11
39.6165218221
 21
10.7740995656
  0
LINE
  5
21C
100
AcDbEntity
  8
0
100
AcDbLine
 62
7
  6
BYLAYER
 10
27.4448551916
 20
85.1855581714
 11
30.4518022147
 21
86.9216094818
  0
LINE
  5
21D
100
AcDbEntity
  8
0
100
AcDbLine
 62
7
  6
BYLAYER
 10
33.4791205912
 20
13.8391975446
 11
33.5377193299
 21
13.8169445091
  0
LINE
  5
21E
100
AcDbEntity
  8
0
100
AcDbLine
 62
7
  6
BYLAYER
 10
25.6267046716
 20
18.3726894282
 11
33.47915665
 21
13.8391767265
  0
LINE
  5
21F
100
AcDbEntity
  8
0
100
AcDbLine
 62
7
  6
BYLAYER
 10
33.3183970249
 20
14.2702017384
 11
25.3732396553
 21
18.8572367119
  0
LINE
  5
220
100
AcDbEntity
  8
0
100
AcDbLine
 62
7
  6
BYLAYER
 10
9.8887519993
 20
68.1457010843
 11
9.9234754991
 21
68.215709577
  0
LINE
  5
221
100
AcDbEntity
  8
0
100
AcDbLine
 62
7
  6
BYLAYER
 10
10.5842949024
 20
66.8108411001
 11
10.6190184023
 21
66.8808495928
  0
LINE
  5
222
100
AcDbEntity
  8
0
100
AcDbLine
 62
7
  6
BYLAYER
 10
8.9376448874
 20
70.036762665
 11
10.0781742732
 21
70.8692902795
  0
LINE
  5
223
100
AcDbEntity
  8
0
100
AcDbLine
 62
7
  6
BYLAYER
 10
18.3883807945
 20
79.2317412423
 11
37.1238810624
 21
90.0486227972
  0
LINE
  5
224
100
AcDbEntity
  8
0
100
AcDbLine
 62
7
  6
BYLAYER
 10
17.9919732391
 20
76.5996311436
 11
11.7894133406
 21
73.0186028925
  0
LINE
  5
225
100
AcDbEntity
  8
0
100
AcDbLine
 62
7
  6
BYLAYER
 10
9.668101829
 20
71.7938704309
 11
10.7287575848
 21
72.4062366617
  0
LINE
  5
226
100
AcDbEntity
  8
0
100
AcDbLine
 62
7
  6
BYLAYER
 10
21.7318159118
 20
80.2760216659
 11
25.043351705
 21
81.3798617632
  0
LINE
  5
227
100
AcDbEntity
  8
0
100
AcDbLine
 62
7
  6
BYLAYER
 10
25.043351705
 20
80.7266598295
 11
21.7318159118
 21
79.6228197322
  0
LINE
  5
228
100
AcDbEntity
  8
0
100
AcDbLine
 62
7
  6
BYLAYER
 10
34.6607490573
 20
19.1158136282
 11
34.7387393148
 21
19.1108823143
  0
LINE
  5
229
100
AcDbEntity
  8
0
100
AcDbLine
 62
7
  6
BYLAYER
 10
33.8524923967
 20
20.3855964337
 11
33.9304826543
 21
20.3806651197
  0
LINE
  5
22A
100
AcDbEntity
  8
0
100
AcDbLine
 62
7
  6
BYLAYER
 10
8.8396539746
 20
36.8943787706
 11
8.8396539746
 21
66.9610990363
  0
LINE
  5
22B
100
AcDbEntity
  8
0
100
AcDbLine
 62
7
  6
BYLAYER
 10
17.556494701
 20
71.4737415385
 11
16.4358210936
 21
70.2780822968
  0
LINE
  5
22C
100
AcDbEntity
  8
0
100
AcDbLine
 62
7
  6
BYLAYER
 10
33.0469260663
 20
86.0006999925
 11
34.9588329565
 21
87.9125979331
  0
LINE
  5
22D
100
AcDbEntity
  8
0
100
AcDbLine
 62
7
  6
BYLAYER
 10
11.1962078037
 20
67.3507628369
 11
10.6190184023
 21
66.8808495928
  0
LINE
  5
22E
100
AcDbEntity
  8
0
100
AcDbLine
 62
7
  6
BYLAYER
 10
11.2702104098
 20
67.3080383789
 11
10.6970086598
 21
66.8759182788
  0
LINE
  5
22F
100
AcDbEntity
  8
0
100
AcDbLine
 62
7
  6
BYLAYER
 10
10.5842949024
 20
67.9158519618
 11
9.8158843263
 21
67.3846241416
  0
LINE
  5
230
100
AcDbEntity
  8
0
100
AcDbLine
 62
7
  6
BYLAYER
 10
11.6680928752
 20
71.5957733148
 11
12.728748631
 21
72.2081395456
  0
LINE
  5
231
100
AcDbEntity
  8
0
100
AcDbLine
 62
7
  6
BYLAYER
 10
13.7894043869
 20
72.8205057764
 11
17.8455315594
 21
75.1622979127
  0
LINE
  5
232
100
AcDbEntity
  8
0
100
AcDbLine
 62
7
  6
BYLAYER
 10
17.6245654287
 20
72.9935030498
 11
15.5571786997
 21
71.7999038901
  0
LINE
  5
233
100
AcDbEntity
  8
0
100
AcDbLine
 62
7
  6
BYLAYER
 10
14.4965229439
 20
71.1875376593
 11
13.4358671881
 21
70.5751714285
  0
LINE
  5
234
100
AcDbEntity
  8
0
100
AcDbLine
 62
7
  6
BYLAYER
 10
10.6132771691
 20
67.7207632303
 11
9.8944989008
 21
67.305777629
  0
LINE
  5
235
100
AcDbEntity
  8
0
100
AcDbLine
 62
7
  6
BYLAYER
 10
17.5564398296
 20
71.4738365774
 11
18.2247166663
 21
71.8596640859
  0
LINE
  5
236
100
AcDbEntity
  8
0
100
AcDbLine
 62
7
  6
BYLAYER
 10
42.7809207817
 20
14.0328128851
 11
36.5125209168
 21
17.6517933622
  0
LINE
  5
237
100
AcDbEntity
  8
0
100
AcDbLine
 62
7
  6
BYLAYER
 10
32.5806553905
 20
19.9218056277
 11
19.5418875132
 21
27.4495714707
  0
LINE
  5
238
100
AcDbEntity
  8
0
100
AcDbLine
 62
7
  6
BYLAYER
 10
15.610021987
 20
29.7195837362
 11
11.6680928752
 21
31.995406084
  0
LINE
  5
239
100
AcDbEntity
  8
0
100
AcDbLine
 62
7
  6
BYLAYER
 10
36.0683033578
 20
18.3432755218
 11
34.7387393148
 21
19.1108823143
  0
LINE
  5
23A
100
AcDbEntity
  8
0
100
AcDbLine
 62
7
  6
BYLAYER
 10
33.8576149813
 20
19.619588177
 11
32.5229283538
 21
20.3901524281
  0
LINE
  5
23B
100
AcDbEntity
  8
0
100
AcDbLine
 62
7
  6
BYLAYER
 10
19.0976699542
 20
28.1410536302
 11
17.7681059113
 21
28.9086604227
  0
LINE
  5
23C
100
AcDbEntity
  8
0
100
AcDbLine
 62
7
  6
BYLAYER
 10
16.8869815777
 20
29.4173662855
 11
15.5522949503
 21
30.1879305366
  0
LINE
  5
23D
100
AcDbEntity
  8
0
100
AcDbLine
 62
7
  6
BYLAYER
 10
15.5522949503
 20
30.9509813347
 11
16.8818589932
 21
30.1833745422
  0
LINE
  5
23E
100
AcDbEntity
  8
0
100
AcDbLine
 62
7
  6
BYLAYER
 10
17.7629833268
 20
29.6746686794
 11
19.0976699542
 21
28.9041044283
  0
LINE
  5
23F
100
AcDbEntity
  8
0
100
AcDbLine
 62
7
  6
BYLAYER
 10
32.5229283538
 20
21.1532032262
 11
33.8524923967
 21
20.3855964337
  0
LINE
  5
240
100
AcDbEntity
  8
0
100
AcDbLine
 62
7
  6
BYLAYER
 10
34.7336167303
 20
19.876890571
 11
36.0683033578
 21
19.1063263198
  0
LINE
  5
241
100
AcDbEntity
  8
0
100
AcDbLine
 62
7
  6
BYLAYER
 10
36.9307168884
 20
18.6245971916
 11
36.1486484878
 21
19.0761143785
  0
LINE
  5
242
100
AcDbEntity
  8
0
100
AcDbLine
 62
7
  6
BYLAYER
 10
34.2151025072
 20
20.1924224167
 11
33.8839533206
 21
20.3836071635
  0
LINE
  5
243
100
AcDbEntity
  8
0
100
AcDbLine
 62
7
  6
BYLAYER
 10
19.9600834848
 20
28.4223753001
 11
19.1780150843
 21
28.873892487
  0
LINE
  5
244
100
AcDbEntity
  8
0
100
AcDbLine
 62
7
  6
BYLAYER
 10
17.2444691037
 20
29.9902005252
 11
16.9133199171
 21
30.181385272
  0
LINE
  5
245
100
AcDbEntity
  8
0
100
AcDbLine
 62
7
  6
BYLAYER
 10
16.8869815777
 20
29.4173662855
 11
16.9655961523
 21
29.3385197729
  0
LINE
  5
246
100
AcDbEntity
  8
0
100
AcDbLine
 62
7
  6
BYLAYER
 10
17.7629833268
 20
29.6746686794
 11
17.6843687523
 21
29.753515192
  0
LINE
  5
247
100
AcDbEntity
  8
0
100
AcDbLine
 62
7
  6
BYLAYER
 10
9.9234754991
 20
69.0900288172
 11
9.9234754991
 21
68.215709577
  0
LINE
  5
248
100
AcDbEntity
  8
0
100
AcDbLine
 62
7
  6
BYLAYER
 10
9.9234754991
 20
67.1982717982
 11
9.9234754991
 21
66.3180374893
  0
LINE
  5
249
100
AcDbEntity
  8
0
100
AcDbLine
 62
7
  6
BYLAYER
 10
10.5842949024
 20
65.9365218599
 11
10.5842949024
 21
66.8108411001
  0
LINE
  5
24A
100
AcDbEntity
  8
0
100
AcDbLine
 62
7
  6
BYLAYER
 10
10.5842949024
 20
67.8282788789
 11
10.5842949024
 21
68.7085131878
  0
LINE
  5
24B
100
AcDbEntity
  8
0
100
AcDbLine
 62
7
  6
BYLAYER
 10
34.9588329565
 20
87.2593959993
 11
33.0469260663
 21
85.3474980588
  0
LINE
  5
24C
100
AcDbEntity
  8
0
100
AcDbLine
 62
7
  6
BYLAYER
 10
18.5564353527
 20
71.3747880194
 11
18.810498385
 21
71.5214705039
  0
LINE
  5
24D
100
AcDbEntity
  8
0
100
AcDbLine
 62
7
  6
BYLAYER
 10
10.7677536337
 20
67.5981253712
 11
9.9234754991
 21
67.1982717982
  0
LINE
  5
24E
100
AcDbEntity
  8
0
100
AcDbLine
 62
7
  6
BYLAYER
 10
10.5842949024
 20
68.4960503619
 11
9.9234754991
 21
68.215709577
  0
LINE
  5
24F
100
AcDbEntity
  8
0
100
AcDbLine
 62
7
  6
BYLAYER
 10
10.5842949024
 20
68.4105979534
 11
9.8887519993
 21
68.1457010843
  0
LINE
  5
250
100
AcDbEntity
  8
0
100
AcDbLine
 62
7
  6
BYLAYER
 10
17.6901156538
 20
28.9135917367
 11
17.7681059113
 21
28.9086604227
  0
LINE
  5
251
100
AcDbEntity
  8
0
100
AcDbLine
 62
7
  6
BYLAYER
 10
14.8147329185
 20
36.4658085909
 11
39.2100184361
 21
22.38150256
  0
LINE
  5
252
100
AcDbEntity
  8
0
100
AcDbLine
 62
7
  6
BYLAYER
 10
33.8576149813
 20
19.619588177
 11
33.9362295558
 21
19.5407416644
  0
LINE
  5
253
100
AcDbEntity
  8
0
100
AcDbLine
 62
7
  6
BYLAYER
 10
34.7336167303
 20
19.876890571
 11
34.6550021558
 21
19.9557370835
  0
LINE
  5
254
100
AcDbEntity
  8
0
100
AcDbLine
 62
7
  6
BYLAYER
 10
27.6515934608
 20
12.5715335887
 11
26.7601908408
 21
14.4921798501
  0
LINE
  5
255
100
AcDbEntity
  8
0
100
AcDbLine
 62
7
  6
BYLAYER
 10
26.2678303269
 20
18.0025437324
 11
28.4471639727
 21
13.306877683
  0
LINE
  5
256
100
AcDbEntity
  8
0
100
AcDbLine
 62
7
  6
BYLAYER
 10
16.9655961523
 20
29.3385197729
 11
16.9945727506
 21
29.2310139421
  0
LINE
  5
257
100
AcDbEntity
  8
0
100
AcDbLine
 62
7
  6
BYLAYER
 10
17.6843687523
 20
29.753515192
 11
17.6553921539
 21
29.8610210228
  0
LINE
  5
258
100
AcDbEntity
  8
0
100
AcDbLine
 62
7
  6
BYLAYER
 10
14.8147329185
 20
64.6351419819
 11
14.8147329185
 21
36.4658085909
  0
LINE
  5
259
100
AcDbEntity
  8
0
100
AcDbLine
 62
7
  6
BYLAYER
 10
16.2289523688
 20
37.2823319161
 11
16.2289523688
 21
62.1856556386
  0
LINE
  5
25A
100
AcDbEntity
  8
0
100
AcDbLine
 62
7
  6
BYLAYER
 10
16.44108352
 20
37.4048051623
 11
16.44108352
 21
62.063184432
  0
LINE
  5
25B
100
AcDbEntity
  8
0
100
AcDbLine
 62
7
  6
BYLAYER
 10
18.2329803099
 20
78.9651289488
 11
17.6169560733
 21
72.9188168038
  0
LINE
  5
25C
100
AcDbEntity
  8
0
100
AcDbLine
 62
7
  6
BYLAYER
 10
17.7635592544
 20
72.716228526
 11
18.3469199201
 21
78.441945906
  0
LWPOLYLINE
  5
25D
100
AcDbEntity
  8
0
100
AcDbPolyline
 62
7
  6
BYLAYER
 90
4
 70
0
 10
17.6169552144
 20
72.9188123461
 10
17.5902145403
 20
72.6971541621
 10
17.5349673112
 20
72.3717560409
 10
17.5135318605
 20
72.2702708132
  0
LWPOLYLINE
  5
25E
100
AcDbEntity
  8
0
100
AcDbPolyline
 62
7
  6
BYLAYER
 90
7
 70
0
 10
29.0093466604
 20
74.7543407413
 10
29.8152625573
 20
75.5897028927
 10
31.0548854669
 20
76.3053952412
 10
34.1049045615
 20
77.2862220345
 10
37.5626638965
 20
77.5647038243
 10
40.9611739135
 20
77.1032301017
 10
43.841447003
 20
75.9641254501
  0
LINE
  5
25F
100
AcDbEntity
  8
0
100
AcDbLine
 62
7
  6
BYLAYER
 10
14.8147329185
 20
64.6351419819
 11
15.0268640697
 21
64.7576152281
  0
LINE
  5
260
100
AcDbEntity
  8
0
100
AcDbLine
 62
7
  6
BYLAYER
 10
11.7811567598
 20
65.1116262312
 11
13.0724144703
 21
65.6830831708
  0
LINE
  5
261
100
AcDbEntity
  8
0
100
AcDbLine
 62
7
  6
BYLAYER
 10
52.5161051871
 20
77.776131402
 11
49.2045693939
 21
76.6722913047
  0
LINE
  5
262
100
AcDbEntity
  8
0
100
AcDbLine
 62
7
  6
BYLAYER
 10
16.8818589932
 20
30.1833745422
 11
16.9598492508
 21
30.1784432282
  0
LINE
  5
263
100
AcDbEntity
  8
0
100
AcDbLine
 62
7
  6
BYLAYER
 10
37.7957989858
 20
24.8309889033
 11
16.2289523688
 21
37.2823319161
  0
LINE
  5
264
100
AcDbEntity
  8
0
100
AcDbLine
 62
7
  6
BYLAYER
 10
37.7957989858
 20
25.075933356
 11
16.44108352
 21
37.4048051623
  0
LINE
  5
265
100
AcDbEntity
  8
0
100
AcDbLine
 62
7
  6
BYLAYER
 10
9.8944989008
 20
67.305777629
 11
9.9234754991
 21
67.1982717982
  0
LINE
  5
266
100
AcDbEntity
  8
0
100
AcDbLine
 62
7
  6
BYLAYER
 10
10.6132715008
 20
67.7207730481
 11
10.5842949024
 21
67.8282788789
  0
LINE
  5
267
100
AcDbEntity
  8
0
100
AcDbLine
 62
7
  6
BYLAYER
 10
16.9945727506
 20
31.1227709611
 11
16.9945727506
 21
30.2484517209
  0
LINE
  5
268
100
AcDbEntity
  8
0
100
AcDbLine
 62
7
  6
BYLAYER
 10
16.9945727506
 20
29.2310139421
 11
16.9945727506
 21
28.3507796332
  0
LINE
  5
269
100
AcDbEntity
  8
0
100
AcDbLine
 62
7
  6
BYLAYER
 10
17.6553921539
 20
27.9692640038
 11
17.6553921539
 21
28.843583244
  0
LINE
  5
26A
100
AcDbEntity
  8
0
100
AcDbLine
 62
7
  6
BYLAYER
 10
17.6553921539
 20
29.8610210228
 11
17.6553921539
 21
30.7412553317
  0
LINE
  5
26B
100
AcDbEntity
  8
0
100
AcDbLine
 62
7
  6
BYLAYER
 10
25.3732396553
 20
18.8572367119
 11
25.4582428987
 21
18.5354179034
  0
LINE
  5
26C
100
AcDbEntity
  8
0
100
AcDbLine
 62
7
  6
BYLAYER
 10
21.7318159118
 20
79.6228197323
 11
21.7318159118
 21
80.276021666
  0
LINE
  5
26D
100
AcDbEntity
  8
0
100
AcDbLine
 62
7
  6
BYLAYER
 10
56.2158436413
 20
79.0261224252
 11
37.4803433734
 21
68.2092408702
  0
LINE
  5
26E
100
AcDbEntity
  8
0
100
AcDbLine
 62
7
  6
BYLAYER
 10
52.6803244553
 20
76.9032514141
 11
56.2158436413
 21
78.9444721835
  0
LINE
  5
26F
100
AcDbEntity
  8
0
100
AcDbLine
 62
7
  6
BYLAYER
 10
56.080118962
 20
72.5660527777
 11
56.4363539227
 21
72.6934998051
  0
LINE
  5
270
100
AcDbEntity
  8
0
100
AcDbLine
 62
7
  6
BYLAYER
 10
24.5810643867
 20
21.4626490716
 11
24.5810643867
 21
24.5402671636
  0
LINE
  5
271
100
AcDbEntity
  8
0
100
AcDbLine
 62
7
  6
BYLAYER
 10
24.7494903119
 20
89.7627515492
 11
24.7494903119
 21
82.9043076122
  0
LINE
  5
272
100
AcDbEntity
  8
0
100
AcDbLine
 62
7
  6
BYLAYER
 10
25.043351705
 20
81.3798617632
 11
25.043351705
 21
80.7266598295
  0
LINE
  5
273
100
AcDbEntity
  8
0
100
AcDbLine
 62
7
  6
BYLAYER
 10
25.3732396553
 20
18.8572367119
 11
25.3732396553
 21
24.0829149057
  0
LINE
  5
274
100
AcDbEntity
  8
0
100
AcDbLine
 62
7
  6
BYLAYER
 10
25.9646203289
 20
16.6145942158
 11
25.9646203289
 21
18.1775981461
  0
LINE
  5
275
100
AcDbEntity
  8
0
100
AcDbLine
 62
7
  6
BYLAYER
 10
41.2009950326
 20
72.0514530754
 11
39.2890881424
 21
70.1395551349
  0
LINE
  5
276
100
AcDbEntity
  8
0
100
AcDbLine
 62
7
  6
BYLAYER
 10
33.9362295558
 20
19.5407416644
 11
33.9652061541
 21
19.4332358336
  0
LINE
  5
277
100
AcDbEntity
  8
0
100
AcDbLine
 62
7
  6
BYLAYER
 10
34.6550021558
 20
19.9557370835
 11
34.6260255574
 21
20.0632429144
  0
LINE
  5
278
100
AcDbEntity
  8
0
100
AcDbLine
 62
7
  6
BYLAYER
 10
28.4471639727
 20
13.306877683
 11
28.4471639727
 21
11.2656216401
  0
LINE
  5
279
100
AcDbEntity
  8
0
100
AcDbLine
 62
7
  6
BYLAYER
 10
30.3516764327
 20
10.1660757337
 11
30.3516764327
 21
12.2073317765
  0
LINE
  5
27A
100
AcDbEntity
  8
0
100
AcDbLine
 62
7
  6
BYLAYER
 10
16.9598492508
 20
30.1784432282
 11
16.9945727506
 21
30.2484517209
  0
LINE
  5
27B
100
AcDbEntity
  8
0
100
AcDbLine
 62
7
  6
BYLAYER
 10
17.6553921539
 20
28.843583244
 11
17.6901156538
 21
28.9135917367
  0
LINE
  5
27C
100
AcDbEntity
  8
0
100
AcDbLine
 62
7
  6
BYLAYER
 10
52.6803244553
 20
71.1877344942
 11
36.8527887179
 21
62.049757022
  0
LINE
  5
27D
100
AcDbEntity
  8
0
100
AcDbLine
 62
7
  6
BYLAYER
 10
36.1466413365
 20
61.5126701335
 11
35.8925783042
 21
61.3659876489
  0
LINE
  5
27E
100
AcDbEntity
  8
0
100
AcDbLine
 62
7
  6
BYLAYER
 10
36.8654349768
 20
61.2667796154
 11
38.9398010803
 21
62.4644082948
  0
LINE
  5
27F
100
AcDbEntity
  8
0
100
AcDbLine
 62
7
  6
BYLAYER
 10
38.1705678556
 20
61.6837616314
 11
37.9584367044
 21
61.5612883852
  0
LINE
  5
280
100
AcDbEntity
  8
0
100
AcDbLine
 62
7
  6
BYLAYER
 10
62.2262763051
 20
75.4744257701
 11
58.690757119
 21
73.4332050007
  0
LINE
  5
281
100
AcDbEntity
  8
0
100
AcDbLine
 62
7
  6
BYLAYER
 10
38.8069640254
 20
60.8557553364
 11
38.5948328742
 21
60.7332820902
  0
LINE
  5
282
100
AcDbEntity
  8
0
100
AcDbLine
 62
7
  6
BYLAYER
 10
37.1727203454
 20
59.6879362373
 11
38.2333761012
 21
60.3003024681
  0
LINE
  5
283
100
AcDbEntity
  8
0
100
AcDbLine
 62
7
  6
BYLAYER
 10
59.1800661006
 20
67.1967548326
 11
58.8238311399
 21
67.0693078051
  0
LINE
  5
284
100
AcDbEntity
  8
0
100
AcDbLine
 62
7
  6
BYLAYER
 10
9.8158843263
 20
67.3846241416
 11
9.8944989008
 21
67.305777629
  0
LINE
  5
285
100
AcDbEntity
  8
0
100
AcDbLine
 62
7
  6
BYLAYER
 10
10.6918860753
 20
67.6419265355
 11
10.6132715008
 21
67.7207730481
  0
LINE
  5
286
100
AcDbEntity
  8
0
100
AcDbLine
 62
7
  6
BYLAYER
 10
33.0469260663
 20
85.3474980588
 11
33.0469260663
 21
86.0006999925
  0
LINE
  5
287
100
AcDbEntity
  8
0
100
AcDbLine
 62
7
  6
BYLAYER
 10
33.3183970249
 20
18.5057687619
 11
33.3183970249
 21
14.2702017384
  0
LINE
  5
288
100
AcDbEntity
  8
0
100
AcDbLine
 62
7
  6
BYLAYER
 10
56.4363539227
 20
68.447687236
 11
59.4433009458
 21
70.1837385464
  0
LINE
  5
289
100
AcDbEntity
  8
0
100
AcDbLine
 62
7
  6
BYLAYER
 10
33.9652061541
 20
21.3249928526
 11
33.9652061541
 21
20.4506736125
  0
LINE
  5
28A
100
AcDbEntity
  8
0
100
AcDbLine
 62
7
  6
BYLAYER
 10
33.9652061541
 20
19.4332358336
 11
33.9652061541
 21
18.5530015247
  0
LINE
  5
28B
100
AcDbEntity
  8
0
100
AcDbLine
 62
7
  6
BYLAYER
 10
34.6260255574
 20
18.1714858953
 11
34.6260255574
 21
19.0458051355
  0
LINE
  5
28C
100
AcDbEntity
  8
0
100
AcDbLine
 62
7
  6
BYLAYER
 10
34.6260255574
 20
20.0632429144
 11
34.6260255574
 21
20.9434772233
  0
LINE
  5
28D
100
AcDbEntity
  8
0
100
AcDbLine
 62
7
  6
BYLAYER
 10
34.9588329564
 20
87.912597933
 11
34.9588329564
 21
87.2593959993
  0
LINE
  5
28E
100
AcDbEntity
  8
0
100
AcDbLine
 62
7
  6
BYLAYER
 10
35.6239342178
 20
73.6959778555
 11
35.6239214933
 21
76.6852481419
  0
LINE
  5
28F
100
AcDbEntity
  8
0
100
AcDbLine
 62
7
  6
BYLAYER
 10
36.7317727739
 20
67.8276862885
 11
36.1484121082
 21
62.1019689085
  0
LINE
  5
290
100
AcDbEntity
  8
0
100
AcDbLine
 62
7
  6
BYLAYER
 10
37.4803433734
 20
68.2092408702
 11
36.8527887179
 21
62.049757022
  0
LINE
  5
291
100
AcDbEntity
  8
0
100
AcDbLine
 62
7
  6
BYLAYER
 10
59.3798828102
 20
67.3903424703
 11
58.8238311399
 21
67.0693078051
  0
LINE
  5
292
100
AcDbEntity
  8
0
100
AcDbLine
 62
7
  6
BYLAYER
 10
61.5191960196
 20
68.5342323141
 11
65.0547152057
 21
70.5754530835
  0
LINE
  5
293
100
AcDbEntity
  8
0
100
AcDbLine
 62
7
  6
BYLAYER
 10
42.011896984
 20
56.026837704
 11
41.7997658329
 21
55.9043644578
  0
LINE
  5
294
100
AcDbEntity
  8
0
100
AcDbLine
 62
7
  6
BYLAYER
 10
41.0131464688
 20
54.6537820022
 11
42.0738022246
 21
55.266148233
  0
LINE
  5
295
100
AcDbEntity
  8
0
100
AcDbLine
 62
7
  6
BYLAYER
 10
43.1344579805
 20
55.8785144638
 11
56.9229828061
 21
63.8392754643
  0
LINE
  5
296
100
AcDbEntity
  8
0
100
AcDbLine
 62
7
  6
BYLAYER
 10
41.7318463088
 20
48.9182563939
 11
41.8098365663
 21
48.9133250799
  0
LINE
  5
297
100
AcDbEntity
  8
0
100
AcDbLine
 62
7
  6
BYLAYER
 10
40.9235896482
 20
50.1880391994
 11
41.0015799058
 21
50.1831078854
  0
LINE
  5
298
100
AcDbEntity
  8
0
100
AcDbLine
 62
7
  6
BYLAYER
 10
16.2289523688
 20
62.1856556386
 11
37.7957989858
 21
49.7343126257
  0
LINE
  5
299
100
AcDbEntity
  8
0
100
AcDbLine
 62
7
  6
BYLAYER
 10
17.7635592544
 20
72.716228526
 11
17.6169450133
 21
72.9187077778
  0
LINE
  5
29A
100
AcDbEntity
  8
0
100
AcDbLine
 62
7
  6
BYLAYER
 10
49.6975084444
 20
16.5943251636
 11
49.668601929
 21
16.6566081202
  0
LINE
  5
29B
100
AcDbEntity
  8
0
100
AcDbLine
 62
7
  6
BYLAYER
 10
37.7957989858
 20
49.7343126257
 11
37.7957989858
 21
24.8309889033
  0
LINE
  5
29C
100
AcDbEntity
  8
0
100
AcDbLine
 62
7
  6
BYLAYER
 10
38.6239214933
 20
76.685255353
 11
38.6239342178
 21
73.6959850666
  0
LINE
  5
29D
100
AcDbEntity
  8
0
100
AcDbLine
 62
7
  6
BYLAYER
 10
39.2100184361
 20
22.38150256
 11
39.2100184361
 21
50.5508359509
  0
LINE
  5
29E
100
AcDbEntity
  8
0
100
AcDbLine
 62
7
  6
BYLAYER
 10
39.2889599753
 20
87.2594064077
 11
39.2889599753
 21
87.9126083414
  0
LINE
  5
29F
100
AcDbEntity
  8
0
100
AcDbLine
 62
7
  6
BYLAYER
 10
39.4221495872
 20
22.5039758061
 11
39.4221495872
 21
50.6733091971
  0
LINE
  5
2A0
100
AcDbEntity
  8
0
100
AcDbLine
 62
7
  6
BYLAYER
 10
39.6165218221
 20
10.7740995656
 11
39.6165218221
 21
8.7328435228
  0
LINE
  5
2A1
100
AcDbEntity
  8
0
100
AcDbLine
 62
7
  6
BYLAYER
 10
40.0504727938
 20
52.0741694662
 11
41.1910021797
 21
52.9066970806
  0
LINE
  5
2A2
100
AcDbEntity
  8
0
100
AcDbLine
 62
7
  6
BYLAYER
 10
16.0087421388
 20
32.069504809
 11
17.1492715247
 21
32.9020324234
  0
LINE
  5
2A3
100
AcDbEntity
  8
0
100
AcDbLine
 62
7
  6
BYLAYER
 10
58.690757119
 20
62.818673578
 11
44.9022322933
 21
54.8579125775
  0
LINE
  5
2A4
100
AcDbEntity
  8
0
100
AcDbLine
 62
7
  6
BYLAYER
 10
43.8415765375
 20
54.2455463467
 11
42.7809207817
 21
53.6331801159
  0
LINE
  5
2A5
100
AcDbEntity
  8
0
100
AcDbLine
 62
7
  6
BYLAYER
 10
39.2100184361
 20
50.5508359509
 11
39.4221495872
 21
50.6733091971
  0
LINE
  5
2A6
100
AcDbEntity
  8
0
100
AcDbLine
 62
7
  6
BYLAYER
 10
16.2289523688
 20
37.2823319161
 11
16.44108352
 21
37.4048051623
  0
LINE
  5
2A7
100
AcDbEntity
  8
0
100
AcDbLine
 62
7
  6
BYLAYER
 10
41.7261050756
 20
49.7581700314
 11
41.0073268072
 21
49.3431844301
  0
LINE
  5
2A8
100
AcDbEntity
  8
0
100
AcDbLine
 62
7
  6
BYLAYER
 10
41.8805815401
 20
49.6355321723
 11
41.0363034056
 21
49.2356785993
  0
LINE
  5
2A9
100
AcDbEntity
  8
0
100
AcDbLine
 62
7
  6
BYLAYER
 10
41.6971228089
 20
50.533457163
 11
41.0363034056
 21
50.2531163781
  0
LINE
  5
2AA
100
AcDbEntity
  8
0
100
AcDbLine
 62
7
  6
BYLAYER
 10
41.6971228089
 20
50.4480047545
 11
41.0015799058
 21
50.1831078854
  0
LINE
  5
2AB
100
AcDbEntity
  8
0
100
AcDbLine
 62
7
  6
BYLAYER
 10
43.1394006092
 20
48.1457182874
 11
41.8098365663
 21
48.9133250799
  0
LINE
  5
2AC
100
AcDbEntity
  8
0
100
AcDbLine
 62
7
  6
BYLAYER
 10
40.9287122327
 20
49.4220309427
 11
39.5940256053
 21
50.1925951938
  0
LINE
  5
2AD
100
AcDbEntity
  8
0
100
AcDbLine
 62
7
  6
BYLAYER
 10
12.0265727028
 20
66.1083114863
 11
10.6970086598
 21
66.8759182788
  0
LINE
  5
2AE
100
AcDbEntity
  8
0
100
AcDbLine
 62
7
  6
BYLAYER
 10
9.8158843263
 20
67.3846241416
 11
8.4811976988
 21
68.1551883927
  0
LINE
  5
2AF
100
AcDbEntity
  8
0
100
AcDbLine
 62
7
  6
BYLAYER
 10
39.2100184361
 20
50.5508359509
 11
14.8147329185
 21
64.6351419819
  0
LINE
  5
2B0
100
AcDbEntity
  8
0
100
AcDbLine
 62
7
  6
BYLAYER
 10
39.4221495872
 20
50.6733091971
 11
15.0268640697
 21
64.7576152281
  0
LINE
  5
2B1
100
AcDbEntity
  8
0
100
AcDbLine
 62
7
  6
BYLAYER
 10
8.4811976988
 20
68.9182391908
 11
9.8107617417
 21
68.1506323982
  0
LINE
  5
2B2
100
AcDbEntity
  8
0
100
AcDbLine
 62
7
  6
BYLAYER
 10
10.6918860753
 20
67.6419265355
 11
12.0265727028
 21
66.8713622844
  0
LINE
  5
2B3
100
AcDbEntity
  8
0
100
AcDbLine
 62
7
  6
BYLAYER
 10
39.5940256053
 20
50.9556459919
 11
40.9235896482
 21
50.1880391994
  0
LINE
  5
2B4
100
AcDbEntity
  8
0
100
AcDbLine
 62
7
  6
BYLAYER
 10
41.8047139818
 20
49.6793333366
 11
43.1394006092
 21
48.9087690855
  0
LINE
  5
2B5
100
AcDbEntity
  8
0
100
AcDbLine
 62
7
  6
BYLAYER
 10
44.0018141398
 20
48.4270399573
 11
43.2197457393
 21
48.8785571442
  0
LINE
  5
2B6
100
AcDbEntity
  8
0
100
AcDbLine
 62
7
  6
BYLAYER
 10
41.2861997587
 20
49.9948651824
 11
40.9550505721
 21
50.1860499292
  0
LINE
  5
2B7
100
AcDbEntity
  8
0
100
AcDbLine
 62
7
  6
BYLAYER
 10
12.8889862334
 20
66.3896331562
 11
12.1069178328
 21
66.8411503431
  0
LINE
  5
2B8
100
AcDbEntity
  8
0
100
AcDbLine
 62
7
  6
BYLAYER
 10
10.1733718522
 20
67.9574583813
 11
9.8422226656
 21
68.1486431281
  0
LINE
  5
2B9
100
AcDbEntity
  8
0
100
AcDbLine
 62
7
  6
BYLAYER
 10
40.9287122327
 20
49.4220309427
 11
41.0073268072
 21
49.3431844301
  0
LINE
  5
2BA
100
AcDbEntity
  8
0
100
AcDbLine
 62
7
  6
BYLAYER
 10
41.8047139818
 20
49.6793333366
 11
41.7260994073
 21
49.7581798492
  0
LINE
  5
2BB
100
AcDbEntity
  8
0
100
AcDbLine
 62
7
  6
BYLAYER
 10
41.0073268072
 20
49.3431844301
 11
41.0363034056
 21
49.2356785993
  0
LINE
  5
2BC
100
AcDbEntity
  8
0
100
AcDbLine
 62
7
  6
BYLAYER
 10
41.0363034056
 20
51.1274356183
 11
41.0363034056
 21
50.2531163781
  0
LINE
  5
2BD
100
AcDbEntity
  8
0
100
AcDbLine
 62
7
  6
BYLAYER
 10
41.0363034056
 20
49.2356785993
 11
41.0363034056
 21
48.3554442904
  0
LINE
  5
2BE
100
AcDbEntity
  8
0
100
AcDbLine
 62
7
  6
BYLAYER
 10
41.20089444
 20
86.0007195922
 11
41.20089444
 21
85.3475176585
  0
LINE
  5
2BF
100
AcDbEntity
  8
0
100
AcDbLine
 62
7
  6
BYLAYER
 10
41.6971228089
 20
47.973928661
 11
41.6971228089
 21
48.8482479012
  0
LINE
  5
2C0
100
AcDbEntity
  8
0
100
AcDbLine
 62
7
  6
BYLAYER
 10
41.6971228089
 20
49.86568568
 11
41.6971228089
 21
50.7459199889
  0
LINE
  5
2C1
100
AcDbEntity
  8
0
100
AcDbLine
 62
7
  6
BYLAYER
 10
42.2181204905
 20
9.1353131862
 11
42.2181204905
 21
11.176569229
  0
LINE
  5
2C2
100
AcDbEntity
  8
0
100
AcDbLine
 62
7
  6
BYLAYER
 10
41.0015799058
 20
50.1831078854
 11
41.0363034056
 21
50.2531163781
  0
LINE
  5
2C3
100
AcDbEntity
  8
0
100
AcDbLine
 62
7
  6
BYLAYER
 10
41.6971228089
 20
48.8482479012
 11
41.7318463088
 21
48.9182563939
  0
LINE
  5
2C4
100
AcDbEntity
  8
0
100
AcDbLine
 62
7
  6
BYLAYER
 10
42.3090357101
 20
49.388169638
 11
41.7318463088
 21
48.9182563939
  0
LINE
  5
2C5
100
AcDbEntity
  8
0
100
AcDbLine
 62
7
  6
BYLAYER
 10
18.2673050551
 20
29.3835049808
 11
17.6901156538
 21
28.9135917367
  0
LINE
  5
2C6
100
AcDbEntity
  8
0
100
AcDbLine
 62
7
  6
BYLAYER
 10
42.3830383162
 20
49.34544518
 11
41.8098365663
 21
48.9133250799
  0
LINE
  5
2C7
100
AcDbEntity
  8
0
100
AcDbLine
 62
7
  6
BYLAYER
 10
18.3413076612
 20
29.3407805228
 11
17.7681059113
 21
28.9086604227
  0
LINE
  5
2C8
100
AcDbEntity
  8
0
100
AcDbLine
 62
7
  6
BYLAYER
 10
41.6971228089
 20
49.9532587629
 11
40.9287122327
 21
49.4220309427
  0
LINE
  5
2C9
100
AcDbEntity
  8
0
100
AcDbLine
 62
7
  6
BYLAYER
 10
17.6553921539
 20
29.9485941057
 11
16.8869815777
 21
29.4173662855
  0
LINE
  5
2CA
100
AcDbEntity
  8
0
100
AcDbLine
 62
7
  6
BYLAYER
 10
45.6093596823
 20
48.7342074293
 11
46.6700154381
 21
49.3465736601
  0
LINE
  5
2CB
100
AcDbEntity
  8
0
100
AcDbLine
 62
7
  6
BYLAYER
 10
47.7306711939
 20
49.9589398909
 11
61.5191960196
 21
57.9197008914
  0
LINE
  5
2CC
100
AcDbEntity
  8
0
100
AcDbLine
 62
7
  6
BYLAYER
 10
42.8939846662
 20
47.1490330323
 11
44.1852423767
 21
47.7204899719
  0
LINE
  5
2CD
100
AcDbEntity
  8
0
100
AcDbLine
 62
7
  6
BYLAYER
 10
11.6680928752
 20
71.5957733148
 11
13.4358671881
 21
70.5751714285
  0
LINE
  5
2CE
100
AcDbEntity
  8
0
100
AcDbLine
 62
7
  6
BYLAYER
 10
41.0131464688
 20
54.6537820022
 11
42.7809207817
 21
53.6331801159
  0
LINE
  5
2CF
100
AcDbEntity
  8
0
100
AcDbLine
 62
7
  6
BYLAYER
 10
12.728748631
 20
72.2081395456
 11
14.4965229439
 21
71.1875376593
  0
LINE
  5
2D0
100
AcDbEntity
  8
0
100
AcDbLine
 62
7
  6
BYLAYER
 10
42.0738022246
 20
55.266148233
 11
43.8415765375
 21
54.2455463467
  0
LINE
  5
2D1
100
AcDbEntity
  8
0
100
AcDbLine
 62
7
  6
BYLAYER
 10
15.5571786997
 20
71.7999038901
 11
13.7894043869
 21
72.8205057764
  0
LINE
  5
2D2
100
AcDbEntity
  8
0
100
AcDbLine
 62
7
  6
BYLAYER
 10
43.1344579805
 20
55.8785144638
 11
44.9022322933
 21
54.8579125775
  0
LINE
  5
2D3
100
AcDbEntity
  8
0
100
AcDbLine
 62
7
  6
BYLAYER
 10
41.7260994073
 20
49.7581798492
 11
41.6971228089
 21
49.86568568
  0
LINE
  5
2D4
100
AcDbEntity
  8
0
100
AcDbLine
 62
7
  6
BYLAYER
 10
45.6093596823
 20
48.7342074293
 11
45.6093596823
 21
15.6658595356
  0
LINE
  5
2D5
100
AcDbEntity
  8
0
100
AcDbLine
 62
7
  6
BYLAYER
 10
46.6700154381
 20
49.3465736601
 11
46.6700154381
 21
16.2782257664
  0
LINE
  5
2D6
100
AcDbEntity
  8
0
100
AcDbLine
 62
7
  6
BYLAYER
 10
46.9528522626
 20
46.4824589942
 11
46.9528522626
 21
17.1763615963
  0
LINE
  5
2D7
100
AcDbEntity
  8
0
100
AcDbLine
 62
7
  6
BYLAYER
 10
47.1649834138
 20
46.6049322404
 11
47.1649834138
 21
17.2988348425
  0
LINE
  5
2D8
100
AcDbEntity
  8
0
100
AcDbLine
 62
7
  6
BYLAYER
 10
17.6843744206
 20
29.7535053742
 11
16.9655961523
 21
29.3385197729
  0
LINE
  5
2D9
100
AcDbEntity
  8
0
100
AcDbLine
 62
7
  6
BYLAYER
 10
46.9528522626
 20
46.4824589942
 11
47.1649834138
 21
46.6049322404
  0
LINE
  5
2DA
100
AcDbEntity
  8
0
100
AcDbLine
 62
7
  6
BYLAYER
 10
18.5564353527
 20
71.3747880194
 11
35.8925783042
 21
61.3659876489
  0
LINE
  5
2DB
100
AcDbEntity
  8
0
100
AcDbLine
 62
7
  6
BYLAYER
 10
17.5135394129
 20
72.2702531758
 11
36.5293731703
 21
61.2917048051
  0
LINE
  5
2DC
100
AcDbEntity
  8
0
100
AcDbLine
 62
7
  6
BYLAYER
 10
17.7194931161
 20
72.3742445181
 11
36.1217678332
 21
61.7499266087
  0
LINE
  5
2DD
100
AcDbEntity
  8
0
100
AcDbLine
 62
7
  6
BYLAYER
 10
37.6669870126
 20
61.7295531366
 11
37.9584367044
 21
61.5612883852
  0
LINE
  5
2DE
100
AcDbEntity
  8
0
100
AcDbLine
 62
7
  6
BYLAYER
 10
37.8874793183
 20
61.8471991771
 11
38.1705678556
 21
61.6837616314
  0
LINE
  5
2DF
100
AcDbEntity
  8
0
100
AcDbLine
 62
7
  6
BYLAYER
 10
47.7306711939
 20
49.9589398909
 11
47.7306711939
 21
16.8905919972
  0
LINE
  5
2E0
100
AcDbEntity
  8
0
100
AcDbLine
 62
7
  6
BYLAYER
 10
49.000422236
 20
15.0923095937
 11
49.000422236
 21
13.0510535509
  0
LINE
  5
2E1
100
AcDbEntity
  8
0
100
AcDbLine
 62
7
  6
BYLAYER
 10
49.2045354457
 20
80.7267179059
 11
49.2045354457
 21
81.3799198396
  0
LINE
  5
2E2
100
AcDbEntity
  8
0
100
AcDbLine
 62
7
  6
BYLAYER
 10
49.6975084444
 20
14.5530691208
 11
49.6975084444
 21
16.5943251636
  0
LINE
  5
2E3
100
AcDbEntity
  8
0
100
AcDbLine
 62
7
  6
BYLAYER
 10
33.9304826543
 20
20.3806651197
 11
33.9652061541
 21
20.4506736125
  0
LINE
  5
2E4
100
AcDbEntity
  8
0
100
AcDbLine
 62
7
  6
BYLAYER
 10
34.6260255574
 20
19.0458051355
 11
34.6607490573
 21
19.1158136282
  0
LINE
  5
2E5
100
AcDbEntity
  8
0
100
AcDbLine
 62
7
  6
BYLAYER
 10
17.8388508851
 20
29.6308675151
 11
16.9945727506
 21
29.2310139421
  0
LINE
  5
2E6
100
AcDbEntity
  8
0
100
AcDbLine
 62
7
  6
BYLAYER
 10
17.6553921539
 20
30.5287925058
 11
16.9945727506
 21
30.2484517209
  0
LINE
  5
2E7
100
AcDbEntity
  8
0
100
AcDbLine
 62
7
  6
BYLAYER
 10
17.6553921539
 20
30.4433400973
 11
16.9598492508
 21
30.1784432282
  0
LINE
  5
2E8
100
AcDbEntity
  8
0
100
AcDbLine
 62
7
  6
BYLAYER
 10
10.6190184023
 20
66.8808495928
 11
10.6970086598
 21
66.8759182788
  0
LINE
  5
2E9
100
AcDbEntity
  8
0
100
AcDbLine
 62
7
  6
BYLAYER
 10
34.9589611236
 20
70.1395447265
 11
33.0470266589
 21
72.0514334757
  0
LINE
  5
2EA
100
AcDbEntity
  8
0
100
AcDbLine
 62
7
  6
BYLAYER
 10
52.516087159
 20
80.2760956622
 11
52.516087159
 21
79.6228937285
  0
LINE
  5
2EB
100
AcDbEntity
  8
0
100
AcDbLine
 62
7
  6
BYLAYER
 10
52.6803244553
 20
71.1877344942
 11
52.6803244553
 21
76.9032514141
  0
LINE
  5
2EC
100
AcDbEntity
  8
0
100
AcDbLine
 62
7
  6
BYLAYER
 10
18.8522540112
 20
27.1443683751
 11
20.1435117217
 21
27.7158253147
  0
LINE
  5
2ED
100
AcDbEntity
  8
0
100
AcDbLine
 62
7
  6
BYLAYER
 10
9.8107617417
 20
68.1506323982
 11
9.8887519993
 21
68.1457010843
  0
LINE
  5
2EE
100
AcDbEntity
  8
0
100
AcDbLine
 62
7
  6
BYLAYER
 10
18.3469199201
 20
78.441945906
 11
36.7317727739
 21
67.8276862885
  0
LINE
  5
2EF
100
AcDbEntity
  8
0
100
AcDbLine
 62
7
  6
BYLAYER
 10
37.4334191894
 20
68.1853018533
 11
18.3469169989
 21
79.2046497399
  0
LINE
  5
2F0
100
AcDbEntity
  8
0
100
AcDbLine
 62
7
  6
BYLAYER
 10
56.2158436413
 20
79.0261224252
 11
56.2158436413
 21
78.9444721835
  0
LINE
  5
2F1
100
AcDbEntity
  8
0
100
AcDbLine
 62
7
  6
BYLAYER
 10
25.0433856532
 20
76.6722332283
 11
21.7318339399
 21
77.7760574057
  0
LINE
  5
2F2
100
AcDbEntity
  8
0
100
AcDbLine
 62
7
  6
BYLAYER
 10
35.2379384587
 20
19.5857268724
 11
34.6607490573
 21
19.1158136282
  0
LINE
  5
2F3
100
AcDbEntity
  8
0
100
AcDbLine
 62
7
  6
BYLAYER
 10
32.9793755424
 20
22.2717267005
 11
34.1199049282
 21
23.1042543149
  0
LINE
  5
2F4
100
AcDbEntity
  8
0
100
AcDbLine
 62
7
  6
BYLAYER
 10
58.690757119
 20
62.818673578
 11
56.9229828061
 21
63.8392754643
  0
LINE
  5
2F5
100
AcDbEntity
  8
0
100
AcDbLine
 62
7
  6
BYLAYER
 10
43.841447003
 20
75.9641254501
 11
45.3037642651
 21
74.7316728659
  0
LINE
  5
2F6
100
AcDbEntity
  8
0
100
AcDbLine
 62
7
  6
BYLAYER
 10
61.5191960196
 20
57.9197008914
 11
61.5191960196
 21
68.5342323141
  0
LINE
  5
2F7
100
AcDbEntity
  8
0
100
AcDbLine
 62
7
  6
BYLAYER
 10
35.3119410648
 20
19.5430024144
 11
34.7387393148
 21
19.1108823143
  0
LINE
  5
2F8
100
AcDbEntity
  8
0
100
AcDbLine
 62
7
  6
BYLAYER
 10
34.6260255574
 20
20.1508159973
 11
33.8576149813
 21
19.619588177
  0
LINE
  5
2F9
100
AcDbEntity
  8
0
100
AcDbLine
 62
7
  6
BYLAYER
 10
34.6550078241
 20
19.9557272657
 11
33.9362295558
 21
19.5407416644
  0
LINE
  5
2FA
100
AcDbEntity
  8
0
100
AcDbLine
 62
7
  6
BYLAYER
 10
39.2100184361
 20
22.38150256
 11
39.4221495872
 21
22.5039758061
  0
LINE
  5
2FB
100
AcDbEntity
  8
0
100
AcDbLine
 62
7
  6
BYLAYER
 10
34.8094842887
 20
19.8330894066
 11
33.9652061541
 21
19.4332358336
  0
LINE
  5
2FC
100
AcDbEntity
  8
0
100
AcDbLine
 62
7
  6
BYLAYER
 10
34.6260255574
 20
20.7310143973
 11
33.9652061541
 21
20.4506736125
  0
LWPOLYLINE
  5
2FD
100
AcDbEntity
  8
0
100
AcDbPolyline
 62
7
  6
BYLAYER
 90
7
 70
0
 10
44.4778404565
 20
77.066397364
 10
41.519151229
 20
78.2624641983
 10
38.0303371395
 20
78.8021689123
 10
34.4322006565
 20
78.6204151524
 10
31.1587301427
 20
77.7391251043
 10
28.6047544534
 20
76.2645953543
 10
28.034271511
 20
75.5582647887
  0
LINE
  5
2FE
100
AcDbEntity
  8
0
100
AcDbLine
 62
7
  6
BYLAYER
 10
27.4448551916
 20
85.1855581714
 11
28.0728107101
 21
84.8230160856
  0
LINE
  5
2FF
100
AcDbEntity
  8
0
100
AcDbLine
 62
7
  6
BYLAYER
 10
56.4363539227
 20
68.447687236
 11
58.8238311399
 21
67.0693078051
  0
LINE
  5
300
100
AcDbEntity
  8
0
100
AcDbLine
 62
7
  6
BYLAYER
 10
41.20089444
 20
85.3475176585
 11
39.2889599753
 21
87.2594064077
  0
LINE
  5
301
100
AcDbEntity
  8
0
100
AcDbLine
 62
7
  6
BYLAYER
 10
65.0547152057
 20
70.5754530835
 11
65.0547152057
 21
26.892573767
  0
LINE
  5
302
100
AcDbEntity
  8
0
100
AcDbLine
 62
7
  6
BYLAYER
 10
35.8228874148
 20
17.3465902666
 11
37.1141451253
 21
17.9180472062
  0
LINE
  5
303
100
AcDbEntity
  8
0
100
AcDbLine
 62
7
  6
BYLAYER
 10
34.6260255574
 20
20.6455619888
 11
33.9304826543
 21
20.3806651197
  0
LINE
  5
304
100
AcDbEntity
  8
0
100
AcDbLine
 62
7
  6
BYLAYER
 10
58.8238311399
 20
71.3151203742
 11
56.4363539227
 21
72.6934998051
  0
LINE
  5
305
100
AcDbEntity
  8
0
100
AcDbLine
 62
7
  6
BYLAYER
 10
29.8323324089
 20
88.0529913095
 11
27.4448551916
 21
89.4313707405
  0
LINE
  5
306
100
AcDbEntity
  8
0
100
AcDbLine
 62
7
  6
BYLAYER
 10
27.5779292125
 20
91.3957981996
 11
33.5176496818
 21
87.9665765671
  0
LINE
  5
307
100
AcDbEntity
  8
0
100
AcDbLine
 62
7
  6
BYLAYER
 10
52.6803244553
 20
76.9032514141
 11
58.690757119
 21
73.4332050007
  0
LINE
  5
308
100
AcDbEntity
  8
0
100
AcDbLine
 62
7
  6
BYLAYER
 10
39.2889599753
 20
87.9126083414
 11
41.20089444
 21
86.0007195922
  0
LINE
  5
309
100
AcDbEntity
  8
0
100
AcDbLine
 62
7
  6
BYLAYER
 10
52.516087159
 20
79.6228937285
 11
49.2045354457
 21
80.7267179059
  0
LINE
  5
30A
100
AcDbEntity
  8
0
100
AcDbLine
 62
7
  6
BYLAYER
 10
49.2045354457
 20
81.3799198396
 11
52.516087159
 21
80.2760956622
  0
LINE
  5
30B
100
AcDbEntity
  8
0
100
AcDbLine
 62
7
  6
BYLAYER
 10
31.1134483986
 20
93.437018969
 11
37.0531688679
 21
90.0077973364
  0
LINE
  5
30C
100
AcDbEntity
  8
0
100
AcDbLine
 62
7
  6
BYLAYER
 10
56.2158436413
 20
78.9444721835
 11
62.2262763051
 21
75.4744257701
  0
LINE
  5
30D
100
AcDbEntity
  8
0
100
AcDbLine
 62
7
  6
BYLAYER
 10
37.1238810624
 20
90.0486227972
 11
56.2158436413
 21
79.0261224252
  0
LINE
  5
30E
100
AcDbEntity
  8
0
100
AcDbLine
 62
7
  6
BYLAYER
 10
47.1649834138
 20
17.2988348425
 11
46.9528522626
 21
17.1763615963
  0
LINE
  5
30F
100
AcDbEntity
  8
0
100
AcDbLine
 62
7
  6
BYLAYER
 10
65.0547152057
 20
26.892573767
 11
47.7306711939
 21
16.8905919972
  0
LINE
  5
310
100
AcDbEntity
  8
0
100
AcDbLine
 62
7
  6
BYLAYER
 10
46.6700154381
 20
16.2782257664
 11
45.6093596823
 21
15.6658595356
  0
LINE
  5
311
100
AcDbEntity
  8
0
100
AcDbLine
 62
7
  6
BYLAYER
 10
64.2262673513
 20
25.0614300005
 11
46.9022233396
 21
15.0594482307
  0
LINE
  5
312
100
AcDbEntity
  8
0
100
AcDbLine
 62
7
  6
BYLAYER
 10
44.7809118279
 20
13.8347157691
 11
45.8415675838
 21
14.4470819999
  0
LINE
  5
313
100
AcDbEntity
  8
0
100
AcDbLine
 62
7
  6
BYLAYER
 10
49.000422236
 20
15.0923095937
 11
42.2181204905
 21
11.176569229
  0
LINE
  5
314
100
AcDbEntity
  8
0
100
AcDbLine
 62
7
  6
BYLAYER
 10
46.8269259976
 20
11.3879411945
 11
44.3916167289
 21
9.9819231255
  0
ARC
  5
315
100
AcDbEntity
  8
0
100
AcDbCircle
 62
7
  6
BYLAYER
 10
37.8311069722
 20
30.9544205478
 40
17.5852084533
100
AcDbArc
 50
264.4316183153
 51
275.5123047439
  0
ARC
  5
316
100
AcDbEntity
  8
0
100
AcDbCircle
 62
7
  6
BYLAYER
 10
37.1239607141
 20
59.1436763687
 40
16.3856239467
100
AcDbArc
 50
84.7477187346
 51
95.2525567096
  0
ARC
  5
317
100
AcDbEntity
  8
0
100
AcDbCircle
 62
7
  6
BYLAYER
 10
37.2040256046
 20
27.614797285
 40
14.1806381399
100
AcDbArc
 50
252.1535053613
 51
254.7976677394
  0
ARC
  5
318
100
AcDbEntity
  8
0
100
AcDbCircle
 62
7
  6
BYLAYER
 10
50.1310747824
 20
64.7788109401
 40
12.6914551975
100
AcDbArc
 50
214.63927331
 51
218.6962935422
  0
ARC
  5
319
100
AcDbEntity
  8
0
100
AcDbCircle
 62
7
  6
BYLAYER
 10
49.6077197661
 20
64.6397083629
 40
12.1633250405
100
AcDbArc
 50
200.7417859387
 51
200.8723127718
  0
ARC
  5
31A
100
AcDbEntity
  8
0
100
AcDbCircle
 62
7
  6
BYLAYER
 10
43.9845078447
 20
61.3259802119
 40
7.1704425082
100
AcDbArc
 50
180.4685653681
 51
180.6695305531
  0
ARC
  5
31B
100
AcDbEntity
  8
0
100
AcDbCircle
 62
7
  6
BYLAYER
 10
43.0229106534
 20
61.4046439577
 40
6.909775129
100
AcDbArc
 50
174.2079290209
 51
177.1357271804
  0
ARC
  5
31C
100
AcDbEntity
  8
0
100
AcDbCircle
 62
7
  6
BYLAYER
 10
11.3557875232
 20
73.3680669366
 40
6.440840929
100
AcDbArc
 50
351.1237932132
 51
354.191497708
  0
ARC
  5
31D
100
AcDbEntity
  8
0
100
AcDbCircle
 62
7
  6
BYLAYER
 10
17.9073810523
 20
74.7422823666
 40
4.2705069421
100
AcDbArc
 50
253.2934687724
 51
254.7503032134
  0
ARC
  5
31E
100
AcDbEntity
  8
0
100
AcDbCircle
 62
7
  6
BYLAYER
 10
12.4969370354
 20
69.9632425658
 40
3.6572830972
100
AcDbArc
 50
178.4536366566
 51
180.0080822226
  0
ARC
  5
31F
100
AcDbEntity
  8
0
100
AcDbCircle
 62
7
  6
BYLAYER
 10
39.7150555451
 20
53.614930265
 40
3.1032550424
100
AcDbArc
 50
27.4566240934
 51
35.3826368766
  0
ARC
  5
320
100
AcDbEntity
  8
0
100
AcDbCircle
 62
7
  6
BYLAYER
 10
45.4267477459
 20
16.8527591
 40
1.4778726451
100
AcDbArc
 50
329.4203851802
 51
333.9506637783
  0
ARC
  5
321
100
AcDbEntity
  8
0
100
AcDbCircle
 62
7
  6
BYLAYER
 10
9.6304784417
 20
69.0881938567
 40
1.1746493596
100
AcDbArc
 50
126.1443487889
 51
131.9378343695
  0
ARC
  5
322
100
AcDbEntity
  8
0
100
AcDbCircle
 62
7
  6
BYLAYER
 10
52.7093141652
 20
78.2930128359
 40
1.0722342422
100
AcDbArc
 50
26.9556353943
 51
31.4312752085
  0
SPLINE
  5
323
100
AcDbEntity
  8
0
100
AcDbSpline
 62
7
  6
BYLAYER
 70
0
 71
3
 72
13
 73
9
 74
0
 42
0.0000001
 43
0.0000001
 44
0.0000000001
 40
0.0
 40
0.0
 40
0.0
 40
0.0
 40
0.0833966257
 40
0.180010775
 40
0.2897795548
 40
0.4116946707
 40
0.6876661248
 40
1.0
 40
1.0
 40
1.0
 40
1.0
 10
17.1832374503
 20
30.8515304095
 30
0.0
 10
17.1981597052
 20
30.8489008475
 30
0.0
 10
17.230097025
 20
30.8416205989
 30
0.0
 10
17.2803174353
 20
30.8256384661
 30
0.0
 10
17.3356485729
 20
30.8032105562
 30
0.0
 10
17.4185352598
 20
30.7625985155
 30
0.0
 10
17.5283584666
 20
30.6941882308
 30
0.0
 10
17.6124413588
 20
30.6278498425
 30
0.0
 10
17.6552784913
 20
30.5906310274
 30
0.0
  0
SPLINE
  5
324
100
AcDbEntity
  8
0
100
AcDbSpline
 62
7
  6
BYLAYER
 70
0
 71
3
 72
13
 73
9
 74
0
 42
0.0000001
 43
0.0000001
 44
0.0000000001
 40
0.0
 40
0.0
 40
0.0
 40
0.0
 40
0.1008972407
 40
0.2043534084
 40
0.4296786886
 40
0.5563889218
 40
0.6936950892
 40
1.0
 40
1.0
 40
1.0
 40
1.0
 10
15.4616521004
 20
31.0815967664
 30
0.0
 10
15.4607792367
 20
31.0760034688
 30
0.0
 10
15.4602432079
 20
31.0644429838
 30
0.0
 10
15.4643095331
 20
31.040522804
 30
0.0
 10
15.4761631896
 20
31.0171996531
 30
0.0
 10
15.4935113684
 20
30.995882471
 30
0.0
 10
15.5166870681
 20
30.9737067992
 30
0.0
 10
15.5374116049
 20
30.9595740437
 30
0.0
 10
15.5522949503
 20
30.9509813347
 30
0.0
  0
SPLINE
  5
325
100
AcDbEntity
  8
0
100
AcDbSpline
 62
7
  6
BYLAYER
 70
0
 71
3
 72
12
 73
8
 74
0
 42
0.0000001
 43
0.0000001
 44
0.0000000001
 40
0.0
 40
0.0
 40
0.0
 40
0.0
 40
0.2651942741
 40
0.5178222511
 40
0.7613461362
 40
0.8809873649
 40
1.0
 40
1.0
 40
1.0
 40
1.0
 10
15.4616493358
 20
31.0815968619
 30
0.0
 10
15.477439167
 20
31.1827215373
 30
0.0
 10
15.5224501149
 20
31.3784421109
 30
0.0
 10
15.6367078226
 20
31.65084186
 30
0.0
 10
15.7713236592
 20
31.8491178507
 30
0.0
 10
15.9004095959
 20
31.9836243293
 30
0.0
 10
15.971642434
 20
32.0424239383
 30
0.0
 10
16.0087421388
 20
32.069504809
 30
0.0
  0
SPLINE
  5
326
100
AcDbEntity
  8
0
100
AcDbSpline
 62
7
  6
BYLAYER
 70
0
 71
3
 72
11
 73
7
 74
0
 42
0.0000001
 43
0.0000001
 44
0.0000000001
 40
0.0
 40
0.0
 40
0.0
 40
0.0
 40
0.2274223862
 40
0.4648420059
 40
0.7209150938
 40
1.0
 40
1.0
 40
1.0
 40
1.0
 10
15.4618691813
 20
30.3074269559
 30
0.0
 10
15.4601813041
 20
30.3199211392
 30
0.0
 10
15.4605622353
 20
30.3461220953
 30
0.0
 10
15.4725359021
 20
30.3847404318
 30
0.0
 10
15.4952066408
 20
30.4215236251
 30
0.0
 10
15.5159128496
 20
30.4430752109
 30
0.0
 10
15.5275555077
 20
30.4532645309
 30
0.0
  0
SPLINE
  5
327
100
AcDbEntity
  8
0
100
AcDbSpline
 62
7
  6
BYLAYER
 70
0
 71
3
 72
24
 73
20
 74
0
 42
0.0000001
 43
0.0000001
 44
0.0000000001
 40
0.0
 40
0.0
 40
0.0
 40
0.0
 40
0.024583776
 40
0.049266646
 40
0.0993906149
 40
0.1511646914
 40
0.2051978329
 40
0.2619698187
 40
0.321714048
 40
0.3844188477
 40
0.4498418778
 40
0.5175529964
 40
0.5869784942
 40
0.6574437122
 40
0.728215043
 40
0.7985452925
 40
0.8677009657
 40
0.9350417762
 40
1.0
 40
1.0
 40
1.0
 40
1.0
 10
18.8522540112
 20
27.1443683751
 30
0.0
 10
18.8133668363
 20
27.1271585294
 30
0.0
 10
18.7334614326
 20
27.0969426034
 30
0.0
 10
18.5667988292
 20
27.0536534404
 30
0.0
 10
18.3472781961
 20
27.0322623218
 30
0.0
 10
18.0773202127
 20
27.0567744332
 30
0.0
 10
17.8041036272
 20
27.12794201
 30
0.0
 10
17.5312123391
 20
27.2422552101
 30
0.0
 10
17.2615738446
 20
27.3966326847
 30
0.0
 10
16.9982124439
 20
27.588001557
 30
0.0
 10
16.7443888545
 20
27.8130838673
 30
0.0
 10
16.5035715028
 20
28.0681901342
 30
0.0
 10
16.2793057078
 20
28.3491661157
 30
0.0
 10
16.0750744177
 20
28.6514111359
 30
0.0
 10
15.8941517659
 20
28.9699554531
 30
0.0
 10
15.739528471
 20
29.2995671836
 30
0.0
 10
15.6137524956
 20
29.6349328254
 30
0.0
 10
15.5190482906
 20
29.9707186163
 30
0.0
 10
15.4769176492
 20
30.1960734449
 30
0.0
 10
15.4618695069
 20
30.3074264258
 30
0.0
  0
SPLINE
  5
328
100
AcDbEntity
  8
0
100
AcDbSpline
 62
7
  6
BYLAYER
 70
0
 71
3
 72
26
 73
22
 74
0
 42
0.0000001
 43
0.0000001
 44
0.0000000001
 40
0.0
 40
0.0
 40
0.0
 40
0.0
 40
0.0214904224
 40
0.0430250439
 40
0.0648445917
 40
0.0871749921
 40
0.1102148028
 40
0.1341311197
 40
0.1850189862
 40
0.2405186511
 40
0.3007322427
 40
0.3653581762
 40
0.4337889863
 40
0.5051933103
 40
0.5785841856
 40
0.6528785462
 40
0.7269504679
 40
0.7996841583
 40
0.8700287747
 40
0.9370527978
 40
1.0
 40
1.0
 40
1.0
 40
1.0
 10
17.1492747789
 20
32.9020272832
 30
0.0
 10
17.184525466
 20
32.9277601157
 30
0.0
 10
17.2585405026
 20
32.9747539164
 30
0.0
 10
17.3783449943
 20
33.0302828927
 30
0.0
 10
17.5059388847
 20
33.0704304432
 30
0.0
 10
17.6405137585
 20
33.0949218402
 30
0.0
 10
17.7812594696
 20
33.1037147946
 30
0.0
 10
17.9800819073
 20
33.0942533499
 30
0.0
 10
18.2409992226
 20
33.040736489
 30
0.0
 10
18.5573813821
 20
32.9172652716
 30
0.0
 10
18.8771254033
 20
32.7364717123
 30
0.0
 10
19.1933254282
 20
32.5024975349
 30
0.0
 10
19.4991579785
 20
32.2205687467
 30
0.0
 10
19.7878610658
 20
31.8969675549
 30
0.0
 10
20.0530040633
 20
31.5389269419
 30
0.0
 10
20.2886444953
 20
31.154472873
 30
0.0
 10
20.4894949975
 20
30.7522359118
 30
0.0
 10
20.6510434627
 20
30.3412473895
 30
0.0
 10
20.7696785644
 20
29.9306741097
 30
0.0
 10
20.8427228367
 20
29.5297547806
 30
0.0
 10
20.8605193021
 20
29.2656200607
 30
0.0
 10
20.8605193021
 20
29.1377835266
 30
0.0
  0
SPLINE
  5
329
100
AcDbEntity
  8
0
100
AcDbSpline
 62
7
  6
BYLAYER
 70
0
 71
3
 72
17
 73
13
 74
0
 42
0.0000001
 43
0.0000001
 44
0.0000000001
 40
0.0
 40
0.0
 40
0.0
 40
0.0
 40
0.1497625196
 40
0.2911791672
 40
0.4242330089
 40
0.4878210692
 40
0.5495676408
 40
0.6680276507
 40
0.7811920325
 40
0.8910418291
 40
0.9454951844
 40
1.0
 40
1.0
 40
1.0
 40
1.0
 10
20.8605193021
 20
29.1377835266
 30
0.0
 10
20.8605193021
 20
29.053675902
 30
0.0
 10
20.85323231
 20
28.8900095623
 30
0.0
 10
20.8184167954
 20
28.6538826901
 30
0.0
 10
20.7691967309
 20
28.4699661859
 30
0.0
 10
20.717944705
 20
28.3340930754
 30
0.0
 10
20.6608609266
 20
28.2095484595
 30
0.0
 10
20.5760194811
 20
28.0674872124
 30
0.0
 10
20.4516826151
 20
27.9203106816
 30
0.0
 10
20.3309906684
 20
27.8202653399
 30
0.0
 10
20.2263704375
 20
27.7555430258
 30
0.0
 10
20.1715009564
 20
27.7282174951
 30
0.0
 10
20.1435089953
 20
27.7158304655
 30
0.0
  0
SPLINE
  5
32A
100
AcDbEntity
  8
0
100
AcDbSpline
 62
7
  6
BYLAYER
 70
0
 71
3
 72
15
 73
11
 74
0
 42
0.0000001
 43
0.0000001
 44
0.0000000001
 40
0.0
 40
0.0
 40
0.0
 40
0.0
 40
0.1141529757
 40
0.2374165582
 40
0.3669602423
 40
0.49981905
 40
0.6327436396
 40
0.7624461571
 40
0.8858513706
 40
1.0
 40
1.0
 40
1.0
 40
1.0
 10
19.0976699542
 20
28.9041044283
 30
0.0
 10
19.1116587726
 20
28.8960281629
 30
0.0
 10
19.1419756698
 20
28.8813105978
 30
0.0
 10
19.1910273158
 20
28.864013166
 30
0.0
 10
19.2441276292
 20
28.851058814
 30
0.0
 10
19.2995394594
 20
28.8428551718
 30
0.0
 10
19.3554887067
 20
28.8396893648
 30
0.0
 10
19.4101637153
 20
28.8416765658
 30
0.0
 10
19.4617310436
 20
28.8487957883
 30
0.0
 10
19.4943898261
 20
28.8572059805
 30
0.0
 10
19.5096948031
 20
28.8623684329
 30
0.0
  0
SPLINE
  5
32B
100
AcDbEntity
  8
0
100
AcDbSpline
 62
7
  6
BYLAYER
 70
0
 71
3
 72
15
 73
11
 74
0
 42
0.0000001
 43
0.0000001
 44
0.0000000001
 40
0.0
 40
0.0
 40
0.0
 40
0.0
 40
0.1430512057
 40
0.2785311624
 40
0.4067319819
 40
0.5288497047
 40
0.6466974562
 40
0.7626229563
 40
0.8794366906
 40
1.0
 40
1.0
 40
1.0
 40
1.0
 10
16.9945727506
 20
31.1227709611
 30
0.0
 10
16.9945727506
 20
31.1055668503
 30
0.0
 10
16.9964930105
 20
31.0720245358
 30
0.0
 10
17.0056656162
 20
31.0238209537
 30
0.0
 10
17.0210656961
 20
30.9798467603
 30
0.0
 10
17.0425828762
 20
30.9408850727
 30
0.0
 10
17.070023969
 20
30.9076870942
 30
0.0
 10
17.103082292
 20
30.8810347929
 30
0.0
 10
17.1412105587
 20
30.8616257505
 30
0.0
 10
17.1689615893
 20
30.8540554857
 30
0.0
 10
17.1832409284
 20
30.8515378026
 30
0.0
  0
SPLINE
  5
32C
100
AcDbEntity
  8
0
100
AcDbSpline
 62
7
  6
BYLAYER
 70
0
 71
3
 72
9
 73
5
 74
0
 42
0.0000001
 43
0.0000001
 44
0.0000000001
 40
0.0
 40
0.0
 40
0.0
 40
0.0
 40
0.5147636976
 40
1.0
 40
1.0
 40
1.0
 40
1.0
 10
17.2444737733
 20
29.9901978292
 30
0.0
 10
17.2315548891
 20
30.0372768132
 30
0.0
 10
17.2109113027
 20
30.1300336864
 30
0.0
 10
17.2006530824
 20
30.2245766532
 30
0.0
 10
17.1986922976
 20
30.2705538754
 30
0.0
  0
SPLINE
  5
32D
100
AcDbEntity
  8
0
100
AcDbSpline
 62
7
  6
BYLAYER
 70
0
 71
3
 72
26
 73
22
 74
0
 42
0.0000001
 43
0.0000001
 44
0.0000000001
 40
0.0
 40
0.0
 40
0.0
 40
0.0
 40
0.0669815213
 40
0.1371260318
 40
0.2096129934
 40
0.2835381962
 40
0.357926202
 40
0.4317875953
 40
0.5041526516
 40
0.574114499
 40
0.640872254
 40
0.7037801511
 40
0.7624046842
 40
0.8165929504
 40
0.8665515613
 40
0.8901578076
 40
0.9129881807
 40
0.9351978736
 40
0.9569671174
 40
0.9784971236
 40
1.0
 40
1.0
 40
1.0
 40
1.0
 10
19.5096948031
 20
28.8623684329
 30
0.0
 10
19.4948286951
 20
28.9824153555
 30
0.0
 10
19.4509786769
 20
29.2266510514
 30
0.0
 10
19.3488099715
 20
29.591657461
 30
0.0
 10
19.2104866073
 20
29.9579862796
 30
0.0
 10
19.0387709104
 20
30.3183643092
 30
0.0
 10
18.8370302953
 20
30.6657022038
 30
0.0
 10
18.6092584795
 20
30.9931376015
 30
0.0
 10
18.3599430687
 20
31.2942113115
 30
0.0
 10
18.0939889042
 20
31.5629949152
 30
0.0
 10
17.8165902644
 20
31.7942091103
 30
0.0
 10
17.533120485
 20
31.983319784
 30
0.0
 10
17.2489396137
 20
32.126588407
 30
0.0
 10
16.9694421909
 20
32.221079701
 30
0.0
 10
16.7402563394
 20
32.2579462515
 30
0.0
 10
16.5659074603
 20
32.2596972106
 30
0.0
 10
16.4422522527
 20
32.2478718239
 30
0.0
 10
16.3239228259
 20
32.2229893284
 30
0.0
 10
16.2115460687
 20
32.1851014393
 30
0.0
 10
16.105738766
 20
32.1344472645
 30
0.0
 10
16.0401087593
 20
32.0923978837
 30
0.0
 10
16.0087439678
 20
32.0695018876
 30
0.0
  0
LINE
  5
32E
100
AcDbEntity
  8
0
100
AcDbLine
 62
7
  6
BYLAYER
 10
17.2444691037
 20
29.9902005252
 11
17.6553777978
 21
30.1122712771
  0
SPLINE
  5
32F
100
AcDbEntity
  8
0
100
AcDbSpline
 62
7
  6
BYLAYER
 70
0
 71
3
 72
9
 73
5
 74
0
 42
0.0000001
 43
0.0000001
 44
0.0000000001
 40
0.0
 40
0.0
 40
0.0
 40
0.0
 40
0.5000531523
 40
1.0
 40
1.0
 40
1.0
 40
1.0
 10
17.9805927498
 20
29.549015592
 30
0.0
 10
17.8532943924
 20
29.4282753398
 30
0.0
 10
17.5985663025
 20
29.1869874913
 30
0.0
 10
17.3435771014
 20
28.9459757388
 30
0.0
 10
17.2161083894
 20
28.8254696352
 30
0.0
  0
SPLINE
  5
330
100
AcDbEntity
  8
0
100
AcDbSpline
 62
7
  6
BYLAYER
 70
0
 71
3
 72
11
 73
7
 74
0
 42
0.0000001
 43
0.0000001
 44
0.0000000001
 40
0.0
 40
0.0
 40
0.0
 40
0.0
 40
0.224741394
 40
0.4669079273
 40
0.7258854373
 40
1.0
 40
1.0
 40
1.0
 40
1.0
 10
16.9945727506
 20
31.1227709611
 30
0.0
 10
17.0503800363
 20
31.1082900941
 30
0.0
 10
17.1639872294
 20
31.0687790543
 30
0.0
 10
17.3305961081
 20
30.9846208578
 30
0.0
 10
17.4969098553
 20
30.8748543029
 30
0.0
 10
17.6029974492
 20
30.7881587859
 30
0.0
 10
17.6553921539
 20
30.7412553317
 30
0.0
  0
SPLINE
  5
331
100
AcDbEntity
  8
0
100
AcDbSpline
 62
7
  6
BYLAYER
 70
0
 71
3
 72
12
 73
8
 74
0
 42
0.0000001
 43
0.0000001
 44
0.0000000001
 40
0.0
 40
0.0
 40
0.0
 40
0.0
 40
0.1164950632
 40
0.2369976264
 40
0.4868420032
 40
0.7434521484
 40
1.0
 40
1.0
 40
1.0
 40
1.0
 10
19.0976699542
 20
28.9041044283
 30
0.0
 10
19.0863970055
 20
28.9804500452
 30
0.0
 10
19.0576246198
 20
29.1349573288
 30
0.0
 10
18.9770607739
 20
29.4474426964
 30
0.0
 10
18.8343942908
 20
29.8387620073
 30
0.0
 10
18.6062746112
 20
30.2909566615
 30
0.0
 10
18.4188934381
 20
30.5757031174
 30
0.0
 10
18.3171623895
 20
30.711845563
 30
0.0
  0
SPLINE
  5
332
100
AcDbEntity
  8
0
100
AcDbSpline
 62
7
  6
BYLAYER
 70
0
 71
3
 72
23
 73
19
 74
0
 42
0.0000001
 43
0.0000001
 44
0.0000000001
 40
0.0
 40
0.0
 40
0.0
 40
0.0
 40
0.0833958054
 40
0.1645938597
 40
0.2428680901
 40
0.3175943504
 40
0.3882859692
 40
0.454635589
 40
0.5165608866
 40
0.5742567949
 40
0.6282474443
 40
0.679417103
 40
0.728981333
 40
0.7783739582
 40
0.8290550186
 40
0.8822977508
 40
0.9390889345
 40
1.0
 40
1.0
 40
1.0
 40
1.0
 10
18.3171623895
 20
30.711845563
 30
0.0
 10
18.2560200254
 20
30.7936698546
 30
0.0
 10
18.1294634977
 20
30.9508745031
 30
0.0
 10
17.9256933838
 20
31.1679887654
 30
0.0
 10
17.7128907035
 20
31.3608472799
 30
0.0
 10
17.4942157026
 20
31.5265577637
 30
0.0
 10
17.2728712912
 20
31.6626489318
 30
0.0
 10
17.0520693243
 20
31.7670772773
 30
0.0
 10
16.8349633381
 20
31.8382147538
 30
0.0
 10
16.624630022
 20
31.8748144504
 30
0.0
 10
16.4241128193
 20
31.8759754393
 30
0.0
 10
16.2365465347
 20
31.8412008249
 30
0.0
 10
16.0652447227
 20
31.7706208832
 30
0.0
 10
15.9135094433
 20
31.6653227145
 30
0.0
 10
15.7841451832
 20
31.527427639
 30
0.0
 10
15.6790561721
 20
31.359673071
 30
0.0
 10
15.5995656447
 20
31.1650362687
 30
0.0
 10
15.5653695994
 20
31.0244319355
 30
0.0
 10
15.5522949503
 20
30.9509813347
 30
0.0
  0
SPLINE
  5
333
100
AcDbEntity
  8
0
100
AcDbSpline
 62
7
  6
BYLAYER
 70
0
 71
3
 72
14
 73
10
 74
0
 42
0.0000001
 43
0.0000001
 44
0.0000000001
 40
0.0
 40
0.0
 40
0.0
 40
0.0
 40
0.1220682364
 40
0.2498748518
 40
0.5123177136
 40
0.6424005577
 40
0.7683210967
 40
0.8880897725
 40
1.0
 40
1.0
 40
1.0
 40
1.0
 10
19.5096948031
 20
28.1542273479
 30
0.0
 10
19.4946818306
 20
28.145319258
 30
0.0
 10
19.4625170332
 20
28.1294178302
 30
0.0
 10
19.3930234282
 20
28.1057814123
 30
0.0
 10
19.3185773873
 20
28.0947900003
 30
0.0
 10
19.2443384673
 20
28.0968053799
 30
0.0
 10
19.1910410355
 20
28.1048191004
 30
0.0
 10
19.1417779092
 20
28.1191016513
 30
0.0
 10
19.1115300859
 20
28.1330516605
 30
0.0
 10
19.0976699542
 20
28.1410536302
 30
0.0
  0
SPLINE
  5
334
100
AcDbEntity
  8
0
100
AcDbSpline
 62
7
  6
BYLAYER
 70
0
 71
3
 72
11
 73
7
 74
0
 42
0.0000001
 43
0.0000001
 44
0.0000000001
 40
0.0
 40
0.0
 40
0.0
 40
0.0
 40
0.2768369111
 40
0.5327480115
 40
0.7713714877
 40
1.0
 40
1.0
 40
1.0
 40
1.0
 10
15.5522949503
 20
30.1879305366
 30
0.0
 10
15.5399144373
 20
30.1950782674
 30
0.0
 10
15.5171465867
 20
30.2108360896
 30
0.0
 10
15.4892881777
 20
30.2397264389
 30
0.0
 10
15.4700427542
 20
30.2721561046
 30
0.0
 10
15.4634497656
 20
30.2957269869
 30
0.0
 10
15.4618691813
 20
30.3074269559
 30
0.0
  0
SPLINE
  5
335
100
AcDbEntity
  8
0
100
AcDbSpline
 62
7
  6
BYLAYER
 70
0
 71
3
 72
30
 73
26
 74
0
 42
0.0000001
 43
0.0000001
 44
0.0000000001
 40
0.0
 40
0.0
 40
0.0
 40
0.0
 40
0.0713866061
 40
0.1463740719
 40
0.2235999494
 40
0.3015521652
 40
0.3786802567
 40
0.4534797767
 40
0.5245963892
 40
0.5909324112
 40
0.651775179
 40
0.6800894068
 40
0.707023699
 40
0.7326738025
 40
0.757190369
 40
0.7807828525
 40
0.8037147115
 40
0.8262926437
 40
0.8488493269
 40
0.8717192363
 40
0.8952125929
 40
0.9195976973
 40
0.9450963629
 40
0.9718728826
 40
1.0
 40
1.0
 40
1.0
 40
1.0
 10
15.5522949503
 20
30.1879305366
 30
0.0
 10
15.5719775243
 20
30.0546310526
 30
0.0
 10
15.6301754378
 20
29.7837423848
 30
0.0
 10
15.7646032251
 20
29.3828807968
 30
0.0
 10
15.9448610189
 20
28.9867630806
 30
0.0
 10
16.1656570155
 20
28.6070941564
 30
0.0
 10
16.4205071765
 20
28.2549936407
 30
0.0
 10
16.7019403347
 20
27.9407955673
 30
0.0
 10
17.0018032821
 20
27.6736574325
 30
0.0
 10
17.3114018617
 20
27.4613956085
 30
0.0
 10
17.5766681346
 20
27.3323627675
 30
0.0
 10
17.7852970568
 20
27.2643659257
 30
0.0
 10
17.9347489589
 20
27.2316891584
 30
0.0
 10
18.0797962739
 20
27.2163726257
 30
0.0
 10
18.2193744982
 20
27.2186310584
 30
0.0
 10
18.3524098294
 20
27.2385130346
 30
0.0
 10
18.4778328763
 20
27.275959601
 30
0.0
 10
18.5945897132
 20
27.3307217406
 30
0.0
 10
18.7016852944
 20
27.4023601466
 30
0.0
 10
18.7982101849
 20
27.4902640241
 30
0.0
 10
18.8834292674
 20
27.5936307978
 30
0.0
 10
18.9567128254
 20
27.7116025018
 30
0.0
 10
19.017593758
 20
27.8432380668
 30
0.0
 10
19.0656269292
 20
27.9874872406
 30
0.0
 10
19.088365705
 20
28.0887843347
 30
0.0
 10
19.0976699542
 20
28.1410536302
 30
0.0
  0
SPLINE
  5
336
100
AcDbEntity
  8
0
100
AcDbSpline
 62
7
  6
BYLAYER
 70
0
 71
3
 72
11
 73
7
 74
0
 42
0.0000001
 43
0.0000001
 44
0.0000000001
 40
0.0
 40
0.0
 40
0.0
 40
0.0
 40
0.224741394
 40
0.4669079273
 40
0.7258854373
 40
1.0
 40
1.0
 40
1.0
 40
1.0
 10
17.6553921539
 20
27.9692640038
 30
0.0
 10
17.5995848682
 20
27.9837448708
 30
0.0
 10
17.4859776751
 20
28.0232559106
 30
0.0
 10
17.3193687964
 20
28.1074141071
 30
0.0
 10
17.1530550493
 20
28.217180662
 30
0.0
 10
17.0469674554
 20
28.303876179
 30
0.0
 10
16.9945727506
 20
28.3507796332
 30
0.0
  0
SPLINE
  5
337
100
AcDbEntity
  8
0
100
AcDbSpline
 62
7
  6
BYLAYER
 70
0
 71
3
 72
15
 73
11
 74
0
 42
0.0000001
 43
0.0000001
 44
0.0000000001
 40
0.0
 40
0.0
 40
0.0
 40
0.0
 40
0.1134570121
 40
0.2274027506
 40
0.3434989766
 40
0.4632521475
 40
0.587923618
 40
0.7185268773
 40
0.8557923041
 40
1.0
 40
1.0
 40
1.0
 40
1.0
 10
18.8522518802
 20
27.1443723914
 30
0.0
 10
18.8957805129
 20
27.1636350533
 30
0.0
 10
18.9802811088
 20
27.2088406756
 30
0.0
 10
19.0960696989
 20
27.2955029164
 30
0.0
 10
19.199730354
 20
27.4001108341
 30
0.0
 10
19.2904293501
 20
27.5217285013
 30
0.0
 10
19.3675480819
 20
27.6593392039
 30
0.0
 10
19.4305840756
 20
27.811870658
 30
0.0
 10
19.479090723
 20
27.9781143918
 30
0.0
 10
19.5010423301
 20
28.0943476132
 30
0.0
 10
19.5096948031
 20
28.1542273479
 30
0.0
  0
SPLINE
  5
338
100
AcDbEntity
  8
0
100
AcDbSpline
 62
7
  6
BYLAYER
 70
0
 71
3
 72
11
 73
7
 74
0
 42
0.0000001
 43
0.0000001
 44
0.0000000001
 40
0.0
 40
0.0
 40
0.0
 40
0.0
 40
0.2624376727
 40
0.5238205906
 40
0.7724227889
 40
1.0
 40
1.0
 40
1.0
 40
1.0
 10
17.2161083894
 20
28.8254696352
 30
0.0
 10
17.1820019618
 20
28.7932262054
 30
0.0
 10
17.1203048399
 20
28.7218261858
 30
0.0
 10
17.0503674116
 20
28.6018204071
 30
0.0
 10
17.0059739601
 20
28.4767908943
 30
0.0
 10
16.9945727506
 20
28.3914800372
 30
0.0
 10
16.9945727506
 20
28.3507796332
 30
0.0
  0
SPLINE
  5
339
100
AcDbEntity
  8
0
100
AcDbSpline
 62
7
  6
BYLAYER
 70
0
 71
3
 72
11
 73
7
 74
0
 42
0.0000001
 43
0.0000001
 44
0.0000000001
 40
0.0
 40
0.0
 40
0.0
 40
0.0
 40
0.2292808942
 40
0.4731434359
 40
0.7306590007
 40
1.0
 40
1.0
 40
1.0
 40
1.0
 10
17.6572700121
 20
28.5214440775
 30
0.0
 10
17.6191163545
 20
28.5369750455
 30
0.0
 10
17.5423482732
 20
28.573996104
 30
0.0
 10
17.4306737291
 20
28.6433893806
 30
0.0
 10
17.3203721646
 20
28.7274070557
 30
0.0
 10
17.2501787174
 20
28.7910976129
 30
0.0
 10
17.2156345291
 20
28.8249854439
 30
0.0
  0
SPLINE
  5
33A
100
AcDbEntity
  8
0
100
AcDbSpline
 62
7
  6
BYLAYER
 70
0
 71
3
 72
9
 73
5
 74
0
 42
0.0000001
 43
0.0000001
 44
0.0000000001
 40
0.0
 40
0.0
 40
0.0
 40
0.0
 40
0.244508695
 40
1.0
 40
1.0
 40
1.0
 40
1.0
 10
19.9762061918
 20
28.7093766534
 30
0.0
 10
19.9762061918
 20
28.73432624
 30
0.0
 10
19.9748089333
 20
28.8363632423
 30
0.0
 10
19.9679646859
 20
28.9383083205
 30
0.0
 10
19.9600834848
 20
29.0149944839
 30
0.0
  0
SPLINE
  5
33B
100
AcDbEntity
  8
0
100
AcDbSpline
 62
7
  6
BYLAYER
 70
0
 71
3
 72
9
 73
5
 74
0
 42
0.0000001
 43
0.0000001
 44
0.0000000001
 40
0.0
 40
0.0
 40
0.0
 40
0.0
 40
0.243812191
 40
1.0
 40
1.0
 40
1.0
 40
1.0
 10
19.9600834848
 20
28.4223753001
 30
0.0
 10
19.9627902132
 20
28.4455870903
 30
0.0
 10
19.9724018796
 20
28.5409614212
 30
0.0
 10
19.9762061918
 20
28.6368970609
 30
0.0
 10
19.9762061918
 20
28.7093766534
 30
0.0
  0
SPLINE
  5
33C
100
AcDbEntity
  8
0
100
AcDbSpline
 62
7
  6
BYLAYER
 70
0
 71
3
 72
13
 73
9
 74
0
 42
0.0000001
 43
0.0000001
 44
0.0000000001
 40
0.0
 40
0.0
 40
0.0
 40
0.0
 40
0.0833966257
 40
0.180010775
 40
0.2897795548
 40
0.4116946707
 40
0.6876661248
 40
1.0
 40
1.0
 40
1.0
 40
1.0
 10
34.1538708538
 20
21.0537523011
 30
0.0
 10
34.1687931088
 20
21.051122739
 30
0.0
 10
34.2007304285
 20
21.0438424904
 30
0.0
 10
34.2509508388
 20
21.0278603576
 30
0.0
 10
34.3062819764
 20
21.0054324477
 30
0.0
 10
34.3891686633
 20
20.964820407
 30
0.0
 10
34.4989918701
 20
20.8964101223
 30
0.0
 10
34.5830747623
 20
20.830071734
 30
0.0
 10
34.6259118948
 20
20.7928529189
 30
0.0
  0
SPLINE
  5
33D
100
AcDbEntity
  8
0
100
AcDbSpline
 62
7
  6
BYLAYER
 70
0
 71
3
 72
13
 73
9
 74
0
 42
0.0000001
 43
0.0000001
 44
0.0000000001
 40
0.0
 40
0.0
 40
0.0
 40
0.0
 40
0.1008972407
 40
0.2043534084
 40
0.4296786886
 40
0.5563889218
 40
0.6936950892
 40
1.0
 40
1.0
 40
1.0
 40
1.0
 10
32.4322855039
 20
21.2838186579
 30
0.0
 10
32.4314126403
 20
21.2782253603
 30
0.0
 10
32.4308766114
 20
21.2666648753
 30
0.0
 10
32.4349429366
 20
21.2427446955
 30
0.0
 10
32.4467965931
 20
21.2194215446
 30
0.0
 10
32.464144772
 20
21.1981043625
 30
0.0
 10
32.4873204716
 20
21.1759286907
 30
0.0
 10
32.5080450084
 20
21.1617959353
 30
0.0
 10
32.5229283538
 20
21.1532032262
 30
0.0
  0
SPLINE
  5
33E
100
AcDbEntity
  8
0
100
AcDbSpline
 62
7
  6
BYLAYER
 70
0
 71
3
 72
12
 73
8
 74
0
 42
0.0000001
 43
0.0000001
 44
0.0000000001
 40
0.0
 40
0.0
 40
0.0
 40
0.0
 40
0.2651942741
 40
0.5178222511
 40
0.7613461362
 40
0.8809873649
 40
1.0
 40
1.0
 40
1.0
 40
1.0
 10
32.4322827393
 20
21.2838187534
 30
0.0
 10
32.4480725705
 20
21.3849434288
 30
0.0
 10
32.4930835184
 20
21.5806640024
 30
0.0
 10
32.6073412262
 20
21.8530637515
 30
0.0
 10
32.7419570628
 20
22.0513397422
 30
0.0
 10
32.8710429994
 20
22.1858462208
 30
0.0
 10
32.9422758375
 20
22.2446458298
 30
0.0
 10
32.9793755424
 20
22.2717267005
 30
0.0
  0
SPLINE
  5
33F
100
AcDbEntity
  8
0
100
AcDbSpline
 62
7
  6
BYLAYER
 70
0
 71
3
 72
11
 73
7
 74
0
 42
0.0000001
 43
0.0000001
 44
0.0000000001
 40
0.0
 40
0.0
 40
0.0
 40
0.0
 40
0.2274223862
 40
0.4648420059
 40
0.7209150938
 40
1.0
 40
1.0
 40
1.0
 40
1.0
 10
32.4325025848
 20
20.5096488475
 30
0.0
 10
32.4308147076
 20
20.5221430307
 30
0.0
 10
32.4311956388
 20
20.5483439869
 30
0.0
 10
32.4431693056
 20
20.5869623233
 30
0.0
 10
32.4658400443
 20
20.6237455167
 30
0.0
 10
32.4865462531
 20
20.6452971024
 30
0.0
 10
32.4981889112
 20
20.6554864224
 30
0.0
  0
SPLINE
  5
340
100
AcDbEntity
  8
0
100
AcDbSpline
 62
7
  6
BYLAYER
 70
0
 71
3
 72
24
 73
20
 74
0
 42
0.0000001
 43
0.0000001
 44
0.0000000001
 40
0.0
 40
0.0
 40
0.0
 40
0.0
 40
0.024583776
 40
0.049266646
 40
0.0993906149
 40
0.1511646914
 40
0.2051978329
 40
0.2619698187
 40
0.321714048
 40
0.3844188477
 40
0.4498418778
 40
0.5175529964
 40
0.5869784942
 40
0.6574437122
 40
0.728215043
 40
0.7985452925
 40
0.8677009657
 40
0.9350417762
 40
1.0
 40
1.0
 40
1.0
 40
1.0
 10
35.8228874148
 20
17.3465902666
 30
0.0
 10
35.7840002398
 20
17.3293804209
 30
0.0
 10
35.7040948361
 20
17.2991644949
 30
0.0
 10
35.5374322327
 20
17.2558753319
 30
0.0
 10
35.3179115996
 20
17.2344842133
 30
0.0
 10
35.0479536163
 20
17.2589963248
 30
0.0
 10
34.7747370308
 20
17.3301639015
 30
0.0
 10
34.5018457427
 20
17.4444771016
 30
0.0
 10
34.2322072481
 20
17.5988545762
 30
0.0
 10
33.9688458474
 20
17.7902234485
 30
0.0
 10
33.715022258
 20
18.0153057588
 30
0.0
 10
33.4742049064
 20
18.2704120257
 30
0.0
 10
33.2499391113
 20
18.5513880072
 30
0.0
 10
33.0457078212
 20
18.8536330274
 30
0.0
 10
32.8647851694
 20
19.1721773446
 30
0.0
 10
32.7101618745
 20
19.5017890751
 30
0.0
 10
32.5843858992
 20
19.8371547169
 30
0.0
 10
32.4896816942
 20
20.1729405078
 30
0.0
 10
32.4475510527
 20
20.3982953364
 30
0.0
 10
32.4325029104
 20
20.5096483173
 30
0.0
  0
SPLINE
  5
341
100
AcDbEntity
  8
0
100
AcDbSpline
 62
7
  6
BYLAYER
 70
0
 71
3
 72
26
 73
22
 74
0
 42
0.0000001
 43
0.0000001
 44
0.0000000001
 40
0.0
 40
0.0
 40
0.0
 40
0.0
 40
0.0214904224
 40
0.0430250439
 40
0.0648445917
 40
0.0871749921
 40
0.1102148028
 40
0.1341311197
 40
0.1850189862
 40
0.2405186511
 40
0.3007322427
 40
0.3653581762
 40
0.4337889863
 40
0.5051933103
 40
0.5785841856
 40
0.6528785462
 40
0.7269504679
 40
0.7996841583
 40
0.8700287747
 40
0.9370527978
 40
1.0
 40
1.0
 40
1.0
 40
1.0
 10
34.1199081824
 20
23.1042491748
 30
0.0
 10
34.1551588695
 20
23.1299820072
 30
0.0
 10
34.2291739062
 20
23.1769758079
 30
0.0
 10
34.3489783978
 20
23.2325047842
 30
0.0
 10
34.4765722882
 20
23.2726523347
 30
0.0
 10
34.6111471621
 20
23.2971437317
 30
0.0
 10
34.7518928731
 20
23.3059366861
 30
0.0
 10
34.9507153108
 20
23.2964752414
 30
0.0
 10
35.2116326261
 20
23.2429583805
 30
0.0
 10
35.5280147857
 20
23.1194871631
 30
0.0
 10
35.8477588068
 20
22.9386936038
 30
0.0
 10
36.1639588317
 20
22.7047194264
 30
0.0
 10
36.4697913821
 20
22.4227906383
 30
0.0
 10
36.7584944693
 20
22.0991894464
 30
0.0
 10
37.0236374668
 20
21.7411488334
 30
0.0
 10
37.2592778988
 20
21.3566947645
 30
0.0
 10
37.460128401
 20
20.9544578033
 30
0.0
 10
37.6216768663
 20
20.5434692811
 30
0.0
 10
37.740311968
 20
20.1328960012
 30
0.0
 10
37.8133562402
 20
19.7319766721
 30
0.0
 10
37.8311527057
 20
19.4678419522
 30
0.0
 10
37.8311527057
 20
19.3400054182
 30
0.0
  0
SPLINE
  5
342
100
AcDbEntity
  8
0
100
AcDbSpline
 62
7
  6
BYLAYER
 70
0
 71
3
 72
17
 73
13
 74
0
 42
0.0000001
 43
0.0000001
 44
0.0000000001
 40
0.0
 40
0.0
 40
0.0
 40
0.0
 40
0.1497625196
 40
0.2911791672
 40
0.4242330089
 40
0.4878210692
 40
0.5495676408
 40
0.6680276507
 40
0.7811920325
 40
0.8910418291
 40
0.9454951844
 40
1.0
 40
1.0
 40
1.0
 40
1.0
 10
37.8311527057
 20
19.3400054182
 30
0.0
 10
37.8311527057
 20
19.2558977935
 30
0.0
 10
37.8238657135
 20
19.0922314538
 30
0.0
 10
37.7890501989
 20
18.8561045817
 30
0.0
 10
37.7398301344
 20
18.6721880774
 30
0.0
 10
37.6885781086
 20
18.536314967
 30
0.0
 10
37.6314943301
 20
18.411770351
 30
0.0
 10
37.5466528846
 20
18.2697091039
 30
0.0
 10
37.4223160186
 20
18.1225325732
 30
0.0
 10
37.3016240719
 20
18.0224872314
 30
0.0
 10
37.1970038411
 20
17.9577649174
 30
0.0
 10
37.1421343599
 20
17.9304393866
 30
0.0
 10
37.1141423988
 20
17.918052357
 30
0.0
  0
SPLINE
  5
343
100
AcDbEntity
  8
0
100
AcDbSpline
 62
7
  6
BYLAYER
 70
0
 71
3
 72
15
 73
11
 74
0
 42
0.0000001
 43
0.0000001
 44
0.0000000001
 40
0.0
 40
0.0
 40
0.0
 40
0.0
 40
0.1141529757
 40
0.2374165582
 40
0.3669602423
 40
0.49981905
 40
0.6327436396
 40
0.7624461571
 40
0.8858513706
 40
1.0
 40
1.0
 40
1.0
 40
1.0
 10
36.0683033578
 20
19.1063263198
 30
0.0
 10
36.0822921762
 20
19.0982500545
 30
0.0
 10
36.1126090733
 20
19.0835324893
 30
0.0
 10
36.1616607194
 20
19.0662350575
 30
0.0
 10
36.2147610327
 20
19.0532807055
 30
0.0
 10
36.2701728629
 20
19.0450770633
 30
0.0
 10
36.3261221102
 20
19.0419112564
 30
0.0
 10
36.3807971189
 20
19.0438984573
 30
0.0
 10
36.4323644471
 20
19.0510176798
 30
0.0
 10
36.4650232296
 20
19.059427872
 30
0.0
 10
36.4803282066
 20
19.0645903244
 30
0.0
  0
SPLINE
  5
344
100
AcDbEntity
  8
0
100
AcDbSpline
 62
7
  6
BYLAYER
 70
0
 71
3
 72
15
 73
11
 74
0
 42
0.0000001
 43
0.0000001
 44
0.0000000001
 40
0.0
 40
0.0
 40
0.0
 40
0.0
 40
0.1430512057
 40
0.2785311624
 40
0.4067319819
 40
0.5288497047
 40
0.6466974562
 40
0.7626229563
 40
0.8794366906
 40
1.0
 40
1.0
 40
1.0
 40
1.0
 10
33.9652061541
 20
21.3249928526
 30
0.0
 10
33.9652061541
 20
21.3077887418
 30
0.0
 10
33.9671264141
 20
21.2742464273
 30
0.0
 10
33.9762990197
 20
21.2260428452
 30
0.0
 10
33.9916990996
 20
21.1820686518
 30
0.0
 10
34.0132162797
 20
21.1431069643
 30
0.0
 10
34.0406573725
 20
21.1099089857
 30
0.0
 10
34.0737156955
 20
21.0832566844
 30
0.0
 10
34.1118439622
 20
21.063847642
 30
0.0
 10
34.1395949928
 20
21.0562773772
 30
0.0
 10
34.1538743319
 20
21.0537596941
 30
0.0
  0
SPLINE
  5
345
100
AcDbEntity
  8
0
100
AcDbSpline
 62
7
  6
BYLAYER
 70
0
 71
3
 72
9
 73
5
 74
0
 42
0.0000001
 43
0.0000001
 44
0.0000000001
 40
0.0
 40
0.0
 40
0.0
 40
0.0
 40
0.5147636976
 40
1.0
 40
1.0
 40
1.0
 40
1.0
 10
34.2151071768
 20
20.1924197207
 30
0.0
 10
34.2021882926
 20
20.2394987047
 30
0.0
 10
34.1815447062
 20
20.3322555779
 30
0.0
 10
34.1712864859
 20
20.4267985448
 30
0.0
 10
34.1693257011
 20
20.4727757669
 30
0.0
  0
SPLINE
  5
346
100
AcDbEntity
  8
0
100
AcDbSpline
 62
7
  6
BYLAYER
 70
0
 71
3
 72
26
 73
22
 74
0
 42
0.0000001
 43
0.0000001
 44
0.0000000001
 40
0.0
 40
0.0
 40
0.0
 40
0.0
 40
0.0669815213
 40
0.1371260318
 40
0.2096129934
 40
0.2835381962
 40
0.357926202
 40
0.4317875953
 40
0.5041526516
 40
0.574114499
 40
0.640872254
 40
0.7037801511
 40
0.7624046842
 40
0.8165929504
 40
0.8665515613
 40
0.8901578076
 40
0.9129881807
 40
0.9351978736
 40
0.9569671174
 40
0.9784971236
 40
1.0
 40
1.0
 40
1.0
 40
1.0
 10
36.4803282066
 20
19.0645903244
 30
0.0
 10
36.4654620986
 20
19.184637247
 30
0.0
 10
36.4216120805
 20
19.4288729429
 30
0.0
 10
36.319443375
 20
19.7938793525
 30
0.0
 10
36.1811200108
 20
20.1602081711
 30
0.0
 10
36.0094043139
 20
20.5205862007
 30
0.0
 10
35.8076636989
 20
20.8679240953
 30
0.0
 10
35.579891883
 20
21.195359493
 30
0.0
 10
35.3305764723
 20
21.4964332031
 30
0.0
 10
35.0646223077
 20
21.7652168067
 30
0.0
 10
34.7872236679
 20
21.9964310018
 30
0.0
 10
34.5037538885
 20
22.1855416755
 30
0.0
 10
34.2195730173
 20
22.3288102985
 30
0.0
 10
33.9400755945
 20
22.4233015926
 30
0.0
 10
33.7108897429
 20
22.460168143
 30
0.0
 10
33.5365408638
 20
22.4619191021
 30
0.0
 10
33.4128856562
 20
22.4500937154
 30
0.0
 10
33.2945562295
 20
22.4252112199
 30
0.0
 10
33.1821794722
 20
22.3873233308
 30
0.0
 10
33.0763721695
 20
22.3366691561
 30
0.0
 10
33.0107421629
 20
22.2946197752
 30
0.0
 10
32.9793773714
 20
22.2717237792
 30
0.0
  0
LINE
  5
347
100
AcDbEntity
  8
0
100
AcDbLine
 62
7
  6
BYLAYER
 10
34.2151025072
 20
20.1924224167
 11
34.6260112013
 21
20.3144931686
  0
SPLINE
  5
348
100
AcDbEntity
  8
0
100
AcDbSpline
 62
7
  6
BYLAYER
 70
0
 71
3
 72
9
 73
5
 74
0
 42
0.0000001
 43
0.0000001
 44
0.0000000001
 40
0.0
 40
0.0
 40
0.0
 40
0.0
 40
0.5000531523
 40
1.0
 40
1.0
 40
1.0
 40
1.0
 10
34.9512261533
 20
19.7512374835
 30
0.0
 10
34.8239277959
 20
19.6304972314
 30
0.0
 10
34.569199706
 20
19.3892093828
 30
0.0
 10
34.3142105049
 20
19.1481976303
 30
0.0
 10
34.1867417929
 20
19.0276915267
 30
0.0
  0
SPLINE
  5
349
100
AcDbEntity
  8
0
100
AcDbSpline
 62
7
  6
BYLAYER
 70
0
 71
3
 72
11
 73
7
 74
0
 42
0.0000001
 43
0.0000001
 44
0.0000000001
 40
0.0
 40
0.0
 40
0.0
 40
0.0
 40
0.224741394
 40
0.4669079273
 40
0.7258854373
 40
1.0
 40
1.0
 40
1.0
 40
1.0
 10
33.9652061541
 20
21.3249928526
 30
0.0
 10
34.0210134398
 20
21.3105119856
 30
0.0
 10
34.1346206329
 20
21.2710009458
 30
0.0
 10
34.3012295116
 20
21.1868427493
 30
0.0
 10
34.4675432588
 20
21.0770761944
 30
0.0
 10
34.5736308527
 20
20.9903806774
 30
0.0
 10
34.6260255574
 20
20.9434772233
 30
0.0
  0
SPLINE
  5
34A
100
AcDbEntity
  8
0
100
AcDbSpline
 62
7
  6
BYLAYER
 70
0
 71
3
 72
12
 73
8
 74
0
 42
0.0000001
 43
0.0000001
 44
0.0000000001
 40
0.0
 40
0.0
 40
0.0
 40
0.0
 40
0.1164950632
 40
0.2369976264
 40
0.4868420032
 40
0.7434521484
 40
1.0
 40
1.0
 40
1.0
 40
1.0
 10
36.0683033578
 20
19.1063263198
 30
0.0
 10
36.057030409
 20
19.1826719367
 30
0.0
 10
36.0282580233
 20
19.3371792203
 30
0.0
 10
35.9476941774
 20
19.6496645879
 30
0.0
 10
35.8050276944
 20
20.0409838989
 30
0.0
 10
35.5769080148
 20
20.4931785531
 30
0.0
 10
35.3895268416
 20
20.7779250089
 30
0.0
 10
35.287795793
 20
20.9140674545
 30
0.0
  0
SPLINE
  5
34B
100
AcDbEntity
  8
0
100
AcDbSpline
 62
7
  6
BYLAYER
 70
0
 71
3
 72
23
 73
19
 74
0
 42
0.0000001
 43
0.0000001
 44
0.0000000001
 40
0.0
 40
0.0
 40
0.0
 40
0.0
 40
0.0833958054
 40
0.1645938597
 40
0.2428680901
 40
0.3175943504
 40
0.3882859692
 40
0.454635589
 40
0.5165608866
 40
0.5742567949
 40
0.6282474443
 40
0.679417103
 40
0.728981333
 40
0.7783739582
 40
0.8290550186
 40
0.8822977508
 40
0.9390889345
 40
1.0
 40
1.0
 40
1.0
 40
1.0
 10
35.287795793
 20
20.9140674545
 30
0.0
 10
35.2266534289
 20
20.9958917461
 30
0.0
 10
35.1000969013
 20
21.1530963946
 30
0.0
 10
34.8963267874
 20
21.3702106569
 30
0.0
 10
34.683524107
 20
21.5630691714
 30
0.0
 10
34.4648491062
 20
21.7287796553
 30
0.0
 10
34.2435046948
 20
21.8648708233
 30
0.0
 10
34.0227027278
 20
21.9692991688
 30
0.0
 10
33.8055967416
 20
22.0404366453
 30
0.0
 10
33.5952634255
 20
22.0770363419
 30
0.0
 10
33.3947462229
 20
22.0781973308
 30
0.0
 10
33.2071799382
 20
22.0434227164
 30
0.0
 10
33.0358781262
 20
21.9728427748
 30
0.0
 10
32.8841428468
 20
21.867544606
 30
0.0
 10
32.7547785867
 20
21.7296495305
 30
0.0
 10
32.6496895757
 20
21.5618949625
 30
0.0
 10
32.5701990482
 20
21.3672581602
 30
0.0
 10
32.5360030029
 20
21.226653827
 30
0.0
 10
32.5229283538
 20
21.1532032262
 30
0.0
  0
SPLINE
  5
34C
100
AcDbEntity
  8
0
100
AcDbSpline
 62
7
  6
BYLAYER
 70
0
 71
3
 72
14
 73
10
 74
0
 42
0.0000001
 43
0.0000001
 44
0.0000000001
 40
0.0
 40
0.0
 40
0.0
 40
0.0
 40
0.1220682364
 40
0.2498748518
 40
0.5123177136
 40
0.6424005577
 40
0.7683210967
 40
0.8880897725
 40
1.0
 40
1.0
 40
1.0
 40
1.0
 10
36.4803282066
 20
18.3564492394
 30
0.0
 10
36.4653152342
 20
18.3475411496
 30
0.0
 10
36.4331504367
 20
18.3316397217
 30
0.0
 10
36.3636568318
 20
18.3080033038
 30
0.0
 10
36.2892107909
 20
18.2970118918
 30
0.0
 10
36.2149718708
 20
18.2990272714
 30
0.0
 10
36.161674439
 20
18.3070409919
 30
0.0
 10
36.1124113127
 20
18.3213235428
 30
0.0
 10
36.0821634894
 20
18.335273552
 30
0.0
 10
36.0683033578
 20
18.3432755218
 30
0.0
  0
SPLINE
  5
34D
100
AcDbEntity
  8
0
100
AcDbSpline
 62
7
  6
BYLAYER
 70
0
 71
3
 72
11
 73
7
 74
0
 42
0.0000001
 43
0.0000001
 44
0.0000000001
 40
0.0
 40
0.0
 40
0.0
 40
0.0
 40
0.2768369111
 40
0.5327480115
 40
0.7713714877
 40
1.0
 40
1.0
 40
1.0
 40
1.0
 10
32.5229283538
 20
20.3901524281
 30
0.0
 10
32.5105478408
 20
20.3973001589
 30
0.0
 10
32.4877799902
 20
20.4130579811
 30
0.0
 10
32.4599215812
 20
20.4419483304
 30
0.0
 10
32.4406761578
 20
20.4743779961
 30
0.0
 10
32.4340831691
 20
20.4979488785
 30
0.0
 10
32.4325025848
 20
20.5096488475
 30
0.0
  0
SPLINE
  5
34E
100
AcDbEntity
  8
0
100
AcDbSpline
 62
7
  6
BYLAYER
 70
0
 71
3
 72
30
 73
26
 74
0
 42
0.0000001
 43
0.0000001
 44
0.0000000001
 40
0.0
 40
0.0
 40
0.0
 40
0.0
 40
0.0713866061
 40
0.1463740719
 40
0.2235999494
 40
0.3015521652
 40
0.3786802567
 40
0.4534797767
 40
0.5245963892
 40
0.5909324112
 40
0.651775179
 40
0.6800894068
 40
0.707023699
 40
0.7326738025
 40
0.757190369
 40
0.7807828525
 40
0.8037147115
 40
0.8262926437
 40
0.8488493269
 40
0.8717192363
 40
0.8952125929
 40
0.9195976973
 40
0.9450963629
 40
0.9718728826
 40
1.0
 40
1.0
 40
1.0
 40
1.0
 10
32.5229283538
 20
20.3901524281
 30
0.0
 10
32.5426109279
 20
20.2568529441
 30
0.0
 10
32.6008088414
 20
19.9859642763
 30
0.0
 10
32.7352366286
 20
19.5851026883
 30
0.0
 10
32.9154944225
 20
19.1889849721
 30
0.0
 10
33.1362904191
 20
18.809316048
 30
0.0
 10
33.3911405801
 20
18.4572155322
 30
0.0
 10
33.6725737383
 20
18.1430174588
 30
0.0
 10
33.9724366856
 20
17.875879324
 30
0.0
 10
34.2820352652
 20
17.6636175
 30
0.0
 10
34.5473015381
 20
17.5345846591
 30
0.0
 10
34.7559304603
 20
17.4665878172
 30
0.0
 10
34.9053823625
 20
17.4339110499
 30
0.0
 10
35.0504296774
 20
17.4185945172
 30
0.0
 10
35.1900079018
 20
17.42085295
 30
0.0
 10
35.323043233
 20
17.4407349261
 30
0.0
 10
35.4484662799
 20
17.4781814925
 30
0.0
 10
35.5652231167
 20
17.5329436321
 30
0.0
 10
35.672318698
 20
17.6045820381
 30
0.0
 10
35.7688435885
 20
17.6924859156
 30
0.0
 10
35.8540626709
 20
17.7958526893
 30
0.0
 10
35.9273462289
 20
17.9138243933
 30
0.0
 10
35.9882271615
 20
18.0454599583
 30
0.0
 10
36.0362603327
 20
18.1897091321
 30
0.0
 10
36.0589991085
 20
18.2910062262
 30
0.0
 10
36.0683033578
 20
18.3432755218
 30
0.0
  0
SPLINE
  5
34F
100
AcDbEntity
  8
0
100
AcDbSpline
 62
7
  6
BYLAYER
 70
0
 71
3
 72
11
 73
7
 74
0
 42
0.0000001
 43
0.0000001
 44
0.0000000001
 40
0.0
 40
0.0
 40
0.0
 40
0.0
 40
0.224741394
 40
0.4669079273
 40
0.7258854373
 40
1.0
 40
1.0
 40
1.0
 40
1.0
 10
34.6260255574
 20
18.1714858953
 30
0.0
 10
34.5702182718
 20
18.1859667623
 30
0.0
 10
34.4566110787
 20
18.2254778021
 30
0.0
 10
34.2900021999
 20
18.3096359986
 30
0.0
 10
34.1236884528
 20
18.4194025535
 30
0.0
 10
34.0176008589
 20
18.5060980705
 30
0.0
 10
33.9652061541
 20
18.5530015247
 30
0.0
  0
SPLINE
  5
350
100
AcDbEntity
  8
0
100
AcDbSpline
 62
7
  6
BYLAYER
 70
0
 71
3
 72
15
 73
11
 74
0
 42
0.0000001
 43
0.0000001
 44
0.0000000001
 40
0.0
 40
0.0
 40
0.0
 40
0.0
 40
0.1134570121
 40
0.2274027506
 40
0.3434989766
 40
0.4632521475
 40
0.587923618
 40
0.7185268773
 40
0.8557923041
 40
1.0
 40
1.0
 40
1.0
 40
1.0
 10
35.8228852838
 20
17.3465942829
 30
0.0
 10
35.8664139165
 20
17.3658569448
 30
0.0
 10
35.9509145123
 20
17.4110625671
 30
0.0
 10
36.0667031024
 20
17.4977248079
 30
0.0
 10
36.1703637575
 20
17.6023327256
 30
0.0
 10
36.2610627536
 20
17.7239503928
 30
0.0
 10
36.3381814855
 20
17.8615610954
 30
0.0
 10
36.4012174792
 20
18.0140925495
 30
0.0
 10
36.4497241265
 20
18.1803362833
 30
0.0
 10
36.4716757336
 20
18.2965695047
 30
0.0
 10
36.4803282066
 20
18.3564492394
 30
0.0
  0
SPLINE
  5
351
100
AcDbEntity
  8
0
100
AcDbSpline
 62
7
  6
BYLAYER
 70
0
 71
3
 72
11
 73
7
 74
0
 42
0.0000001
 43
0.0000001
 44
0.0000000001
 40
0.0
 40
0.0
 40
0.0
 40
0.0
 40
0.2624376727
 40
0.5238205906
 40
0.7724227889
 40
1.0
 40
1.0
 40
1.0
 40
1.0
 10
34.1867417929
 20
19.0276915267
 30
0.0
 10
34.1526353653
 20
18.9954480969
 30
0.0
 10
34.0909382434
 20
18.9240480773
 30
0.0
 10
34.0210008151
 20
18.8040422987
 30
0.0
 10
33.9766073636
 20
18.6790127858
 30
0.0
 10
33.9652061541
 20
18.5937019287
 30
0.0
 10
33.9652061541
 20
18.5530015247
 30
0.0
  0
SPLINE
  5
352
100
AcDbEntity
  8
0
100
AcDbSpline
 62
7
  6
BYLAYER
 70
0
 71
3
 72
11
 73
7
 74
0
 42
0.0000001
 43
0.0000001
 44
0.0000000001
 40
0.0
 40
0.0
 40
0.0
 40
0.0
 40
0.2292808942
 40
0.4731434359
 40
0.7306590007
 40
1.0
 40
1.0
 40
1.0
 40
1.0
 10
34.6279034156
 20
18.723665969
 30
0.0
 10
34.589749758
 20
18.739196937
 30
0.0
 10
34.5129816767
 20
18.7762179955
 30
0.0
 10
34.4013071326
 20
18.8456112721
 30
0.0
 10
34.2910055682
 20
18.9296289472
 30
0.0
 10
34.2208121209
 20
18.9933195044
 30
0.0
 10
34.1862679327
 20
19.0272073354
 30
0.0
  0
SPLINE
  5
353
100
AcDbEntity
  8
0
100
AcDbSpline
 62
7
  6
BYLAYER
 70
0
 71
3
 72
9
 73
5
 74
0
 42
0.0000001
 43
0.0000001
 44
0.0000000001
 40
0.0
 40
0.0
 40
0.0
 40
0.0
 40
0.244508695
 40
1.0
 40
1.0
 40
1.0
 40
1.0
 10
36.9468395953
 20
18.9115985449
 30
0.0
 10
36.9468395953
 20
18.9365481315
 30
0.0
 10
36.9454423368
 20
19.0385851338
 30
0.0
 10
36.9385980894
 20
19.140530212
 30
0.0
 10
36.9307168884
 20
19.2172163754
 30
0.0
  0
SPLINE
  5
354
100
AcDbEntity
  8
0
100
AcDbSpline
 62
7
  6
BYLAYER
 70
0
 71
3
 72
9
 73
5
 74
0
 42
0.0000001
 43
0.0000001
 44
0.0000000001
 40
0.0
 40
0.0
 40
0.0
 40
0.0
 40
0.243812191
 40
1.0
 40
1.0
 40
1.0
 40
1.0
 10
36.9307168884
 20
18.6245971916
 30
0.0
 10
36.9334236167
 20
18.6478089818
 30
0.0
 10
36.9430352832
 20
18.7431833127
 30
0.0
 10
36.9468395953
 20
18.8391189524
 30
0.0
 10
36.9468395953
 20
18.9115985449
 30
0.0
  0
SPLINE
  5
355
100
AcDbEntity
  8
0
100
AcDbSpline
 62
7
  6
BYLAYER
 70
0
 71
3
 72
13
 73
9
 74
0
 42
0.0000001
 43
0.0000001
 44
0.0000000001
 40
0.0
 40
0.0
 40
0.0
 40
0.0
 40
0.0833966257
 40
0.180010775
 40
0.2897795548
 40
0.4116946707
 40
0.6876661248
 40
1.0
 40
1.0
 40
1.0
 40
1.0
 10
10.1121401988
 20
68.8187882656
 30
0.0
 10
10.1270624538
 20
68.8161587036
 30
0.0
 10
10.1589997735
 20
68.808878455
 30
0.0
 10
10.2092201838
 20
68.7928963222
 30
0.0
 10
10.2645513214
 20
68.7704684122
 30
0.0
 10
10.3474380083
 20
68.7298563716
 30
0.0
 10
10.4572612151
 20
68.6614460869
 30
0.0
 10
10.5413441073
 20
68.5951076986
 30
0.0
 10
10.5841812398
 20
68.5578888834
 30
0.0
  0
SPLINE
  5
356
100
AcDbEntity
  8
0
100
AcDbSpline
 62
7
  6
BYLAYER
 70
0
 71
3
 72
13
 73
9
 74
0
 42
0.0000001
 43
0.0000001
 44
0.0000000001
 40
0.0
 40
0.0
 40
0.0
 40
0.0
 40
0.1008972407
 40
0.2043534084
 40
0.4296786886
 40
0.5563889218
 40
0.6936950892
 40
1.0
 40
1.0
 40
1.0
 40
1.0
 10
8.3905548489
 20
69.0488546224
 30
0.0
 10
8.3896819853
 20
69.0432613248
 30
0.0
 10
8.3891459564
 20
69.0317008398
 30
0.0
 10
8.3932122816
 20
69.0077806601
 30
0.0
 10
8.4050659381
 20
68.9844575092
 30
0.0
 10
8.422414117
 20
68.963140327
 30
0.0
 10
8.4455898166
 20
68.9409646553
 30
0.0
 10
8.4663143534
 20
68.9268318998
 30
0.0
 10
8.4811976988
 20
68.9182391908
 30
0.0
  0
SPLINE
  5
357
100
AcDbEntity
  8
0
100
AcDbSpline
 62
7
  6
BYLAYER
 70
0
 71
3
 72
12
 73
8
 74
0
 42
0.0000001
 43
0.0000001
 44
0.0000000001
 40
0.0
 40
0.0
 40
0.0
 40
0.0
 40
0.2643459432
 40
0.5172842365
 40
0.7614633273
 40
0.8812700571
 40
1.0
 40
1.0
 40
1.0
 40
1.0
 10
8.3905520843
 20
69.0488547179
 30
0.0
 10
8.4046829109
 20
69.1393544351
 30
0.0
 10
8.4437155357
 20
69.3149977844
 30
0.0
 10
8.5391914729
 20
69.5621015779
 30
0.0
 10
8.6500398481
 20
69.7464405668
 30
0.0
 10
8.7561659596
 20
69.8760101489
 30
0.0
 10
8.8148262369
 20
69.9344892088
 30
0.0
 10
8.8454321955
 20
69.9619807354
 30
0.0
  0
SPLINE
  5
358
100
AcDbEntity
  8
0
100
AcDbSpline
 62
7
  6
BYLAYER
 70
0
 71
3
 72
11
 73
7
 74
0
 42
0.0000001
 43
0.0000001
 44
0.0000000001
 40
0.0
 40
0.0
 40
0.0
 40
0.0
 40
0.2274223862
 40
0.4648420059
 40
0.7209150938
 40
1.0
 40
1.0
 40
1.0
 40
1.0
 10
8.3907719298
 20
68.274684812
 30
0.0
 10
8.3890840526
 20
68.2871789952
 30
0.0
 10
8.3894649838
 20
68.3133799514
 30
0.0
 10
8.4014386506
 20
68.3519982879
 30
0.0
 10
8.4241093893
 20
68.3887814812
 30
0.0
 10
8.4448155981
 20
68.410333067
 30
0.0
 10
8.4564582562
 20
68.4205223869
 30
0.0
  0
SPLINE
  5
359
100
AcDbEntity
  8
0
100
AcDbSpline
 62
7
  6
BYLAYER
 70
0
 71
3
 72
24
 73
20
 74
0
 42
0.0000001
 43
0.0000001
 44
0.0000000001
 40
0.0
 40
0.0
 40
0.0
 40
0.0
 40
0.024583776
 40
0.049266646
 40
0.0993906149
 40
0.1511646914
 40
0.2051978329
 40
0.2619698187
 40
0.321714048
 40
0.3844188477
 40
0.4498418778
 40
0.5175529964
 40
0.5869784942
 40
0.6574437122
 40
0.728215043
 40
0.7985452925
 40
0.8677009657
 40
0.9350417762
 40
1.0
 40
1.0
 40
1.0
 40
1.0
 10
11.7811567598
 20
65.1116262312
 30
0.0
 10
11.7422695848
 20
65.0944163855
 30
0.0
 10
11.6623641811
 20
65.0642004594
 30
0.0
 10
11.4957015777
 20
65.0209112965
 30
0.0
 10
11.2761809446
 20
64.9995201778
 30
0.0
 10
11.0062229613
 20
65.0240322893
 30
0.0
 10
10.7330063758
 20
65.0951998661
 30
0.0
 10
10.4601150877
 20
65.2095130662
 30
0.0
 10
10.1904765931
 20
65.3638905408
 30
0.0
 10
9.9271151924
 20
65.5552594131
 30
0.0
 10
9.673291603
 20
65.7803417233
 30
0.0
 10
9.4324742514
 20
66.0354479903
 30
0.0
 10
9.2082084563
 20
66.3164239718
 30
0.0
 10
9.0039771662
 20
66.618668992
 30
0.0
 10
8.8230545144
 20
66.9372133092
 30
0.0
 10
8.6684312195
 20
67.2668250397
 30
0.0
 10
8.5426552442
 20
67.6021906815
 30
0.0
 10
8.4479510392
 20
67.9379764724
 30
0.0
 10
8.4058203978
 20
68.1633313009
 30
0.0
 10
8.3907722554
 20
68.2746842818
 30
0.0
  0
SPLINE
  5
35A
100
AcDbEntity
  8
0
100
AcDbSpline
 62
7
  6
BYLAYER
 70
0
 71
3
 72
26
 73
22
 74
0
 42
0.0000001
 43
0.0000001
 44
0.0000000001
 40
0.0
 40
0.0
 40
0.0
 40
0.0
 40
0.0214904224
 40
0.0430250439
 40
0.0648445917
 40
0.0871749921
 40
0.1102148028
 40
0.1341311197
 40
0.1850189862
 40
0.2405186511
 40
0.3007322427
 40
0.3653581762
 40
0.4337889863
 40
0.5051933103
 40
0.5785841856
 40
0.6528785462
 40
0.7269504679
 40
0.7996841583
 40
0.8700287747
 40
0.9370527978
 40
1.0
 40
1.0
 40
1.0
 40
1.0
 10
10.0781775274
 20
70.8692851393
 30
0.0
 10
10.1134282145
 20
70.8950179718
 30
0.0
 10
10.1874432512
 20
70.9420117725
 30
0.0
 10
10.3072477428
 20
70.9975407488
 30
0.0
 10
10.4348416332
 20
71.0376882993
 30
0.0
 10
10.5694165071
 20
71.0621796962
 30
0.0
 10
10.7101622181
 20
71.0709726507
 30
0.0
 10
10.9089846558
 20
71.0615112059
 30
0.0
 10
11.1699019711
 20
71.007994345
 30
0.0
 10
11.4862841307
 20
70.8845231277
 30
0.0
 10
11.8060281518
 20
70.7037295684
 30
0.0
 10
12.1222281767
 20
70.469755391
 30
0.0
 10
12.4280607271
 20
70.1878266028
 30
0.0
 10
12.7167638143
 20
69.8642254109
 30
0.0
 10
12.9819068118
 20
69.506184798
 30
0.0
 10
13.2175472438
 20
69.1217307291
 30
0.0
 10
13.418397746
 20
68.7194937678
 30
0.0
 10
13.5799462113
 20
68.3085052456
 30
0.0
 10
13.698581313
 20
67.8979319658
 30
0.0
 10
13.7716255852
 20
67.4970126366
 30
0.0
 10
13.7894220507
 20
67.2328779168
 30
0.0
 10
13.7894220507
 20
67.1050413827
 30
0.0
  0
SPLINE
  5
35B
100
AcDbEntity
  8
0
100
AcDbSpline
 62
7
  6
BYLAYER
 70
0
 71
3
 72
17
 73
13
 74
0
 42
0.0000001
 43
0.0000001
 44
0.0000000001
 40
0.0
 40
0.0
 40
0.0
 40
0.0
 40
0.1497625196
 40
0.2911791672
 40
0.4242330089
 40
0.4878210692
 40
0.5495676408
 40
0.6680276507
 40
0.7811920325
 40
0.8910418291
 40
0.9454951844
 40
1.0
 40
1.0
 40
1.0
 40
1.0
 10
13.7894220507
 20
67.1050413827
 30
0.0
 10
13.7894220507
 20
67.020933758
 30
0.0
 10
13.7821350585
 20
66.8572674183
 30
0.0
 10
13.7473195439
 20
66.6211405462
 30
0.0
 10
13.6980994794
 20
66.4372240419
 30
0.0
 10
13.6468474536
 20
66.3013509315
 30
0.0
 10
13.5897636751
 20
66.1768063156
 30
0.0
 10
13.5049222297
 20
66.0347450685
 30
0.0
 10
13.3805853636
 20
65.8875685377
 30
0.0
 10
13.2598934169
 20
65.787523196
 30
0.0
 10
13.1552731861
 20
65.7228008819
 30
0.0
 10
13.1004037049
 20
65.6954753512
 30
0.0
 10
13.0724117438
 20
65.6830883216
 30
0.0
  0
SPLINE
  5
35C
100
AcDbEntity
  8
0
100
AcDbSpline
 62
7
  6
BYLAYER
 70
0
 71
3
 72
15
 73
11
 74
0
 42
0.0000001
 43
0.0000001
 44
0.0000000001
 40
0.0
 40
0.0
 40
0.0
 40
0.0
 40
0.1141529757
 40
0.2374165582
 40
0.3669602423
 40
0.49981905
 40
0.6327436396
 40
0.7624461571
 40
0.8858513706
 40
1.0
 40
1.0
 40
1.0
 40
1.0
 10
12.0265727028
 20
66.8713622844
 30
0.0
 10
12.0405615212
 20
66.863286019
 30
0.0
 10
12.0708784183
 20
66.8485684539
 30
0.0
 10
12.1199300644
 20
66.8312710221
 30
0.0
 10
12.1730303777
 20
66.81831667
 30
0.0
 10
12.2284422079
 20
66.8101130279
 30
0.0
 10
12.2843914552
 20
66.8069472209
 30
0.0
 10
12.3390664639
 20
66.8089344219
 30
0.0
 10
12.3906337921
 20
66.8160536444
 30
0.0
 10
12.4232925746
 20
66.8244638366
 30
0.0
 10
12.4385975516
 20
66.829626289
 30
0.0
  0
SPLINE
  5
35D
100
AcDbEntity
  8
0
100
AcDbSpline
 62
7
  6
BYLAYER
 70
0
 71
3
 72
15
 73
11
 74
0
 42
0.0000001
 43
0.0000001
 44
0.0000000001
 40
0.0
 40
0.0
 40
0.0
 40
0.0
 40
0.1430512057
 40
0.2785311624
 40
0.4067319819
 40
0.5288497047
 40
0.6466974562
 40
0.7626229563
 40
0.8794366906
 40
1.0
 40
1.0
 40
1.0
 40
1.0
 10
9.9234754991
 20
69.0900288172
 30
0.0
 10
9.9234754991
 20
69.0728247064
 30
0.0
 10
9.9253957591
 20
69.0392823918
 30
0.0
 10
9.9345683647
 20
68.9910788097
 30
0.0
 10
9.9499684446
 20
68.9471046163
 30
0.0
 10
9.9714856247
 20
68.9081429288
 30
0.0
 10
9.9989267175
 20
68.8749449503
 30
0.0
 10
10.0319850405
 20
68.848292649
 30
0.0
 10
10.0701133072
 20
68.8288836066
 30
0.0
 10
10.0978643378
 20
68.8213133417
 30
0.0
 10
10.1121436769
 20
68.8187956587
 30
0.0
  0
SPLINE
  5
35E
100
AcDbEntity
  8
0
100
AcDbSpline
 62
7
  6
BYLAYER
 70
0
 71
3
 72
9
 73
5
 74
0
 42
0.0000001
 43
0.0000001
 44
0.0000000001
 40
0.0
 40
0.0
 40
0.0
 40
0.0
 40
0.5147636976
 40
1.0
 40
1.0
 40
1.0
 40
1.0
 10
10.1733765218
 20
67.9574556853
 30
0.0
 10
10.1604576376
 20
68.0045346693
 30
0.0
 10
10.1398140512
 20
68.0972915425
 30
0.0
 10
10.1295558309
 20
68.1918345093
 30
0.0
 10
10.1275950461
 20
68.2378117315
 30
0.0
  0
SPLINE
  5
35F
100
AcDbEntity
  8
0
100
AcDbSpline
 62
7
  6
BYLAYER
 70
0
 71
3
 72
26
 73
22
 74
0
 42
0.0000001
 43
0.0000001
 44
0.0000000001
 40
0.0
 40
0.0
 40
0.0
 40
0.0
 40
0.0669815213
 40
0.1371260318
 40
0.2096129934
 40
0.2835381962
 40
0.357926202
 40
0.4317875953
 40
0.5041526516
 40
0.574114499
 40
0.640872254
 40
0.7037801511
 40
0.7624046842
 40
0.8165929504
 40
0.8665515613
 40
0.8901578076
 40
0.9129881807
 40
0.9351978736
 40
0.9569671174
 40
0.9784971236
 40
1.0
 40
1.0
 40
1.0
 40
1.0
 10
12.4385975516
 20
66.829626289
 30
0.0
 10
12.4237314436
 20
66.9496732116
 30
0.0
 10
12.3798814255
 20
67.1939089074
 30
0.0
 10
12.27771272
 20
67.5589153171
 30
0.0
 10
12.1393893558
 20
67.9252441357
 30
0.0
 10
11.9676736589
 20
68.2856221653
 30
0.0
 10
11.7659330439
 20
68.6329600599
 30
0.0
 10
11.538161228
 20
68.9603954576
 30
0.0
 10
11.2888458173
 20
69.2614691676
 30
0.0
 10
11.0228916527
 20
69.5302527713
 30
0.0
 10
10.7454930129
 20
69.7614669663
 30
0.0
 10
10.4620232335
 20
69.9505776401
 30
0.0
 10
10.1778423623
 20
70.0938462631
 30
0.0
 10
9.8983449395
 20
70.1883375571
 30
0.0
 10
9.6691590879
 20
70.2252041076
 30
0.0
 10
9.4948102088
 20
70.2269550667
 30
0.0
 10
9.3711550012
 20
70.21512968
 30
0.0
 10
9.2528255745
 20
70.1902471845
 30
0.0
 10
9.1404488172
 20
70.1523592954
 30
0.0
 10
9.0346415145
 20
70.1017051206
 30
0.0
 10
8.9690115079
 20
70.0596557397
 30
0.0
 10
8.9376467164
 20
70.0367597437
 30
0.0
  0
LINE
  5
360
100
AcDbEntity
  8
0
100
AcDbLine
 62
7
  6
BYLAYER
 10
10.1733718522
 20
67.9574583813
 11
10.5842805463
 21
68.0795291332
  0
SPLINE
  5
361
100
AcDbEntity
  8
0
100
AcDbSpline
 62
7
  6
BYLAYER
 70
0
 71
3
 72
9
 73
5
 74
0
 42
0.0000001
 43
0.0000001
 44
0.0000000001
 40
0.0
 40
0.0
 40
0.0
 40
0.0
 40
0.5000531523
 40
1.0
 40
1.0
 40
1.0
 40
1.0
 10
10.9094954983
 20
67.5162734481
 30
0.0
 10
10.7821971409
 20
67.3955331959
 30
0.0
 10
10.527469051
 20
67.1542453473
 30
0.0
 10
10.2724798499
 20
66.9132335948
 30
0.0
 10
10.1450111379
 20
66.7927274912
 30
0.0
  0
SPLINE
  5
362
100
AcDbEntity
  8
0
100
AcDbSpline
 62
7
  6
BYLAYER
 70
0
 71
3
 72
11
 73
7
 74
0
 42
0.0000001
 43
0.0000001
 44
0.0000000001
 40
0.0
 40
0.0
 40
0.0
 40
0.0
 40
0.224741394
 40
0.4669079273
 40
0.7258854373
 40
1.0
 40
1.0
 40
1.0
 40
1.0
 10
9.9234754991
 20
69.0900288172
 30
0.0
 10
9.9792827848
 20
69.0755479502
 30
0.0
 10
10.0928899779
 20
69.0360369104
 30
0.0
 10
10.2594988566
 20
68.9518787139
 30
0.0
 10
10.4258126038
 20
68.842112159
 30
0.0
 10
10.5319001977
 20
68.755416642
 30
0.0
 10
10.5842949024
 20
68.7085131878
 30
0.0
  0
SPLINE
  5
363
100
AcDbEntity
  8
0
100
AcDbSpline
 62
7
  6
BYLAYER
 70
0
 71
3
 72
12
 73
8
 74
0
 42
0.0000001
 43
0.0000001
 44
0.0000000001
 40
0.0
 40
0.0
 40
0.0
 40
0.0
 40
0.1164950632
 40
0.2369976264
 40
0.4868420032
 40
0.7434521484
 40
1.0
 40
1.0
 40
1.0
 40
1.0
 10
12.0265727028
 20
66.8713622844
 30
0.0
 10
12.015299754
 20
66.9477079012
 30
0.0
 10
11.9865273683
 20
67.1022151849
 30
0.0
 10
11.9059635224
 20
67.4147005525
 30
0.0
 10
11.7632970394
 20
67.8060198634
 30
0.0
 10
11.5351773598
 20
68.2582145176
 30
0.0
 10
11.3477961866
 20
68.5429609735
 30
0.0
 10
11.246065138
 20
68.6791034191
 30
0.0
  0
SPLINE
  5
364
100
AcDbEntity
  8
0
100
AcDbSpline
 62
7
  6
BYLAYER
 70
0
 71
3
 72
23
 73
19
 74
0
 42
0.0000001
 43
0.0000001
 44
0.0000000001
 40
0.0
 40
0.0
 40
0.0
 40
0.0
 40
0.0833958054
 40
0.1645938597
 40
0.2428680901
 40
0.3175943504
 40
0.3882859692
 40
0.454635589
 40
0.5165608866
 40
0.5742567949
 40
0.6282474443
 40
0.679417103
 40
0.728981333
 40
0.7783739582
 40
0.8290550186
 40
0.8822977508
 40
0.9390889345
 40
1.0
 40
1.0
 40
1.0
 40
1.0
 10
11.246065138
 20
68.6791034191
 30
0.0
 10
11.1849227739
 20
68.7609277106
 30
0.0
 10
11.0583662463
 20
68.9181323591
 30
0.0
 10
10.8545961324
 20
69.1352466215
 30
0.0
 10
10.641793452
 20
69.328105136
 30
0.0
 10
10.4231184512
 20
69.4938156198
 30
0.0
 10
10.2017740398
 20
69.6299067879
 30
0.0
 10
9.9809720728
 20
69.7343351334
 30
0.0
 10
9.7638660866
 20
69.8054726099
 30
0.0
 10
9.5535327705
 20
69.8420723065
 30
0.0
 10
9.3530155679
 20
69.8432332954
 30
0.0
 10
9.1654492832
 20
69.808458681
 30
0.0
 10
8.9941474712
 20
69.7378787393
 30
0.0
 10
8.8424121918
 20
69.6325805706
 30
0.0
 10
8.7130479317
 20
69.494685495
 30
0.0
 10
8.6079589207
 20
69.3269309271
 30
0.0
 10
8.5284683932
 20
69.1322941248
 30
0.0
 10
8.4942723479
 20
68.9916897916
 30
0.0
 10
8.4811976988
 20
68.9182391908
 30
0.0
  0
SPLINE
  5
365
100
AcDbEntity
  8
0
100
AcDbSpline
 62
7
  6
BYLAYER
 70
0
 71
3
 72
14
 73
10
 74
0
 42
0.0000001
 43
0.0000001
 44
0.0000000001
 40
0.0
 40
0.0
 40
0.0
 40
0.0
 40
0.1220682364
 40
0.2498748518
 40
0.5123177136
 40
0.6424005577
 40
0.7683210967
 40
0.8880897725
 40
1.0
 40
1.0
 40
1.0
 40
1.0
 10
12.4385975516
 20
66.121485204
 30
0.0
 10
12.4235845792
 20
66.1125771141
 30
0.0
 10
12.3914197817
 20
66.0966756863
 30
0.0
 10
12.3219261768
 20
66.0730392683
 30
0.0
 10
12.2474801359
 20
66.0620478564
 30
0.0
 10
12.1732412158
 20
66.064063236
 30
0.0
 10
12.119943784
 20
66.0720769564
 30
0.0
 10
12.0706806577
 20
66.0863595074
 30
0.0
 10
12.0404328344
 20
66.1003095166
 30
0.0
 10
12.0265727028
 20
66.1083114863
 30
0.0
  0
SPLINE
  5
366
100
AcDbEntity
  8
0
100
AcDbSpline
 62
7
  6
BYLAYER
 70
0
 71
3
 72
11
 73
7
 74
0
 42
0.0000001
 43
0.0000001
 44
0.0000000001
 40
0.0
 40
0.0
 40
0.0
 40
0.0
 40
0.2768369111
 40
0.5327480115
 40
0.7713714877
 40
1.0
 40
1.0
 40
1.0
 40
1.0
 10
8.4811976988
 20
68.1551883927
 30
0.0
 10
8.4688171858
 20
68.1623361235
 30
0.0
 10
8.4460493352
 20
68.1780939456
 30
0.0
 10
8.4181909262
 20
68.206984295
 30
0.0
 10
8.3989455028
 20
68.2394139607
 30
0.0
 10
8.3923525141
 20
68.262984843
 30
0.0
 10
8.3907719298
 20
68.274684812
 30
0.0
  0
SPLINE
  5
367
100
AcDbEntity
  8
0
100
AcDbSpline
 62
7
  6
BYLAYER
 70
0
 71
3
 72
30
 73
26
 74
0
 42
0.0000001
 43
0.0000001
 44
0.0000000001
 40
0.0
 40
0.0
 40
0.0
 40
0.0
 40
0.0713866061
 40
0.1463740719
 40
0.2235999494
 40
0.3015521652
 40
0.3786802567
 40
0.4534797767
 40
0.5245963892
 40
0.5909324112
 40
0.651775179
 40
0.6800894068
 40
0.707023699
 40
0.7326738025
 40
0.757190369
 40
0.7807828525
 40
0.8037147115
 40
0.8262926437
 40
0.8488493269
 40
0.8717192363
 40
0.8952125929
 40
0.9195976973
 40
0.9450963629
 40
0.9718728826
 40
1.0
 40
1.0
 40
1.0
 40
1.0
 10
8.4811976988
 20
68.1551883927
 30
0.0
 10
8.5008802729
 20
68.0218889087
 30
0.0
 10
8.5590781864
 20
67.7510002409
 30
0.0
 10
8.6935059736
 20
67.3501386529
 30
0.0
 10
8.8737637675
 20
66.9540209367
 30
0.0
 10
9.0945597641
 20
66.5743520125
 30
0.0
 10
9.3494099251
 20
66.2222514968
 30
0.0
 10
9.6308430833
 20
65.9080534234
 30
0.0
 10
9.9307060306
 20
65.6409152886
 30
0.0
 10
10.2403046102
 20
65.4286534646
 30
0.0
 10
10.5055708831
 20
65.2996206236
 30
0.0
 10
10.7141998053
 20
65.2316237818
 30
0.0
 10
10.8636517075
 20
65.1989470145
 30
0.0
 10
11.0086990224
 20
65.1836304818
 30
0.0
 10
11.1482772468
 20
65.1858889145
 30
0.0
 10
11.281312578
 20
65.2057708907
 30
0.0
 10
11.4067356249
 20
65.2432174571
 30
0.0
 10
11.5234924617
 20
65.2979795967
 30
0.0
 10
11.630588043
 20
65.3696180027
 30
0.0
 10
11.7271129335
 20
65.4575218802
 30
0.0
 10
11.8123320159
 20
65.5608886539
 30
0.0
 10
11.8856155739
 20
65.6788603579
 30
0.0
 10
11.9464965065
 20
65.8104959229
 30
0.0
 10
11.9945296777
 20
65.9547450967
 30
0.0
 10
12.0172684535
 20
66.0560421907
 30
0.0
 10
12.0265727028
 20
66.1083114863
 30
0.0
  0
SPLINE
  5
368
100
AcDbEntity
  8
0
100
AcDbSpline
 62
7
  6
BYLAYER
 70
0
 71
3
 72
11
 73
7
 74
0
 42
0.0000001
 43
0.0000001
 44
0.0000000001
 40
0.0
 40
0.0
 40
0.0
 40
0.0
 40
0.224741394
 40
0.4669079273
 40
0.7258854373
 40
1.0
 40
1.0
 40
1.0
 40
1.0
 10
10.5842949024
 20
65.9365218599
 30
0.0
 10
10.5284876168
 20
65.9510027269
 30
0.0
 10
10.4148804237
 20
65.9905137667
 30
0.0
 10
10.2482715449
 20
66.0746719632
 30
0.0
 10
10.0819577978
 20
66.1844385181
 30
0.0
 10
9.9758702039
 20
66.2711340351
 30
0.0
 10
9.9234754991
 20
66.3180374893
 30
0.0
  0
SPLINE
  5
369
100
AcDbEntity
  8
0
100
AcDbSpline
 62
7
  6
BYLAYER
 70
0
 71
3
 72
15
 73
11
 74
0
 42
0.0000001
 43
0.0000001
 44
0.0000000001
 40
0.0
 40
0.0
 40
0.0
 40
0.0
 40
0.1134570121
 40
0.2274027506
 40
0.3434989766
 40
0.4632521475
 40
0.587923618
 40
0.7185268773
 40
0.8557923041
 40
1.0
 40
1.0
 40
1.0
 40
1.0
 10
11.7811546288
 20
65.1116302475
 30
0.0
 10
11.8246832615
 20
65.1308929094
 30
0.0
 10
11.9091838573
 20
65.1760985317
 30
0.0
 10
12.0249724474
 20
65.2627607725
 30
0.0
 10
12.1286331025
 20
65.3673686902
 30
0.0
 10
12.2193320986
 20
65.4889863574
 30
0.0
 10
12.2964508305
 20
65.62659706
 30
0.0
 10
12.3594868242
 20
65.7791285141
 30
0.0
 10
12.4079934715
 20
65.9453722479
 30
0.0
 10
12.4299450786
 20
66.0616054693
 30
0.0
 10
12.4385975516
 20
66.121485204
 30
0.0
  0
SPLINE
  5
36A
100
AcDbEntity
  8
0
100
AcDbSpline
 62
7
  6
BYLAYER
 70
0
 71
3
 72
11
 73
7
 74
0
 42
0.0000001
 43
0.0000001
 44
0.0000000001
 40
0.0
 40
0.0
 40
0.0
 40
0.0
 40
0.2624376727
 40
0.5238205906
 40
0.7724227889
 40
1.0
 40
1.0
 40
1.0
 40
1.0
 10
10.1450111379
 20
66.7927274912
 30
0.0
 10
10.1109047102
 20
66.7604840614
 30
0.0
 10
10.0492075884
 20
66.6890840418
 30
0.0
 10
9.9792701601
 20
66.5690782632
 30
0.0
 10
9.9348767086
 20
66.4440487504
 30
0.0
 10
9.9234754991
 20
66.3587378932
 30
0.0
 10
9.9234754991
 20
66.3180374893
 30
0.0
  0
SPLINE
  5
36B
100
AcDbEntity
  8
0
100
AcDbSpline
 62
7
  6
BYLAYER
 70
0
 71
3
 72
11
 73
7
 74
0
 42
0.0000001
 43
0.0000001
 44
0.0000000001
 40
0.0
 40
0.0
 40
0.0
 40
0.0
 40
0.2292808942
 40
0.4731434359
 40
0.7306590007
 40
1.0
 40
1.0
 40
1.0
 40
1.0
 10
10.5861727606
 20
66.4887019336
 30
0.0
 10
10.548019103
 20
66.5042329016
 30
0.0
 10
10.4712510218
 20
66.5412539601
 30
0.0
 10
10.3595764776
 20
66.6106472367
 30
0.0
 10
10.2492749132
 20
66.6946649118
 30
0.0
 10
10.1790814659
 20
66.758355469
 30
0.0
 10
10.1445372777
 20
66.7922432999
 30
0.0
  0
SPLINE
  5
36C
100
AcDbEntity
  8
0
100
AcDbSpline
 62
7
  6
BYLAYER
 70
0
 71
3
 72
9
 73
5
 74
0
 42
0.0000001
 43
0.0000001
 44
0.0000000001
 40
0.0
 40
0.0
 40
0.0
 40
0.0
 40
0.244508695
 40
1.0
 40
1.0
 40
1.0
 40
1.0
 10
12.9051089403
 20
66.6766345095
 30
0.0
 10
12.9051089403
 20
66.7015840961
 30
0.0
 10
12.9037116819
 20
66.8036210984
 30
0.0
 10
12.8968674344
 20
66.9055661766
 30
0.0
 10
12.8889862334
 20
66.98225234
 30
0.0
  0
SPLINE
  5
36D
100
AcDbEntity
  8
0
100
AcDbSpline
 62
7
  6
BYLAYER
 70
0
 71
3
 72
9
 73
5
 74
0
 42
0.0000001
 43
0.0000001
 44
0.0000000001
 40
0.0
 40
0.0
 40
0.0
 40
0.0
 40
0.243812191
 40
1.0
 40
1.0
 40
1.0
 40
1.0
 10
12.8889862334
 20
66.3896331562
 30
0.0
 10
12.8916929617
 20
66.4128449464
 30
0.0
 10
12.9013046282
 20
66.5082192773
 30
0.0
 10
12.9051089403
 20
66.604154917
 30
0.0
 10
12.9051089403
 20
66.6766345095
 30
0.0
  0
SPLINE
  5
36E
100
AcDbEntity
  8
0
100
AcDbSpline
 62
7
  6
BYLAYER
 70
0
 71
3
 72
13
 73
9
 74
0
 42
0.0000001
 43
0.0000001
 44
0.0000000001
 40
0.0
 40
0.0
 40
0.0
 40
0.0
 40
0.0833966257
 40
0.180010775
 40
0.2897795548
 40
0.4116946707
 40
0.6876661248
 40
1.0
 40
1.0
 40
1.0
 40
1.0
 10
41.2249681053
 20
50.8561950667
 30
0.0
 10
41.2398903602
 20
50.8535655047
 30
0.0
 10
41.27182768
 20
50.8462852561
 30
0.0
 10
41.3220480903
 20
50.8303031233
 30
0.0
 10
41.3773792279
 20
50.8078752134
 30
0.0
 10
41.4602659148
 20
50.7672631727
 30
0.0
 10
41.5700891216
 20
50.698852888
 30
0.0
 10
41.6541720138
 20
50.6325144997
 30
0.0
 10
41.6970091463
 20
50.5952956846
 30
0.0
  0
SPLINE
  5
36F
100
AcDbEntity
  8
0
100
AcDbSpline
 62
7
  6
BYLAYER
 70
0
 71
3
 72
13
 73
9
 74
0
 42
0.0000001
 43
0.0000001
 44
0.0000000001
 40
0.0
 40
0.0
 40
0.0
 40
0.0
 40
0.1008972407
 40
0.2043534084
 40
0.4296786886
 40
0.5563889218
 40
0.6936950892
 40
1.0
 40
1.0
 40
1.0
 40
1.0
 10
39.5033827554
 20
51.0862614235
 30
0.0
 10
39.5025098917
 20
51.080668126
 30
0.0
 10
39.5019738629
 20
51.0691076409
 30
0.0
 10
39.5060401881
 20
51.0451874612
 30
0.0
 10
39.5178938446
 20
51.0218643103
 30
0.0
 10
39.5352420234
 20
51.0005471281
 30
0.0
 10
39.5584177231
 20
50.9783714564
 30
0.0
 10
39.5791422599
 20
50.9642387009
 30
0.0
 10
39.5940256053
 20
50.9556459919
 30
0.0
  0
SPLINE
  5
370
100
AcDbEntity
  8
0
100
AcDbSpline
 62
7
  6
BYLAYER
 70
0
 71
3
 72
12
 73
8
 74
0
 42
0.0000001
 43
0.0000001
 44
0.0000000001
 40
0.0
 40
0.0
 40
0.0
 40
0.0
 40
0.2651942741
 40
0.5178222511
 40
0.7613461362
 40
0.8809873649
 40
1.0
 40
1.0
 40
1.0
 40
1.0
 10
39.5033799908
 20
51.086261519
 30
0.0
 10
39.519169822
 20
51.1873861945
 30
0.0
 10
39.5641807699
 20
51.3831067681
 30
0.0
 10
39.6784384776
 20
51.6555065172
 30
0.0
 10
39.8130543142
 20
51.8537825079
 30
0.0
 10
39.9421402509
 20
51.9882889865
 30
0.0
 10
40.013373089
 20
52.0470885955
 30
0.0
 10
40.0504727938
 20
52.0741694662
 30
0.0
  0
SPLINE
  5
371
100
AcDbEntity
  8
0
100
AcDbSpline
 62
7
  6
BYLAYER
 70
0
 71
3
 72
11
 73
7
 74
0
 42
0.0000001
 43
0.0000001
 44
0.0000000001
 40
0.0
 40
0.0
 40
0.0
 40
0.0
 40
0.2274223862
 40
0.4648420059
 40
0.7209150938
 40
1.0
 40
1.0
 40
1.0
 40
1.0
 10
39.5035998362
 20
50.3120916131
 30
0.0
 10
39.5019119591
 20
50.3245857963
 30
0.0
 10
39.5022928903
 20
50.3507867525
 30
0.0
 10
39.5142665571
 20
50.389405089
 30
0.0
 10
39.5369372958
 20
50.4261882823
 30
0.0
 10
39.5576435046
 20
50.4477398681
 30
0.0
 10
39.5692861627
 20
50.4579291881
 30
0.0
  0
SPLINE
  5
372
100
AcDbEntity
  8
0
100
AcDbSpline
 62
7
  6
BYLAYER
 70
0
 71
3
 72
24
 73
20
 74
0
 42
0.0000001
 43
0.0000001
 44
0.0000000001
 40
0.0
 40
0.0
 40
0.0
 40
0.0
 40
0.024583776
 40
0.049266646
 40
0.0993906149
 40
0.1511646914
 40
0.2051978329
 40
0.2619698187
 40
0.321714048
 40
0.3844188477
 40
0.4498418778
 40
0.5175529964
 40
0.5869784942
 40
0.6574437122
 40
0.728215043
 40
0.7985452925
 40
0.8677009657
 40
0.9350417762
 40
1.0
 40
1.0
 40
1.0
 40
1.0
 10
42.8939846662
 20
47.1490330323
 30
0.0
 10
42.8550974913
 20
47.1318231866
 30
0.0
 10
42.7751920876
 20
47.1016072606
 30
0.0
 10
42.6085294842
 20
47.0583180976
 30
0.0
 10
42.3890088511
 20
47.036926979
 30
0.0
 10
42.1190508677
 20
47.0614390904
 30
0.0
 10
41.8458342822
 20
47.1326066672
 30
0.0
 10
41.5729429941
 20
47.2469198673
 30
0.0
 10
41.3033044996
 20
47.4012973419
 30
0.0
 10
41.0399430989
 20
47.5926662142
 30
0.0
 10
40.7861195095
 20
47.8177485244
 30
0.0
 10
40.5453021578
 20
48.0728547914
 30
0.0
 10
40.3210363628
 20
48.3538307729
 30
0.0
 10
40.1168050727
 20
48.6560757931
 30
0.0
 10
39.9358824209
 20
48.9746201103
 30
0.0
 10
39.781259126
 20
49.3042318408
 30
0.0
 10
39.6554831506
 20
49.6395974826
 30
0.0
 10
39.5607789456
 20
49.9753832735
 30
0.0
 10
39.5186483042
 20
50.200738102
 30
0.0
 10
39.5036001619
 20
50.3120910829
 30
0.0
  0
SPLINE
  5
373
100
AcDbEntity
  8
0
100
AcDbSpline
 62
7
  6
BYLAYER
 70
0
 71
3
 72
26
 73
22
 74
0
 42
0.0000001
 43
0.0000001
 44
0.0000000001
 40
0.0
 40
0.0
 40
0.0
 40
0.0
 40
0.0214904224
 40
0.0430250439
 40
0.0648445917
 40
0.0871749921
 40
0.1102148028
 40
0.1341311197
 40
0.1850189862
 40
0.2405186511
 40
0.3007322427
 40
0.3653581762
 40
0.4337889863
 40
0.5051933103
 40
0.5785841856
 40
0.6528785462
 40
0.7269504679
 40
0.7996841583
 40
0.8700287747
 40
0.9370527978
 40
1.0
 40
1.0
 40
1.0
 40
1.0
 10
41.1910054339
 20
52.9066919404
 30
0.0
 10
41.226256121
 20
52.9324247729
 30
0.0
 10
41.3002711576
 20
52.9794185736
 30
0.0
 10
41.4200756493
 20
53.0349475499
 30
0.0
 10
41.5476695397
 20
53.0750951004
 30
0.0
 10
41.6822444135
 20
53.0995864973
 30
0.0
 10
41.8229901246
 20
53.1083794518
 30
0.0
 10
42.0218125623
 20
53.0989180071
 30
0.0
 10
42.2827298776
 20
53.0454011461
 30
0.0
 10
42.5991120371
 20
52.9219299288
 30
0.0
 10
42.9188560583
 20
52.7411363695
 30
0.0
 10
43.2350560832
 20
52.5071621921
 30
0.0
 10
43.5408886335
 20
52.2252334039
 30
0.0
 10
43.8295917208
 20
51.901632212
 30
0.0
 10
44.0947347183
 20
51.5435915991
 30
0.0
 10
44.3303751502
 20
51.1591375302
 30
0.0
 10
44.5312256525
 20
50.7569005689
 30
0.0
 10
44.6927741177
 20
50.3459120467
 30
0.0
 10
44.8114092194
 20
49.9353387669
 30
0.0
 10
44.8844534917
 20
49.5344194377
 30
0.0
 10
44.9022499571
 20
49.2702847179
 30
0.0
 10
44.9022499571
 20
49.1424481838
 30
0.0
  0
SPLINE
  5
374
100
AcDbEntity
  8
0
100
AcDbSpline
 62
7
  6
BYLAYER
 70
0
 71
3
 72
17
 73
13
 74
0
 42
0.0000001
 43
0.0000001
 44
0.0000000001
 40
0.0
 40
0.0
 40
0.0
 40
0.0
 40
0.1497625196
 40
0.2911791672
 40
0.4242330089
 40
0.4878210692
 40
0.5495676408
 40
0.6680276507
 40
0.7811920325
 40
0.8910418291
 40
0.9454951844
 40
1.0
 40
1.0
 40
1.0
 40
1.0
 10
44.9022499571
 20
49.1424481838
 30
0.0
 10
44.9022499571
 20
49.0583405591
 30
0.0
 10
44.894962965
 20
48.8946742194
 30
0.0
 10
44.8601474504
 20
48.6585473473
 30
0.0
 10
44.8109273859
 20
48.474630843
 30
0.0
 10
44.75967536
 20
48.3387577326
 30
0.0
 10
44.7025915816
 20
48.2142131167
 30
0.0
 10
44.6177501361
 20
48.0721518696
 30
0.0
 10
44.4934132701
 20
47.9249753388
 30
0.0
 10
44.3727213233
 20
47.8249299971
 30
0.0
 10
44.2681010925
 20
47.760207683
 30
0.0
 10
44.2132316114
 20
47.7328821523
 30
0.0
 10
44.1852396503
 20
47.7204951227
 30
0.0
  0
SPLINE
  5
375
100
AcDbEntity
  8
0
100
AcDbSpline
 62
7
  6
BYLAYER
 70
0
 71
3
 72
15
 73
11
 74
0
 42
0.0000001
 43
0.0000001
 44
0.0000000001
 40
0.0
 40
0.0
 40
0.0
 40
0.0
 40
0.1141529757
 40
0.2374165582
 40
0.3669602423
 40
0.49981905
 40
0.6327436396
 40
0.7624461571
 40
0.8858513706
 40
1.0
 40
1.0
 40
1.0
 40
1.0
 10
43.1394006092
 20
48.9087690855
 30
0.0
 10
43.1533894276
 20
48.9006928201
 30
0.0
 10
43.1837063248
 20
48.885975255
 30
0.0
 10
43.2327579708
 20
48.8686778232
 30
0.0
 10
43.2858582842
 20
48.8557234711
 30
0.0
 10
43.3412701144
 20
48.847519829
 30
0.0
 10
43.3972193617
 20
48.844354022
 30
0.0
 10
43.4518943703
 20
48.846341223
 30
0.0
 10
43.5034616986
 20
48.8534604455
 30
0.0
 10
43.5361204811
 20
48.8618706377
 30
0.0
 10
43.5514254581
 20
48.8670330901
 30
0.0
  0
SPLINE
  5
376
100
AcDbEntity
  8
0
100
AcDbSpline
 62
7
  6
BYLAYER
 70
0
 71
3
 72
15
 73
11
 74
0
 42
0.0000001
 43
0.0000001
 44
0.0000000001
 40
0.0
 40
0.0
 40
0.0
 40
0.0
 40
0.1430512057
 40
0.2785311624
 40
0.4067319819
 40
0.5288497047
 40
0.6466974562
 40
0.7626229563
 40
0.8794366906
 40
1.0
 40
1.0
 40
1.0
 40
1.0
 10
41.0363034056
 20
51.1274356183
 30
0.0
 10
41.0363034056
 20
51.1102315075
 30
0.0
 10
41.0382236655
 20
51.076689193
 30
0.0
 10
41.0473962712
 20
51.0284856109
 30
0.0
 10
41.0627963511
 20
50.9845114174
 30
0.0
 10
41.0843135312
 20
50.9455497299
 30
0.0
 10
41.111754624
 20
50.9123517514
 30
0.0
 10
41.144812947
 20
50.8856994501
 30
0.0
 10
41.1829412137
 20
50.8662904077
 30
0.0
 10
41.2106922443
 20
50.8587201428
 30
0.0
 10
41.2249715834
 20
50.8562024598
 30
0.0
  0
SPLINE
  5
377
100
AcDbEntity
  8
0
100
AcDbSpline
 62
7
  6
BYLAYER
 70
0
 71
3
 72
9
 73
5
 74
0
 42
0.0000001
 43
0.0000001
 44
0.0000000001
 40
0.0
 40
0.0
 40
0.0
 40
0.0
 40
0.5147636976
 40
1.0
 40
1.0
 40
1.0
 40
1.0
 10
41.2862044283
 20
49.9948624864
 30
0.0
 10
41.2732855441
 20
50.0419414704
 30
0.0
 10
41.2526419577
 20
50.1346983436
 30
0.0
 10
41.2423837374
 20
50.2292413104
 30
0.0
 10
41.2404229526
 20
50.2752185326
 30
0.0
  0
SPLINE
  5
378
100
AcDbEntity
  8
0
100
AcDbSpline
 62
7
  6
BYLAYER
 70
0
 71
3
 72
26
 73
22
 74
0
 42
0.0000001
 43
0.0000001
 44
0.0000000001
 40
0.0
 40
0.0
 40
0.0
 40
0.0
 40
0.0669815213
 40
0.1371260318
 40
0.2096129934
 40
0.2835381962
 40
0.357926202
 40
0.4317875953
 40
0.5041526516
 40
0.574114499
 40
0.640872254
 40
0.7037801511
 40
0.7624046842
 40
0.8165929504
 40
0.8665515613
 40
0.8901578076
 40
0.9129881807
 40
0.9351978736
 40
0.9569671174
 40
0.9784971236
 40
1.0
 40
1.0
 40
1.0
 40
1.0
 10
43.5514254581
 20
48.8670330901
 30
0.0
 10
43.5365593501
 20
48.9870800127
 30
0.0
 10
43.4927093319
 20
49.2313157085
 30
0.0
 10
43.3905406265
 20
49.5963221182
 30
0.0
 10
43.2522172623
 20
49.9626509368
 30
0.0
 10
43.0805015654
 20
50.3230289664
 30
0.0
 10
42.8787609503
 20
50.670366861
 30
0.0
 10
42.6509891345
 20
50.9978022587
 30
0.0
 10
42.4016737237
 20
51.2988759687
 30
0.0
 10
42.1357195592
 20
51.5676595724
 30
0.0
 10
41.8583209194
 20
51.7988737674
 30
0.0
 10
41.57485114
 20
51.9879844412
 30
0.0
 10
41.2906702687
 20
52.1312530642
 30
0.0
 10
41.0111728459
 20
52.2257443582
 30
0.0
 10
40.7819869944
 20
52.2626109087
 30
0.0
 10
40.6076381153
 20
52.2643618678
 30
0.0
 10
40.4839829077
 20
52.2525364811
 30
0.0
 10
40.3656534809
 20
52.2276539856
 30
0.0
 10
40.2532767237
 20
52.1897660965
 30
0.0
 10
40.147469421
 20
52.1391119217
 30
0.0
 10
40.0818394143
 20
52.0970625408
 30
0.0
 10
40.0504746228
 20
52.0741665448
 30
0.0
  0
LINE
  5
379
100
AcDbEntity
  8
0
100
AcDbLine
 62
7
  6
BYLAYER
 10
41.2861997587
 20
49.9948651824
 11
41.6971084528
 21
50.1169359343
  0
SPLINE
  5
37A
100
AcDbEntity
  8
0
100
AcDbSpline
 62
7
  6
BYLAYER
 70
0
 71
3
 72
9
 73
5
 74
0
 42
0.0000001
 43
0.0000001
 44
0.0000000001
 40
0.0
 40
0.0
 40
0.0
 40
0.0
 40
0.5000531523
 40
1.0
 40
1.0
 40
1.0
 40
1.0
 10
42.0223234048
 20
49.5536802492
 30
0.0
 10
41.8950250474
 20
49.432939997
 30
0.0
 10
41.6402969574
 20
49.1916521484
 30
0.0
 10
41.3853077563
 20
48.9506403959
 30
0.0
 10
41.2578390443
 20
48.8301342923
 30
0.0
  0
SPLINE
  5
37B
100
AcDbEntity
  8
0
100
AcDbSpline
 62
7
  6
BYLAYER
 70
0
 71
3
 72
11
 73
7
 74
0
 42
0.0000001
 43
0.0000001
 44
0.0000000001
 40
0.0
 40
0.0
 40
0.0
 40
0.0
 40
0.224741394
 40
0.4669079273
 40
0.7258854373
 40
1.0
 40
1.0
 40
1.0
 40
1.0
 10
41.0363034056
 20
51.1274356183
 30
0.0
 10
41.0921106913
 20
51.1129547513
 30
0.0
 10
41.2057178844
 20
51.0734437115
 30
0.0
 10
41.3723267631
 20
50.989285515
 30
0.0
 10
41.5386405103
 20
50.8795189601
 30
0.0
 10
41.6447281042
 20
50.7928234431
 30
0.0
 10
41.6971228089
 20
50.7459199889
 30
0.0
  0
SPLINE
  5
37C
100
AcDbEntity
  8
0
100
AcDbSpline
 62
7
  6
BYLAYER
 70
0
 71
3
 72
12
 73
8
 74
0
 42
0.0000001
 43
0.0000001
 44
0.0000000001
 40
0.0
 40
0.0
 40
0.0
 40
0.0
 40
0.1164950632
 40
0.2369976264
 40
0.4868420032
 40
0.7434521484
 40
1.0
 40
1.0
 40
1.0
 40
1.0
 10
43.1394006092
 20
48.9087690855
 30
0.0
 10
43.1281276605
 20
48.9851147023
 30
0.0
 10
43.0993552748
 20
49.139621986
 30
0.0
 10
43.0187914289
 20
49.4521073536
 30
0.0
 10
42.8761249458
 20
49.8434266645
 30
0.0
 10
42.6480052662
 20
50.2956213187
 30
0.0
 10
42.4606240931
 20
50.5803677746
 30
0.0
 10
42.3588930445
 20
50.7165102202
 30
0.0
  0
SPLINE
  5
37D
100
AcDbEntity
  8
0
100
AcDbSpline
 62
7
  6
BYLAYER
 70
0
 71
3
 72
23
 73
19
 74
0
 42
0.0000001
 43
0.0000001
 44
0.0000000001
 40
0.0
 40
0.0
 40
0.0
 40
0.0
 40
0.0833958054
 40
0.1645938597
 40
0.2428680901
 40
0.3175943504
 40
0.3882859692
 40
0.454635589
 40
0.5165608866
 40
0.5742567949
 40
0.6282474443
 40
0.679417103
 40
0.728981333
 40
0.7783739582
 40
0.8290550186
 40
0.8822977508
 40
0.9390889345
 40
1.0
 40
1.0
 40
1.0
 40
1.0
 10
42.3588930445
 20
50.7165102202
 30
0.0
 10
42.2977506804
 20
50.7983345117
 30
0.0
 10
42.1711941527
 20
50.9555391602
 30
0.0
 10
41.9674240388
 20
51.1726534226
 30
0.0
 10
41.7546213585
 20
51.3655119371
 30
0.0
 10
41.5359463576
 20
51.5312224209
 30
0.0
 10
41.3146019462
 20
51.667313589
 30
0.0
 10
41.0937999793
 20
51.7717419345
 30
0.0
 10
40.8766939931
 20
51.842879411
 30
0.0
 10
40.666360677
 20
51.8794791076
 30
0.0
 10
40.4658434743
 20
51.8806400965
 30
0.0
 10
40.2782771897
 20
51.8458654821
 30
0.0
 10
40.1069753777
 20
51.7752855404
 30
0.0
 10
39.9552400983
 20
51.6699873717
 30
0.0
 10
39.8258758382
 20
51.5320922961
 30
0.0
 10
39.7207868271
 20
51.3643377282
 30
0.0
 10
39.6412962997
 20
51.1697009259
 30
0.0
 10
39.6071002544
 20
51.0290965927
 30
0.0
 10
39.5940256053
 20
50.9556459919
 30
0.0
  0
SPLINE
  5
37E
100
AcDbEntity
  8
0
100
AcDbSpline
 62
7
  6
BYLAYER
 70
0
 71
3
 72
14
 73
10
 74
0
 42
0.0000001
 43
0.0000001
 44
0.0000000001
 40
0.0
 40
0.0
 40
0.0
 40
0.0
 40
0.1220682364
 40
0.2498748518
 40
0.5123177136
 40
0.6424005577
 40
0.7683210967
 40
0.8880897725
 40
1.0
 40
1.0
 40
1.0
 40
1.0
 10
43.5514254581
 20
48.1588920051
 30
0.0
 10
43.5364124856
 20
48.1499839152
 30
0.0
 10
43.5042476882
 20
48.1340824874
 30
0.0
 10
43.4347540832
 20
48.1104460694
 30
0.0
 10
43.3603080423
 20
48.0994546575
 30
0.0
 10
43.2860691223
 20
48.1014700371
 30
0.0
 10
43.2327716905
 20
48.1094837575
 30
0.0
 10
43.1835085642
 20
48.1237663085
 30
0.0
 10
43.1532607409
 20
48.1377163177
 30
0.0
 10
43.1394006092
 20
48.1457182874
 30
0.0
  0
SPLINE
  5
37F
100
AcDbEntity
  8
0
100
AcDbSpline
 62
7
  6
BYLAYER
 70
0
 71
3
 72
11
 73
7
 74
0
 42
0.0000001
 43
0.0000001
 44
0.0000000001
 40
0.0
 40
0.0
 40
0.0
 40
0.0
 40
0.2768369111
 40
0.5327480115
 40
0.7713714877
 40
1.0
 40
1.0
 40
1.0
 40
1.0
 10
39.5940256053
 20
50.1925951938
 30
0.0
 10
39.5816450923
 20
50.1997429246
 30
0.0
 10
39.5588772417
 20
50.2155007468
 30
0.0
 10
39.5310188327
 20
50.2443910961
 30
0.0
 10
39.5117734092
 20
50.2768207618
 30
0.0
 10
39.5051804206
 20
50.3003916441
 30
0.0
 10
39.5035998362
 20
50.3120916131
 30
0.0
  0
SPLINE
  5
380
100
AcDbEntity
  8
0
100
AcDbSpline
 62
7
  6
BYLAYER
 70
0
 71
3
 72
30
 73
26
 74
0
 42
0.0000001
 43
0.0000001
 44
0.0000000001
 40
0.0
 40
0.0
 40
0.0
 40
0.0
 40
0.0713866061
 40
0.1463740719
 40
0.2235999494
 40
0.3015521652
 40
0.3786802567
 40
0.4534797767
 40
0.5245963892
 40
0.5909324112
 40
0.651775179
 40
0.6800894068
 40
0.707023699
 40
0.7326738025
 40
0.757190369
 40
0.7807828525
 40
0.8037147115
 40
0.8262926437
 40
0.8488493269
 40
0.8717192363
 40
0.8952125929
 40
0.9195976973
 40
0.9450963629
 40
0.9718728826
 40
1.0
 40
1.0
 40
1.0
 40
1.0
 10
39.5940256053
 20
50.1925951938
 30
0.0
 10
39.6137081793
 20
50.0592957098
 30
0.0
 10
39.6719060928
 20
49.788407042
 30
0.0
 10
39.8063338801
 20
49.387545454
 30
0.0
 10
39.9865916739
 20
48.9914277378
 30
0.0
 10
40.2073876705
 20
48.6117588136
 30
0.0
 10
40.4622378315
 20
48.2596582979
 30
0.0
 10
40.7436709897
 20
47.9454602245
 30
0.0
 10
41.0435339371
 20
47.6783220897
 30
0.0
 10
41.3531325167
 20
47.4660602657
 30
0.0
 10
41.6183987896
 20
47.3370274247
 30
0.0
 10
41.8270277118
 20
47.2690305829
 30
0.0
 10
41.9764796139
 20
47.2363538156
 30
0.0
 10
42.1215269289
 20
47.2210372829
 30
0.0
 10
42.2611051532
 20
47.2232957156
 30
0.0
 10
42.3941404844
 20
47.2431776918
 30
0.0
 10
42.5195635313
 20
47.2806242582
 30
0.0
 10
42.6363203682
 20
47.3353863978
 30
0.0
 10
42.7434159494
 20
47.4070248038
 30
0.0
 10
42.8399408399
 20
47.4949286813
 30
0.0
 10
42.9251599224
 20
47.598295455
 30
0.0
 10
42.9984434804
 20
47.716267159
 30
0.0
 10
43.059324413
 20
47.847902724
 30
0.0
 10
43.1073575842
 20
47.9921518978
 30
0.0
 10
43.13009636
 20
48.0934489919
 30
0.0
 10
43.1394006092
 20
48.1457182874
 30
0.0
  0
SPLINE
  5
381
100
AcDbEntity
  8
0
100
AcDbSpline
 62
7
  6
BYLAYER
 70
0
 71
3
 72
11
 73
7
 74
0
 42
0.0000001
 43
0.0000001
 44
0.0000000001
 40
0.0
 40
0.0
 40
0.0
 40
0.0
 40
0.224741394
 40
0.4669079273
 40
0.7258854373
 40
1.0
 40
1.0
 40
1.0
 40
1.0
 10
41.6971228089
 20
47.973928661
 30
0.0
 10
41.6413155232
 20
47.988409528
 30
0.0
 10
41.5277083301
 20
48.0279205678
 30
0.0
 10
41.3610994514
 20
48.1120787643
 30
0.0
 10
41.1947857043
 20
48.2218453192
 30
0.0
 10
41.0886981104
 20
48.3085408362
 30
0.0
 10
41.0363034056
 20
48.3554442904
 30
0.0
  0
SPLINE
  5
382
100
AcDbEntity
  8
0
100
AcDbSpline
 62
7
  6
BYLAYER
 70
0
 71
3
 72
15
 73
11
 74
0
 42
0.0000001
 43
0.0000001
 44
0.0000000001
 40
0.0
 40
0.0
 40
0.0
 40
0.0
 40
0.1134570121
 40
0.2274027506
 40
0.3434989766
 40
0.4632521475
 40
0.587923618
 40
0.7185268773
 40
0.8557923041
 40
1.0
 40
1.0
 40
1.0
 40
1.0
 10
42.8939825352
 20
47.1490370486
 30
0.0
 10
42.9375111679
 20
47.1682997105
 30
0.0
 10
43.0220117638
 20
47.2135053328
 30
0.0
 10
43.1378003539
 20
47.3001675736
 30
0.0
 10
43.241461009
 20
47.4047754913
 30
0.0
 10
43.3321600051
 20
47.5263931585
 30
0.0
 10
43.4092787369
 20
47.6640038611
 30
0.0
 10
43.4723147306
 20
47.8165353152
 30
0.0
 10
43.520821378
 20
47.982779049
 30
0.0
 10
43.5427729851
 20
48.0990122704
 30
0.0
 10
43.5514254581
 20
48.1588920051
 30
0.0
  0
SPLINE
  5
383
100
AcDbEntity
  8
0
100
AcDbSpline
 62
7
  6
BYLAYER
 70
0
 71
3
 72
11
 73
7
 74
0
 42
0.0000001
 43
0.0000001
 44
0.0000000001
 40
0.0
 40
0.0
 40
0.0
 40
0.0
 40
0.2624376727
 40
0.5238205906
 40
0.7724227889
 40
1.0
 40
1.0
 40
1.0
 40
1.0
 10
41.2578390443
 20
48.8301342923
 30
0.0
 10
41.2237326167
 20
48.7978908625
 30
0.0
 10
41.1620354949
 20
48.7264908429
 30
0.0
 10
41.0920980666
 20
48.6064850643
 30
0.0
 10
41.0477046151
 20
48.4814555515
 30
0.0
 10
41.0363034056
 20
48.3961446943
 30
0.0
 10
41.0363034056
 20
48.3554442904
 30
0.0
  0
SPLINE
  5
384
100
AcDbEntity
  8
0
100
AcDbSpline
 62
7
  6
BYLAYER
 70
0
 71
3
 72
11
 73
7
 74
0
 42
0.0000001
 43
0.0000001
 44
0.0000000001
 40
0.0
 40
0.0
 40
0.0
 40
0.0
 40
0.2292808942
 40
0.4731434359
 40
0.7306590007
 40
1.0
 40
1.0
 40
1.0
 40
1.0
 10
41.6990006671
 20
48.5261087347
 30
0.0
 10
41.6608470095
 20
48.5416397027
 30
0.0
 10
41.5840789282
 20
48.5786607612
 30
0.0
 10
41.4724043841
 20
48.6480540378
 30
0.0
 10
41.3621028196
 20
48.7320717129
 30
0.0
 10
41.2919093724
 20
48.7957622701
 30
0.0
 10
41.2573651841
 20
48.8296501011
 30
0.0
  0
SPLINE
  5
385
100
AcDbEntity
  8
0
100
AcDbSpline
 62
7
  6
BYLAYER
 70
0
 71
3
 72
9
 73
5
 74
0
 42
0.0000001
 43
0.0000001
 44
0.0000000001
 40
0.0
 40
0.0
 40
0.0
 40
0.0
 40
0.244508695
 40
1.0
 40
1.0
 40
1.0
 40
1.0
 10
44.0179368468
 20
48.7140413106
 30
0.0
 10
44.0179368468
 20
48.7389908972
 30
0.0
 10
44.0165395883
 20
48.8410278995
 30
0.0
 10
44.0096953409
 20
48.9429729777
 30
0.0
 10
44.0018141398
 20
49.0196591411
 30
0.0
  0
SPLINE
  5
386
100
AcDbEntity
  8
0
100
AcDbSpline
 62
7
  6
BYLAYER
 70
0
 71
3
 72
9
 73
5
 74
0
 42
0.0000001
 43
0.0000001
 44
0.0000000001
 40
0.0
 40
0.0
 40
0.0
 40
0.0
 40
0.243812191
 40
1.0
 40
1.0
 40
1.0
 40
1.0
 10
44.0018141398
 20
48.4270399573
 30
0.0
 10
44.0045208682
 20
48.4502517475
 30
0.0
 10
44.0141325346
 20
48.5456260784
 30
0.0
 10
44.0179368468
 20
48.6415617181
 30
0.0
 10
44.0179368468
 20
48.7140413106
 30
0.0
  0
SPLINE
  5
387
100
AcDbEntity
  8
0
100
AcDbSpline
 62
7
  6
BYLAYER
 70
0
 71
3
 72
9
 73
5
 74
0
 42
0.0000001
 43
0.0000001
 44
0.0000000001
 40
0.0
 40
0.0
 40
0.0
 40
0.0
 40
0.5070726778
 40
1.0
 40
1.0
 40
1.0
 40
1.0
 10
49.000422236
 20
13.0510535509
 30
0.0
 10
48.6467614243
 20
12.7526398907
 30
0.0
 10
47.93720983
 20
12.1782433426
 30
0.0
 10
47.1988228914
 20
11.6410012888
 30
0.0
 10
46.8269259976
 20
11.3879411945
 30
0.0
  0
SPLINE
  5
388
100
AcDbEntity
  8
0
100
AcDbSpline
 62
7
  6
BYLAYER
 70
0
 71
3
 72
9
 73
5
 74
0
 42
0.0000001
 43
0.0000001
 44
0.0000000001
 40
0.0
 40
0.0
 40
0.0
 40
0.0
 40
0.4876807851
 40
1.0
 40
1.0
 40
1.0
 40
1.0
 10
49.6975084444
 20
14.5530691208
 30
0.0
 10
49.629376474
 20
14.2916247814
 30
0.0
 10
49.4381169629
 20
13.7679976156
 30
0.0
 10
49.1600690059
 20
13.2857235241
 30
0.0
 10
49.000422236
 20
13.0510535509
 30
0.0
  0
SPLINE
  5
389
100
AcDbEntity
  8
0
100
AcDbSpline
 62
7
  6
BYLAYER
 70
0
 71
3
 72
9
 73
5
 74
0
 42
0.0000001
 43
0.0000001
 44
0.0000000001
 40
0.0
 40
0.0
 40
0.0
 40
0.0
 40
0.5097086555
 40
1.0
 40
1.0
 40
1.0
 40
1.0
 10
44.391616729
 20
9.9819231255
 30
0.0
 10
44.0333079739
 20
9.8120002238
 30
0.0
 10
43.3179044416
 20
9.504181981
 30
0.0
 10
42.5823734362
 20
9.248562605
 30
0.0
 10
42.2181204905
 20
9.1353131862
 30
0.0
  0
SPLINE
  5
38A
100
AcDbEntity
  8
0
100
AcDbSpline
 62
7
  6
BYLAYER
 70
0
 71
3
 72
9
 73
5
 74
0
 42
0.0000001
 43
0.0000001
 44
0.0000000001
 40
0.0
 40
0.0
 40
0.0
 40
0.0
 40
0.4969457508
 40
1.0
 40
1.0
 40
1.0
 40
1.0
 10
39.6165218221
 20
8.7328435228
 30
0.0
 10
39.1248068959
 20
8.7130030984
 30
0.0
 10
38.1340658756
 20
8.6989007713
 30
0.0
 10
37.1440636008
 20
8.74455609
 30
0.0
 10
36.6474550718
 20
8.7838943235
 30
0.0
  0
SPLINE
  5
38B
100
AcDbEntity
  8
0
100
AcDbSpline
 62
7
  6
BYLAYER
 70
0
 71
3
 72
9
 73
5
 74
0
 42
0.0000001
 43
0.0000001
 44
0.0000000001
 40
0.0
 40
0.0
 40
0.0
 40
0.0
 40
0.4950953692
 40
1.0
 40
1.0
 40
1.0
 40
1.0
 10
42.2181204905
 20
9.1353131862
 30
0.0
 10
41.794178985
 20
9.0391773064
 30
0.0
 10
40.9306767187
 20
8.8757828946
 30
0.0
 10
40.0581763965
 20
8.7712094188
 30
0.0
 10
39.6165218221
 20
8.7328435228
 30
0.0
  0
SPLINE
  5
38C
100
AcDbEntity
  8
0
100
AcDbSpline
 62
7
  6
BYLAYER
 70
0
 71
3
 72
9
 73
5
 74
0
 42
0.0000001
 43
0.0000001
 44
0.0000000001
 40
0.0
 40
0.0
 40
0.0
 40
0.0
 40
0.2549571528
 40
1.0
 40
1.0
 40
1.0
 40
1.0
 10
30.3516764327
 20
10.1660757337
 30
0.0
 10
30.264281238
 20
10.206291885
 30
0.0
 10
29.9232302542
 20
10.3677530322
 30
0.0
 10
29.5892860791
 20
10.5443388371
 30
0.0
 10
29.3458183401
 20
10.6849018218
 30
0.0
  0
SPLINE
  5
38D
100
AcDbEntity
  8
0
100
AcDbSpline
 62
7
  6
BYLAYER
 70
0
 71
3
 72
9
 73
5
 74
0
 42
0.0000001
 43
0.0000001
 44
0.0000000001
 40
0.0
 40
0.0
 40
0.0
 40
0.0
 40
0.4987671112
 40
1.0
 40
1.0
 40
1.0
 40
1.0
 10
33.3207431831
 20
9.2985225159
 30
0.0
 10
32.8193917379
 20
9.4139224543
 30
0.0
 10
31.8213712971
 20
9.6772666612
 30
0.0
 10
30.8396950021
 20
9.9953956576
 30
0.0
 10
30.3516764327
 20
10.1660757337
 30
0.0
  0
SPLINE
  5
38E
100
AcDbEntity
  8
0
100
AcDbSpline
 62
7
  6
BYLAYER
 70
0
 71
3
 72
9
 73
5
 74
0
 42
0.0000001
 43
0.0000001
 44
0.0000000001
 40
0.0
 40
0.0
 40
0.0
 40
0.0
 40
0.2298359263
 40
1.0
 40
1.0
 40
1.0
 40
1.0
 10
28.4471639727
 20
11.2656216401
 30
0.0
 10
28.3799000663
 20
11.361588789
 30
0.0
 10
28.0940832646
 20
11.7839235681
 30
0.0
 10
27.8365541217
 20
12.2251142329
 30
0.0
 10
27.6515934608
 20
12.5715335887
 30
0.0
  0
SPLINE
  5
38F
100
AcDbEntity
  8
0
100
AcDbSpline
 62
7
  6
BYLAYER
 70
0
 71
3
 72
9
 73
5
 74
0
 42
0.0000001
 43
0.0000001
 44
0.0000000001
 40
0.0
 40
0.0
 40
0.0
 40
0.0
 40
0.2555708272
 40
1.0
 40
1.0
 40
1.0
 40
1.0
 10
29.3458183401
 20
10.6849018218
 30
0.0
 10
29.2668600686
 20
10.7304873699
 30
0.0
 10
28.9600858616
 20
10.9125789555
 30
0.0
 10
28.66223789
 20
11.1098337478
 30
0.0
 10
28.4471639727
 20
11.2656216401
 30
0.0
  0
SPLINE
  5
390
100
AcDbEntity
  8
0
100
AcDbSpline
 62
7
  6
BYLAYER
 70
0
 71
3
 72
9
 73
5
 74
0
 42
0.0000001
 43
0.0000001
 44
0.0000000001
 40
0.0
 40
0.0
 40
0.0
 40
0.0
 40
0.4844262776
 40
1.0
 40
1.0
 40
1.0
 40
1.0
 10
26.7601908408
 20
14.4921798501
 30
0.0
 10
26.6212016113
 20
14.8308038103
 30
0.0
 10
26.3471206599
 20
15.5351153484
 30
0.0
 10
26.0923045488
 20
16.2465390978
 30
0.0
 10
25.9646203289
 20
16.6145942158
 30
0.0
  0
SPLINE
  5
391
100
AcDbEntity
  8
0
100
AcDbSpline
 62
7
  6
BYLAYER
 70
0
 71
3
 72
13
 73
9
 74
0
 42
0.0000001
 43
0.0000001
 44
0.0000000001
 40
0.0
 40
0.0
 40
0.0
 40
0.0
 40
0.2747279281
 40
0.4064213932
 40
0.5339716079
 40
0.6571936181
 40
0.77597743
 40
1.0
 40
1.0
 40
1.0
 40
1.0
 10
32.8581160286
 20
14.1165170978
 30
0.0
 10
32.4585978029
 20
14.2453226136
 30
0.0
 10
31.8756340282
 20
14.4632446681
 30
0.0
 10
31.1363038118
 20
14.809007507
 30
0.0
 10
30.6212839026
 20
15.0858488657
 30
0.0
 10
30.1404255388
 20
15.3826420796
 30
0.0
 10
29.5594413055
 20
15.7947574979
 30
0.0
 10
29.1631826022
 20
16.1412035646
 30
0.0
 10
28.9252230976
 20
16.3872528534
 30
0.0
  0
SPLINE
  5
392
100
AcDbEntity
  8
0
100
AcDbSpline
 62
7
  6
BYLAYER
 70
0
 71
3
 72
9
 73
5
 74
0
 42
0.0000001
 43
0.0000001
 44
0.0000000001
 40
0.0
 40
0.0
 40
0.0
 40
0.0
 40
0.5049046117
 40
1.0
 40
1.0
 40
1.0
 40
1.0
 10
39.6165218221
 20
10.7740995656
 30
0.0
 10
40.0581763778
 20
10.81246546
 30
0.0
 10
40.9306766483
 20
10.9170392804
 30
0.0
 10
41.7941789705
 20
11.0804333459
 30
0.0
 10
42.2181204905
 20
11.176569229
 30
0.0
  0
SPLINE
  5
393
100
AcDbEntity
  8
0
100
AcDbSpline
 62
7
  6
BYLAYER
 70
0
 71
3
 72
9
 73
5
 74
0
 42
0.0000001
 43
0.0000001
 44
0.0000000001
 40
0.0
 40
0.0
 40
0.0
 40
0.0
 40
0.4859605704
 40
1.0
 40
1.0
 40
1.0
 40
1.0
 10
28.4471639727
 20
13.306877683
 30
0.0
 10
28.7360040327
 20
13.0976575937
 30
0.0
 10
29.3548829987
 20
12.7003719804
 30
0.0
 10
30.0089599437
 20
12.3650376805
 30
0.0
 10
30.3516764327
 20
12.2073317765
 30
0.0
  0
SPLINE
  5
394
100
AcDbEntity
  8
0
100
AcDbSpline
 62
7
  6
BYLAYER
 70
0
 71
3
 72
9
 73
5
 74
0
 42
0.0000001
 43
0.0000001
 44
0.0000000001
 40
0.0
 40
0.0
 40
0.0
 40
0.0
 40
0.5123191675
 40
1.0
 40
1.0
 40
1.0
 40
1.0
 10
49.000422236
 20
15.0923095937
 30
0.0
 10
49.1600689865
 20
15.3269795385
 30
0.0
 10
49.4381164466
 20
15.8092538654
 30
0.0
 10
49.6293764693
 20
16.3328808063
 30
0.0
 10
49.6975084444
 20
16.5943251636
 30
0.0
  0
SPLINE
  5
395
100
AcDbEntity
  8
0
100
AcDbSpline
 62
7
  6
BYLAYER
 70
0
 71
3
 72
24
 73
20
 74
0
 42
0.0000001
 43
0.0000001
 44
0.0000000001
 40
0.0
 40
0.0
 40
0.0
 40
0.0
 40
0.0606270921
 40
0.1248523644
 40
0.1921104463
 40
0.2617053672
 40
0.3328425438
 40
0.4046686679
 40
0.4763040305
 40
0.5468764058
 40
0.6155537836
 40
0.6815790377
 40
0.7443076822
 40
0.8032512245
 40
0.8581281786
 40
0.9089241381
 40
0.9559581885
 40
0.9782989587
 40
1.0
 40
1.0
 40
1.0
 40
1.0
 10
44.5132512893
 20
13.7672125809
 30
0.0
 10
44.2009650526
 20
13.5869151143
 30
0.0
 10
43.5350329414
 20
13.2542678738
 30
0.0
 10
42.4642084288
 20
12.8508310821
 30
0.0
 10
41.3092160523
 20
12.5342880432
 30
0.0
 10
40.0911293157
 20
12.3103855914
 30
0.0
 10
38.8319530921
 20
12.1831488832
 30
0.0
 10
37.5545824722
 20
12.1548836886
 30
0.0
 10
36.2822391076
 20
12.2261068007
 30
0.0
 10
35.038054693
 20
12.3955221545
 30
0.0
 10
33.844610009
 20
12.6600642342
 30
0.0
 10
32.723504382
 20
13.0149733576
 30
0.0
 10
31.6949381268
 20
13.4539499714
 30
0.0
 10
30.7773685558
 20
13.9693145874
 30
0.0
 10
29.9871902789
 20
14.55243853
 30
0.0
 10
29.3388780105
 20
15.1935281179
 30
0.0
 10
28.9199951372
 20
15.7782198132
 30
0.0
 10
28.6734700968
 20
16.2614675601
 30
0.0
 10
28.5792637851
 20
16.5065518321
 30
0.0
 10
28.5397641187
 20
16.6294323239
 30
0.0
  0
SPLINE
  5
396
100
AcDbEntity
  8
0
100
AcDbSpline
 62
7
  6
BYLAYER
 70
0
 71
3
 72
14
 73
10
 74
0
 42
0.0000001
 43
0.0000001
 44
0.0000000001
 40
0.0
 40
0.0
 40
0.0
 40
0.0
 40
0.2892720607
 40
0.422554976
 40
0.5484985194
 40
0.6678874407
 40
0.781868291
 40
0.8919528621
 40
1.0
 40
1.0
 40
1.0
 40
1.0
 10
42.7809207817
 20
14.0328128851
 30
0.0
 10
42.9564976903
 20
13.9314458029
 30
0.0
 10
43.2260685159
 20
13.8031436523
 30
0.0
 10
43.5957498433
 20
13.6953633047
 30
0.0
 10
43.8581447409
 20
13.6513342974
 30
0.0
 10
44.110613902
 20
13.6426025072
 30
0.0
 10
44.3507914282
 20
13.6693378891
 30
0.0
 10
44.5760794162
 20
13.7316816741
 30
0.0
 10
44.7153282658
 20
13.796859201
 30
0.0
 10
44.7809084135
 20
13.834721683
 30
0.0
  0
SPLINE
  5
397
100
AcDbEntity
  8
0
100
AcDbSpline
 62
7
  6
BYLAYER
 70
0
 71
3
 72
15
 73
11
 74
0
 42
0.0000001
 43
0.0000001
 44
0.0000000001
 40
0.0
 40
0.0
 40
0.0
 40
0.0
 40
0.1141555516
 40
0.2373276756
 40
0.3669773296
 40
0.5000011
 40
0.6330247168
 40
0.7626739247
 40
0.885845342
 40
1.0
 40
1.0
 40
1.0
 40
1.0
 10
8.8396539746
 20
36.8943787706
 30
0.0
 10
8.8396539746
 20
36.6707944709
 30
0.0
 10
8.8806066201
 20
36.2055319078
 30
0.0
 10
9.0438635191
 20
35.5036328108
 30
0.0
 10
9.3053916524
 20
34.7926653156
 30
0.0
 10
9.6554171921
 20
34.0993640761
 30
0.0
 10
10.0808235304
 20
33.4495852021
 30
0.0
 10
10.5657768267
 20
32.8676159622
 30
0.0
 10
11.0920110506
 20
32.375287858
 30
0.0
 10
11.4744636126
 20
32.1071954619
 30
0.0
 10
11.6680928752
 20
31.995406084
 30
0.0
  0
SPLINE
  5
398
100
AcDbEntity
  8
0
100
AcDbSpline
 62
7
  6
BYLAYER
 70
0
 71
3
 72
11
 73
7
 74
0
 42
0.0000001
 43
0.0000001
 44
0.0000000001
 40
0.0
 40
0.0
 40
0.0
 40
0.0
 40
0.2829202081
 40
0.5424275654
 40
0.7799484306
 40
1.0
 40
1.0
 40
1.0
 40
1.0
 10
14.4965229439
 20
71.1875376593
 30
0.0
 10
14.7066328375
 20
71.0662333999
 30
0.0
 10
15.1251191029
 20
70.8589772193
 30
0.0
 10
15.7665613287
 20
70.6583977844
 30
0.0
 10
16.3814164332
 20
70.5871542503
 30
0.0
 10
16.7759648669
 20
70.6304986731
 30
0.0
 10
16.9592073223
 20
70.6755566709
 30
0.0
  0
SPLINE
  5
399
100
AcDbEntity
  8
0
100
AcDbSpline
 62
7
  6
BYLAYER
 70
0
 71
3
 72
14
 73
10
 74
0
 42
0.0000001
 43
0.0000001
 44
0.0000000001
 40
0.0
 40
0.0
 40
0.0
 40
0.0
 40
0.2892730352
 40
0.4225562199
 40
0.5484998506
 40
0.6678886669
 40
0.7818692291
 40
0.8919533702
 40
1.0
 40
1.0
 40
1.0
 40
1.0
 10
46.6700154381
 20
16.2782257664
 30
0.0
 10
46.6700154381
 20
16.0754820478
 30
0.0
 10
46.6463450764
 20
15.7778666868
 30
0.0
 10
46.5548453911
 20
15.4038113856
 30
0.0
 10
46.461777436
 20
15.1545487002
 30
0.0
 10
46.343102987
 20
14.9315316192
 30
0.0
 10
46.1998578465
 20
14.736894213
 30
0.0
 10
46.0332187289
 20
14.572957115
 30
0.0
 10
45.9071457621
 20
14.484951238
 30
0.0
 10
45.8415641694
 20
14.4470879138
 30
0.0
  0
SPLINE
  5
39A
100
AcDbEntity
  8
0
100
AcDbSpline
 62
7
  6
BYLAYER
 70
0
 71
3
 72
15
 73
11
 74
0
 42
0.0000001
 43
0.0000001
 44
0.0000000001
 40
0.0
 40
0.0
 40
0.0
 40
0.0
 40
0.1141546703
 40
0.2373261017
 40
0.3669753162
 40
0.4999989361
 40
0.6330227034
 40
0.7626723508
 40
0.8858444607
 40
1.0
 40
1.0
 40
1.0
 40
1.0
 10
43.8415765375
 20
54.2455463467
 30
0.0
 10
44.035205821
 20
54.1337569568
 30
0.0
 10
44.4176584206
 20
53.8656645234
 30
0.0
 10
44.9438926856
 20
53.3733363681
 30
0.0
 10
45.4288459926
 20
52.791367076
 30
0.0
 10
45.8542523211
 20
52.1415881806
 30
0.0
 10
46.2042778374
 20
51.4482869434
 30
0.0
 10
46.4658059308
 20
50.7373194834
 30
0.0
 10
46.6290628061
 20
50.0354204477
 30
0.0
 10
46.6700154381
 20
49.5701579357
 30
0.0
 10
46.6700154381
 20
49.3465736601
 30
0.0
  0
SPLINE
  5
39B
100
AcDbEntity
  8
0
100
AcDbSpline
 62
7
  6
BYLAYER
 70
0
 71
3
 72
15
 73
11
 74
0
 42
0.0000001
 43
0.0000001
 44
0.0000000001
 40
0.0
 40
0.0
 40
0.0
 40
0.0
 40
0.1280117751
 40
0.2585736186
 40
0.3898734234
 40
0.5202275437
 40
0.6479108355
 40
0.771313616
 40
0.8890821028
 40
1.0
 40
1.0
 40
1.0
 40
1.0
 10
38.2333761011
 20
60.3003024682
 30
0.0
 10
38.3195811296
 20
60.0385234187
 30
0.0
 10
38.5174698744
 20
59.5173074828
 30
0.0
 10
38.8801388509
 20
58.7593173528
 30
0.0
 10
39.305905777
 20
58.0289820115
 30
0.0
 10
39.7861593798
 20
57.3408026841
 30
0.0
 10
40.3115794575
 20
56.7083390071
 30
0.0
 10
40.8718200109
 20
56.1438865384
 30
0.0
 10
41.455858362
 20
55.6587816747
 30
0.0
 10
41.8669900666
 20
55.3855485869
 30
0.0
 10
42.0738022246
 20
55.266148233
 30
0.0
  0
SPLINE
  5
39C
100
AcDbEntity
  8
0
100
AcDbSpline
 62
7
  6
BYLAYER
 70
0
 71
3
 72
11
 73
7
 74
0
 42
0.0000001
 43
0.0000001
 44
0.0000000001
 40
0.0
 40
0.0
 40
0.0
 40
0.0
 40
0.2443760437
 40
0.4968012226
 40
0.7508953001
 40
1.0
 40
1.0
 40
1.0
 40
1.0
 10
37.4274094228
 20
61.6100659367
 30
0.0
 10
37.5172596234
 20
61.5212662227
 30
0.0
 10
37.6881081486
 20
61.3284934964
 30
0.0
 10
37.9103018234
 20
61.0092324656
 30
0.0
 10
38.096209844
 20
60.6647929228
 30
0.0
 10
38.1930988388
 20
60.4226125427
 30
0.0
 10
38.2333761011
 20
60.3003024682
 30
0.0
  0
SPLINE
  5
39D
100
AcDbEntity
  8
0
100
AcDbSpline
 62
7
  6
BYLAYER
 70
0
 71
3
 72
14
 73
10
 74
0
 42
0.0000001
 43
0.0000001
 44
0.0000000001
 40
0.0
 40
0.0
 40
0.0
 40
0.0
 40
0.1080471438
 40
0.2181317193
 40
0.3321125724
 40
0.4515014986
 40
0.5774450424
 40
0.710727948
 40
1.0
 40
1.0
 40
1.0
 40
1.0
 10
10.7287609992
 20
72.4062307477
 30
0.0
 10
10.7943411471
 20
72.4440932378
 30
0.0
 10
10.9335900086
 20
72.509270759
 30
0.0
 10
11.1588780037
 20
72.5716145493
 30
0.0
 10
11.3990555395
 20
72.5983499306
 30
0.0
 10
11.6515247061
 20
72.5896181288
 30
0.0
 10
11.9139196001
 20
72.5455891194
 30
0.0
 10
12.2836009158
 20
72.437808775
 30
0.0
 10
12.5531717275
 20
72.3095066249
 30
0.0
 10
12.728748631
 20
72.2081395456
 30
0.0
  0
SPLINE
  5
39E
100
AcDbEntity
  8
0
100
AcDbSpline
 62
7
  6
BYLAYER
 70
0
 71
3
 72
14
 73
10
 74
0
 42
0.0000001
 43
0.0000001
 44
0.0000000001
 40
0.0
 40
0.0
 40
0.0
 40
0.0
 40
0.1089449601
 40
0.2197903103
 40
0.3342826831
 40
0.4538651847
 40
0.5796505179
 40
0.7124275008
 40
1.0
 40
1.0
 40
1.0
 40
1.0
 10
9.6681052434
 20
71.7938645169
 30
0.0
 10
9.6050928878
 20
71.7574845413
 30
0.0
 10
9.483811247
 20
71.6734318547
 30
0.0
 10
9.3224957083
 20
71.5178182987
 30
0.0
 10
9.1826316573
 20
71.3337064111
 30
0.0
 10
9.0652995886
 20
71.1231320387
 30
0.0
 10
8.9714606555
 20
70.8879660929
 30
0.0
 10
8.8760221165
 20
70.5353058018
 30
0.0
 10
8.8461779803
 20
70.2539262647
 30
0.0
 10
8.8409858641
 20
70.0619374785
 30
0.0
  0
SPLINE
  5
39F
100
AcDbEntity
  8
0
100
AcDbSpline
 62
7
  6
BYLAYER
 70
0
 71
3
 72
11
 73
7
 74
0
 42
0.0000001
 43
0.0000001
 44
0.0000000001
 40
0.0
 40
0.0
 40
0.0
 40
0.0
 40
0.2586182433
 40
0.5203124745
 40
0.7714033962
 40
1.0
 40
1.0
 40
1.0
 40
1.0
 10
37.1727203453
 20
59.6879362374
 30
0.0
 10
37.1147276827
 20
59.8640427171
 30
0.0
 10
36.966167165
 20
60.2084483517
 30
0.0
 10
36.6675468679
 20
60.6766821264
 30
0.0
 10
36.3106867468
 20
61.0738204395
 30
0.0
 10
36.0345087036
 20
61.2840459484
 30
0.0
 10
35.8925783042
 20
61.3659876489
 30
0.0
  0
SPLINE
  5
3A0
100
AcDbEntity
  8
0
100
AcDbSpline
 62
7
  6
BYLAYER
 70
0
 71
3
 72
15
 73
11
 74
0
 42
0.0000001
 43
0.0000001
 44
0.0000000001
 40
0.0
 40
0.0
 40
0.0
 40
0.0
 40
0.1109178874
 40
0.2286863567
 40
0.3520891309
 40
0.4797724201
 40
0.6101265415
 40
0.7414263518
 40
0.8719882142
 40
1.0
 40
1.0
 40
1.0
 40
1.0
 10
41.0131464688
 20
54.6537820022
 30
0.0
 10
40.8063343292
 20
54.7731823455
 30
0.0
 10
40.3952026651
 20
55.0464153882
 30
0.0
 10
39.8111643709
 20
55.5315202074
 30
0.0
 10
39.2509238438
 20
56.0959726214
 30
0.0
 10
38.7255037613
 20
56.7284362729
 30
0.0
 10
38.2452501376
 20
57.4166155961
 30
0.0
 10
37.819483168
 20
58.1469509761
 30
0.0
 10
37.4568141606
 20
58.9049411751
 30
0.0
 10
37.258925381
 20
59.426157166
 30
0.0
 10
37.1727203453
 20
59.6879362374
 30
0.0
  0
SPLINE
  5
3A1
100
AcDbEntity
  8
0
100
AcDbSpline
 62
7
  6
BYLAYER
 70
0
 71
3
 72
15
 73
11
 74
0
 42
0.0000001
 43
0.0000001
 44
0.0000000001
 40
0.0
 40
0.0
 40
0.0
 40
0.0
 40
0.1141555516
 40
0.2373276756
 40
0.3669773296
 40
0.5000011
 40
0.6330247168
 40
0.7626739247
 40
0.885845342
 40
1.0
 40
1.0
 40
1.0
 40
1.0
 10
45.6093596823
 20
48.7342074293
 30
0.0
 10
45.6093596823
 20
48.957791729
 30
0.0
 10
45.5684070368
 20
49.4230542922
 30
0.0
 10
45.4051501378
 20
50.1249533891
 30
0.0
 10
45.1436220045
 20
50.8359208843
 30
0.0
 10
44.7935964648
 20
51.5292221239
 30
0.0
 10
44.3681901266
 20
52.1790009978
 30
0.0
 10
43.8832368302
 20
52.7609702377
 30
0.0
 10
43.3570026063
 20
53.2532983419
 30
0.0
 10
42.9745500443
 20
53.521390738
 30
0.0
 10
42.7809207817
 20
53.6331801159
 30
0.0
  0
SPLINE
  5
3A2
100
AcDbEntity
  8
0
100
AcDbSpline
 62
7
  6
BYLAYER
 70
0
 71
3
 72
14
 73
10
 74
0
 42
0.0000001
 43
0.0000001
 44
0.0000000001
 40
0.0
 40
0.0
 40
0.0
 40
0.0
 40
0.1080466357
 40
0.2181307812
 40
0.3321113461
 40
0.4515001674
 40
0.5774437985
 40
0.7107269735
 40
1.0
 40
1.0
 40
1.0
 40
1.0
 10
44.7809084135
 20
13.834721683
 30
0.0
 10
44.8464900134
 20
13.8725850034
 30
0.0
 10
44.9725629812
 20
13.9605908934
 30
0.0
 10
45.1392021069
 20
14.124527995
 30
0.0
 10
45.2824472517
 20
14.3191654098
 30
0.0
 10
45.4011216935
 20
14.5421825014
 30
0.0
 10
45.4941896449
 20
14.7914451847
 30
0.0
 10
45.5856893271
 20
15.1655004741
 30
0.0
 10
45.6093596823
 20
15.4631158229
 30
0.0
 10
45.6093596823
 20
15.6658595356
 30
0.0
  0
SPLINE
  5
3A3
100
AcDbEntity
  8
0
100
AcDbSpline
 62
7
  6
BYLAYER
 70
0
 71
3
 72
14
 73
10
 74
0
 42
0.0000001
 43
0.0000001
 44
0.0000000001
 40
0.0
 40
0.0
 40
0.0
 40
0.0
 40
0.2892720607
 40
0.422554976
 40
0.5484985194
 40
0.6678874407
 40
0.781868291
 40
0.8919528621
 40
1.0
 40
1.0
 40
1.0
 40
1.0
 10
11.6680928752
 20
71.5957733148
 30
0.0
 10
11.4925159666
 20
71.697140397
 30
0.0
 10
11.222945141
 20
71.8254425476
 30
0.0
 10
10.8532638136
 20
71.9332228952
 30
0.0
 10
10.590868916
 20
71.9772519025
 30
0.0
 10
10.3383997549
 20
71.9859836928
 30
0.0
 10
10.0982222287
 20
71.9592483109
 30
0.0
 10
9.8729342407
 20
71.8969045258
 30
0.0
 10
9.7336853911
 20
71.8317269989
 30
0.0
 10
9.6681052434
 20
71.7938645169
 30
0.0
  0
SPLINE
  5
3A4
100
AcDbEntity
  8
0
100
AcDbSpline
 62
7
  6
BYLAYER
 70
0
 71
3
 72
12
 73
8
 74
0
 42
0.0000001
 43
0.0000001
 44
0.0000000001
 40
0.0
 40
0.0
 40
0.0
 40
0.0
 40
0.2895561202
 40
0.5486589467
 40
0.7816467095
 40
0.8918518863
 40
1.0
 40
1.0
 40
1.0
 40
1.0
 10
18.5564353527
 20
71.3747880194
 30
0.0
 10
18.4686547639
 20
71.4254670194
 30
0.0
 10
18.2940452511
 20
71.5085146221
 30
0.0
 10
18.0258755382
 20
71.5733997427
 30
0.0
 10
17.8117343106
 20
71.5676366788
 30
0.0
 10
17.6588484926
 20
71.5253657879
 30
0.0
 10
17.58922682
 20
71.4927627901
 30
0.0
 10
17.5564408296
 20
71.4738348486
 30
0.0
  0
SPLINE
  5
3A5
100
AcDbEntity
  8
0
100
AcDbSpline
 62
7
  6
BYLAYER
 70
0
 71
3
 72
15
 73
11
 74
0
 42
0.0000001
 43
0.0000001
 44
0.0000000001
 40
0.0
 40
0.0
 40
0.0
 40
0.0
 40
0.1080058488
 40
0.218057896
 40
0.3320024891
 40
0.4513574612
 40
0.5772616207
 40
0.7104948879
 40
0.8514631638
 40
1.0
 40
1.0
 40
1.0
 40
1.0
 10
16.4358514935
 20
70.2780296428
 30
0.0
 10
16.3374879824
 20
70.2212382679
 30
0.0
 10
16.128615464
 20
70.1234784585
 30
0.0
 10
15.7906865871
 20
70.0299709549
 30
0.0
 10
15.4304174006
 20
69.9898358645
 30
0.0
 10
15.0516983115
 20
70.0029656387
 30
0.0
 10
14.6581453934
 20
70.0689950895
 30
0.0
 10
14.2533595966
 20
70.1869687602
 30
0.0
 10
13.8413069432
 20
70.355695043
 30
0.0
 10
13.5711447043
 20
70.497070685
 30
0.0
 10
13.4358671881
 20
70.5751714285
 30
0.0
  0
SPLINE
  5
3A6
100
AcDbEntity
  8
0
100
AcDbSpline
 62
7
  6
BYLAYER
 70
0
 71
3
 72
13
 73
9
 74
0
 42
0.0000001
 43
0.0000001
 44
0.0000000001
 40
0.0
 40
0.0
 40
0.0
 40
0.0
 40
0.2893776722
 40
0.5483149914
 40
0.6677431632
 40
0.7817668512
 40
0.8919057346
 40
1.0
 40
1.0
 40
1.0
 40
1.0
 10
65.0547152057
 20
26.892573767
 30
0.0
 10
65.0547152057
 20
26.689848749
 30
0.0
 10
65.0241535878
 20
26.3045733159
 30
0.0
 10
64.8903134815
 20
25.8513332398
 30
0.0
 10
64.7278177842
 20
25.5458625951
 30
0.0
 10
64.5845033575
 20
25.3512905787
 30
0.0
 10
64.417951296
 20
25.1872716837
 30
0.0
 10
64.2918333813
 20
25.0993182937
 30
0.0
 10
64.2262526498
 20
25.0614554644
 30
0.0
  0
SPLINE
  5
3A7
100
AcDbEntity
  8
0
100
AcDbSpline
 62
7
  6
BYLAYER
 70
0
 71
3
 72
15
 73
11
 74
0
 42
0.0000001
 43
0.0000001
 44
0.0000000001
 40
0.0
 40
0.0
 40
0.0
 40
0.0
 40
0.1141465952
 40
0.2373352439
 40
0.366975646
 40
0.4999989181
 40
0.6330223406
 40
0.7626631822
 40
0.8858525235
 40
1.0
 40
1.0
 40
1.0
 40
1.0
 10
62.2262763051
 20
75.4744257701
 30
0.0
 10
62.4198915327
 20
75.3626444951
 30
0.0
 10
62.8023424228
 20
75.0945224237
 30
0.0
 10
63.3286059195
 20
74.60222512
 30
0.0
 10
63.8135255768
 20
74.020208811
 30
0.0
 10
64.2389513705
 20
73.3704673051
 30
0.0
 10
64.5889347973
 20
72.677167903
 30
0.0
 10
64.850520473
 20
71.966206041
 30
0.0
 10
65.0137360382
 20
71.2642970544
 30
0.0
 10
65.0547152057
 20
70.7990211527
 30
0.0
 10
65.0547152057
 20
70.5754530835
 30
0.0
  0
SPLINE
  5
3A8
100
AcDbEntity
  8
0
100
AcDbSpline
 62
7
  6
BYLAYER
 70
0
 71
3
 72
9
 73
5
 74
0
 42
0.0000001
 43
0.0000001
 44
0.0000000001
 40
0.0
 40
0.0
 40
0.0
 40
0.0
 40
0.5080559639
 40
1.0
 40
1.0
 40
1.0
 40
1.0
 10
46.3190410792
 20
14.8788995503
 30
0.0
 10
46.4226161815
 20
14.8883358674
 30
0.0
 10
46.6253918369
 20
14.9268240816
 30
0.0
 10
46.8149947314
 20
15.0091210196
 30
0.0
 10
46.9022086381
 20
15.0594736946
 30
0.0
  0
SPLINE
  5
3A9
100
AcDbEntity
  8
0
100
AcDbSpline
 62
7
  6
BYLAYER
 70
0
 71
3
 72
9
 73
5
 74
0
 42
0.0000001
 43
0.0000001
 44
0.0000000001
 40
0.0
 40
0.0
 40
0.0
 40
0.0
 40
0.4977689889
 40
1.0
 40
1.0
 40
1.0
 40
1.0
 10
38.2425916101
 20
60.306079625
 30
0.0
 10
38.4261482802
 20
59.8246936276
 30
0.0
 10
38.8559213817
 20
58.8800129106
 30
0.0
 10
39.393694057
 20
57.9925221388
 30
0.0
 10
39.6892187592
 20
57.5648884412
 30
0.0
  0
SPLINE
  5
3AA
100
AcDbEntity
  8
0
100
AcDbSpline
 62
7
  6
BYLAYER
 70
0
 71
3
 72
10
 73
6
 74
0
 42
0.0000001
 43
0.0000001
 44
0.0000000001
 40
0.0
 40
0.0
 40
0.0
 40
0.0
 40
0.2324012123
 40
0.4726816343
 40
1.0
 40
1.0
 40
1.0
 40
1.0
 10
52.5160699708
 20
78.3729086781
 30
0.0
 10
52.5160571738
 20
78.3406921638
 30
0.0
 10
52.5083153127
 20
78.2749198997
 30
0.0
 10
52.4614250023
 20
78.1435072875
 30
0.0
 10
52.3945214084
 20
78.0568028462
 30
0.0
 10
52.3422086193
 20
78.0057452643
 30
0.0
  0
SPLINE
  5
3AB
100
AcDbEntity
  8
0
100
AcDbSpline
 62
7
  6
BYLAYER
 70
0
 71
3
 72
9
 73
5
 74
0
 42
0.0000001
 43
0.0000001
 44
0.0000000001
 40
0.0
 40
0.0
 40
0.0
 40
0.0
 40
0.2376166133
 40
1.0
 40
1.0
 40
1.0
 40
1.0
 10
52.3422086193
 20
78.0057452643
 30
0.0
 10
52.328603486
 20
77.9924665763
 30
0.0
 10
52.2693027652
 20
77.9386861563
 30
0.0
 10
52.2028078932
 20
77.8931057446
 30
0.0
 10
52.1499833295
 20
77.8626076506
 30
0.0
  0
SPLINE
  5
3AC
100
AcDbEntity
  8
0
100
AcDbSpline
 62
7
  6
BYLAYER
 70
0
 71
3
 72
11
 73
7
 74
0
 42
0.0000001
 43
0.0000001
 44
0.0000000001
 40
0.0
 40
0.0
 40
0.0
 40
0.0
 40
0.2177648073
 40
0.4508950352
 40
0.7103684932
 40
1.0
 40
1.0
 40
1.0
 40
1.0
 10
38.3738754678
 20
86.5377237685
 30
0.0
 10
38.3738565579
 20
86.4901177202
 30
0.0
 10
38.3563383913
 20
86.3908792445
 30
0.0
 10
38.2810667382
 20
86.2526021453
 30
0.0
 10
38.1621210137
 20
86.1276392409
 30
0.0
 10
38.062623032
 20
86.0590810953
 30
0.0
 10
38.0077888266
 20
86.027422741
 30
0.0
  0
SPLINE
  5
3AD
100
AcDbEntity
  8
0
100
AcDbSpline
 62
7
  6
BYLAYER
 70
0
 71
3
 72
11
 73
7
 74
0
 42
0.0000001
 43
0.0000001
 44
0.0000000001
 40
0.0
 40
0.0
 40
0.0
 40
0.0
 40
0.2177648073
 40
0.4508950352
 40
0.7103684932
 40
1.0
 40
1.0
 40
1.0
 40
1.0
 10
38.3739932265
 20
70.2080256007
 30
0.0
 10
38.3739743166
 20
70.1604195524
 30
0.0
 10
38.35645615
 20
70.0611810766
 30
0.0
 10
38.2811844968
 20
69.9229039775
 30
0.0
 10
38.1622387724
 20
69.7979410731
 30
0.0
 10
38.0627407907
 20
69.7293829275
 30
0.0
 10
38.0079065852
 20
69.6977245732
 30
0.0
  0
SPLINE
  5
3AE
100
AcDbEntity
  8
0
100
AcDbSpline
 62
7
  6
BYLAYER
 70
0
 71
3
 72
11
 73
7
 74
0
 42
0.0000001
 43
0.0000001
 44
0.0000000001
 40
0.0
 40
0.0
 40
0.0
 40
0.0
 40
0.2177648073
 40
0.4508950352
 40
0.7103684932
 40
1.0
 40
1.0
 40
1.0
 40
1.0
 10
24.2317987236
 20
78.3728406911
 30
0.0
 10
24.2317798136
 20
78.3252346428
 30
0.0
 10
24.214261647
 20
78.225996167
 30
0.0
 10
24.1389899939
 20
78.0877190679
 30
0.0
 10
24.0200442694
 20
77.9627561635
 30
0.0
 10
23.9205462878
 20
77.8941980179
 30
0.0
 10
23.8657120823
 20
77.8625396636
 30
0.0
  0
SPLINE
  5
3AF
100
AcDbEntity
  8
0
100
AcDbSpline
 62
7
  6
BYLAYER
 70
0
 71
3
 72
9
 73
5
 74
0
 42
0.0000001
 43
0.0000001
 44
0.0000000001
 40
0.0
 40
0.0
 40
0.0
 40
0.0
 40
0.2559243936
 40
1.0
 40
1.0
 40
1.0
 40
1.0
 10
36.8654350545
 20
61.2667795705
 30
0.0
 10
36.8612580193
 20
61.2643679726
 30
0.0
 10
36.8447721614
 20
61.2552346249
 30
0.0
 10
36.827619141
 20
61.2472903716
 30
0.0
 10
36.8145556935
 20
61.2421921325
 30
0.0
  0
SPLINE
  5
3B0
100
AcDbEntity
  8
0
100
AcDbSpline
 62
7
  6
BYLAYER
 70
0
 71
3
 72
15
 73
11
 74
0
 42
0.0000001
 43
0.0000001
 44
0.0000000001
 40
0.0
 40
0.0
 40
0.0
 40
0.0
 40
0.1548071262
 40
0.3014843553
 40
0.4387701783
 40
0.5664008221
 40
0.6847848507
 40
0.7950627699
 40
0.8991907095
 40
1.0
 40
1.0
 40
1.0
 40
1.0
 10
21.7318339399
 20
77.7760574057
 30
0.0
 10
21.6397606861
 20
77.8067477564
 30
0.0
 10
21.4629765709
 20
77.8745409604
 30
0.0
 10
21.2166671026
 20
77.9981176911
 30
0.0
 10
21.0000396022
 20
78.1394737483
 30
0.0
 10
20.8167799201
 20
78.2961147257
 30
0.0
 10
20.6700986904
 20
78.4658571545
 30
0.0
 10
20.5624975456
 20
78.6460642529
 30
0.0
 10
20.4967570453
 20
78.8339257334
 30
0.0
 10
20.4818317243
 20
78.9628419965
 30
0.0
 10
20.4818376093
 20
79.0260425389
 30
0.0
  0
SPLINE
  5
3B1
100
AcDbEntity
  8
0
100
AcDbSpline
 62
7
  6
BYLAYER
 70
0
 71
3
 72
15
 73
11
 74
0
 42
0.0000001
 43
0.0000001
 44
0.0000000001
 40
0.0
 40
0.0
 40
0.0
 40
0.0
 40
0.146894413
 40
0.2889708463
 40
0.4251508517
 40
0.5546739193
 40
0.6769670319
 40
0.7917771205
 40
0.899273244
 40
1.0
 40
1.0
 40
1.0
 40
1.0
 10
33.0470266589
 20
72.0514334757
 30
0.0
 10
32.5905564232
 20
72.1403721138
 30
0.0
 10
31.6983418739
 20
72.3469092921
 30
0.0
 10
30.4122685926
 20
72.7484292407
 30
0.0
 10
29.2137370721
 20
73.232371175
 30
0.0
 10
28.1184328271
 20
73.7923606479
 30
0.0
 10
27.1405182188
 20
74.421505812
 30
0.0
 10
26.2925241318
 20
75.1120798115
 30
0.0
 10
25.586015696
 20
75.85554952
 30
0.0
 10
25.204316208
 20
76.3969277269
 30
0.0
 10
25.0433856532
 20
76.6722332283
 30
0.0
  0
SPLINE
  5
3B2
100
AcDbEntity
  8
0
100
AcDbSpline
 62
7
  6
BYLAYER
 70
0
 71
3
 72
15
 73
11
 74
0
 42
0.0000001
 43
0.0000001
 44
0.0000000001
 40
0.0
 40
0.0
 40
0.0
 40
0.0
 40
0.1180899799
 40
0.2465607129
 40
0.3815646606
 40
0.518619164
 40
0.6529607566
 40
0.7801238804
 40
0.8965310755
 40
1.0
 40
1.0
 40
1.0
 40
1.0
 10
38.8917937416
 20
69.8406255637
 30
0.0
 10
38.7496764326
 20
69.7585745869
 30
0.0
 10
38.4349553174
 20
69.6177085265
 30
0.0
 10
37.9210724201
 20
69.4801311045
 30
0.0
 10
37.3668879513
 20
69.4122969368
 30
0.0
 10
36.8005638856
 20
69.4175262845
 30
0.0
 10
36.2505522932
 20
69.4956621942
 30
0.0
 10
35.7442587614
 20
69.6427869586
 30
0.0
 10
35.3070965483
 20
69.8517311123
 30
0.0
 10
35.0606334536
 20
70.0378748276
 30
0.0
 10
34.9589611236
 20
70.1395447265
 30
0.0
  0
SPLINE
  5
3B3
100
AcDbEntity
  8
0
100
AcDbSpline
 62
7
  6
BYLAYER
 70
0
 71
3
 72
9
 73
5
 74
0
 42
0.0000001
 43
0.0000001
 44
0.0000000001
 40
0.0
 40
0.0
 40
0.0
 40
0.0
 40
0.2366975963
 40
1.0
 40
1.0
 40
1.0
 40
1.0
 10
39.2890881424
 20
70.1395551349
 30
0.0
 10
39.2613036822
 20
70.1117708047
 30
0.0
 10
39.1394025706
 20
69.9989165869
 30
0.0
 10
39.0015299644
 20
69.9039814233
 30
0.0
 10
38.8917937416
 20
69.8406255637
 30
0.0
  0
SPLINE
  5
3B4
100
AcDbEntity
  8
0
100
AcDbSpline
 62
7
  6
BYLAYER
 70
0
 71
3
 72
11
 73
7
 74
0
 42
0.0000001
 43
0.0000001
 44
0.0000000001
 40
0.0
 40
0.0
 40
0.0
 40
0.0
 40
0.2334862647
 40
0.4790381954
 40
0.7351670147
 40
1.0
 40
1.0
 40
1.0
 40
1.0
 10
46.1396095451
 20
73.8210069138
 30
0.0
 10
45.7845286214
 20
73.6160020707
 30
0.0
 10
45.0342065186
 20
73.2324022739
 30
0.0
 10
43.8358005417
 20
72.7484549475
 30
0.0
 10
42.5496472331
 20
72.3469440798
 30
0.0
 10
41.6574684686
 20
72.1403947815
 30
0.0
 10
41.2009950326
 20
72.0514530754
 30
0.0
  0
SPLINE
  5
3B5
100
AcDbEntity
  8
0
100
AcDbSpline
 62
7
  6
BYLAYER
 70
0
 71
3
 72
11
 73
7
 74
0
 42
0.0000001
 43
0.0000001
 44
0.0000000001
 40
0.0
 40
0.0
 40
0.0
 40
0.0
 40
0.2262462035
 40
0.5941787446
 40
0.7924357716
 40
1.0
 40
1.0
 40
1.0
 40
1.0
 10
49.2045693939
 20
76.6722913047
 30
0.0
 10
49.0436404496
 20
76.396980992
 30
0.0
 10
48.5588474399
 20
75.7094392713
 30
0.0
 10
47.7526747782
 20
74.9245090555
 30
0.0
 10
46.878231404
 20
74.2716076507
 30
0.0
 10
46.3929764733
 20
73.9672875049
 30
0.0
 10
46.1396095451
 20
73.8210069138
 30
0.0
  0
SPLINE
  5
3B6
100
AcDbEntity
  8
0
100
AcDbSpline
 62
7
  6
BYLAYER
 70
0
 71
3
 72
9
 73
5
 74
0
 42
0.0000001
 43
0.0000001
 44
0.0000000001
 40
0.0
 40
0.0
 40
0.0
 40
0.0
 40
0.239457577
 40
1.0
 40
1.0
 40
1.0
 40
1.0
 10
53.0338704859
 20
78.0055086412
 30
0.0
 10
52.9946865877
 20
77.982885942
 30
0.0
 10
52.8283380019
 20
77.8931325948
 30
0.0
 10
52.6524355774
 20
77.8215746527
 30
0.0
 10
52.5161051871
 20
77.776131402
 30
0.0
  0
SPLINE
  5
3B7
100
AcDbEntity
  8
0
100
AcDbSpline
 62
7
  6
BYLAYER
 70
0
 71
3
 72
12
 73
8
 74
0
 42
0.0000001
 43
0.0000001
 44
0.0000000001
 40
0.0
 40
0.0
 40
0.0
 40
0.0
 40
0.1081663833
 40
0.2183675081
 40
0.4513155354
 40
0.710511041
 40
1.0
 40
1.0
 40
1.0
 40
1.0
 10
53.7660834895
 20
79.026110529
 30
0.0
 10
53.7660790824
 20
78.9787817049
 30
0.0
 10
53.7577951913
 20
78.883040925
 30
0.0
 10
53.7081132234
 20
78.6911097516
 30
0.0
 10
53.5804506937
 20
78.4556869515
 30
0.0
 10
53.3425831265
 20
78.2059931372
 30
0.0
 10
53.1435679762
 20
78.0688421386
 30
0.0
 10
53.0338704859
 20
78.0055086412
 30
0.0
  0
SPLINE
  5
3B8
100
AcDbEntity
  8
0
100
AcDbSpline
 62
7
  6
BYLAYER
 70
0
 71
3
 72
9
 73
5
 74
0
 42
0.0000001
 43
0.0000001
 44
0.0000000001
 40
0.0
 40
0.0
 40
0.0
 40
0.0
 40
0.5061241876
 40
1.0
 40
1.0
 40
1.0
 40
1.0
 10
29.8323324089
 20
88.0529913095
 30
0.0
 10
30.0317356397
 20
87.7883647063
 30
0.0
 10
30.3764935231
 20
87.2270144372
 30
0.0
 10
30.6138230799
 20
86.6118394958
 30
0.0
 10
30.6974233163
 20
86.2995090126
 30
0.0
  0
SPLINE
  5
3B9
100
AcDbEntity
  8
0
100
AcDbSpline
 62
7
  6
BYLAYER
 70
0
 71
3
 72
25
 73
21
 74
0
 42
0.0000001
 43
0.0000001
 44
0.0000000001
 40
0.0
 40
0.0
 40
0.0
 40
0.0
 40
0.0213320054
 40
0.0428925534
 40
0.0648979327
 40
0.0875425817
 40
0.1353176816
 40
0.187218742
 40
0.2436564433
 40
0.3046040519
 40
0.3696912687
 40
0.4382880222
 40
0.5095742426
 40
0.5825986857
 40
0.6563304902
 40
0.7297062671
 40
0.8016835588
 40
0.8712734061
 40
0.9376202273
 40
1.0
 40
1.0
 40
1.0
 40
1.0
 10
47.5239260335
 20
78.3728745473
 30
0.0
 10
47.5239262184
 20
78.2253383477
 30
0.0
 10
47.5049264329
 20
77.9283392143
 30
0.0
 10
47.4195523204
 20
77.4865585152
 30
0.0
 10
47.2780179681
 20
77.0498666437
 30
0.0
 10
47.0109969996
 20
76.4677111923
 30
0.0
 10
46.5318384598
 20
75.7626096339
 30
0.0
 10
45.7663797966
 20
74.9941027932
 30
0.0
 10
44.8177620834
 20
74.3009023211
 30
0.0
 10
43.7063201049
 20
73.6964252231
 30
0.0
 10
42.4552910494
 20
73.1924249623
 30
0.0
 10
41.0909641178
 20
72.7992226706
 30
0.0
 10
39.6421716042
 20
72.5250100663
 30
0.0
 10
38.1396901178
 20
72.3755907296
 30
0.0
 10
36.6155506358
 20
72.3541539478
 30
0.0
 10
35.1022458504
 20
72.4611186239
 30
0.0
 10
33.6320979776
 20
72.6942612741
 30
0.0
 10
32.2361802224
 20
73.0485688811
 30
0.0
 10
30.9444893664
 20
73.5166339764
 30
0.0
 10
30.1437124008
 20
73.9114238838
 30
0.0
 10
29.7700806424
 20
74.1271354
 30
0.0
  0
SPLINE
  5
3BA
100
AcDbEntity
  8
0
100
AcDbSpline
 62
7
  6
BYLAYER
 70
0
 71
3
 72
11
 73
7
 74
0
 42
0.0000001
 43
0.0000001
 44
0.0000000001
 40
0.0
 40
0.0
 40
0.0
 40
0.0
 40
0.2625940412
 40
0.5234863964
 40
0.7722286605
 40
1.0
 40
1.0
 40
1.0
 40
1.0
 10
58.8238311399
 20
71.3151203742
 30
0.0
 10
58.9777339001
 20
71.1108771205
 30
0.0
 10
59.2547713462
 20
70.6804492772
 30
0.0
 10
59.5696549893
 20
69.9946802177
 30
0.0
 10
59.7700795103
 20
69.3022611144
 30
0.0
 10
59.8221326792
 20
68.8376809998
 30
0.0
 10
59.8221326792
 20
68.6158574661
 30
0.0
  0
SPLINE
  5
3BB
100
AcDbEntity
  8
0
100
AcDbSpline
 62
7
  6
BYLAYER
 70
0
 71
3
 72
13
 73
9
 74
0
 42
0.0000001
 43
0.0000001
 44
0.0000000001
 40
0.0
 40
0.0
 40
0.0
 40
0.0
 40
0.2893189141
 40
0.5483048644
 40
0.667722033
 40
0.7817103329
 40
0.8918443752
 40
1.0
 40
1.0
 40
1.0
 40
1.0
 10
59.8221326792
 20
68.6158574661
 30
0.0
 10
59.8221326792
 20
68.4587779925
 30
0.0
 10
59.798434272
 20
68.1601952909
 30
0.0
 10
59.6947048855
 20
67.8089548161
 30
0.0
 10
59.5688229998
 20
67.5721875874
 30
0.0
 10
59.457774801
 20
67.4214111885
 30
0.0
 10
59.3286874173
 20
67.2942962832
 30
0.0
 10
59.2309363032
 20
67.2260865781
 30
0.0
 10
59.1800697815
 20
67.1967484549
 30
0.0
  0
SPLINE
  5
3BC
100
AcDbEntity
  8
0
100
AcDbSpline
 62
7
  6
BYLAYER
 70
0
 71
3
 72
11
 73
7
 74
0
 42
0.0000001
 43
0.0000001
 44
0.0000000001
 40
0.0
 40
0.0
 40
0.0
 40
0.0
 40
0.2462209285
 40
0.4983870987
 40
0.751365745
 40
1.0
 40
1.0
 40
1.0
 40
1.0
 10
42.8236053982
 20
13.9734006049
 30
0.0
 10
42.0775347117
 20
13.7919132234
 30
0.0
 10
40.544203345
 20
13.5149216826
 30
0.0
 10
38.2025383923
 20
13.3515914416
 30
0.0
 10
35.8492241299
 20
13.4367908555
 30
0.0
 10
34.2973463916
 20
13.6614910585
 30
0.0
 10
33.537735006
 20
13.8169369001
 30
0.0
  0
SPLINE
  5
3BD
100
AcDbEntity
  8
0
100
AcDbSpline
 62
7
  6
BYLAYER
 70
0
 71
3
 72
11
 73
7
 74
0
 42
0.0000001
 43
0.0000001
 44
0.0000000001
 40
0.0
 40
0.0
 40
0.0
 40
0.0
 40
0.2217561417
 40
0.4625895052
 40
0.7224856983
 40
1.0
 40
1.0
 40
1.0
 40
1.0
 10
60.314044593
 20
76.6605217906
 30
0.0
 10
60.4811060644
 20
76.6340282153
 30
0.0
 10
60.8246943367
 20
76.545178635
 30
0.0
 10
61.3320761335
 20
76.32573084
 30
0.0
 10
61.8424785937
 20
76.0197319998
 30
0.0
 10
62.1683639989
 20
75.7695616728
 30
0.0
 10
62.3297105518
 20
75.6325373433
 30
0.0
  0
SPLINE
  5
3BE
100
AcDbEntity
  8
0
100
AcDbSpline
 62
7
  6
BYLAYER
 70
0
 71
3
 72
9
 73
5
 74
0
 42
0.0000001
 43
0.0000001
 44
0.0000000001
 40
0.0
 40
0.0
 40
0.0
 40
0.0
 40
0.4886386143
 40
1.0
 40
1.0
 40
1.0
 40
1.0
 10
62.3297105518
 20
75.6325373433
 30
0.0
 10
62.5486049966
 20
75.4466401922
 30
0.0
 10
62.9713261198
 20
75.0358728135
 30
0.0
 10
63.3435032126
 20
74.5792976481
 30
0.0
 10
63.5206563292
 20
74.3365262464
 30
0.0
  0
SPLINE
  5
3BF
100
AcDbEntity
  8
0
100
AcDbSpline
 62
7
  6
BYLAYER
 70
0
 71
3
 72
11
 73
7
 74
0
 42
0.0000001
 43
0.0000001
 44
0.0000000001
 40
0.0
 40
0.0
 40
0.0
 40
0.0
 40
0.2175660693
 40
0.4575661279
 40
0.7193248605
 40
1.0
 40
1.0
 40
1.0
 40
1.0
 10
31.322545862
 20
93.3983927259
 30
0.0
 10
31.525051696
 20
93.3662781784
 30
0.0
 10
31.9436624967
 20
93.2490836439
 30
0.0
 10
32.5556418634
 20
92.9512330946
 30
0.0
 10
33.1654833556
 20
92.5326504484
 30
0.0
 10
33.5478556216
 20
92.1912514079
 30
0.0
 10
33.7351711356
 20
92.0044921406
 30
0.0
  0
SPLINE
  5
3C0
100
AcDbEntity
  8
0
100
AcDbSpline
 62
7
  6
BYLAYER
 70
0
 71
3
 72
13
 73
9
 74
0
 42
0.0000001
 43
0.0000001
 44
0.0000000001
 40
0.0
 40
0.0
 40
0.0
 40
0.0
 40
0.1080942654
 40
0.2182331488
 40
0.3322568368
 40
0.4516850086
 40
0.7106223278
 40
1.0
 40
1.0
 40
1.0
 40
1.0
 10
25.5779528678
 20
91.5938698518
 30
0.0
 10
25.5123721363
 20
91.5560070225
 30
0.0
 10
25.3862542216
 20
91.4680536324
 30
0.0
 10
25.2197021601
 20
91.3040347375
 30
0.0
 10
25.0763877334
 20
91.1094627211
 30
0.0
 10
24.9138920361
 20
90.8039920763
 30
0.0
 10
24.7800519298
 20
90.3507520003
 30
0.0
 10
24.7494903119
 20
89.9654765672
 30
0.0
 10
24.7494903119
 20
89.7627515492
 30
0.0
  0
SPLINE
  5
3C1
100
AcDbEntity
  8
0
100
AcDbSpline
 62
7
  6
BYLAYER
 70
0
 71
3
 72
13
 73
9
 74
0
 42
0.0000001
 43
0.0000001
 44
0.0000000001
 40
0.0
 40
0.0
 40
0.0
 40
0.0
 40
0.1080947724
 40
0.2182340858
 40
0.3322580584
 40
0.4516863355
 40
0.7106233083
 40
1.0
 40
1.0
 40
1.0
 40
1.0
 10
29.1134720539
 20
93.6350906211
 30
0.0
 10
29.1790513367
 20
93.672952614
 30
0.0
 10
29.3182772127
 20
93.7381953001
 30
0.0
 10
29.5435925087
 20
93.8004227881
 30
0.0
 10
29.7837480472
 20
93.8272508855
 30
0.0
 10
30.1295320421
 20
93.8152432351
 30
0.0
 10
30.5889571856
 20
93.7045390981
 30
0.0
 10
30.9378876865
 20
93.5383767003
 30
0.0
 10
31.1134483986
 20
93.437018969
 30
0.0
  0
SPLINE
  5
3C2
100
AcDbEntity
  8
0
100
AcDbSpline
 62
7
  6
BYLAYER
 70
0
 71
3
 72
9
 73
5
 74
0
 42
0.0000001
 43
0.0000001
 44
0.0000000001
 40
0.0
 40
0.0
 40
0.0
 40
0.0
 40
0.4919439829
 40
1.0
 40
1.0
 40
1.0
 40
1.0
 10
11.7894280421
 20
73.0185774286
 30
0.0
 10
11.7022138502
 20
72.9682245889
 30
0.0
 10
11.5361399915
 20
72.845172523
 30
0.0
 10
11.4014192996
 20
72.6888077665
 30
0.0
 10
11.3414591246
 20
72.6038271882
 30
0.0
  0
SPLINE
  5
3C3
100
AcDbEntity
  8
0
100
AcDbSpline
 62
7
  6
BYLAYER
 70
0
 71
3
 72
10
 73
6
 74
0
 42
0.0000001
 43
0.0000001
 44
0.0000000001
 40
0.0
 40
0.0
 40
0.0
 40
0.0
 40
0.267453295
 40
0.5237158843
 40
1.0
 40
1.0
 40
1.0
 40
1.0
 10
18.2329813343
 20
78.9651455806
 30
0.0
 10
18.2354356809
 20
78.9892147704
 30
0.0
 10
18.2432021405
 20
79.0362034476
 30
0.0
 10
18.2715161503
 20
79.1221366336
 30
0.0
 10
18.3122975508
 20
79.179001954
 30
0.0
 10
18.3469169989
 20
79.2046497399
 30
0.0
  0
SPLINE
  5
3C4
100
AcDbEntity
  8
0
100
AcDbSpline
 62
7
  6
BYLAYER
 70
0
 71
3
 72
11
 73
7
 74
0
 42
0.0000001
 43
0.0000001
 44
0.0000000001
 40
0.0
 40
0.0
 40
0.0
 40
0.0
 40
0.2693095347
 40
0.5274295573
 40
0.7711889471
 40
1.0
 40
1.0
 40
1.0
 40
1.0
 10
36.5293708299
 20
61.2916995883
 30
0.0
 10
36.5525687653
 20
61.2783046812
 30
0.0
 10
36.5996753939
 20
61.2548080688
 30
0.0
 10
36.6732102992
 20
61.2314872443
 30
0.0
 10
36.7462620887
 20
61.2248272345
 30
0.0
 10
36.7933539141
 20
61.2339177688
 30
0.0
 10
36.8145556935
 20
61.2421921325
 30
0.0
  0
SPLINE
  5
3C5
100
AcDbEntity
  8
0
100
AcDbSpline
 62
7
  6
BYLAYER
 70
0
 71
3
 72
9
 73
5
 74
0
 42
0.0000001
 43
0.0000001
 44
0.0000000001
 40
0.0
 40
0.0
 40
0.0
 40
0.0
 40
0.5007563738
 40
1.0
 40
1.0
 40
1.0
 40
1.0
 10
25.4582215976
 20
18.5354291154
 30
0.0
 10
25.4790860577
 20
18.5020080964
 30
0.0
 10
25.5289432541
 20
18.4399654708
 30
0.0
 10
25.5927158439
 20
18.3923671599
 30
0.0
 10
25.6267331229
 20
18.3727266305
 30
0.0
  0
SPLINE
  5
3C6
100
AcDbEntity
  8
0
100
AcDbSpline
 62
7
  6
BYLAYER
 70
0
 71
3
 72
11
 73
7
 74
0
 42
0.0000001
 43
0.0000001
 44
0.0000000001
 40
0.0
 40
0.0
 40
0.0
 40
0.0
 40
0.2566044857
 40
0.5075552443
 40
0.7546649995
 40
1.0
 40
1.0
 40
1.0
 40
1.0
 10
25.4582238936
 20
18.53542775
 30
0.0
 10
25.3181001296
 20
18.7599198445
 30
0.0
 10
25.0674269911
 20
19.2213281156
 30
0.0
 10
24.7892797328
 20
19.9507765608
 30
0.0
 10
24.6191953615
 20
20.7009797489
 30
0.0
 10
24.5810643867
 20
21.2096368051
 30
0.0
 10
24.5810643867
 20
21.4626490716
 30
0.0
  0
SPLINE
  5
3C7
100
AcDbEntity
  8
0
100
AcDbSpline
 62
7
  6
BYLAYER
 70
0
 71
3
 72
15
 73
11
 74
0
 42
0.0000001
 43
0.0000001
 44
0.0000000001
 40
0.0
 40
0.0
 40
0.0
 40
0.0
 40
0.1160940277
 40
0.2420260459
 40
0.3744340655
 40
0.50960133
 40
0.6433983139
 40
0.7718597284
 40
0.8915485133
 40
1.0
 40
1.0
 40
1.0
 40
1.0
 10
23.8657120823
 20
77.8625396636
 30
0.0
 10
23.7995002533
 20
77.8243124745
 30
0.0
 10
23.6536401258
 20
77.7578622099
 30
0.0
 10
23.4157426428
 20
77.6902479194
 30
0.0
 10
23.1585619281
 20
77.6529581398
 30
0.0
 10
22.8936361111
 20
77.6475214151
 30
0.0
 10
22.63259843
 20
77.6742591687
 30
0.0
 10
22.3869667349
 20
77.731992127
 30
0.0
 10
22.1675915006
 20
77.8181275555
 30
0.0
 10
22.038094263
 20
77.8964872388
 30
0.0
 10
21.9815190025
 20
77.9400795929
 30
0.0
  0
SPLINE
  5
3C8
100
AcDbEntity
  8
0
100
AcDbSpline
 62
7
  6
BYLAYER
 70
0
 71
3
 72
11
 73
7
 74
0
 42
0.0000001
 43
0.0000001
 44
0.0000000001
 40
0.0
 40
0.0
 40
0.0
 40
0.0
 40
0.2810166062
 40
0.5374152336
 40
0.7742094013
 40
1.0
 40
1.0
 40
1.0
 40
1.0
 10
21.9815190025
 20
77.9400795929
 30
0.0
 10
21.943186802
 20
77.9696153094
 30
0.0
 10
21.874017375
 20
78.0319179518
 30
0.0
 10
21.793326896
 20
78.1392867821
 30
0.0
 10
21.743301099
 20
78.2539088985
 30
0.0
 10
21.7318356838
 20
78.3339592058
 30
0.0
 10
21.7318511281
 20
78.3728405224
 30
0.0
  0
SPLINE
  5
3C9
100
AcDbEntity
  8
0
100
AcDbSpline
 62
7
  6
BYLAYER
 70
0
 71
3
 72
17
 73
13
 74
0
 42
0.0000001
 43
0.0000001
 44
0.0000000001
 40
0.0
 40
0.0
 40
0.0
 40
0.0
 40
0.128688448
 40
0.2702796817
 40
0.4174325464
 40
0.5617749928
 40
0.6954478191
 40
0.8127119577
 40
0.8646769781
 40
0.912510124
 40
0.9571398159
 40
1.0
 40
1.0
 40
1.0
 40
1.0
 10
38.0079065852
 20
69.6977245732
 30
0.0
 10
37.9153774741
 20
69.6443031849
 30
0.0
 10
37.7058747762
 20
69.5578630686
 30
0.0
 10
37.3644312429
 20
69.4895481377
 30
0.0
 10
37.0032915199
 20
69.4795509144
 30
0.0
 10
36.6519314072
 20
69.5289229885
 30
0.0
 10
36.3388323666
 20
69.6335016007
 30
0.0
 10
36.1210717205
 20
69.7660551416
 30
0.0
 10
35.9932794252
 20
69.894311556
 30
0.0
 10
35.9253880869
 20
69.9941653985
 30
0.0
 10
35.8835532785
 20
70.0994911852
 30
0.0
 10
35.8740314963
 20
70.1724408765
 30
0.0
 10
35.8740456311
 20
70.208025432
 30
0.0
  0
SPLINE
  5
3CA
100
AcDbEntity
  8
0
100
AcDbSpline
 62
7
  6
BYLAYER
 70
0
 71
3
 72
17
 73
13
 74
0
 42
0.0000001
 43
0.0000001
 44
0.0000000001
 40
0.0
 40
0.0
 40
0.0
 40
0.0
 40
0.128688448
 40
0.2702796817
 40
0.4174325464
 40
0.5617749928
 40
0.6954478191
 40
0.8127119577
 40
0.8646769781
 40
0.912510124
 40
0.9571398159
 40
1.0
 40
1.0
 40
1.0
 40
1.0
 10
38.0077888266
 20
86.027422741
 30
0.0
 10
37.9152597155
 20
85.9740013527
 30
0.0
 10
37.7057570176
 20
85.8875612364
 30
0.0
 10
37.3643134842
 20
85.8192463056
 30
0.0
 10
37.0031737612
 20
85.8092490823
 30
0.0
 10
36.6518136485
 20
85.8586211563
 30
0.0
 10
36.3387146079
 20
85.9631997685
 30
0.0
 10
36.1209539618
 20
86.0957533094
 30
0.0
 10
35.9931616666
 20
86.2240097238
 30
0.0
 10
35.9252703282
 20
86.3238635663
 30
0.0
 10
35.8834355198
 20
86.429189353
 30
0.0
 10
35.8739137376
 20
86.5021390443
 30
0.0
 10
35.8739278724
 20
86.5377235998
 30
0.0
  0
SPLINE
  5
3CB
100
AcDbEntity
  8
0
100
AcDbSpline
 62
7
  6
BYLAYER
 70
0
 71
3
 72
17
 73
13
 74
0
 42
0.0000001
 43
0.0000001
 44
0.0000000001
 40
0.0
 40
0.0
 40
0.0
 40
0.0
 40
0.128688448
 40
0.2702796817
 40
0.4174325464
 40
0.5617749928
 40
0.6954478191
 40
0.8127119577
 40
0.8646769781
 40
0.912510124
 40
0.9571398159
 40
1.0
 40
1.0
 40
1.0
 40
1.0
 10
52.1499833295
 20
77.8626076506
 30
0.0
 10
52.0574542184
 20
77.8091862623
 30
0.0
 10
51.8479515205
 20
77.722746146
 30
0.0
 10
51.5065079872
 20
77.6544312152
 30
0.0
 10
51.1453682642
 20
77.6444339918
 30
0.0
 10
50.7940081515
 20
77.6938060659
 30
0.0
 10
50.4809091109
 20
77.7983846781
 30
0.0
 10
50.2631484647
 20
77.930938219
 30
0.0
 10
50.1353561695
 20
78.0591946334
 30
0.0
 10
50.0674648312
 20
78.1590484759
 30
0.0
 10
50.0256300228
 20
78.2643742626
 30
0.0
 10
50.0161082406
 20
78.3373239539
 30
0.0
 10
50.0161223753
 20
78.3729085094
 30
0.0
  0
SPLINE
  5
3CC
100
AcDbEntity
  8
0
100
AcDbSpline
 62
7
  6
BYLAYER
 70
0
 71
3
 72
15
 73
11
 74
0
 42
0.0000001
 43
0.0000001
 44
0.0000000001
 40
0.0
 40
0.0
 40
0.0
 40
0.0
 40
0.1485553977
 40
0.2895098787
 40
0.4227336361
 40
0.5486417242
 40
0.6680027886
 40
0.7819406183
 40
0.8919879846
 40
1.0
 40
1.0
 40
1.0
 40
1.0
 10
29.7700806424
 20
74.1271354
 30
0.0
 10
29.535568898
 20
74.2625277558
 30
0.0
 10
29.0891757724
 20
74.5455197335
 30
0.0
 10
28.478806686
 20
75.0178444807
 30
0.0
 10
27.9508909829
 20
75.5231769337
 30
0.0
 10
27.510722974
 20
76.0567422206
 30
0.0
 10
27.1626886496
 20
76.61381692
 30
0.0
 10
26.9107974964
 20
77.1894338685
 30
0.0
 10
26.7581423034
 20
77.777701975
 30
0.0
 10
26.723995312
 20
78.1759885141
 30
0.0
 10
26.7239950654
 20
78.3728746531
 30
0.0
  0
SPLINE
  5
3CD
100
AcDbEntity
  8
0
100
AcDbSpline
 62
7
  6
BYLAYER
 70
0
 71
3
 72
11
 73
7
 74
0
 42
0.0000001
 43
0.0000001
 44
0.0000000001
 40
0.0
 40
0.0
 40
0.0
 40
0.0
 40
0.2395356776
 40
0.4908278145
 40
0.7466941428
 40
1.0
 40
1.0
 40
1.0
 40
1.0
 10
42.011896984
 20
56.026837704
 30
0.0
 10
42.1004337056
 20
55.9511762874
 30
0.0
 10
42.2703377407
 20
55.7823415484
 30
0.0
 10
42.4937131463
 20
55.4950606426
 30
0.0
 10
42.6844491874
 20
55.1773402708
 30
0.0
 10
42.7861435155
 20
54.9508367964
 30
0.0
 10
42.8293222633
 20
54.8354970459
 30
0.0
  0
SPLINE
  5
3CE
100
AcDbEntity
  8
0
100
AcDbSpline
 62
7
  6
BYLAYER
 70
0
 71
3
 72
11
 73
7
 74
0
 42
0.0000001
 43
0.0000001
 44
0.0000000001
 40
0.0
 40
0.0
 40
0.0
 40
0.0
 40
0.2518207248
 40
0.5078605774
 40
0.7598702857
 40
1.0
 40
1.0
 40
1.0
 40
1.0
 10
38.8069640254
 20
60.8557553364
 30
0.0
 10
38.9642790595
 20
60.3898744704
 30
0.0
 10
39.3472049354
 20
59.4714248911
 30
0.0
 10
40.0890324209
 20
58.1820362407
 30
0.0
 10
40.97407232
 20
57.0148229509
 30
0.0
 10
41.6554331837
 20
56.3314633508
 30
0.0
 10
42.011896984
 20
56.026837704
 30
0.0
  0
SPLINE
  5
3CF
100
AcDbEntity
  8
0
100
AcDbSpline
 62
7
  6
BYLAYER
 70
0
 71
3
 72
11
 73
7
 74
0
 42
0.0000001
 43
0.0000001
 44
0.0000000001
 40
0.0
 40
0.0
 40
0.0
 40
0.0
 40
0.2284785597
 40
0.4793447033
 40
0.7409875564
 40
1.0
 40
1.0
 40
1.0
 40
1.0
 10
38.1705678556
 20
61.6837616314
 30
0.0
 10
38.2407332855
 20
61.643252518
 30
0.0
 10
38.3773520504
 20
61.5395441404
 30
0.0
 10
38.5543400833
 20
61.3437551942
 30
0.0
 10
38.7030288373
 20
61.1127619174
 30
0.0
 10
38.7775798407
 20
60.9427751784
 30
0.0
 10
38.8069640254
 20
60.8557553364
 30
0.0
  0
SPLINE
  5
3D0
100
AcDbEntity
  8
0
100
AcDbSpline
 62
7
  6
BYLAYER
 70
0
 71
3
 72
15
 73
11
 74
0
 42
0.0000001
 43
0.0000001
 44
0.0000000001
 40
0.0
 40
0.0
 40
0.0
 40
0.0
 40
0.1125398123
 40
0.2333588818
 40
0.3604440417
 40
0.4913941392
 40
0.6235165121
 40
0.7540422224
 40
0.8803427018
 40
1.0
 40
1.0
 40
1.0
 40
1.0
 10
43.1344579805
 20
55.8785144638
 30
0.0
 10
42.8729029507
 20
56.0295199145
 30
0.0
 10
42.3549971901
 20
56.3860287147
 30
0.0
 10
41.6340330708
 20
57.0341609053
 30
0.0
 10
40.9593494219
 20
57.7975506799
 30
0.0
 10
40.3516885919
 20
58.6524992525
 30
0.0
 10
39.8297409262
 20
59.5728925716
 30
0.0
 10
39.4094171855
 20
60.5304276422
 30
0.0
 10
39.1038666026
 20
61.4954781389
 30
0.0
 10
38.9787285477
 20
62.1456597483
 30
0.0
 10
38.9398010803
 20
62.4644082948
 30
0.0
  0
SPLINE
  5
3D1
100
AcDbEntity
  8
0
100
AcDbSpline
 62
7
  6
BYLAYER
 70
0
 71
3
 72
13
 73
9
 74
0
 42
0.0000001
 43
0.0000001
 44
0.0000000001
 40
0.0
 40
0.0
 40
0.0
 40
0.0
 40
0.1080942654
 40
0.2182331488
 40
0.3322568368
 40
0.4516850086
 40
0.7106223278
 40
1.0
 40
1.0
 40
1.0
 40
1.0
 10
46.9022086381
 20
15.0594736946
 30
0.0
 10
46.9677893695
 20
15.0973365239
 30
0.0
 10
47.0939072843
 20
15.1852899139
 30
0.0
 10
47.2604593458
 20
15.3493088089
 30
0.0
 10
47.4037737725
 20
15.5438808252
 30
0.0
 10
47.5662694698
 20
15.84935147
 30
0.0
 10
47.7001095761
 20
16.3025915461
 30
0.0
 10
47.7306711939
 20
16.6878669792
 30
0.0
 10
47.7306711939
 20
16.8905919972
 30
0.0
  0
SPLINE
  5
3D2
100
AcDbEntity
  8
0
100
AcDbSpline
 62
7
  6
BYLAYER
 70
0
 71
3
 72
15
 73
11
 74
0
 42
0.0000001
 43
0.0000001
 44
0.0000000001
 40
0.0
 40
0.0
 40
0.0
 40
0.0
 40
0.1141474765
 40
0.2373368178
 40
0.3669776594
 40
0.5000010819
 40
0.633024354
 40
0.7626647561
 40
0.8858534048
 40
1.0
 40
1.0
 40
1.0
 40
1.0
 10
47.7306711939
 20
49.9589398909
 30
0.0
 10
47.7306711939
 20
50.1825079602
 30
0.0
 10
47.6896920264
 20
50.6477838619
 30
0.0
 10
47.5264764613
 20
51.3496928485
 30
0.0
 10
47.2648907856
 20
52.0606547104
 30
0.0
 10
46.9149073587
 20
52.7539541126
 30
0.0
 10
46.489481565
 20
53.4036956184
 30
0.0
 10
46.0045619078
 20
53.9857119275
 30
0.0
 10
45.4782984111
 20
54.4780092311
 30
0.0
 10
45.095847521
 20
54.7461313026
 30
0.0
 10
44.9022322933
 20
54.8579125775
 30
0.0
  0
SPLINE
  5
3D3
100
AcDbEntity
  8
0
100
AcDbSpline
 62
7
  6
BYLAYER
 70
0
 71
3
 72
11
 73
7
 74
0
 42
0.0000001
 43
0.0000001
 44
0.0000000001
 40
0.0
 40
0.0
 40
0.0
 40
0.0
 40
0.2177648073
 40
0.4508950352
 40
0.7103684932
 40
1.0
 40
1.0
 40
1.0
 40
1.0
 10
50.0161223753
 20
78.3729085094
 30
0.0
 10
50.0161412853
 20
78.4205145577
 30
0.0
 10
50.0336594519
 20
78.5197530334
 30
0.0
 10
50.108931105
 20
78.6580301326
 30
0.0
 10
50.2278768295
 20
78.782993037
 30
0.0
 10
50.3273748111
 20
78.8515511826
 30
0.0
 10
50.3822090166
 20
78.8832095369
 30
0.0
  0
SPLINE
  5
3D4
100
AcDbEntity
  8
0
100
AcDbSpline
 62
7
  6
BYLAYER
 70
0
 71
3
 72
11
 73
7
 74
0
 42
0.0000001
 43
0.0000001
 44
0.0000000001
 40
0.0
 40
0.0
 40
0.0
 40
0.0
 40
0.2177648073
 40
0.4508950352
 40
0.7103684932
 40
1.0
 40
1.0
 40
1.0
 40
1.0
 10
35.8739278724
 20
86.5377235998
 30
0.0
 10
35.8739467823
 20
86.5853296481
 30
0.0
 10
35.8914649489
 20
86.6845681239
 30
0.0
 10
35.9667366021
 20
86.822845223
 30
0.0
 10
36.0856823265
 20
86.9478081274
 30
0.0
 10
36.1851803082
 20
87.016366273
 30
0.0
 10
36.2400145137
 20
87.0480246273
 30
0.0
  0
SPLINE
  5
3D5
100
AcDbEntity
  8
0
100
AcDbSpline
 62
7
  6
BYLAYER
 70
0
 71
3
 72
13
 73
9
 74
0
 42
0.0000001
 43
0.0000001
 44
0.0000000001
 40
0.0
 40
0.0
 40
0.0
 40
0.0
 40
0.2893766917
 40
0.5483136645
 40
0.6677419416
 40
0.7817659142
 40
0.8919052276
 40
1.0
 40
1.0
 40
1.0
 40
1.0
 10
13.7894043869
 20
72.8205057764
 30
0.0
 10
13.6138436748
 20
72.9218635078
 30
0.0
 10
13.2649131739
 20
73.0880259056
 30
0.0
 10
12.8054880304
 20
73.1987300426
 30
0.0
 10
12.4597040355
 20
73.210737693
 30
0.0
 10
12.2195484969
 20
73.1839095955
 30
0.0
 10
11.9942332009
 20
73.1216821076
 30
0.0
 10
11.855007325
 20
73.0564394215
 30
0.0
 10
11.7894280421
 20
73.0185774286
 30
0.0
  0
SPLINE
  5
3D6
100
AcDbEntity
  8
0
100
AcDbSpline
 62
7
  6
BYLAYER
 70
0
 71
3
 72
11
 73
7
 74
0
 42
0.0000001
 43
0.0000001
 44
0.0000000001
 40
0.0
 40
0.0
 40
0.0
 40
0.0
 40
0.2177648073
 40
0.4508950352
 40
0.7103684932
 40
1.0
 40
1.0
 40
1.0
 40
1.0
 10
35.8740456311
 20
70.208025432
 30
0.0
 10
35.874064541
 20
70.2556314803
 30
0.0
 10
35.8915827076
 20
70.354869956
 30
0.0
 10
35.9668543607
 20
70.4931470552
 30
0.0
 10
36.0858000852
 20
70.6181099596
 30
0.0
 10
36.1852980669
 20
70.6866681052
 30
0.0
 10
36.2401322723
 20
70.7183264595
 30
0.0
  0
SPLINE
  5
3D7
100
AcDbEntity
  8
0
100
AcDbSpline
 62
7
  6
BYLAYER
 70
0
 71
3
 72
11
 73
7
 74
0
 42
0.0000001
 43
0.0000001
 44
0.0000000001
 40
0.0
 40
0.0
 40
0.0
 40
0.0
 40
0.2177648073
 40
0.4508950352
 40
0.7103684932
 40
1.0
 40
1.0
 40
1.0
 40
1.0
 10
21.7318511281
 20
78.3728405224
 30
0.0
 10
21.7318700381
 20
78.4204465707
 30
0.0
 10
21.7493882047
 20
78.5196850464
 30
0.0
 10
21.8246598578
 20
78.6579621456
 30
0.0
 10
21.9436055822
 20
78.78292505
 30
0.0
 10
22.0431035639
 20
78.8514831956
 30
0.0
 10
22.0979377694
 20
78.8831415499
 30
0.0
  0
SPLINE
  5
3D8
100
AcDbEntity
  8
0
100
AcDbSpline
 62
7
  6
BYLAYER
 70
0
 71
3
 72
20
 73
16
 74
0
 42
0.0000001
 43
0.0000001
 44
0.0000000001
 40
0.0
 40
0.0
 40
0.0
 40
0.0
 40
0.2087932809
 40
0.3976887786
 40
0.5652355722
 40
0.7096167538
 40
0.8285385819
 40
0.8776857253
 40
0.919348023
 40
0.9529818561
 40
0.9780439011
 40
0.9871906396
 40
0.9939720477
 40
0.9982758197
 40
1.0
 40
1.0
 40
1.0
 40
1.0
 10
17.7194931152
 20
72.3742445176
 30
0.0
 10
17.7051774169
 20
72.3669646283
 30
0.0
 10
17.6779016864
 20
72.3531155122
 30
0.0
 10
17.6391045238
 20
72.3334912605
 30
0.0
 10
17.6046922603
 20
72.3161749768
 30
0.0
 10
17.5750555392
 20
72.3013433921
 30
0.0
 10
17.5535499251
 20
72.2906124882
 30
0.0
 10
17.5391200199
 20
72.2834008173
 30
0.0
 10
17.5305583255
 20
72.279115747
 30
0.0
 10
17.5236716974
 20
72.2756395986
 30
0.0
 10
17.5190006239
 20
72.2732869601
 30
0.0
 10
17.5162262144
 20
72.2718229166
 30
0.0
 10
17.5148044814
 20
72.2711227546
 30
0.0
 10
17.514029274
 20
72.2705947608
 30
0.0
 10
17.5135336358
 20
72.2704092088
 30
0.0
 10
17.5134852474
 20
72.2702857272
 30
0.0
  0
SPLINE
  5
3D9
100
AcDbEntity
  8
0
100
AcDbSpline
 62
7
  6
BYLAYER
 70
0
 71
3
 72
9
 73
5
 74
0
 42
0.0000001
 43
0.0000001
 44
0.0000000001
 40
0.0
 40
0.0
 40
0.0
 40
0.0
 40
0.2453245314
 40
1.0
 40
1.0
 40
1.0
 40
1.0
 10
36.8527888612
 20
62.0497569097
 30
0.0
 10
36.8457926073
 20
61.9860597167
 30
0.0
 10
36.8213244222
 20
61.7259801514
 30
0.0
 10
36.8126932596
 20
61.4644601653
 30
0.0
 10
36.8143051141
 20
61.2673409263
 30
0.0
  0
SPLINE
  5
3DA
100
AcDbEntity
  8
0
100
AcDbSpline
 62
7
  6
BYLAYER
 70
0
 71
3
 72
11
 73
7
 74
0
 42
0.0000001
 43
0.0000001
 44
0.0000000001
 40
0.0
 40
0.0
 40
0.0
 40
0.0
 40
0.2615953435
 40
0.5135938818
 40
0.7586024916
 40
1.0
 40
1.0
 40
1.0
 40
1.0
 10
25.3732396553
 20
18.8572367119
 30
0.0
 10
25.2454478407
 20
19.0609104867
 30
0.0
 10
25.0182235091
 20
19.4763933935
 30
0.0
 10
24.7668448343
 20
20.1290929253
 30
0.0
 10
24.615021965
 20
20.7929855282
 30
0.0
 10
24.5810585516
 20
21.2407689681
 30
0.0
 10
24.5810771884
 20
21.4626490713
 30
0.0
  0
SPLINE
  5
3DB
100
AcDbEntity
  8
0
100
AcDbSpline
 62
7
  6
BYLAYER
 70
0
 71
3
 72
10
 73
6
 74
0
 42
0.0000001
 43
0.0000001
 44
0.0000000001
 40
0.0
 40
0.0
 40
0.0
 40
0.0
 40
0.2261613756
 40
0.5941973304
 40
1.0
 40
1.0
 40
1.0
 40
1.0
 10
17.4528960809
 20
71.221716585
 30
0.0
 10
17.3019956692
 20
71.221790839
 30
0.0
 10
16.9051322166
 20
71.2562344445
 30
0.0
 10
16.2582882854
 20
71.4375883587
 30
0.0
 10
15.7916663787
 20
71.6645254282
 30
0.0
 10
15.5571786997
 20
71.7999038901
 30
0.0
  0
SPLINE
  5
3DC
100
AcDbEntity
  8
0
100
AcDbSpline
 62
7
  6
BYLAYER
 70
0
 71
3
 72
10
 73
6
 74
0
 42
0.0000001
 43
0.0000001
 44
0.0000000001
 40
0.0
 40
0.0
 40
0.0
 40
0.0
 40
0.5057763081
 40
0.7561668227
 40
1.0
 40
1.0
 40
1.0
 40
1.0
 10
36.1217678325
 20
61.7499266101
 30
0.0
 10
36.1694649127
 20
61.656914409
 30
0.0
 10
36.257348293
 20
61.5252258866
 30
0.0
 10
36.4028925961
 20
61.3779271895
 30
0.0
 10
36.4857304644
 20
61.316898324
 30
0.0
 10
36.5293708299
 20
61.2916995883
 30
0.0
  0
SPLINE
  5
3DD
100
AcDbEntity
  8
0
100
AcDbSpline
 62
7
  6
BYLAYER
 70
0
 71
3
 72
13
 73
9
 74
0
 42
0.0000001
 43
0.0000001
 44
0.0000000001
 40
0.0
 40
0.0
 40
0.0
 40
0.0
 40
0.2194958697
 40
0.3517449697
 40
0.4920626464
 40
0.6335931209
 40
0.7692355629
 40
1.0
 40
1.0
 40
1.0
 40
1.0
 10
36.8527888909
 20
62.0497569226
 30
0.0
 10
36.804006862
 20
62.028633932
 30
0.0
 10
36.7200288384
 20
62.0079620882
 30
0.0
 10
36.6012232932
 20
61.9982176849
 30
0.0
 10
36.5007353334
 20
62.0003385317
 30
0.0
 10
36.4002419609
 20
62.0132017406
 30
0.0
 10
36.2803139881
 20
62.0408733493
 30
0.0
 10
36.1968128006
 20
62.0740253836
 30
0.0
 10
36.1484121298
 20
62.1019689175
 30
0.0
  0
SPLINE
  5
3DE
100
AcDbEntity
  8
0
100
AcDbSpline
 62
7
  6
BYLAYER
 70
0
 71
3
 72
10
 73
6
 74
0
 42
0.0000001
 43
0.0000001
 44
0.0000000001
 40
0.0
 40
0.0
 40
0.0
 40
0.0
 40
0.5122932776
 40
0.7608868536
 40
1.0
 40
1.0
 40
1.0
 40
1.0
 10
18.3469199201
 20
78.441945906
 30
0.0
 10
18.3063947606
 20
78.5249764036
 30
0.0
 10
18.2585613786
 20
78.6553287043
 30
0.0
 10
18.2292585923
 20
78.8336675951
 30
0.0
 10
18.2286066257
 20
78.9222438588
 30
0.0
 10
18.2329813343
 20
78.9651455806
 30
0.0
  0
SPLINE
  5
3DF
100
AcDbEntity
  8
0
100
AcDbSpline
 62
7
  6
BYLAYER
 70
0
 71
3
 72
10
 73
6
 74
0
 42
0.0000001
 43
0.0000001
 44
0.0000000001
 40
0.0
 40
0.0
 40
0.0
 40
0.0
 40
0.228438363
 40
0.5975685791
 40
1.0
 40
1.0
 40
1.0
 40
1.0
 10
46.754492532
 20
16.2037588395
 30
0.0
 10
46.7879948056
 20
16.2721489966
 30
0.0
 10
46.8625847084
 20
16.4576189582
 30
0.0
 10
46.9362691876
 20
16.7845059829
 30
0.0
 10
46.9528522626
 20
17.0422017787
 30
0.0
 10
46.9528522626
 20
17.1763615963
 30
0.0
  0
SPLINE
  5
3E0
100
AcDbEntity
  8
0
100
AcDbSpline
 62
7
  6
BYLAYER
 70
0
 71
3
 72
11
 73
7
 74
0
 42
0.0000001
 43
0.0000001
 44
0.0000000001
 40
0.0
 40
0.0
 40
0.0
 40
0.0
 40
0.2056620156
 40
0.4517667833
 40
0.7277336957
 40
1.0
 40
1.0
 40
1.0
 40
1.0
 10
36.7317727739
 20
67.8276862885
 30
0.0
 10
36.7787003978
 20
67.8544083673
 30
0.0
 10
36.8826635543
 20
67.9115608143
 30
0.0
 10
37.0518360698
 20
68.0004363814
 30
0.0
 10
37.2382353937
 20
68.0940442329
 30
0.0
 10
37.3682229176
 20
68.1559681559
 30
0.0
 10
37.4334191894
 20
68.1853018533
 30
0.0
  0
SPLINE
  5
3E1
100
AcDbEntity
  8
0
100
AcDbSpline
 62
7
  6
BYLAYER
 70
0
 71
3
 72
15
 73
11
 74
0
 42
0.0000001
 43
0.0000001
 44
0.0000000001
 40
0.0
 40
0.0
 40
0.0
 40
0.0
 40
0.1180899799
 40
0.2465607129
 40
0.3815646606
 40
0.518619164
 40
0.6529607566
 40
0.7801238804
 40
0.8965310755
 40
1.0
 40
1.0
 40
1.0
 40
1.0
 10
35.3561273573
 20
88.2115275042
 30
0.0
 10
35.4982446663
 20
88.293578481
 30
0.0
 10
35.8129657815
 20
88.4344445414
 30
0.0
 10
36.3268486788
 20
88.5720219634
 30
0.0
 10
36.8810331476
 20
88.6398561311
 30
0.0
 10
37.4473572133
 20
88.6346267834
 30
0.0
 10
37.9973688057
 20
88.5564908738
 30
0.0
 10
38.5036623375
 20
88.4093661093
 30
0.0
 10
38.9408245506
 20
88.2004219556
 30
0.0
 10
39.1872876453
 20
88.0142782403
 30
0.0
 10
39.2889599753
 20
87.9126083414
 30
0.0
  0
SPLINE
  5
3E2
100
AcDbEntity
  8
0
100
AcDbSpline
 62
7
  6
BYLAYER
 70
0
 71
3
 72
9
 73
5
 74
0
 42
0.0000001
 43
0.0000001
 44
0.0000000001
 40
0.0
 40
0.0
 40
0.0
 40
0.0
 40
0.2366975963
 40
1.0
 40
1.0
 40
1.0
 40
1.0
 10
34.9588329565
 20
87.9125979331
 30
0.0
 10
34.9866174167
 20
87.9403822632
 30
0.0
 10
35.1085185283
 20
88.053236481
 30
0.0
 10
35.2463911345
 20
88.1481716446
 30
0.0
 10
35.3561273573
 20
88.2115275042
 30
0.0
  0
SPLINE
  5
3E3
100
AcDbEntity
  8
0
100
AcDbSpline
 62
7
  6
BYLAYER
 70
0
 71
3
 72
11
 73
7
 74
0
 42
0.0000001
 43
0.0000001
 44
0.0000000001
 40
0.0
 40
0.0
 40
0.0
 40
0.0
 40
0.2334862647
 40
0.4790381954
 40
0.7351670147
 40
1.0
 40
1.0
 40
1.0
 40
1.0
 10
28.1083115538
 20
84.2311461541
 30
0.0
 10
28.4633924775
 20
84.4361509973
 30
0.0
 10
29.2137145803
 20
84.819750794
 30
0.0
 10
30.4121205572
 20
85.3036981204
 30
0.0
 10
31.6982738658
 20
85.7052089881
 30
0.0
 10
32.5904526303
 20
85.9117582865
 30
0.0
 10
33.0469260663
 20
86.0006999925
 30
0.0
  0
SPLINE
  5
3E4
100
AcDbEntity
  8
0
100
AcDbSpline
 62
7
  6
BYLAYER
 70
0
 71
3
 72
11
 73
7
 74
0
 42
0.0000001
 43
0.0000001
 44
0.0000000001
 40
0.0
 40
0.0
 40
0.0
 40
0.0
 40
0.2262462035
 40
0.5941787446
 40
0.7924357716
 40
1.0
 40
1.0
 40
1.0
 40
1.0
 10
25.043351705
 20
81.3798617632
 30
0.0
 10
25.2042806493
 20
81.6551720759
 30
0.0
 10
25.689073659
 20
82.3427137966
 30
0.0
 10
26.4952463207
 20
83.1276440124
 30
0.0
 10
27.3696896949
 20
83.7805454172
 30
0.0
 10
27.8549446256
 20
84.084865563
 30
0.0
 10
28.1083115538
 20
84.2311461541
 30
0.0
  0
SPLINE
  5
3E5
100
AcDbEntity
  8
0
100
AcDbSpline
 62
7
  6
BYLAYER
 70
0
 71
3
 72
9
 73
5
 74
0
 42
0.0000001
 43
0.0000001
 44
0.0000000001
 40
0.0
 40
0.0
 40
0.0
 40
0.0
 40
0.239457577
 40
1.0
 40
1.0
 40
1.0
 40
1.0
 10
21.214050613
 20
80.0466444267
 30
0.0
 10
21.2532345112
 20
80.0692671259
 30
0.0
 10
21.419583097
 20
80.1590204731
 30
0.0
 10
21.5954855215
 20
80.2305784152
 30
0.0
 10
21.7318159118
 20
80.2760216659
 30
0.0
  0
SPLINE
  5
3E6
100
AcDbEntity
  8
0
100
AcDbSpline
 62
7
  6
BYLAYER
 70
0
 71
3
 72
15
 73
11
 74
0
 42
0.0000001
 43
0.0000001
 44
0.0000000001
 40
0.0
 40
0.0
 40
0.0
 40
0.0
 40
0.1548071262
 40
0.3014843553
 40
0.4387701783
 40
0.5664008221
 40
0.6847848507
 40
0.7950627699
 40
0.8991907095
 40
1.0
 40
1.0
 40
1.0
 40
1.0
 10
52.516087159
 20
80.2760956622
 30
0.0
 10
52.6081604128
 20
80.2454053115
 30
0.0
 10
52.784944528
 20
80.1776121075
 30
0.0
 10
53.0312539963
 20
80.0540353768
 30
0.0
 10
53.2478814967
 20
79.9126793196
 30
0.0
 10
53.4311411788
 20
79.7560383422
 30
0.0
 10
53.5778224085
 20
79.5862959134
 30
0.0
 10
53.6854235533
 20
79.406088815
 30
0.0
 10
53.7511640536
 20
79.2182273345
 30
0.0
 10
53.7660893746
 20
79.0893110714
 30
0.0
 10
53.7660834895
 20
79.026110529
 30
0.0
  0
SPLINE
  5
3E7
100
AcDbEntity
  8
0
100
AcDbSpline
 62
7
  6
BYLAYER
 70
0
 71
3
 72
9
 73
5
 74
0
 42
0.0000001
 43
0.0000001
 44
0.0000000001
 40
0.0
 40
0.0
 40
0.0
 40
0.0
 40
0.5178660201
 40
1.0
 40
1.0
 40
1.0
 40
1.0
 10
35.6239342178
 20
73.6959778555
 30
0.0
 10
35.1472634152
 20
73.6307067406
 30
0.0
 10
34.2339744321
 20
73.4427879148
 30
0.0
 10
33.358074841
 20
73.1182697523
 30
0.0
 10
32.9546877977
 20
72.9235563377
 30
0.0
  0
SPLINE
  5
3E8
100
AcDbEntity
  8
0
100
AcDbSpline
 62
7
  6
BYLAYER
 70
0
 71
3
 72
15
 73
11
 74
0
 42
0.0000001
 43
0.0000001
 44
0.0000000001
 40
0.0
 40
0.0
 40
0.0
 40
0.0
 40
0.146894413
 40
0.2889708463
 40
0.4251508517
 40
0.5546739193
 40
0.6769670319
 40
0.7917771205
 40
0.899273244
 40
1.0
 40
1.0
 40
1.0
 40
1.0
 10
41.20089444
 20
86.0007195922
 30
0.0
 10
41.6573646757
 20
85.9117809541
 30
0.0
 10
42.549579225
 20
85.7052437758
 30
0.0
 10
43.8356525063
 20
85.3037238272
 30
0.0
 10
45.0341840268
 20
84.8197818929
 30
0.0
 10
46.1294882718
 20
84.25979242
 30
0.0
 10
47.1074028801
 20
83.6306472559
 30
0.0
 10
47.9553969671
 20
82.9400732564
 30
0.0
 10
48.6619054029
 20
82.1966035479
 30
0.0
 10
49.0436048909
 20
81.655225341
 30
0.0
 10
49.2045354457
 20
81.3799198396
 30
0.0
  0
SPLINE
  5
3E9
100
AcDbEntity
  8
0
100
AcDbSpline
 62
7
  6
BYLAYER
 70
0
 71
3
 72
9
 73
5
 74
0
 42
0.0000001
 43
0.0000001
 44
0.0000000001
 40
0.0
 40
0.0
 40
0.0
 40
0.0
 40
0.4830100768
 40
1.0
 40
1.0
 40
1.0
 40
1.0
 10
41.2201833986
 20
72.9582841094
 30
0.0
 10
40.825591901
 20
73.1431909153
 30
0.0
 10
39.9731115079
 20
73.4520458938
 30
0.0
 10
39.0860457321
 20
73.6327099194
 30
0.0
 10
38.6239342178
 20
73.6959850666
 30
0.0
  0
SPLINE
  5
3EA
100
AcDbEntity
  8
0
100
AcDbSpline
 62
7
  6
BYLAYER
 70
0
 71
3
 72
10
 73
6
 74
0
 42
0.0000001
 43
0.0000001
 44
0.0000000001
 40
0.0
 40
0.0
 40
0.0
 40
0.0
 40
0.4522383478
 40
0.7152805502
 40
1.0
 40
1.0
 40
1.0
 40
1.0
 10
53.6242154821
 20
78.8521566907
 30
0.0
 10
53.516549939
 20
79.0286446379
 30
0.0
 10
53.2698379059
 20
79.2614231467
 30
0.0
 10
52.8730677846
 20
79.4881322664
 30
0.0
 10
52.6395648827
 20
79.5817354715
 30
0.0
 10
52.516087159
 20
79.6228937285
 30
0.0
  0
SPLINE
  5
3EB
100
AcDbEntity
  8
0
100
AcDbSpline
 62
7
  6
BYLAYER
 70
0
 71
3
 72
12
 73
8
 74
0
 42
0.0000001
 43
0.0000001
 44
0.0000000001
 40
0.0
 40
0.0
 40
0.0
 40
0.0
 40
0.1081663833
 40
0.2183675081
 40
0.4513155354
 40
0.710511041
 40
1.0
 40
1.0
 40
1.0
 40
1.0
 10
20.4818376093
 20
79.0260425389
 30
0.0
 10
20.4818420165
 20
79.073371363
 30
0.0
 10
20.4901259076
 20
79.1691121429
 30
0.0
 10
20.5398078755
 20
79.3610433163
 30
0.0
 10
20.6674704052
 20
79.5964661164
 30
0.0
 10
20.9053379724
 20
79.8461599308
 30
0.0
 10
21.1043531227
 20
79.9833109293
 30
0.0
 10
21.214050613
 20
80.0466444267
 30
0.0
  0
SPLINE
  5
3EC
100
AcDbEntity
  8
0
100
AcDbSpline
 62
7
  6
BYLAYER
 70
0
 71
3
 72
13
 73
9
 74
0
 42
0.0000001
 43
0.0000001
 44
0.0000000001
 40
0.0
 40
0.0
 40
0.0
 40
0.0
 40
0.2893766917
 40
0.5483136645
 40
0.6677419416
 40
0.7817659142
 40
0.8919052276
 40
1.0
 40
1.0
 40
1.0
 40
1.0
 10
27.5779292125
 20
91.3957981996
 30
0.0
 10
27.4023685004
 20
91.497155931
 30
0.0
 10
27.0534379996
 20
91.6633183288
 30
0.0
 10
26.594012856
 20
91.7740224657
 30
0.0
 10
26.2482288611
 20
91.7860301162
 30
0.0
 10
26.0080733226
 20
91.7592020187
 30
0.0
 10
25.7827580266
 20
91.6969745307
 30
0.0
 10
25.6435321507
 20
91.6317318447
 30
0.0
 10
25.5779528678
 20
91.5938698518
 30
0.0
  0
SPLINE
  5
3ED
100
AcDbEntity
  8
0
100
AcDbSpline
 62
7
  6
BYLAYER
 70
0
 71
3
 72
13
 73
9
 74
0
 42
0.0000001
 43
0.0000001
 44
0.0000000001
 40
0.0
 40
0.0
 40
0.0
 40
0.0
 40
0.2893189141
 40
0.5483048644
 40
0.667722033
 40
0.7817103329
 40
0.8918443752
 40
1.0
 40
1.0
 40
1.0
 40
1.0
 10
26.4465536523
 20
87.8848210795
 30
0.0
 10
26.4465536523
 20
88.0419005531
 30
0.0
 10
26.4702520596
 20
88.3404832547
 30
0.0
 10
26.573981446
 20
88.6917237295
 30
0.0
 10
26.6998633317
 20
88.9284909582
 30
0.0
 10
26.8109115305
 20
89.0792673571
 30
0.0
 10
26.9399989143
 20
89.2063822623
 30
0.0
 10
27.0377500283
 20
89.2745919674
 30
0.0
 10
27.0886165501
 20
89.3039300906
 30
0.0
  0
SPLINE
  5
3EE
100
AcDbEntity
  8
0
100
AcDbSpline
 62
7
  6
BYLAYER
 70
0
 71
3
 72
11
 73
7
 74
0
 42
0.0000001
 43
0.0000001
 44
0.0000000001
 40
0.0
 40
0.0
 40
0.0
 40
0.0
 40
0.2625940412
 40
0.5234863964
 40
0.7722286605
 40
1.0
 40
1.0
 40
1.0
 40
1.0
 10
27.4448551916
 20
85.1855581714
 30
0.0
 10
27.2909524315
 20
85.3898014251
 30
0.0
 10
27.0139149854
 20
85.8202292684
 30
0.0
 10
26.6990313423
 20
86.5059983279
 30
0.0
 10
26.4986068212
 20
87.1984174311
 30
0.0
 10
26.4465536523
 20
87.6629975457
 30
0.0
 10
26.4465536523
 20
87.8848210795
 30
0.0
  0
SPLINE
  5
3EF
100
AcDbEntity
  8
0
100
AcDbSpline
 62
7
  6
BYLAYER
 70
0
 71
3
 72
9
 73
5
 74
0
 42
0.0000001
 43
0.0000001
 44
0.0000000001
 40
0.0
 40
0.0
 40
0.0
 40
0.0
 40
0.479637583
 40
1.0
 40
1.0
 40
1.0
 40
1.0
 10
46.2884575955
 20
75.6591617165
 30
0.0
 10
46.0382001378
 20
75.9284790962
 30
0.0
 10
45.4647912489
 20
76.4429599548
 30
0.0
 10
44.8232632038
 20
76.8669719595
 30
0.0
 10
44.4778404565
 20
77.066397364
 30
0.0
  0
SPLINE
  5
3F0
100
AcDbEntity
  8
0
100
AcDbSpline
 62
7
  6
BYLAYER
 70
0
 71
3
 72
25
 73
21
 74
0
 42
0.0000001
 43
0.0000001
 44
0.0000000001
 40
0.0
 40
0.0
 40
0.0
 40
0.0
 40
0.0213320054
 40
0.0428925534
 40
0.0648979327
 40
0.0875425817
 40
0.1353176816
 40
0.187218742
 40
0.2436564433
 40
0.3046040519
 40
0.3696912687
 40
0.4382880222
 40
0.5095742426
 40
0.5825986857
 40
0.6563304902
 40
0.7297062671
 40
0.8016835588
 40
0.8712734061
 40
0.9376202273
 40
1.0
 40
1.0
 40
1.0
 40
1.0
 10
26.7239950654
 20
78.3728746531
 30
0.0
 10
26.7239948805
 20
78.5204108528
 30
0.0
 10
26.742994666
 20
78.8174099862
 30
0.0
 10
26.8283687785
 20
79.2591906853
 30
0.0
 10
26.9699031308
 20
79.6958825568
 30
0.0
 10
27.2369240993
 20
80.2780380082
 30
0.0
 10
27.7160826391
 20
80.9831395666
 30
0.0
 10
28.4815413023
 20
81.7516464073
 30
0.0
 10
29.4301590155
 20
82.4448468794
 30
0.0
 10
30.541600994
 20
83.0493239773
 30
0.0
 10
31.7926300495
 20
83.5533242382
 30
0.0
 10
33.1569569811
 20
83.9465265299
 30
0.0
 10
34.6057494947
 20
84.2207391342
 30
0.0
 10
36.1082309811
 20
84.3701584709
 30
0.0
 10
37.6323704631
 20
84.3915952527
 30
0.0
 10
39.1456752485
 20
84.2846305766
 30
0.0
 10
40.6158231213
 20
84.0514879264
 30
0.0
 10
42.0117408765
 20
83.6971803194
 30
0.0
 10
43.3034317325
 20
83.2291152241
 30
0.0
 10
44.1042086981
 20
82.8343253167
 30
0.0
 10
44.4778404565
 20
82.6186138005
 30
0.0
  0
SPLINE
  5
3F1
100
AcDbEntity
  8
0
100
AcDbSpline
 62
7
  6
BYLAYER
 70
0
 71
3
 72
11
 73
7
 74
0
 42
0.0000001
 43
0.0000001
 44
0.0000000001
 40
0.0
 40
0.0
 40
0.0
 40
0.0
 40
0.2301698953
 40
0.4756783045
 40
0.7335269799
 40
1.0
 40
1.0
 40
1.0
 40
1.0
 10
43.841447003
 20
75.147623033
 30
0.0
 10
43.4774832206
 20
75.357752867
 30
0.0
 10
42.6943790649
 20
75.7397039308
 30
0.0
 10
41.4281446352
 20
76.1837428935
 30
0.0
 10
40.0583729236
 20
76.5092442341
 30
0.0
 10
39.1084140522
 20
76.6405295032
 30
0.0
 10
38.6239214933
 20
76.685255353
 30
0.0
  0
SPLINE
  5
3F2
100
AcDbEntity
  8
0
100
AcDbSpline
 62
7
  6
BYLAYER
 70
0
 71
3
 72
9
 73
5
 74
0
 42
0.0000001
 43
0.0000001
 44
0.0000000001
 40
0.0
 40
0.0
 40
0.0
 40
0.0
 40
0.2418468399
 40
1.0
 40
1.0
 40
1.0
 40
1.0
 10
44.8544750873
 20
74.4572104129
 30
0.0
 10
44.7775691705
 20
74.5193713751
 30
0.0
 10
44.4540190749
 20
74.7694936651
 30
0.0
 10
44.1099108797
 20
74.992628848
 30
0.0
 10
43.841447003
 20
75.147623033
 30
0.0
  0
SPLINE
  5
3F3
100
AcDbEntity
  8
0
100
AcDbSpline
 62
7
  6
BYLAYER
 70
0
 71
3
 72
9
 73
5
 74
0
 42
0.0000001
 43
0.0000001
 44
0.0000000001
 40
0.0
 40
0.0
 40
0.0
 40
0.0
 40
0.2611160755
 40
1.0
 40
1.0
 40
1.0
 40
1.0
 10
42.0736874099
 20
74.1270126483
 30
0.0
 10
42.1625470714
 20
74.0757106595
 30
0.0
 10
42.4981243494
 20
73.8713146295
 30
0.0
 10
42.8144751965
 20
73.6341754354
 30
0.0
 10
43.0295233347
 20
73.4390999407
 30
0.0
  0
SPLINE
  5
3F4
100
AcDbEntity
  8
0
100
AcDbSpline
 62
7
  6
BYLAYER
 70
0
 71
3
 72
11
 73
7
 74
0
 42
0.0000001
 43
0.0000001
 44
0.0000000001
 40
0.0
 40
0.0
 40
0.0
 40
0.0
 40
0.2661147984
 40
0.5234314147
 40
0.7688736289
 40
1.0
 40
1.0
 40
1.0
 40
1.0
 10
38.6239320826
 20
75.2168238369
 30
0.0
 10
38.9442183258
 20
75.1762577364
 30
0.0
 10
39.5712269748
 20
75.0700677321
 30
0.0
 10
40.4747485214
 20
74.8330710701
 30
0.0
 10
41.3114715643
 20
74.524656114
 30
0.0
 10
41.8308544628
 20
74.267209144
 30
0.0
 10
42.0736874099
 20
74.1270126483
 30
0.0
  0
SPLINE
  5
3F5
100
AcDbEntity
  8
0
100
AcDbSpline
 62
7
  6
BYLAYER
 70
0
 71
3
 72
9
 73
5
 74
0
 42
0.0000001
 43
0.0000001
 44
0.0000000001
 40
0.0
 40
0.0
 40
0.0
 40
0.0
 40
0.2551200741
 40
1.0
 40
1.0
 40
1.0
 40
1.0
 10
41.7201354913
 20
73.5146393628
 30
0.0
 10
41.7609635904
 20
73.4910677821
 30
0.0
 10
41.9199170402
 20
73.3968200482
 30
0.0
 10
42.0744503329
 20
73.2950643091
 30
0.0
 10
42.186322867
 20
73.21486882
 30
0.0
  0
SPLINE
  5
3F6
100
AcDbEntity
  8
0
100
AcDbSpline
 62
7
  6
BYLAYER
 70
0
 71
3
 72
11
 73
7
 74
0
 42
0.0000001
 43
0.0000001
 44
0.0000000001
 40
0.0
 40
0.0
 40
0.0
 40
0.0
 40
0.2659766279
 40
0.5231163277
 40
0.7685495013
 40
1.0
 40
1.0
 40
1.0
 40
1.0
 10
38.6239342178
 20
74.5124874837
 30
0.0
 10
38.9113104166
 20
74.4731381693
 30
0.0
 10
39.4736706912
 20
74.3726566993
 30
0.0
 10
40.2839530149
 20
74.1540599704
 30
0.0
 10
41.0348722504
 20
73.8732803085
 30
0.0
 10
41.5015445916
 20
73.6408400226
 30
0.0
 10
41.7201354913
 20
73.5146393628
 30
0.0
  0
SPLINE
  5
3F7
100
AcDbEntity
  8
0
100
AcDbSpline
 62
7
  6
BYLAYER
 70
0
 71
3
 72
11
 73
7
 74
0
 42
0.0000001
 43
0.0000001
 44
0.0000000001
 40
0.0
 40
0.0
 40
0.0
 40
0.0
 40
0.2648329853
 40
0.5209618046
 40
0.7665137353
 40
1.0
 40
1.0
 40
1.0
 40
1.0
 10
33.0469260663
 20
85.3474980588
 30
0.0
 10
32.5904526303
 20
85.2585563527
 30
0.0
 10
31.6982738658
 20
85.0520070544
 30
0.0
 10
30.4121205572
 20
84.6504961867
 30
0.0
 10
29.2137145803
 20
84.1665488603
 30
0.0
 10
28.4633924775
 20
83.7829490635
 30
0.0
 10
28.1083115538
 20
83.5779442204
 30
0.0
  0
SPLINE
  5
3F8
100
AcDbEntity
  8
0
100
AcDbSpline
 62
7
  6
BYLAYER
 70
0
 71
3
 72
9
 73
5
 74
0
 42
0.0000001
 43
0.0000001
 44
0.0000000001
 40
0.0
 40
0.0
 40
0.0
 40
0.0
 40
0.2638124676
 40
1.0
 40
1.0
 40
1.0
 40
1.0
 10
35.3561273573
 20
87.5583255705
 30
0.0
 10
35.3182047253
 20
87.5364310594
 30
0.0
 10
35.1768466026
 20
87.4494847552
 30
0.0
 10
35.0452394441
 20
87.3458020825
 30
0.0
 10
34.9588329565
 20
87.2593959993
 30
0.0
  0
SPLINE
  5
3F9
100
AcDbEntity
  8
0
100
AcDbSpline
 62
7
  6
BYLAYER
 70
0
 71
3
 72
15
 73
11
 74
0
 42
0.0000001
 43
0.0000001
 44
0.0000000001
 40
0.0
 40
0.0
 40
0.0
 40
0.0
 40
0.1034689245
 40
0.2198761196
 40
0.3470392434
 40
0.481380836
 40
0.6184353394
 40
0.7534392871
 40
0.8819100201
 40
1.0
 40
1.0
 40
1.0
 40
1.0
 10
39.2889599753
 20
87.2594064077
 30
0.0
 10
39.1872876453
 20
87.3610763066
 30
0.0
 10
38.9408245506
 20
87.5472200219
 30
0.0
 10
38.5036623375
 20
87.7561641756
 30
0.0
 10
37.9973688057
 20
87.90328894
 30
0.0
 10
37.4473572133
 20
87.9814248497
 30
0.0
 10
36.8810331476
 20
87.9866541974
 30
0.0
 10
36.3268486788
 20
87.9188200297
 30
0.0
 10
35.8129657815
 20
87.7812426077
 30
0.0
 10
35.4982446663
 20
87.6403765473
 30
0.0
 10
35.3561273573
 20
87.5583255705
 30
0.0
  0
SPLINE
  5
3FA
100
AcDbEntity
  8
0
100
AcDbSpline
 62
7
  6
BYLAYER
 70
0
 71
3
 72
15
 73
11
 74
0
 42
0.0000001
 43
0.0000001
 44
0.0000000001
 40
0.0
 40
0.0
 40
0.0
 40
0.0
 40
0.100726756
 40
0.2082228795
 40
0.3230329681
 40
0.4453260807
 40
0.5748491483
 40
0.7110291537
 40
0.853105587
 40
1.0
 40
1.0
 40
1.0
 40
1.0
 10
49.2045354457
 20
80.7267179059
 30
0.0
 10
49.0436048909
 20
81.0020234073
 30
0.0
 10
48.6619054029
 20
81.5434016142
 30
0.0
 10
47.9553969671
 20
82.2868713227
 30
0.0
 10
47.1074028801
 20
82.9774453222
 30
0.0
 10
46.1294882718
 20
83.6065904863
 30
0.0
 10
45.0341840268
 20
84.1665799592
 30
0.0
 10
43.8356525063
 20
84.6505218935
 30
0.0
 10
42.549579225
 20
85.0520418421
 30
0.0
 10
41.6573646757
 20
85.2585790204
 30
0.0
 10
41.20089444
 20
85.3475176585
 30
0.0
  0
SPLINE
  5
3FB
100
AcDbEntity
  8
0
100
AcDbSpline
 62
7
  6
BYLAYER
 70
0
 71
3
 72
9
 73
5
 74
0
 42
0.0000001
 43
0.0000001
 44
0.0000000001
 40
0.0
 40
0.0
 40
0.0
 40
0.0
 40
0.5276076715
 40
1.0
 40
1.0
 40
1.0
 40
1.0
 10
21.214050613
 20
79.393442493
 30
0.0
 10
21.1043456945
 20
79.3301047069
 30
0.0
 10
20.9054105121
 20
79.1931616779
 30
0.0
 10
20.7381700432
 20
79.0172602367
 30
0.0
 10
20.6720664163
 20
78.9250961227
 30
0.0
  0
SPLINE
  5
3FC
100
AcDbEntity
  8
0
100
AcDbSpline
 62
7
  6
BYLAYER
 70
0
 71
3
 72
9
 73
5
 74
0
 42
0.0000001
 43
0.0000001
 44
0.0000000001
 40
0.0
 40
0.0
 40
0.0
 40
0.0
 40
0.2601136368
 40
1.0
 40
1.0
 40
1.0
 40
1.0
 10
20.6720664163
 20
78.9250961227
 30
0.0
 10
20.655309762
 20
78.9017333775
 30
0.0
 10
20.5940549226
 20
78.8097306054
 30
0.0
 10
20.5464402728
 20
78.7083171984
 30
0.0
 10
20.5219615975
 20
78.6302860081
 30
0.0
  0
SPLINE
  5
3FD
100
AcDbEntity
  8
0
100
AcDbSpline
 62
7
  6
BYLAYER
 70
0
 71
3
 72
9
 73
5
 74
0
 42
0.0000001
 43
0.0000001
 44
0.0000000001
 40
0.0
 40
0.0
 40
0.0
 40
0.0
 40
0.2604037577
 40
1.0
 40
1.0
 40
1.0
 40
1.0
 10
21.7318159118
 20
79.6228197322
 30
0.0
 10
21.6851399346
 20
79.607261146
 30
0.0
 10
21.5072884233
 20
79.543511564
 30
0.0
 10
21.3350688133
 20
79.4633119665
 30
0.0
 10
21.214050613
 20
79.393442493
 30
0.0
  0
SPLINE
  5
3FE
100
AcDbEntity
  8
0
100
AcDbSpline
 62
7
  6
BYLAYER
 70
0
 71
3
 72
12
 73
8
 74
0
 42
0.0000001
 43
0.0000001
 44
0.0000000001
 40
0.0
 40
0.0
 40
0.0
 40
0.0
 40
0.1393993425
 40
0.2747344502
 40
0.4698034142
 40
0.6554497462
 40
1.0
 40
1.0
 40
1.0
 40
1.0
 10
28.1083115538
 20
83.5779442204
 30
0.0
 10
27.9381439832
 20
83.4796985141
 30
0.0
 10
27.6074511857
 20
83.2777692155
 30
0.0
 10
27.0610072146
 20
82.9032850083
 30
0.0
 10
26.4900863159
 20
82.4506349422
 30
0.0
 10
25.7506335373
 20
81.7437903153
 30
0.0
 10
25.2884408591
 20
81.1459478074
 30
0.0
 10
25.043351705
 20
80.7266598295
 30
0.0
  0
SPLINE
  5
3FF
100
AcDbEntity
  8
0
100
AcDbSpline
 62
7
  6
BYLAYER
 70
0
 71
3
 72
17
 73
13
 74
0
 42
0.0000001
 43
0.0000001
 44
0.0000000001
 40
0.0
 40
0.0
 40
0.0
 40
0.0
 40
0.128688448
 40
0.2702796817
 40
0.4174325464
 40
0.5617749928
 40
0.6954478191
 40
0.8127119577
 40
0.8646769781
 40
0.912510124
 40
0.9571398159
 40
1.0
 40
1.0
 40
1.0
 40
1.0
 10
22.0979377694
 20
78.8831415499
 30
0.0
 10
22.1904668805
 20
78.9365629382
 30
0.0
 10
22.3999695784
 20
79.0230030545
 30
0.0
 10
22.7414131117
 20
79.0913179853
 30
0.0
 10
23.1025528347
 20
79.1013152086
 30
0.0
 10
23.4539129474
 20
79.0519431346
 30
0.0
 10
23.767011988
 20
78.9473645224
 30
0.0
 10
23.9847726342
 20
78.8148109815
 30
0.0
 10
24.1125649294
 20
78.6865545671
 30
0.0
 10
24.1804562677
 20
78.5867007246
 30
0.0
 10
24.2222910761
 20
78.4813749379
 30
0.0
 10
24.2318128583
 20
78.4084252466
 30
0.0
 10
24.2317987236
 20
78.3728406911
 30
0.0
  0
SPLINE
  5
400
100
AcDbEntity
  8
0
100
AcDbSpline
 62
7
  6
BYLAYER
 70
0
 71
3
 72
17
 73
13
 74
0
 42
0.0000001
 43
0.0000001
 44
0.0000000001
 40
0.0
 40
0.0
 40
0.0
 40
0.0
 40
0.128688448
 40
0.2702796817
 40
0.4174325464
 40
0.5617749928
 40
0.6954478191
 40
0.8127119577
 40
0.8646769781
 40
0.912510124
 40
0.9571398159
 40
1.0
 40
1.0
 40
1.0
 40
1.0
 10
36.2401322723
 20
70.7183264595
 30
0.0
 10
36.3326613834
 20
70.7717478478
 30
0.0
 10
36.5421640813
 20
70.8581879641
 30
0.0
 10
36.8836076147
 20
70.9265028949
 30
0.0
 10
37.2447473377
 20
70.9365001182
 30
0.0
 10
37.5961074504
 20
70.8871280442
 30
0.0
 10
37.9092064909
 20
70.782549432
 30
0.0
 10
38.1269671371
 20
70.6499958911
 30
0.0
 10
38.2547594323
 20
70.5217394767
 30
0.0
 10
38.3226507707
 20
70.4218856342
 30
0.0
 10
38.3644855791
 20
70.3165598475
 30
0.0
 10
38.3740073613
 20
70.2436101562
 30
0.0
 10
38.3739932265
 20
70.2080256007
 30
0.0
  0
SPLINE
  5
401
100
AcDbEntity
  8
0
100
AcDbSpline
 62
7
  6
BYLAYER
 70
0
 71
3
 72
17
 73
13
 74
0
 42
0.0000001
 43
0.0000001
 44
0.0000000001
 40
0.0
 40
0.0
 40
0.0
 40
0.0
 40
0.128688448
 40
0.2702796817
 40
0.4174325464
 40
0.5617749928
 40
0.6954478191
 40
0.8127119577
 40
0.8646769781
 40
0.912510124
 40
0.9571398159
 40
1.0
 40
1.0
 40
1.0
 40
1.0
 10
36.2400145137
 20
87.0480246273
 30
0.0
 10
36.3325436248
 20
87.1014460156
 30
0.0
 10
36.5420463227
 20
87.1878861319
 30
0.0
 10
36.883489856
 20
87.2562010628
 30
0.0
 10
37.244629579
 20
87.2661982861
 30
0.0
 10
37.5959896917
 20
87.216826212
 30
0.0
 10
37.9090887323
 20
87.1122475998
 30
0.0
 10
38.1268493784
 20
86.9796940589
 30
0.0
 10
38.2546416736
 20
86.8514376445
 30
0.0
 10
38.322533012
 20
86.751583802
 30
0.0
 10
38.3643678204
 20
86.6462580153
 30
0.0
 10
38.3738896026
 20
86.573308324
 30
0.0
 10
38.3738754678
 20
86.5377237685
 30
0.0
  0
SPLINE
  5
402
100
AcDbEntity
  8
0
100
AcDbSpline
 62
7
  6
BYLAYER
 70
0
 71
3
 72
17
 73
13
 74
0
 42
0.0000001
 43
0.0000001
 44
0.0000000001
 40
0.0
 40
0.0
 40
0.0
 40
0.0
 40
0.128688448
 40
0.2702796817
 40
0.4174325464
 40
0.5617749928
 40
0.6954478191
 40
0.8127119577
 40
0.8646769781
 40
0.912510124
 40
0.9571398159
 40
1.0
 40
1.0
 40
1.0
 40
1.0
 10
50.3822090166
 20
78.8832095369
 30
0.0
 10
50.4747381277
 20
78.9366309252
 30
0.0
 10
50.6842408256
 20
79.0230710415
 30
0.0
 10
51.0256843589
 20
79.0913859724
 30
0.0
 10
51.3868240819
 20
79.1013831957
 30
0.0
 10
51.7381841946
 20
79.0520111216
 30
0.0
 10
52.0512832352
 20
78.9474325094
 30
0.0
 10
52.2690438814
 20
78.8148789685
 30
0.0
 10
52.3968361766
 20
78.6866225541
 30
0.0
 10
52.464727515
 20
78.5867687116
 30
0.0
 10
52.5065623234
 20
78.4814429249
 30
0.0
 10
52.5160841056
 20
78.4084932336
 30
0.0
 10
52.5160699708
 20
78.3729086781
 30
0.0
  0
SPLINE
  5
403
100
AcDbEntity
  8
0
100
AcDbSpline
 62
7
  6
BYLAYER
 70
0
 71
3
 72
15
 73
11
 74
0
 42
0.0000001
 43
0.0000001
 44
0.0000000001
 40
0.0
 40
0.0
 40
0.0
 40
0.0
 40
0.1485553977
 40
0.2895098787
 40
0.4227336361
 40
0.5486417242
 40
0.6680027886
 40
0.7819406183
 40
0.8919879846
 40
1.0
 40
1.0
 40
1.0
 40
1.0
 10
44.4778404565
 20
82.6186138005
 30
0.0
 10
44.7123522009
 20
82.4832214447
 30
0.0
 10
45.1587453265
 20
82.200229467
 30
0.0
 10
45.7691144129
 20
81.7279047197
 30
0.0
 10
46.297030116
 20
81.2225722667
 30
0.0
 10
46.7371981249
 20
80.6890069799
 30
0.0
 10
47.0852324493
 20
80.1319322805
 30
0.0
 10
47.3371236025
 20
79.556315332
 30
0.0
 10
47.4897787955
 20
78.9680472255
 30
0.0
 10
47.5239257869
 20
78.5697606864
 30
0.0
 10
47.5239260335
 20
78.3728745473
 30
0.0
  0
SPLINE
  5
404
100
AcDbEntity
  8
0
100
AcDbSpline
 62
7
  6
BYLAYER
 70
0
 71
3
 72
11
 73
7
 74
0
 42
0.0000001
 43
0.0000001
 44
0.0000000001
 40
0.0
 40
0.0
 40
0.0
 40
0.0
 40
0.2256842978
 40
0.4695905401
 40
0.7290018835
 40
1.0
 40
1.0
 40
1.0
 40
1.0
 10
32.0533739336
 20
73.2089849244
 30
0.0
 10
32.2875253095
 20
73.377530477
 30
0.0
 10
32.8043720958
 20
73.6879516248
 30
0.0
 10
33.6623642957
 20
74.0573599375
 30
0.0
 10
34.6128397853
 20
74.3408014819
 30
0.0
 10
35.2807062307
 20
74.4654816454
 30
0.0
 10
35.6239342178
 20
74.5124802726
 30
0.0
  0
SPLINE
  5
405
100
AcDbEntity
  8
0
100
AcDbSpline
 62
7
  6
BYLAYER
 70
0
 71
3
 72
11
 73
7
 74
0
 42
0.0000001
 43
0.0000001
 44
0.0000000001
 40
0.0
 40
0.0
 40
0.0
 40
0.0
 40
0.2203229131
 40
0.462882775
 40
0.7244631762
 40
1.0
 40
1.0
 40
1.0
 40
1.0
 10
31.2985360641
 20
73.5101303327
 30
0.0
 10
31.5599300168
 20
73.7366271212
 30
0.0
 10
32.1608265031
 20
74.1540004299
 30
0.0
 10
33.192168956
 20
74.642426062
 30
0.0
 10
34.363286569
 20
75.0097458234
 30
0.0
 10
35.1948112187
 20
75.1624638304
 30
0.0
 10
35.6239320827
 20
75.2168166257
 30
0.0
  0
SPLINE
  5
406
100
AcDbEntity
  8
0
100
AcDbSpline
 62
7
  6
BYLAYER
 70
0
 71
3
 72
12
 73
8
 74
0
 42
0.0000001
 43
0.0000001
 44
0.0000000001
 40
0.0
 40
0.0
 40
0.0
 40
0.0
 40
0.274371334
 40
0.5359794357
 40
0.6602317552
 40
0.7792746002
 40
1.0
 40
1.0
 40
1.0
 40
1.0
 10
35.6239214933
 20
76.6852481419
 30
0.0
 10
35.009497324
 20
76.6285246478
 30
0.0
 10
33.8143365592
 20
76.4487312207
 30
0.0
 10
32.3802235266
 20
76.046837431
 30
0.0
 10
31.3247978406
 20
75.6250091028
 30
0.0
 10
30.3878134873
 20
75.1646284794
 30
0.0
 10
29.7431336736
 20
74.743779624
 30
0.0
 10
29.3591196477
 20
74.4292351463
 30
0.0
  0
SPLINE
  5
407
100
AcDbEntity
  8
0
100
AcDbSpline
 62
7
  6
BYLAYER
 70
0
 71
3
 72
15
 73
11
 74
0
 42
0.0000001
 43
0.0000001
 44
0.0000000001
 40
0.0
 40
0.0
 40
0.0
 40
0.0
 40
0.1141474765
 40
0.2373368178
 40
0.3669776594
 40
0.5000010819
 40
0.633024354
 40
0.7626647561
 40
0.8858534048
 40
1.0
 40
1.0
 40
1.0
 40
1.0
 10
61.5191960196
 20
68.5342323141
 30
0.0
 10
61.5191960196
 20
68.7578003834
 30
0.0
 10
61.4782168521
 20
69.223076285
 30
0.0
 10
61.315001287
 20
69.9249852716
 30
0.0
 10
61.0534156112
 20
70.6359471336
 30
0.0
 10
60.7034321844
 20
71.3292465357
 30
0.0
 10
60.2780063907
 20
71.9789880416
 30
0.0
 10
59.7930867334
 20
72.5610043506
 30
0.0
 10
59.2668232368
 20
73.0533016543
 30
0.0
 10
58.8843723466
 20
73.3214237257
 30
0.0
 10
58.690757119
 20
73.4332050007
 30
0.0
  0
SPLINE
  5
408
100
AcDbEntity
  8
0
100
AcDbSpline
 62
7
  6
BYLAYER
 70
0
 71
3
 72
15
 73
11
 74
0
 42
0.0000001
 43
0.0000001
 44
0.0000000001
 40
0.0
 40
0.0
 40
0.0
 40
0.0
 40
0.1141465952
 40
0.2373352439
 40
0.366975646
 40
0.4999989181
 40
0.6330223406
 40
0.7626631822
 40
0.8858525235
 40
1.0
 40
1.0
 40
1.0
 40
1.0
 10
58.690757119
 20
62.818673578
 30
0.0
 10
58.8843723466
 20
62.706892303
 30
0.0
 10
59.2668232368
 20
62.4387702316
 30
0.0
 10
59.7930867334
 20
61.9464729279
 30
0.0
 10
60.2780063907
 20
61.3644566189
 30
0.0
 10
60.7034321844
 20
60.7147151131
 30
0.0
 10
61.0534156112
 20
60.0214157109
 30
0.0
 10
61.315001287
 20
59.3104538489
 30
0.0
 10
61.4782168521
 20
58.6085448624
 30
0.0
 10
61.5191960196
 20
58.1432689607
 30
0.0
 10
61.5191960196
 20
57.9197008914
 30
0.0
  0
SPLINE
  5
409
100
AcDbEntity
  8
0
100
AcDbSpline
 62
7
  6
BYLAYER
 70
0
 71
3
 72
15
 73
11
 74
0
 42
0.0000001
 43
0.0000001
 44
0.0000000001
 40
0.0
 40
0.0
 40
0.0
 40
0.0
 40
0.1141555516
 40
0.2373276756
 40
0.3669773296
 40
0.5000011
 40
0.6330247168
 40
0.7626739247
 40
0.885845342
 40
1.0
 40
1.0
 40
1.0
 40
1.0
 10
52.6803244553
 20
71.1877344942
 30
0.0
 10
52.6803244553
 20
70.8523580447
 30
0.0
 10
52.7417534235
 20
70.1544641999
 30
0.0
 10
52.986638772
 20
69.1016155545
 30
0.0
 10
53.3789309719
 20
68.0351643117
 30
0.0
 10
53.9039692815
 20
66.9952124524
 30
0.0
 10
54.5420787888
 20
66.0205441415
 30
0.0
 10
55.2695087333
 20
65.1475902816
 30
0.0
 10
56.0588600693
 20
64.4090981253
 30
0.0
 10
56.6325389122
 20
64.0069595312
 30
0.0
 10
56.9229828061
 20
63.8392754643
 30
0.0
  0
SPLINE
  5
40A
100
AcDbEntity
  8
0
100
AcDbSpline
 62
7
  6
BYLAYER
 70
0
 71
3
 72
13
 73
9
 74
0
 42
0.0000001
 43
0.0000001
 44
0.0000000001
 40
0.0
 40
0.0
 40
0.0
 40
0.0
 40
0.2893189141
 40
0.5483048644
 40
0.667722033
 40
0.7817103329
 40
0.8918443752
 40
1.0
 40
1.0
 40
1.0
 40
1.0
 10
55.4380523833
 20
71.1469501441
 30
0.0
 10
55.4380523833
 20
71.3040296178
 30
0.0
 10
55.4617507906
 20
71.6026123194
 30
0.0
 10
55.5654801771
 20
71.9538527942
 30
0.0
 10
55.6913620627
 20
72.1906200228
 30
0.0
 10
55.8024102615
 20
72.3413964217
 30
0.0
 10
55.9314976453
 20
72.468511327
 30
0.0
 10
56.0292487593
 20
72.5367210321
 30
0.0
 10
56.0801152811
 20
72.5660591553
 30
0.0
  0
SPLINE
  5
40B
100
AcDbEntity
  8
0
100
AcDbSpline
 62
7
  6
BYLAYER
 70
0
 71
3
 72
11
 73
7
 74
0
 42
0.0000001
 43
0.0000001
 44
0.0000000001
 40
0.0
 40
0.0
 40
0.0
 40
0.0
 40
0.2625940412
 40
0.5234863964
 40
0.7722286605
 40
1.0
 40
1.0
 40
1.0
 40
1.0
 10
56.4363539227
 20
68.447687236
 30
0.0
 10
56.2824511625
 20
68.6519304897
 30
0.0
 10
56.0054137164
 20
69.082358333
 30
0.0
 10
55.6905300733
 20
69.7681273926
 30
0.0
 10
55.4901055523
 20
70.4605464958
 30
0.0
 10
55.4380523833
 20
70.9251266104
 30
0.0
 10
55.4380523833
 20
71.1469501441
 30
0.0
  0
SPLINE
  5
40C
100
AcDbEntity
  8
0
100
AcDbSpline
 62
7
  6
BYLAYER
 70
0
 71
3
 72
11
 73
7
 74
0
 42
0.0000001
 43
0.0000001
 44
0.0000000001
 40
0.0
 40
0.0
 40
0.0
 40
0.0
 40
0.2590124436
 40
0.5206552967
 40
0.7715214403
 40
1.0
 40
1.0
 40
1.0
 40
1.0
 10
38.5948328742
 20
60.7332820903
 30
0.0
 10
38.5654486895
 20
60.8203019323
 30
0.0
 10
38.4908976862
 20
60.9902886713
 30
0.0
 10
38.3422089322
 20
61.2212819481
 30
0.0
 10
38.1652208992
 20
61.4170708942
 30
0.0
 10
38.0286021343
 20
61.5207792718
 30
0.0
 10
37.9584367044
 20
61.5612883852
 30
0.0
  0
SPLINE
  5
40D
100
AcDbEntity
  8
0
100
AcDbSpline
 62
7
  6
BYLAYER
 70
0
 71
3
 72
11
 73
7
 74
0
 42
0.0000001
 43
0.0000001
 44
0.0000000001
 40
0.0
 40
0.0
 40
0.0
 40
0.0
 40
0.2401297143
 40
0.4921394226
 40
0.7481792752
 40
1.0
 40
1.0
 40
1.0
 40
1.0
 10
41.7997658328
 20
55.9043644579
 30
0.0
 10
41.4433020325
 20
56.2089901046
 30
0.0
 10
40.7619411689
 20
56.8923497048
 30
0.0
 10
39.8769012697
 20
58.0595629945
 30
0.0
 10
39.1350737843
 20
59.3489516449
 30
0.0
 10
38.7521479084
 20
60.2674012242
 30
0.0
 10
38.5948328742
 20
60.7332820903
 30
0.0
  0
SPLINE
  5
40E
100
AcDbEntity
  8
0
100
AcDbSpline
 62
7
  6
BYLAYER
 70
0
 71
3
 72
9
 73
5
 74
0
 42
0.0000001
 43
0.0000001
 44
0.0000000001
 40
0.0
 40
0.0
 40
0.0
 40
0.0
 40
0.5116763169
 40
1.0
 40
1.0
 40
1.0
 40
1.0
 10
42.2451496399
 20
55.4118208376
 30
0.0
 10
42.1794085929
 20
55.5043065391
 30
0.0
 10
42.040689001
 20
55.6780173074
 30
0.0
 10
41.8820911654
 20
55.8340111494
 30
0.0
 10
41.7997658328
 20
55.9043644579
 30
0.0
  0
SPLINE
  5
40F
100
AcDbEntity
  8
0
100
AcDbSpline
 62
7
  6
BYLAYER
 70
0
 71
3
 72
10
 73
6
 74
0
 42
0.0000001
 43
0.0000001
 44
0.0000000001
 40
0.0
 40
0.0
 40
0.0
 40
0.0
 40
0.2298841996
 40
0.4757823467
 40
1.0
 40
1.0
 40
1.0
 40
1.0
 10
46.9528522626
 20
46.4824589942
 30
0.0
 10
46.9528522626
 20
46.5647882334
 30
0.0
 10
46.9404718959
 20
46.7353295169
 30
0.0
 10
46.872120423
 20
47.0874209245
 30
0.0
 10
46.7756653335
 20
47.3484628423
 30
0.0
 10
46.6950607429
 20
47.5180186632
 30
0.0
  0
SPLINE
  5
410
100
AcDbEntity
  8
0
100
AcDbSpline
 62
7
  6
BYLAYER
 70
0
 71
3
 72
11
 73
7
 74
0
 42
0.0000001
 43
0.0000001
 44
0.0000000001
 40
0.0
 40
0.0
 40
0.0
 40
0.0
 40
0.3147391386
 40
0.5844206074
 40
0.8090927402
 40
1.0
 40
1.0
 40
1.0
 40
1.0
 10
33.3183970249
 20
14.2702017384
 30
0.0
 10
33.3183970249
 20
14.2200274184
 30
0.0
 10
33.3240945017
 20
14.1266521834
 30
0.0
 10
33.3536069647
 20
14.000263677
 30
0.0
 10
33.4031060896
 20
13.9013342416
 30
0.0
 10
33.4528163377
 20
13.8544387227
 30
0.0
 10
33.4791721213
 20
13.8392210988
 30
0.0
  0
SPLINE
  5
411
100
AcDbEntity
  8
0
100
AcDbSpline
 62
7
  6
BYLAYER
 70
0
 71
3
 72
11
 73
7
 74
0
 42
0.0000001
 43
0.0000001
 44
0.0000000001
 40
0.0
 40
0.0
 40
0.0
 40
0.0
 40
0.2475272561
 40
0.5000450246
 40
0.7525329744
 40
1.0
 40
1.0
 40
1.0
 40
1.0
 10
42.3251851181
 20
14.2663467719
 30
0.0
 10
41.5929745859
 20
14.1139079479
 30
0.0
 10
40.0959160604
 20
13.8869555498
 30
0.0
 10
37.8212590348
 20
13.7749807883
 30
0.0
 10
35.5468772196
 20
13.8888780969
 30
0.0
 10
34.0502913267
 20
14.1171383492
 30
0.0
 10
33.3183970249
 20
14.2702017384
 30
0.0
  0
SPLINE
  5
412
100
AcDbEntity
  8
0
100
AcDbSpline
 62
7
  6
BYLAYER
 70
0
 71
3
 72
11
 73
7
 74
0
 42
0.0000001
 43
0.0000001
 44
0.0000000001
 40
0.0
 40
0.0
 40
0.0
 40
0.0
 40
0.2775975718
 40
0.5363555913
 40
0.7763791295
 40
1.0
 40
1.0
 40
1.0
 40
1.0
 10
47.1649834138
 20
17.2988348425
 30
0.0
 10
47.1649834138
 20
17.1865933072
 30
0.0
 10
47.1532305954
 20
16.969457997
 30
0.0
 10
47.0964998923
 20
16.6597199034
 30
0.0
 10
47.0016006024
 20
16.3822474021
 30
0.0
 10
46.910770071
 20
16.2167949054
 30
0.0
 10
46.8594570137
 20
16.1423488801
 30
0.0
  0
SPLINE
  5
413
100
AcDbEntity
  8
0
100
AcDbSpline
 62
7
  6
BYLAYER
 70
0
 71
3
 72
11
 73
7
 74
0
 42
0.0000001
 43
0.0000001
 44
0.0000000001
 40
0.0
 40
0.0
 40
0.0
 40
0.0
 40
0.264732901
 40
0.524844905
 40
0.7722608828
 40
1.0
 40
1.0
 40
1.0
 40
1.0
 10
46.6928785278
 20
48.0199200318
 30
0.0
 10
46.7664173479
 20
47.9087551873
 30
0.0
 10
46.8981341857
 20
47.6787013536
 30
0.0
 10
47.0471589604
 20
47.3183869158
 30
0.0
 10
47.1410010401
 20
46.9590678453
 30
0.0
 10
47.1649834138
 20
46.7195942154
 30
0.0
 10
47.1649834138
 20
46.6049322404
 30
0.0
  0
ELLIPSE
  5
414
100
AcDbEntity
  8
0
100
AcDbEllipse
 62
7
  6
BYLAYER
 10
46.3388843651
 20
50.0291962661
 30
0.0
 11
37.0281576376
 21
26.4902847379
 31
0.0
 40
0.0735377255
 41
2.4821494204
 42
2.4990594774
  0
ELLIPSE
  5
415
100
AcDbEntity
  8
0
100
AcDbEllipse
 62
7
  6
BYLAYER
 10
46.3388843651
 20
42.5650068771
 30
0.0
 11
37.0609741911
 21
15.9670780993
 31
0.0
 40
0.0731308751
 41
-2.4112407489
 42
-2.3938021004
  0
ELLIPSE
  5
416
100
AcDbEntity
  8
0
100
AcDbEllipse
 62
7
  6
BYLAYER
 10
46.3388843651
 20
50.0291962661
 30
0.0
 11
37.0281576376
 21
26.4902847379
 31
0.0
 40
0.0735377255
 41
-2.432305108
 42
-2.4148664595
  0
ELLIPSE
  5
417
100
AcDbEntity
  8
0
100
AcDbEllipse
 62
7
  6
BYLAYER
 10
63.3095177686
 20
40.2314181576
 30
0.0
 11
37.0281576376
 21
26.4902847379
 31
0.0
 40
0.0735377255
 41
2.4821494204
 42
2.4990594774
  0
ELLIPSE
  5
418
100
AcDbEntity
  8
0
100
AcDbEllipse
 62
7
  6
BYLAYER
 10
63.3095177686
 20
32.7672287686
 30
0.0
 11
37.0609741911
 21
15.9670780993
 31
0.0
 40
0.0731308751
 41
-2.4112407489
 42
-2.3938021004
  0
ELLIPSE
  5
419
100
AcDbEntity
  8
0
100
AcDbEllipse
 62
7
  6
BYLAYER
 10
63.3095177686
 20
40.2314181576
 30
0.0
 11
37.0281576376
 21
26.4902847379
 31
0.0
 40
0.0735377255
 41
-2.432305108
 42
-2.4148664595
  0
ELLIPSE
  5
41A
100
AcDbEntity
  8
0
100
AcDbEllipse
 62
7
  6
BYLAYER
 10
39.2677871136
 20
87.9964541222
 30
0.0
 11
37.0281576376
 21
26.4902847379
 31
0.0
 40
0.0735377255
 41
2.4821494204
 42
2.4990594774
  0
ELLIPSE
  5
41B
100
AcDbEntity
  8
0
100
AcDbEllipse
 62
7
  6
BYLAYER
 10
39.2677871136
 20
80.5322647331
 30
0.0
 11
37.0609741911
 21
15.9670780993
 31
0.0
 40
0.0731308751
 41
-2.4112407489
 42
-2.3938021004
  0
ELLIPSE
  5
41C
100
AcDbEntity
  8
0
100
AcDbEllipse
 62
7
  6
BYLAYER
 10
39.2677871136
 20
87.9964541222
 30
0.0
 11
37.0281576376
 21
26.4902847379
 31
0.0
 40
0.0735377255
 41
-2.432305108
 42
-2.4148664595
  0
ELLIPSE
  5
41D
100
AcDbEntity
  8
0
100
AcDbEllipse
 62
7
  6
BYLAYER
 10
70.3806150201
 20
70.0338609233
 30
0.0
 11
37.0281576376
 21
26.4902847379
 31
0.0
 40
0.0735377255
 41
2.4821494204
 42
2.4990594774
  0
ELLIPSE
  5
41E
100
AcDbEntity
  8
0
100
AcDbEllipse
 62
7
  6
BYLAYER
 10
70.3806150201
 20
62.5696715343
 30
0.0
 11
37.0609741911
 21
15.9670780993
 31
0.0
 40
0.0731308751
 41
-2.4112407489
 42
-2.3938021004
  0
ELLIPSE
  5
41F
100
AcDbEntity
  8
0
100
AcDbEllipse
 62
7
  6
BYLAYER
 10
70.3806150201
 20
70.0338609233
 30
0.0
 11
37.0281576376
 21
26.4902847379
 31
0.0
 40
0.0735377255
 41
-2.432305108
 42
-2.4148664595
  0
ELLIPSE
  5
420
100
AcDbEntity
  8
0
100
AcDbEllipse
 62
7
  6
BYLAYER
 10
18.7419356571
 20
79.027620865
 30
0.0
 11
0.5019455397
 21
0.003369501
 31
0.0
 40
0.5773073611
 41
2.3484472691
 42
2.4728022636
  0
ELLIPSE
  5
421
100
AcDbEntity
  8
0
100
AcDbEllipse
 62
7
  6
BYLAYER
 10
37.1267885109
 20
68.4133612475
 30
0.0
 11
0.5019455397
 21
0.003369501
 31
0.0
 40
0.5773073611
 41
-0.9175003791
 42
-0.7931453845
  0
ENDSEC
  0
SECTION
  2
OBJECTS
  0
DICTIONARY
  5
C
100
AcDbDictionary
280
0
281
1
  3
ACAD_GROUP
350
D
  3
ACAD_MLINESTYLE
350
17
  3
ACAD_LAYOUT
350
1A
  3
ACAD_PLOTSETTINGS
350
19
  3
ACAD_PLOTSTYLENAME
350
E
  0
DICTIONARY
  5
D
102
{ACAD_REACTORS
330
C
102
}
100
AcDbDictionary
280
0
281
1
  0
ACDBDICTIONARYWDFLT
  5
E
102
{ACAD_REACTORS
330
C
102
}
100
AcDbDictionary
281
1
  3
Normal
350
F
100
AcDbDictionaryWithDefault
340
F
  0
DICTIONARY
  5
17
102
{ACAD_REACTORS
330
C
102
}
100
AcDbDictionary
280
0
281
1
  3
Standard
350
18
  0
DICTIONARY
  5
19
102
{ACAD_REACTORS
330
C
102
}
100
AcDbDictionary
281
1
  0
DICTIONARY
  5
1A
102
{ACAD_REACTORS
330
C
102
}
100
AcDbDictionary
281
1
  3
Model
350
422
  3
Layout1
350
423
  0
ACDBPLACEHOLDER
  5
F
102
{ACAD_REACTORS
330
E
102
}
  0
MLINESTYLE
  5
18
102
{ACAD_REACTORS
330
17
102
}
100
AcDbMlineStyle
  2
STANDARD
 70
0
  3

 62
256
 51
90.0
 52
90.0
 71
2
 49
0.5
 62
256
  6
BYLAYER
 49
-0.5
 62
256
  6
BYLAYER
  0
LAYOUT
  5
422
102
{ACAD_REACTORS
330
1A
102
}
100
AcDbPlotSettings
  1

  2
none_device
  4

  6

 40
0.0
 41
0.0
 42
0.0
 43
0.0
 44
210.0
 45
297.0
 46
0.0
 47
0.0
 48
0.0
 49
0.0
140
0.0
141
0.0
142
1.0
143
1.0
 70
1024
 72
1
 73
0
 74
0
  7

 75
0
147
1.0
148
0.0
149
0.0
100
AcDbLayout
  1
Model
 70
0
 71
0
 10
0.0
 20
0.0
 11
210.0
 21
297.0
 12
0.0
 22
0.0
 32
0.0
 14
0.0
 24
0.0
 34
0.0
 15
0.0
 25
0.0
 35
0.0
146
0.0
 13
0.0
 23
0.0
 33
0.0
 16
1.0
 26
0.0
 36
0.0
 17
0.0
 27
1.0
 37
0.0
 76
0
330
210
345
0
346
0
  0
LAYOUT
  5
423
102
{ACAD_REACTORS
330
1A
102
}
100
AcDbPlotSettings
  1

  2
none_device
  4

  6

 40
0.0
 41
0.0
 42
0.0
 43
0.0
 44
210.0
 45
297.0
 46
0.0
 47
0.0
 48
0.0
 49
0.0
140
0.0
141
0.0
142
1.0
143
1.0
 70
0
 72
1
 73
0
 74
0
  7

 75
0
147
1.0
148
0.0
149
0.0
100
AcDbLayout
  1
Layout1
 70
0
 71
1
 10
0.0
 20
0.0
 11
210.0
 21
297.0
 12
0.0
 22
0.0
 32
0.0
 14
0.0
 24
0.0
 34
0.0
 15
0.0
 25
0.0
 35
0.0
146
0.0
 13
0.0
 23
0.0
 33
0.0
 16
1.0
 26
0.0
 36
0.0
 17
0.0
 27
1.0
 37
0.0
 76
0
330
211
345
0
346
0
  0
ENDSEC
  0
EOF
