999
DXF file: C:\Users\sesa63760\Dev\_Creo\CAD\MCADID0004766_3D-CAD\drw0001_1.dxf
999
Pro/ENGINEER 2019471 by Parametric Technology Corporation
  0
SECTION
  2
HEADER
  9
$ACADVER
  1
AC1024
  9
$DWGCODEPAGE
  3
ANSI_1252
  9
$EXTMAX
 10
49.1989979069
 20
69.5814398969
 30
0.0
  9
$EXTMIN
 10
0.0
 20
0.0
 30
0.0
  9
$LIMMIN
 10
0.0
 20
0.0
  9
$LIMMAX
 10
49.1989979069
 20
69.5814398969
  9
$VIEWCTR
 10
24.5994989535
 20
34.7907199485
  9
$VIEWSIZE
 40
69.5814398969
  9
$CLAYER
  8
0
  9
$LTSCALE
 40
4.5356790451
  9
$CELTYPE
  6
BYLAYER
  9
$DIMSCALE
 40
1.0
  9
$DIMASZ
 40
0.585702356
  9
$DIMEXO
 40
1.0
  9
$DIMDLI
 40
3.1337418857
  9
$DIMEXE
 40
1.0
  9
$DIMCEN
 40
0.7422020256
  9
$DIMLFAC
 40
1.0
  9
$DIMBLK
  1
_FILLED
  9
$DIMALT
 70
0
  9
$DIMALTF
 40
0.0393700787
  9
$DIMTXT
 40
0.8199832984
  9
$DIMTOL
 70
1
  9
$DIMLIM
 70
0
  9
$DIMTFAC
 40
1.0
  9
$DIMTP
 40
0.01
  9
$DIMTM
 40
0.01
  9
$DIMGAP
 40
0.625
  9
$DIMDSEP
 70
46
  9
$AUNITS
 70
0
  9
$PDMODE
 70
3
  9
$PDSIZE
 40
0.3125
  9
$HANDSEED
  5
323
  9
$TILEMODE
 70
1
  9
$MEASUREMENT
 70
1
  9
$INSUNITS
 70
4
  0
ENDSEC
  0
SECTION
  2
CLASSES
  0
CLASS
  1
ACDBDICTIONARYWDFLT
  2
AcDbDictionaryWithDefault
  3
AutoCAD 2000
 90
0
 91
1
280
0
281
0
  0
CLASS
  1
ACDBPLACEHOLDER
  2
AcDbPlaceHolder
  3
AutoCAD 2000
 90
0
 91
1
280
0
281
0
  0
CLASS
  1
LAYOUT
  2
AcDbLayout
  3
AutoCAD 2000
 90
0
 91
0
280
0
281
0
  0
ENDSEC
  0
SECTION
  2
TABLES
  0
TABLE
  2
VPORT
  5
8
100
AcDbSymbolTable
 70
2
  0
VPORT
  5
1F4
100
AcDbSymbolTableRecord
100
AcDbViewportTableRecord
  2
*ACTIVE
 70
0
 10
0.0
 20
0.0
 11
1.0
 21
1.0
 12
24.5994989535
 22
34.7907199485
 13
0.0
 23
0.0
 14
1.0
 24
1.0
 15
0.0
 25
0.0
 16
0.0
 26
0.0
 36
1.0
 17
0.0
 27
0.0
 37
0.0
 40
69.5814398969
 41
0.7070707071
 42
50.0
 43
0.0
 44
0.0
 50
0.0
 51
0.0
 71
0
 72
100
 73
1
 74
1
 75
0
 76
0
 77
0
 78
0
  0
ENDTAB
  0
TABLE
  2
LTYPE
  5
5
100
AcDbSymbolTable
 70
6
  0
LTYPE
  5
14
100
AcDbSymbolTableRecord
100
AcDbLinetypeTableRecord
  2
BYBLOCK
 70
0
  3

 72
65
 73
0
 40
0.0
  0
LTYPE
  5
15
100
AcDbSymbolTableRecord
100
AcDbLinetypeTableRecord
  2
BYLAYER
 70
0
  3

 72
65
 73
0
 40
0.0
  0
LTYPE
  5
16
100
AcDbSymbolTableRecord
100
AcDbLinetypeTableRecord
  2
CONTINUOUS
 70
64
  3
Solid line
 72
65
 73
0
 40
0.0
  0
LTYPE
  5
1F5
100
AcDbSymbolTableRecord
100
AcDbLinetypeTableRecord
  2
CENTER
 70
64
  3
____ _ ____ _ ____ _ ____ _ ____ _ ____ _ ____
 72
65
 73
4
 40
0.6
 49
0.375
 74
0
 49
-0.075
 74
0
 49
0.075
 74
0
 49
-0.075
 74
0
  0
LTYPE
  5
1F6
100
AcDbSymbolTableRecord
100
AcDbLinetypeTableRecord
  2
HIDDEN
 70
64
  3
- - - - - - - - - - - - - - - - - - - -
 72
65
 73
2
 40
0.2
 49
0.1
 74
0
 49
-0.1
 74
0
  0
LTYPE
  5
1F7
100
AcDbSymbolTableRecord
100
AcDbLinetypeTableRecord
  2
PHANTOM
 70
64
  3
_____ _ _ _____ _ _ _____ _ _ _____
 72
65
 73
6
 40
0.8
 49
0.45
 74
0
 49
-0.05
 74
0
 49
0.1
 74
0
 49
-0.05
 74
0
 49
0.1
 74
0
 49
-0.05
 74
0
  0
LTYPE
  5
1F8
100
AcDbSymbolTableRecord
100
AcDbLinetypeTableRecord
  2
DOT
 70
64
  3
. . . . . . . . . . . . . . . . . . . .
 72
65
 73
2
 40
0.2
 49
0.1
 74
0
 49
-0.1
 74
0
  0
LTYPE
  5
1F9
100
AcDbSymbolTableRecord
100
AcDbLinetypeTableRecord
  2
DASHED
 70
64
  3
- - - - - - - - - - - - - - - - - - - -
 72
65
 73
2
 40
0.2
 49
0.1
 74
0
 49
-0.1
 74
0
  0
ENDTAB
  0
TABLE
  2
LAYER
  5
2
100
AcDbSymbolTable
 70
36
  0
LAYER
  5
10
100
AcDbSymbolTableRecord
100
AcDbLayerTableRecord
  2
0
 70
0
 62
7
  6
CONTINUOUS
370
-3
390
F
  0
LAYER
  5
1FA
100
AcDbSymbolTableRecord
100
AcDbLayerTableRecord
  2
DEFAULT_1
 70
0
 62
7
  6
CENTER
370
-3
390
F
  0
LAYER
  5
1FB
100
AcDbSymbolTableRecord
100
AcDbLayerTableRecord
  2
DEFAULT_2
 70
0
 62
7
  6
HIDDEN
370
-3
390
F
  0
LAYER
  5
1FC
100
AcDbSymbolTableRecord
100
AcDbLayerTableRecord
  2
DEFAULT_3
 70
0
 62
7
  6
PHANTOM
370
-3
390
F
  0
LAYER
  5
1FD
100
AcDbSymbolTableRecord
100
AcDbLayerTableRecord
  2
00_COMPONENTS
 70
0
 62
7
  6
CONTINUOUS
370
-3
390
F
  0
LAYER
  5
1FE
100
AcDbSymbolTableRecord
100
AcDbLayerTableRecord
  2
01_1_DEFAULT_DATUMS
 70
0
 62
7
  6
CONTINUOUS
370
-3
390
F
  0
LAYER
  5
1FF
100
AcDbSymbolTableRecord
100
AcDbLayerTableRecord
  2
01_PLANES
 70
0
 62
7
  6
CONTINUOUS
370
-3
390
F
  0
LAYER
  5
200
100
AcDbSymbolTableRecord
100
AcDbLayerTableRecord
  2
02_COORD_SYS
 70
0
 62
7
  6
CONTINUOUS
370
-3
390
F
  0
LAYER
  5
201
100
AcDbSymbolTableRecord
100
AcDbLayerTableRecord
  2
03_AXES
 70
0
 62
7
  6
CONTINUOUS
370
-3
390
F
  0
LAYER
  5
202
100
AcDbSymbolTableRecord
100
AcDbLayerTableRecord
  2
04_POINTS
 70
0
 62
7
  6
CONTINUOUS
370
-3
390
F
  0
LAYER
  5
203
100
AcDbSymbolTableRecord
100
AcDbLayerTableRecord
  2
05_CURVES
 70
0
 62
7
  6
CONTINUOUS
370
-3
390
F
  0
LAYER
  5
204
100
AcDbSymbolTableRecord
100
AcDbLayerTableRecord
  2
06_SURFS
 70
0
 62
7
  6
CONTINUOUS
370
-3
390
F
  0
LAYER
  5
205
100
AcDbSymbolTableRecord
100
AcDbLayerTableRecord
  2
07_COSMETICS
 70
0
 62
7
  6
CONTINUOUS
370
-3
390
F
  0
LAYER
  5
206
100
AcDbSymbolTableRecord
100
AcDbLayerTableRecord
  2
10_NOTES
 70
0
 62
7
  6
CONTINUOUS
370
-3
390
F
  0
LAYER
  5
207
100
AcDbSymbolTableRecord
100
AcDbLayerTableRecord
  2
11_NOTES_PUB
 70
0
 62
7
  6
CONTINUOUS
370
-3
390
F
  0
LAYER
  5
208
100
AcDbSymbolTableRecord
100
AcDbLayerTableRecord
  2
13_REF_GTOL
 70
0
 62
7
  6
CONTINUOUS
370
-3
390
F
  0
LAYER
  5
209
100
AcDbSymbolTableRecord
100
AcDbLayerTableRecord
  2
16_MISC
 70
0
 62
7
  6
CONTINUOUS
370
-3
390
F
  0
LAYER
  5
20A
100
AcDbSymbolTableRecord
100
AcDbLayerTableRecord
  2
17_NO_PRINT
 70
0
 62
7
  6
CONTINUOUS
370
-3
390
F
  0
LAYER
  5
20B
100
AcDbSymbolTableRecord
100
AcDbLayerTableRecord
  2
18_DATUM_CAMS_JOINTS
 70
0
 62
7
  6
CONTINUOUS
370
-3
390
F
  0
LAYER
  5
20C
100
AcDbSymbolTableRecord
100
AcDbLayerTableRecord
  2
19_DATUM_FUNCTIONAL
 70
0
 62
7
  6
CONTINUOUS
370
-3
390
F
  0
LAYER
  5
20D
100
AcDbSymbolTableRecord
100
AcDbLayerTableRecord
  2
20_DATUM_KINEMATIC_SCHEME
 70
0
 62
7
  6
CONTINUOUS
370
-3
390
F
  0
ENDTAB
  0
TABLE
  2
STYLE
  5
3
100
AcDbSymbolTable
 70
1
  0
STYLE
  5
11
100
AcDbSymbolTableRecord
100
AcDbTextStyleTableRecord
  2
STANDARD
 70
0
 40
0.0
 41
1.0
 50
0.0
 71
0
 42
0.2
  3
ARIAL.TTF
  4

  0
STYLE
  5
20E
100
AcDbSymbolTableRecord
100
AcDbTextStyleTableRecord
  2
TEXTSTYLE_1
 70
0
 40
0.0
 41
0.8
 50
0.0
 71
0
 42
0.2
  3
gdt
  4

  0
ENDTAB
  0
TABLE
  2
VIEW
  5
6
100
AcDbSymbolTable
 70
0
  0
ENDTAB
  0
TABLE
  2
UCS
  5
7
100
AcDbSymbolTable
 70
0
  0
ENDTAB
  0
TABLE
  2
APPID
  5
9
100
AcDbSymbolTable
 70
1
  0
APPID
  5
20F
100
AcDbSymbolTableRecord
100
AcDbRegAppTableRecord
  2
ACAD
 70
0
  0
ENDTAB
  0
TABLE
  2
BLOCK_RECORD
  5
1
100
AcDbSymbolTable
 70
0
  0
BLOCK_RECORD
  5
210
100
AcDbSymbolTableRecord
100
AcDbBlockTableRecord
  2
*Model_Space
  0
BLOCK_RECORD
  5
211
100
AcDbSymbolTableRecord
100
AcDbBlockTableRecord
  2
*Paper_Space
  0
BLOCK_RECORD
  5
212
100
AcDbSymbolTableRecord
100
AcDbBlockTableRecord
  2
_FILLED
  0
ENDTAB
  0
TABLE
  2
DIMSTYLE
  5
A
100
AcDbSymbolTable
 70
1
100
AcDbDimStyleTable
 71
0
  0
DIMSTYLE
105
213
100
AcDbSymbolTableRecord
100
AcDbDimStyleTableRecord
  2
STANDARD
 70
0
  3

  4

 40
1.0
 41
0.585702356
 42
1.0
 43
0.38
 44
1.0
 45
0.0
 46
0.0
 47
0.01
 48
0.01
140
0.8199832984
141
0.09
142
0.0
143
25.4
144
1.0
145
0.0
146
1.0
147
0.625
 71
1
 72
0
 73
0
 74
0
 75
0
 76
0
 77
1
 78
8
 79
2
170
0
171
1
172
0
173
0
174
0
175
0
176
0
177
0
178
0
270
2
179
2
271
2
272
2
273
2
274
2
275
0
280
0
281
0
282
0
283
1
284
8
285
0
286
0
287
3
288
0
340
11
278
46
341
212
342
212
343
212
344
212
  0
ENDTAB
  0
ENDSEC
  0
SECTION
  2
BLOCKS
  0
BLOCK
  5
20
100
AcDbEntity
  8
0
100
AcDbBlockBegin
  2
*Model_Space
 70
0
 10
0.0
 20
0.0
 30
0.0
  3
*Model_Space
  1

  0
ENDBLK
  5
21
100
AcDbEntity
  8
0
100
AcDbBlockEnd
  0
BLOCK
  5
1C
100
AcDbEntity
  8
0
100
AcDbBlockBegin
  2
*Paper_Space
 70
0
 10
0.0
 20
0.0
 30
0.0
  3
*Paper_Space
  1

  0
ENDBLK
  5
1D
100
AcDbEntity
  8
0
100
AcDbBlockEnd
  0
BLOCK
  5
214
100
AcDbEntity
  8
0
100
AcDbBlockBegin
  2
_FILLED
 70
64
 10
0.0
 20
0.0
  3
_FILLED
  1

  0
SOLID
  5
215
100
AcDbEntity
  8
0
  6
BYBLOCK
 62
0
100
AcDbTrace
 10
0.0
 20
0.0
 11
-1.0
 21
0.25
 12
-1.0
 22
-0.25
 13
-1.0
 23
-0.25
  0
ENDBLK
  5
216
100
AcDbEntity
  8
0
  6
BYBLOCK
 62
0
100
AcDbBlockEnd
  0
ENDSEC
  0
SECTION
  2
ENTITIES
  0
LINE
  5
217
100
AcDbEntity
  8
0
100
AcDbLine
 62
7
  6
BYLAYER
 10
24.6316144251
 20
6.036167922
 11
25.3316144251
 21
6.0361696046
  0
LINE
  5
218
100
AcDbEntity
  8
0
100
AcDbLine
 62
7
  6
BYLAYER
 10
24.6316146796
 20
6.0796146645
 11
25.3316146795
 21
6.0796163471
  0
LINE
  5
219
100
AcDbEntity
  8
0
100
AcDbLine
 62
7
  6
BYLAYER
 10
17.6370690642
 20
61.8955458369
 11
21.1725882503
 21
63.9367666063
  0
LINE
  5
21A
100
AcDbEntity
  8
0
100
AcDbLine
 62
7
  6
BYLAYER
 10
25.4816205191
 20
7.489088407
 11
25.4866448159
 21
7.4896469341
  0
LINE
  5
21B
100
AcDbEntity
  8
0
100
AcDbLine
 62
7
  6
BYLAYER
 10
25.487414618
 20
7.5352849606
 11
25.4816210119
 21
7.5348509643
  0
LINE
  5
21C
100
AcDbEntity
  8
0
100
AcDbLine
 62
7
  6
BYLAYER
 10
25.4816205187
 20
7.489088412
 11
25.4866806775
 21
7.4892442697
  0
LINE
  5
21D
100
AcDbEntity
  8
0
100
AcDbLine
 62
7
  6
BYLAYER
 10
25.4874381975
 20
7.5350275639
 11
25.4816210119
 21
7.5348509643
  0
LINE
  5
21E
100
AcDbEntity
  8
0
100
AcDbLine
 62
7
  6
BYLAYER
 10
25.3316166711
 20
8.0185093896
 11
24.6316166711
 21
8.0185077076
  0
LINE
  5
21F
100
AcDbEntity
  8
0
100
AcDbLine
 62
7
  6
BYLAYER
 10
24.6316179294
 20
8.1605133603
 11
24.7256597413
 21
8.1605135864
  0
LINE
  5
220
100
AcDbEntity
  8
0
100
AcDbLine
 62
7
  6
BYLAYER
 10
25.2376675487
 20
8.1605148171
 11
25.3316179294
 21
8.1605150429
  0
LINE
  5
221
100
AcDbEntity
  8
0
100
AcDbLine
 62
7
  6
BYLAYER
 10
24.481621218
 20
7.5348485609
 11
24.472703132
 21
7.5351200947
  0
LINE
  5
222
100
AcDbEntity
  8
0
100
AcDbLine
 62
7
  6
BYLAYER
 10
24.481621218
 20
7.5348485609
 11
24.4727720747
 21
7.5358681885
  0
LINE
  5
223
100
AcDbEntity
  8
0
100
AcDbLine
 62
7
  6
BYLAYER
 10
32.9999191502
 20
9.5405407357
 11
32.3708994916
 21
9.5405392203
  0
LINE
  5
224
100
AcDbEntity
  8
0
100
AcDbLine
 62
7
  6
BYLAYER
 10
17.5787568719
 20
9.5405036641
 11
16.9632517682
 21
9.5405021879
  0
LINE
  5
225
100
AcDbEntity
  8
0
100
AcDbLine
 62
7
  6
BYLAYER
 10
24.4867515963
 20
8.2400979283
 11
6.384605848
 21
18.6911402148
  0
LINE
  5
226
100
AcDbEntity
  8
0
100
AcDbLine
 62
7
  6
BYLAYER
 10
19.8870589912
 20
57.9984257043
 11
18.4728513168
 21
57.1819373965
  0
LINE
  5
227
100
AcDbEntity
  8
0
100
AcDbLine
 62
7
  6
BYLAYER
 10
16.2377810721
 20
10.7997230374
 11
15.7201470256
 21
11.4679933605
  0
LINE
  5
228
100
AcDbEntity
  8
0
100
AcDbLine
 62
7
  6
BYLAYER
 10
5.960408882
 20
24.2841346936
 11
5.960408882
 21
25.9171395279
  0
LINE
  5
229
100
AcDbEntity
  8
0
100
AcDbLine
 62
7
  6
BYLAYER
 10
6.1795885614
 20
24.1575941095
 11
6.1795885614
 21
18.9768711975
  0
LINE
  5
22A
100
AcDbEntity
  8
0
100
AcDbLine
 62
7
  6
BYLAYER
 10
6.384605848
 20
18.6911402148
 11
6.3846037735
 21
23.9984071238
  0
LINE
  5
22B
100
AcDbEntity
  8
0
100
AcDbLine
 62
7
  6
BYLAYER
 10
20.1817421326
 20
54.7621985747
 11
18.8871889576
 21
54.0147924121
  0
LINE
  5
22C
100
AcDbEntity
  8
0
100
AcDbLine
 62
7
  6
BYLAYER
 10
24.4867515963
 20
13.5473636396
 11
6.3846037735
 21
23.9984071238
  0
LINE
  5
22D
100
AcDbEntity
  8
0
100
AcDbLine
 62
7
  6
BYLAYER
 10
24.9816604885
 20
13.302458397
 11
24.1684843046
 21
13.7719352647
  0
LINE
  5
22E
100
AcDbEntity
  8
0
100
AcDbLine
 62
7
  6
BYLAYER
 10
6.1247945417
 20
24.1892287358
 11
5.960408882
 21
24.2841346936
  0
LINE
  5
22F
100
AcDbEntity
  8
0
100
AcDbLine
 62
7
  6
BYLAYER
 10
8.9304076155
 20
28.4892430366
 11
8.9331080321
 21
28.382689432
  0
LINE
  5
230
100
AcDbEntity
  8
0
100
AcDbLine
 62
7
  6
BYLAYER
 10
24.9816604885
 20
14.9354632313
 11
5.960408882
 21
25.9171395279
  0
LINE
  5
231
100
AcDbEntity
  8
0
100
AcDbLine
 62
7
  6
BYLAYER
 10
8.9303303436
 20
28.4892974458
 11
8.9303315155
 21
28.8158947406
  0
LINE
  5
232
100
AcDbEntity
  8
0
100
AcDbLine
 62
7
  6
BYLAYER
 10
10.6980045914
 20
33.8076444396
 11
10.6980045914
 21
33.8945922954
  0
LINE
  5
233
100
AcDbEntity
  8
0
100
AcDbLine
 62
7
  6
BYLAYER
 10
10.6980045914
 20
37.2036460187
 11
10.6980045914
 21
44.9007734597
  0
LINE
  5
234
100
AcDbEntity
  8
0
100
AcDbLine
 62
7
  6
BYLAYER
 10
11.9263968045
 20
41.9214588469
 11
17.2373129644
 21
51.369347258
  0
LINE
  5
235
100
AcDbEntity
  8
0
100
AcDbLine
 62
7
  6
BYLAYER
 10
10.6980045914
 20
44.9007734597
 11
14.9960485084
 21
47.3822354599
  0
LINE
  5
236
100
AcDbEntity
  8
0
100
AcDbLine
 62
7
  6
BYLAYER
 10
22.268815706
 20
51.232898729
 11
20.93717978
 21
50.4640829579
  0
LINE
  5
237
100
AcDbEntity
  8
0
100
AcDbLine
 62
7
  6
BYLAYER
 10
24.5017549628
 20
50.5644582659
 11
25.9159626372
 21
51.3809465736
  0
LINE
  5
238
100
AcDbEntity
  8
0
100
AcDbLine
 62
7
  6
BYLAYER
 10
26.1243283184
 20
19.7461846873
 11
24.4512975774
 21
19.4873653208
  0
LINE
  5
239
100
AcDbEntity
  8
0
100
AcDbLine
 62
7
  6
BYLAYER
 10
10.6980624372
 20
25.7540417617
 11
10.8063263061
 21
25.6953670321
  0
LINE
  5
23A
100
AcDbEntity
  8
0
100
AcDbLine
 62
7
  6
BYLAYER
 10
10.4152227439
 20
25.9174524454
 11
10.5061637772
 21
25.8680669846
  0
LINE
  5
23B
100
AcDbEntity
  8
0
100
AcDbLine
 62
7
  6
BYLAYER
 10
10.4152312252
 20
25.9173583222
 11
10.6980725212
 21
25.7540592276
  0
LINE
  5
23C
100
AcDbEntity
  8
0
100
AcDbLine
 62
7
  6
BYLAYER
 10
11.9263968045
 20
41.9214588469
 11
11.8425842996
 21
40.3922345906
  0
LINE
  5
23D
100
AcDbEntity
  8
0
100
AcDbLine
 62
7
  6
BYLAYER
 10
11.5704736069
 20
32.7603581058
 11
11.6005744467
 21
33.309571311
  0
LINE
  5
23E
100
AcDbEntity
  8
0
100
AcDbLine
 62
7
  6
BYLAYER
 10
14.8053252495
 20
25.0563440538
 11
15.4401972417
 21
24.6898088303
  0
LINE
  5
23F
100
AcDbEntity
  8
0
100
AcDbLine
 62
7
  6
BYLAYER
 10
18.2570740827
 20
23.0635210194
 11
24.4512975774
 21
19.4873653208
  0
LINE
  5
240
100
AcDbEntity
  8
0
100
AcDbLine
 62
7
  6
BYLAYER
 10
26.1243283184
 20
19.7461846873
 11
29.7192561978
 21
17.6706990622
  0
LINE
  5
241
100
AcDbEntity
  8
0
100
AcDbLine
 62
7
  6
BYLAYER
 10
15.5092460321
 20
25.949657646
 11
15.1807510951
 21
26.1625790395
  0
LINE
  5
242
100
AcDbEntity
  8
0
100
AcDbLine
 62
7
  6
BYLAYER
 10
14.5323637382
 20
37.4627421243
 11
14.3721675826
 21
34.5398388272
  0
LINE
  5
243
100
AcDbEntity
  8
0
100
AcDbLine
 62
7
  6
BYLAYER
 10
13.9058140696
 20
26.0308567241
 11
13.8212653804
 21
24.4882002149
  0
LINE
  5
244
100
AcDbEntity
  8
0
100
AcDbLine
 62
7
  6
BYLAYER
 10
15.8548415767
 20
36.6055483212
 11
15.7863752571
 21
35.3563271349
  0
LINE
  5
245
100
AcDbEntity
  8
0
100
AcDbLine
 62
7
  6
BYLAYER
 10
15.2790013417
 20
26.0988959288
 11
15.2354730549
 21
25.3046885226
  0
LINE
  5
246
100
AcDbEntity
  8
0
100
AcDbLine
 62
7
  6
BYLAYER
 10
10.8390889644
 20
32.0034632004
 11
9.3004467119
 21
33.0007688381
  0
LINE
  5
247
100
AcDbEntity
  8
0
100
AcDbLine
 62
7
  6
BYLAYER
 10
18.2808391679
 20
27.1799251621
 11
20.4857151346
 21
25.7507851341
  0
LINE
  5
248
100
AcDbEntity
  8
0
100
AcDbLine
 62
7
  6
BYLAYER
 10
15.5092460321
 20
25.949657646
 11
15.3739879093
 21
23.4817681289
  0
LINE
  5
249
100
AcDbEntity
  8
0
100
AcDbLine
 62
7
  6
BYLAYER
 10
15.9248901114
 20
33.5334067412
 11
16.085086267
 21
36.4563100383
  0
LINE
  5
24A
100
AcDbEntity
  8
0
100
AcDbLine
 62
7
  6
BYLAYER
 10
17.2373129644
 20
51.369347258
 11
17.4439252864
 21
55.1391495657
  0
LINE
  5
24B
100
AcDbEntity
  8
0
100
AcDbLine
 62
7
  6
BYLAYER
 10
27.1370265338
 20
45.4410386102
 11
30.6725457199
 21
47.4822593795
  0
LINE
  5
24C
100
AcDbEntity
  8
0
100
AcDbLine
 62
7
  6
BYLAYER
 10
11.5970525145
 20
33.2453109209
 11
10.7146543863
 21
33.8172571458
  0
LINE
  5
24D
100
AcDbEntity
  8
0
100
AcDbLine
 62
7
  6
BYLAYER
 10
19.6950468424
 20
27.9964134699
 11
21.899922809
 21
26.5672734418
  0
LINE
  5
24E
100
AcDbEntity
  8
0
100
AcDbLine
 62
7
  6
BYLAYER
 10
11.6005744467
 20
33.309571311
 11
9.3956984801
 21
34.7387113391
  0
LINE
  5
24F
100
AcDbEntity
  8
0
100
AcDbLine
 62
7
  6
BYLAYER
 10
18.3760909361
 20
28.9178676631
 11
20.5809669028
 21
27.4887276351
  0
LINE
  5
250
100
AcDbEntity
  8
0
100
AcDbLine
 62
7
  6
BYLAYER
 10
18.3760909361
 20
28.9178676631
 11
18.2808391679
 21
27.1799251621
  0
LINE
  5
251
100
AcDbEntity
  8
0
100
AcDbLine
 62
7
  6
BYLAYER
 10
18.984226481
 20
37.346767547
 11
18.9004139761
 21
35.8175432907
  0
LINE
  5
252
100
AcDbEntity
  8
0
100
AcDbLine
 62
7
  6
BYLAYER
 10
19.6985687746
 20
28.06067386
 11
19.6950468424
 21
27.9964134699
  0
LINE
  5
253
100
AcDbEntity
  8
0
100
AcDbLine
 62
7
  6
BYLAYER
 10
20.3669170569
 20
37.58820191
 11
20.3146216505
 21
36.6340315985
  0
LINE
  5
254
100
AcDbEntity
  8
0
100
AcDbLine
 62
7
  6
BYLAYER
 10
24.2951426409
 20
46.7946559581
 11
18.984226481
 21
37.346767547
  0
LINE
  5
255
100
AcDbEntity
  8
0
100
AcDbLine
 62
7
  6
BYLAYER
 10
20.3669170569
 20
37.58820191
 11
25.6778332168
 21
47.0360903211
  0
LINE
  5
256
100
AcDbEntity
  8
0
100
AcDbLine
 62
7
  6
BYLAYER
 10
9.3004467119
 20
33.0007688381
 11
10.7146543863
 21
33.8172571458
  0
LINE
  5
257
100
AcDbEntity
  8
0
100
AcDbLine
 62
7
  6
BYLAYER
 10
15.8808970639
 20
36.1280461146
 11
16.0731793836
 21
36.239059701
  0
LINE
  5
258
100
AcDbEntity
  8
0
100
AcDbLine
 62
7
  6
BYLAYER
 10
14.3721675826
 20
34.5398388272
 11
15.7863752571
 21
35.3563271349
  0
LINE
  5
259
100
AcDbEntity
  8
0
100
AcDbLine
 62
7
  6
BYLAYER
 10
12.1646095938
 20
33.1033806302
 11
10.9086237785
 21
32.3782412102
  0
LINE
  5
25A
100
AcDbEntity
  8
0
100
AcDbLine
 62
7
  6
BYLAYER
 10
14.3721675826
 20
34.5398388272
 11
15.9248901114
 21
33.5334067412
  0
LINE
  5
25B
100
AcDbEntity
  8
0
100
AcDbLine
 62
7
  6
BYLAYER
 10
15.7863752571
 20
35.3563271349
 11
16.0166199474
 21
35.2070888521
  0
LINE
  5
25C
100
AcDbEntity
  8
0
100
AcDbLine
 62
7
  6
BYLAYER
 10
20.3146216505
 20
36.6340315985
 11
18.9004139761
 21
35.8175432907
  0
LINE
  5
25D
100
AcDbEntity
  8
0
100
AcDbLine
 62
7
  6
BYLAYER
 10
14.6141095347
 20
33.3221980074
 11
13.3581237195
 21
32.5970585873
  0
LINE
  5
25E
100
AcDbEntity
  8
0
100
AcDbLine
 62
7
  6
BYLAYER
 10
9.4481114245
 20
29.9603627809
 11
11.9400012012
 21
31.3990474265
  0
LINE
  5
25F
100
AcDbEntity
  8
0
100
AcDbLine
 62
7
  6
BYLAYER
 10
16.085086267
 20
36.4563100383
 11
14.5323637382
 21
37.4627421243
  0
LINE
  5
260
100
AcDbEntity
  8
0
100
AcDbLine
 62
7
  6
BYLAYER
 10
23.981615896
 20
5.3955049508
 11
23.9816188214
 21
7.54677882
  0
LINE
  5
261
100
AcDbEntity
  8
0
100
AcDbLine
 62
7
  6
BYLAYER
 10
24.4512975774
 20
19.4873653208
 11
24.4512975774
 21
35.7357634217
  0
LINE
  5
262
100
AcDbEntity
  8
0
100
AcDbLine
 62
7
  6
BYLAYER
 10
24.4816237692
 20
8.2400979287
 11
24.4816160789
 21
5.3695739028
  0
LINE
  5
263
100
AcDbEntity
  8
0
100
AcDbLine
 62
7
  6
BYLAYER
 10
24.4867515963
 20
13.5473636396
 11
24.4867515963
 21
8.2400979283
  0
LINE
  5
264
100
AcDbEntity
  8
0
100
AcDbLine
 62
7
  6
BYLAYER
 10
24.6316144251
 20
6.036167922
 11
24.6316190409
 21
8.1918401335
  0
LINE
  5
265
100
AcDbEntity
  8
0
100
AcDbLine
 62
7
  6
BYLAYER
 10
24.9816604885
 20
14.9354632313
 11
24.9816604885
 21
13.302458397
  0
LINE
  5
266
100
AcDbEntity
  8
0
100
AcDbLine
 62
7
  6
BYLAYER
 10
24.2951426409
 20
46.7946559581
 11
24.5017549628
 21
50.5644582659
  0
LINE
  5
267
100
AcDbEntity
  8
0
100
AcDbLine
 62
7
  6
BYLAYER
 10
25.6778332168
 20
47.0360903211
 11
25.9159626372
 21
51.3809465736
  0
LWPOLYLINE
  5
268
100
AcDbEntity
  8
0
100
AcDbPolyline
 62
7
  6
BYLAYER
 90
5
 70
0
 10
24.1065815864
 20
29.811012661
 10
24.0391465423
 20
28.9088662507
 10
23.508783289
 20
27.4306713797
 10
22.505091962
 20
26.5217310476
 10
21.8387780334
 20
26.4049837421
  0
LINE
  5
269
100
AcDbEntity
  8
0
100
AcDbLine
 62
7
  6
BYLAYER
 10
9.0685160564
 20
27.7115953302
 11
5.960408882
 21
25.9171395279
  0
LINE
  5
26A
100
AcDbEntity
  8
0
100
AcDbLine
 62
7
  6
BYLAYER
 10
34.5275228417
 20
42.1656062956
 11
39.265118551
 21
44.9008421266
  0
LINE
  5
26B
100
AcDbEntity
  8
0
100
AcDbLine
 62
7
  6
BYLAYER
 10
17.0636094757
 20
30.275005716
 11
15.8076236604
 21
29.549866296
  0
LINE
  5
26C
100
AcDbEntity
  8
0
100
AcDbLine
 62
7
  6
BYLAYER
 10
36.2953277027
 20
41.1449867728
 11
39.265118551
 21
42.8595860838
  0
LINE
  5
26D
100
AcDbEntity
  8
0
100
AcDbLine
 62
7
  6
BYLAYER
 10
18.984226481
 20
37.346767547
 11
11.9263968045
 21
41.9214588469
  0
LWPOLYLINE
  5
26E
100
AcDbEntity
  8
0
100
AcDbPolyline
 62
7
  6
BYLAYER
 90
6
 70
0
 10
20.3591690556
 20
37.4468336083
 10
21.1414224449
 20
36.7655588373
 10
22.5052325955
 20
34.9492627959
 10
23.5054821166
 20
32.8905525171
 10
24.0383135353
 20
30.7972594527
 10
24.1065815864
 20
29.811012661
  0
LINE
  5
26F
100
AcDbEntity
  8
0
100
AcDbLine
 62
7
  6
BYLAYER
 10
25.3316190399
 20
8.1918133886
 11
25.3316144251
 21
6.0361696046
  0
LINE
  5
270
100
AcDbEntity
  8
0
100
AcDbLine
 62
7
  6
BYLAYER
 10
25.476565849
 20
8.2401003078
 11
25.4765632602
 21
13.5473645245
  0
LINE
  5
271
100
AcDbEntity
  8
0
100
AcDbLine
 62
7
  6
BYLAYER
 10
25.4816160789
 20
5.369580544
 11
25.4816237692
 21
8.2401003074
  0
LINE
  5
272
100
AcDbEntity
  8
0
100
AcDbLine
 62
7
  6
BYLAYER
 10
25.9816188192
 20
7.5446708344
 11
25.981615896
 21
5.3955067868
  0
LINE
  5
273
100
AcDbEntity
  8
0
100
AcDbLine
 62
7
  6
BYLAYER
 10
26.1243283184
 20
19.7461846873
 11
26.1243283184
 21
35.9945827882
  0
LINE
  5
274
100
AcDbEntity
  8
0
100
AcDbLine
 62
7
  6
BYLAYER
 10
19.8373898497
 20
30.6883499051
 11
21.2515975241
 21
31.5048382129
  0
LINE
  5
275
100
AcDbEntity
  8
0
100
AcDbLine
 62
7
  6
BYLAYER
 10
11.9481002323
 20
25.6302293002
 11
14.4147110086
 21
27.0543191952
  0
LINE
  5
276
100
AcDbEntity
  8
0
100
AcDbLine
 62
7
  6
BYLAYER
 10
24.4512975774
 20
35.7357634217
 11
26.1243283184
 21
35.9945827882
  0
LINE
  5
277
100
AcDbEntity
  8
0
100
AcDbLine
 62
7
  6
BYLAYER
 10
20.5815025192
 20
37.9699400964
 11
24.4512975774
 21
35.7357634217
  0
LINE
  5
278
100
AcDbEntity
  8
0
100
AcDbLine
 62
7
  6
BYLAYER
 10
12.8898243047
 20
43.6353543858
 11
10.6980045914
 21
44.9007734597
  0
LINE
  5
279
100
AcDbEntity
  8
0
100
AcDbLine
 62
7
  6
BYLAYER
 10
26.1243283184
 20
35.9945827882
 11
29.7192561978
 21
33.9190971631
  0
LINE
  5
27A
100
AcDbEntity
  8
0
100
AcDbLine
 62
7
  6
BYLAYER
 10
29.7192561978
 20
17.6706990622
 11
29.7192561978
 21
33.9190971631
  0
LINE
  5
27B
100
AcDbEntity
  8
0
100
AcDbLine
 62
7
  6
BYLAYER
 10
17.0636094757
 20
27.0089960475
 11
15.8076236604
 21
26.2838566275
  0
LINE
  5
27C
100
AcDbEntity
  8
0
100
AcDbLine
 62
7
  6
BYLAYER
 10
29.7192561978
 20
33.9190971631
 11
39.2651580002
 21
39.4303932404
  0
LINE
  5
27D
100
AcDbEntity
  8
0
100
AcDbLine
 62
7
  6
BYLAYER
 10
18.2808391679
 20
27.1799251621
 11
19.6950468424
 21
27.9964134699
  0
LINE
  5
27E
100
AcDbEntity
  8
0
100
AcDbLine
 62
7
  6
BYLAYER
 10
15.2354730549
 20
25.3046885226
 11
13.8212653804
 21
24.4882002149
  0
LINE
  5
27F
100
AcDbEntity
  8
0
100
AcDbLine
 62
7
  6
BYLAYER
 10
21.9181944454
 20
28.9326965357
 11
23.9706829081
 21
30.1176942287
  0
LINE
  5
280
100
AcDbEntity
  8
0
100
AcDbLine
 62
7
  6
BYLAYER
 10
20.5809669028
 20
27.4887276351
 11
21.9951745772
 21
28.3052159428
  0
LINE
  5
281
100
AcDbEntity
  8
0
100
AcDbLine
 62
7
  6
BYLAYER
 10
39.2651580002
 20
37.3891371975
 11
44.0027537095
 21
40.1243730285
  0
LINE
  5
282
100
AcDbEntity
  8
0
100
AcDbLine
 62
7
  6
BYLAYER
 10
21.899922809
 20
26.5672734418
 11
20.4857151346
 21
25.7507851341
  0
LINE
  5
283
100
AcDbEntity
  8
0
100
AcDbLine
 62
7
  6
BYLAYER
 10
20.3548965742
 20
24.1330229752
 11
18.9406888998
 21
23.3165346674
  0
LINE
  5
284
100
AcDbEntity
  8
0
100
AcDbLine
 62
7
  6
BYLAYER
 10
24.2951426409
 20
46.7946559581
 11
17.2373129644
 21
51.369347258
  0
LINE
  5
285
100
AcDbEntity
  8
0
100
AcDbLine
 62
7
  6
BYLAYER
 10
34.5275228417
 20
42.1656062956
 11
39.2651580002
 21
39.4303932404
  0
LINE
  5
286
100
AcDbEntity
  8
0
100
AcDbLine
 62
7
  6
BYLAYER
 10
39.265118551
 20
42.8595860838
 11
39.265118551
 21
44.9008421266
  0
LINE
  5
287
100
AcDbEntity
  8
0
100
AcDbLine
 62
7
  6
BYLAYER
 10
39.2651580002
 20
37.3891371975
 11
39.2651580002
 21
39.4303932404
  0
LINE
  5
288
100
AcDbEntity
  8
0
100
AcDbLine
 62
7
  6
BYLAYER
 10
44.0027537095
 20
40.1243730285
 11
39.265118551
 21
42.8595860838
  0
LINE
  5
289
100
AcDbEntity
  8
0
100
AcDbLine
 62
7
  6
BYLAYER
 10
32.0761570318
 20
49.0512970991
 11
39.265118551
 21
44.9008421266
  0
LINE
  5
28A
100
AcDbEntity
  8
0
100
AcDbLine
 62
7
  6
BYLAYER
 10
43.5785593221
 20
18.6912287275
 11
43.5785619107
 21
23.9984959334
  0
LINE
  5
28B
100
AcDbEntity
  8
0
100
AcDbLine
 62
7
  6
BYLAYER
 10
43.7835735598
 20
24.1576831731
 11
43.7835735598
 21
18.9769582097
  0
LINE
  5
28C
100
AcDbEntity
  8
0
100
AcDbLine
 62
7
  6
BYLAYER
 10
44.0027537095
 20
40.1243730285
 11
44.0027537095
 21
24.2842261362
  0
LINE
  5
28D
100
AcDbEntity
  8
0
100
AcDbLine
 62
7
  6
BYLAYER
 10
29.7192561978
 20
17.6706990622
 11
24.9816604885
 21
14.9354632313
  0
LINE
  5
28E
100
AcDbEntity
  8
0
100
AcDbLine
 62
7
  6
BYLAYER
 10
24.9816604885
 20
13.302458397
 11
44.0027537095
 21
24.2842261362
  0
LINE
  5
28F
100
AcDbEntity
  8
0
100
AcDbLine
 62
7
  6
BYLAYER
 10
43.5785619107
 20
23.9984959334
 11
25.4765632602
 21
13.5473645245
  0
LINE
  5
290
100
AcDbEntity
  8
0
100
AcDbLine
 62
7
  6
BYLAYER
 10
33.7253815194
 20
10.7997230374
 11
34.2430155659
 21
11.4679933605
  0
LINE
  5
291
100
AcDbEntity
  8
0
100
AcDbLine
 62
7
  6
BYLAYER
 10
43.5785593221
 20
18.6912287275
 11
25.476565849
 21
8.2401003078
  0
ARC
  5
292
100
AcDbEntity
  8
0
100
AcDbCircle
 62
7
  6
BYLAYER
 10
24.9786266627
 20
24.0060626131
 40
16.4787106918
100
AcDbArc
 50
266.4915569779
 51
268.2406488348
  0
ARC
  5
293
100
AcDbEntity
  8
0
100
AcDbCircle
 62
7
  6
BYLAYER
 10
24.9850383863
 20
23.9936082329
 40
16.4662467857
100
AcDbArc
 50
271.7484164533
 51
273.4958659861
  0
ARC
  5
294
100
AcDbEntity
  8
0
100
AcDbCircle
 62
7
  6
BYLAYER
 10
24.9843612412
 20
23.7174383432
 40
16.235966485
100
AcDbArc
 50
271.7729389364
 51
273.5779155639
  0
ARC
  5
295
100
AcDbEntity
  8
0
100
AcDbCircle
 62
7
  6
BYLAYER
 10
24.9782122494
 20
23.7034928283
 40
16.2220094886
100
AcDbArc
 50
266.4195171347
 51
268.2457749135
  0
ARC
  5
296
100
AcDbEntity
  8
0
100
AcDbCircle
 62
7
  6
BYLAYER
 10
24.9784707345
 20
20.2510487072
 40
14.7452441385
100
AcDbArc
 50
266.1235553027
 51
268.0690054352
  0
ARC
  5
297
100
AcDbEntity
  8
0
100
AcDbCircle
 62
7
  6
BYLAYER
 10
24.9859697002
 20
20.225857131
 40
14.720023813
100
AcDbArc
 50
271.929605136
 51
273.8783878453
  0
ARC
  5
298
100
AcDbEntity
  8
0
100
AcDbCircle
 62
7
  6
BYLAYER
 10
24.9847322633
 20
19.7544972621
 40
14.3935132525
100
AcDbArc
 50
271.9783219483
 51
273.9714409071
  0
ARC
  5
299
100
AcDbEntity
  8
0
100
AcDbCircle
 62
7
  6
BYLAYER
 10
24.9771366848
 20
19.7296032585
 40
14.368589438
100
AcDbArc
 50
266.027106678
 51
268.0236842191
  0
ARC
  5
29A
100
AcDbEntity
  8
0
100
AcDbCircle
 62
7
  6
BYLAYER
 10
20.7976309941
 20
35.5088962287
 40
12.0221754736
100
AcDbArc
 50
230.1078548612
 51
231.7703200859
  0
ARC
  5
29B
100
AcDbEntity
  8
0
100
AcDbCircle
 62
7
  6
BYLAYER
 10
22.5973244548
 20
18.2650751684
 40
9.6739798547
100
AcDbArc
 50
240.0008079199
 51
240.3135311012
  0
ARC
  5
29C
100
AcDbEntity
  8
0
100
AcDbCircle
 62
7
  6
BYLAYER
 10
22.6129462026
 20
18.0404977463
 40
9.6105955466
100
AcDbArc
 50
240.0008079199
 51
240.3135311012
  0
ARC
  5
29D
100
AcDbEntity
  8
0
100
AcDbCircle
 62
7
  6
BYLAYER
 10
22.802275751
 20
17.1051179152
 40
9.1887285638
100
AcDbArc
 50
240.4623731094
 51
240.8839746417
  0
ARC
  5
29E
100
AcDbEntity
  8
0
100
AcDbCircle
 62
7
  6
BYLAYER
 10
22.7555231739
 20
17.0226249708
 40
9.0939082639
100
AcDbArc
 50
240.0010983141
 51
240.4624211985
  0
ARC
  5
29F
100
AcDbEntity
  8
0
100
AcDbCircle
 62
7
  6
BYLAYER
 10
15.1350716285
 20
30.0004647474
 40
6.3468444837
100
AcDbArc
 50
12.7810507073
 51
13.6642101189
  0
ARC
  5
2A0
100
AcDbEntity
  8
0
100
AcDbCircle
 62
7
  6
BYLAYER
 10
18.4658043449
 20
30.2081347364
 40
5.6406064699
100
AcDbArc
 50
355.879257472
 51
358.0495257238
  0
ARC
  5
2A1
100
AcDbEntity
  8
0
100
AcDbCircle
 62
7
  6
BYLAYER
 10
23.5219169274
 20
12.8042903614
 40
5.5279355911
100
AcDbArc
 50
238.7235920141
 51
240.0024431393
  0
ARC
  5
2A2
100
AcDbEntity
  8
0
100
AcDbCircle
 62
7
  6
BYLAYER
 10
14.9578201804
 20
32.6239179753
 40
3.223329683
100
AcDbArc
 50
70.5130203458
 51
74.8881544537
  0
ARC
  5
2A3
100
AcDbEntity
  8
0
100
AcDbCircle
 62
7
  6
BYLAYER
 10
12.1561817581
 20
27.835382909
 40
3.1380958954
100
AcDbArc
 50
0.0134324681
 51
3.1625982195
  0
ARC
  5
2A4
100
AcDbEntity
  8
0
100
AcDbCircle
 62
7
  6
BYLAYER
 10
16.6553919637
 20
34.7860766215
 40
1.5494236704
100
AcDbArc
 50
112.7958546781
 51
119.9907087475
  0
ARC
  5
2A5
100
AcDbEntity
  8
0
100
AcDbCircle
 62
7
  6
BYLAYER
 10
23.1961235951
 20
31.4586541215
 40
1.5485786079
100
AcDbArc
 50
300.0113975145
 51
305.5289279657
  0
ARC
  5
2A6
100
AcDbEntity
  8
0
100
AcDbCircle
 62
7
  6
BYLAYER
 10
16.6525607426
 20
34.7917539167
 40
1.5430913636
100
AcDbArc
 50
120.005030406
 51
122.5345311426
  0
ARC
  5
2A7
100
AcDbEntity
  8
0
100
AcDbCircle
 62
7
  6
BYLAYER
 10
16.5454970613
 20
34.4860616106
 40
1.4542814819
100
AcDbArc
 50
110.719405972
 51
120.7705695091
  0
ARC
  5
2A8
100
AcDbEntity
  8
0
100
AcDbCircle
 62
7
  6
BYLAYER
 10
13.8677062354
 20
27.6953106708
 40
0.8536143266
100
AcDbArc
 50
287.5576922926
 51
299.9617215458
  0
ARC
  5
2A9
100
AcDbEntity
  8
0
100
AcDbCircle
 62
7
  6
BYLAYER
 10
12.194012794
 20
30.5936899963
 40
0.8494635567
100
AcDbArc
 50
120.0192814243
 51
130.4959792596
  0
ARC
  5
2AA
100
AcDbEntity
  8
0
100
AcDbCircle
 62
7
  6
BYLAYER
 10
25.33161829
 20
8.0105150429
 40
0.15
100
AcDbArc
 50
0.0002961789
 51
90.0001377221
  0
ARC
  5
2AB
100
AcDbEntity
  8
0
100
AcDbCircle
 62
7
  6
BYLAYER
 10
25.3316147856
 20
5.8861696046
 40
0.15
100
AcDbArc
 50
0.0027810237
 51
90.0001377221
  0
ARC
  5
2AC
100
AcDbEntity
  8
0
100
AcDbCircle
 62
7
  6
BYLAYER
 10
24.63161829
 20
8.0105133603
 40
0.15
100
AcDbArc
 50
90.0001377221
 51
179.9999797152
  0
ARC
  5
2AD
100
AcDbEntity
  8
0
100
AcDbCircle
 62
7
  6
BYLAYER
 10
24.6316147856
 20
5.886167922
 40
0.15
100
AcDbArc
 50
90.0001377221
 51
179.997494639
  0
SPLINE
  5
2AE
100
AcDbEntity
  8
0
100
AcDbSpline
 62
7
  6
BYLAYER
 70
0
 71
3
 72
15
 73
11
 74
0
 42
0.0000001
 43
0.0000001
 44
0.0000000001
 40
0.0
 40
0.0
 40
0.0
 40
0.0
 40
0.1485793283
 40
0.2895082688
 40
0.4227234613
 40
0.5486404269
 40
0.6680007321
 40
0.7819381073
 40
0.8919868037
 40
1.0
 40
1.0
 40
1.0
 40
1.0
 10
14.8169785029
 20
28.111681116
 30
0.0
 10
14.8169785029
 20
28.0459244089
 30
0.0
 10
14.8116736799
 20
27.9177086711
 30
0.0
 10
14.7864398433
 20
27.7320365837
 30
0.0
 10
14.7442783289
 20
27.5596987615
 30
0.0
 10
14.6855230185
 20
27.402372551
 30
0.0
 10
14.6106347994
 20
27.2615648931
 30
0.0
 10
14.5201858326
 20
27.1387173641
 30
0.0
 10
14.4150109021
 20
27.035219554
 30
0.0
 10
14.3354195195
 20
26.9796736588
 30
0.0
 10
14.2940194205
 20
26.9557740004
 30
0.0
  0
SPLINE
  5
2AF
100
AcDbEntity
  8
0
100
AcDbSpline
 62
7
  6
BYLAYER
 70
0
 71
3
 72
11
 73
7
 74
0
 42
0.0000001
 43
0.0000001
 44
0.0000000001
 40
0.0
 40
0.0
 40
0.0
 40
0.0
 40
0.2597327959
 40
0.5139811925
 40
0.7612143093
 40
1.0
 40
1.0
 40
1.0
 40
1.0
 10
10.9086237785
 20
32.3782412102
 30
0.0
 10
10.8768865137
 20
32.2329673058
 30
0.0
 10
10.8186256035
 20
31.9444584164
 30
0.0
 10
10.7498270738
 20
31.5139650107
 30
0.0
 10
10.7043412405
 20
31.0923913154
 30
0.0
 10
10.6915532856
 20
30.814189894
 30
0.0
 10
10.6901473888
 20
30.6774893605
 30
0.0
  0
SPLINE
  5
2B0
100
AcDbEntity
  8
0
100
AcDbSpline
 62
7
  6
BYLAYER
 70
0
 71
3
 72
15
 73
11
 74
0
 42
0.0000001
 43
0.0000001
 44
0.0000000001
 40
0.0
 40
0.0
 40
0.0
 40
0.0
 40
0.0857056237
 40
0.1811648337
 40
0.2882001076
 40
0.4079771564
 40
0.5405206829
 40
0.6846716176
 40
0.8385196492
 40
1.0
 40
1.0
 40
1.0
 40
1.0
 10
13.3581237195
 20
26.0650392503
 30
0.0
 10
13.4279120569
 20
26.0542448654
 30
0.0
 10
13.5762580859
 20
26.0365136442
 30
0.0
 10
13.8135579255
 20
26.0240508744
 30
0.0
 10
14.0792449241
 20
26.0268742983
 30
0.0
 10
14.3748107121
 20
26.0466547537
 30
0.0
 10
14.699472774
 20
26.083739824
 30
0.0
 10
15.0502534574
 20
26.1370798779
 30
0.0
 10
15.4228162538
 20
26.2045919327
 30
0.0
 10
15.6774452161
 20
26.2563454271
 30
0.0
 10
15.8076236604
 20
26.2838566275
 30
0.0
  0
SPLINE
  5
2B1
100
AcDbEntity
  8
0
100
AcDbSpline
 62
7
  6
BYLAYER
 70
0
 71
3
 72
11
 73
7
 74
0
 42
0.0000001
 43
0.0000001
 44
0.0000000001
 40
0.0
 40
0.0
 40
0.0
 40
0.0
 40
0.235921388
 40
0.4801629604
 40
0.734458073
 40
1.0
 40
1.0
 40
1.0
 40
1.0
 10
17.0636094757
 20
30.275005716
 30
0.0
 10
17.0972972182
 20
30.1597027329
 30
0.0
 10
17.1590110798
 20
29.9229477547
 30
0.0
 10
17.2288585424
 20
29.5552494363
 30
0.0
 10
17.2728374835
 20
29.168328444
 30
0.0
 10
17.2823881643
 20
28.9035173154
 30
0.0
 10
17.2823881643
 20
28.7683120626
 30
0.0
  0
SPLINE
  5
2B2
100
AcDbEntity
  8
0
100
AcDbSpline
 62
7
  6
BYLAYER
 70
0
 71
3
 72
19
 73
15
 74
0
 42
0.0000001
 43
0.0000001
 44
0.0000000001
 40
0.0
 40
0.0
 40
0.0
 40
0.0
 40
0.1282636478
 40
0.2561560836
 40
0.3198828217
 40
0.3834024902
 40
0.4466690778
 40
0.5096363372
 40
0.5722654257
 40
0.6345242436
 40
0.6963944295
 40
0.7578675461
 40
0.8796415839
 40
1.0
 40
1.0
 40
1.0
 40
1.0
 10
14.6141095347
 20
33.3221980074
 30
0.0
 10
14.7467250763
 20
33.2176080371
 30
0.0
 10
15.007610566
 20
33.003626473
 30
0.0
 10
15.3203005472
 20
32.7210831028
 30
0.0
 10
15.5596446628
 20
32.485250303
 30
0.0
 10
15.7328162905
 20
32.3036820629
 30
0.0
 10
15.8992713597
 20
32.1172712597
 30
0.0
 10
16.0584805829
 20
31.9261551491
 30
0.0
 10
16.2101176555
 20
31.7306527405
 30
0.0
 10
16.3539537739
 20
31.5311216805
 30
0.0
 10
16.4900250686
 20
31.3280485378
 30
0.0
 10
16.6607512826
 20
31.0540703361
 30
0.0
 10
16.8562159577
 20
30.7050456727
 30
0.0
 10
16.996889941
 20
30.4187643516
 30
0.0
 10
17.0636094757
 20
30.275005716
 30
0.0
  0
SPLINE
  5
2B3
100
AcDbEntity
  8
0
100
AcDbSpline
 62
7
  6
BYLAYER
 70
0
 71
3
 72
15
 73
11
 74
0
 42
0.0000001
 43
0.0000001
 44
0.0000000001
 40
0.0
 40
0.0
 40
0.0
 40
0.0
 40
0.1614815995
 40
0.3153308045
 40
0.4594823839
 40
0.592026086
 40
0.7118023402
 40
0.8188368566
 40
0.9142950422
 40
1.0
 40
1.0
 40
1.0
 40
1.0
 10
12.1646095938
 20
33.1033806302
 30
0.0
 10
12.2947890448
 20
33.1308920433
 30
0.0
 10
12.5494199513
 20
33.1826459993
 30
0.0
 10
12.9219852831
 20
33.2501582365
 30
0.0
 10
13.2727675993
 20
33.3034984805
 30
0.0
 10
13.5974297323
 20
33.3405831755
 30
0.0
 10
13.8929944129
 20
33.3603630836
 30
0.0
 10
14.1586792926
 20
33.3631863832
 30
0.0
 10
14.3959770911
 20
33.3507232958
 30
0.0
 10
14.5443217395
 20
33.3329923084
 30
0.0
 10
14.6141095347
 20
33.3221980074
 30
0.0
  0
SPLINE
  5
2B4
100
AcDbEntity
  8
0
100
AcDbSpline
 62
7
  6
BYLAYER
 70
0
 71
3
 72
31
 73
27
 74
0
 42
0.0000001
 43
0.0000001
 44
0.0000000001
 40
0.0
 40
0.0
 40
0.0
 40
0.0
 40
0.021327428
 40
0.042883111
 40
0.064883653
 40
0.087523264
 40
0.1109675811
 40
0.1353488513
 40
0.1607663073
 40
0.1872857105
 40
0.2149434948
 40
0.2437475771
 40
0.2736827051
 40
0.3047109142
 40
0.336776908
 40
0.3698078448
 40
0.4383892547
 40
0.5096592378
 40
0.5826666388
 40
0.6563812173
 40
0.7297415102
 40
0.8017015735
 40
0.8712785697
 40
0.9376029948
 40
0.9693392856
 40
1.0
 40
1.0
 40
1.0
 40
1.0
 10
11.7690334732
 20
31.3292040418
 30
0.0
 10
11.8000560008
 20
31.3471128833
 30
0.0
 10
11.864813638
 20
31.3791645713
 30
0.0
 10
11.9680652852
 20
31.414855035
 30
0.0
 10
12.0770631787
 20
31.4381039947
 30
0.0
 10
12.1911569945
 20
31.448805388
 30
0.0
 10
12.3097116853
 20
31.4469361301
 30
0.0
 10
12.4320787373
 20
31.4325492939
 30
0.0
 10
12.5576004408
 20
31.4057453592
 30
0.0
 10
12.6856124431
 20
31.3667006148
 30
0.0
 10
12.8154329643
 20
31.3156312711
 30
0.0
 10
12.9463789083
 20
31.2528321997
 30
0.0
 10
13.0777487834
 20
31.1786366369
 30
0.0
 10
13.2088487438
 20
31.0934579564
 30
0.0
 10
13.3389740599
 20
30.9977445242
 30
0.0
 10
13.5124007362
 20
30.8550066339
 30
0.0
 10
13.721913262
 20
30.6532190256
 30
0.0
 10
13.9554328231
 20
30.3818963388
 30
0.0
 10
14.1692461661
 20
30.0841178244
 30
0.0
 10
14.3587785848
 20
29.7662530748
 30
0.0
 10
14.5199919824
 20
29.4350792495
 30
0.0
 10
14.64944987
 20
29.0976471735
 30
0.0
 10
14.7443831871
 20
28.7611686901
 30
0.0
 10
14.7937832053
 20
28.4833890018
 30
0.0
 10
14.8135740695
 20
28.2680026977
 30
0.0
 10
14.8169785029
 20
28.163177658
 30
0.0
 10
14.8169785029
 20
28.111681116
 30
0.0
  0
SPLINE
  5
2B5
100
AcDbEntity
  8
0
100
AcDbSpline
 62
7
  6
BYLAYER
 70
0
 71
3
 72
11
 73
7
 74
0
 42
0.0000001
 43
0.0000001
 44
0.0000000001
 40
0.0
 40
0.0
 40
0.0
 40
0.0
 40
0.2381704617
 40
0.4852579683
 40
0.7397511466
 40
1.0
 40
1.0
 40
1.0
 40
1.0
 10
17.2823881643
 20
28.7683120626
 30
0.0
 10
17.2823881643
 20
28.6273091924
 30
0.0
 10
17.2715973891
 20
28.3399481391
 30
0.0
 10
17.2267953726
 20
27.9040540488
 30
0.0
 10
17.1566618755
 20
27.4583432929
 30
0.0
 10
17.0964936322
 20
27.1595197248
 30
0.0
 10
17.0636094757
 20
27.0089960475
 30
0.0
  0
SPLINE
  5
2B6
100
AcDbEntity
  8
0
100
AcDbSpline
 62
7
  6
BYLAYER
 70
0
 71
3
 72
24
 73
20
 74
0
 42
0.0000001
 43
0.0000001
 44
0.0000000001
 40
0.0
 40
0.0
 40
0.0
 40
0.0
 40
0.0709276952
 40
0.1382602516
 40
0.2021669325
 40
0.2629699187
 40
0.3211526601
 40
0.3773566476
 40
0.4323620804
 40
0.4870402061
 40
0.5422885682
 40
0.5989585205
 40
0.6577967136
 40
0.7194049122
 40
0.7514029035
 40
0.7842420191
 40
0.8525388305
 40
0.9244742058
 40
1.0
 40
1.0
 40
1.0
 40
1.0
 10
13.2926802114
 20
26.3963702559
 30
0.0
 10
13.3590894543
 20
26.3669377803
 30
0.0
 10
13.4911262516
 20
26.3151309961
 30
0.0
 10
13.6906955346
 20
26.258673455
 30
0.0
 10
13.8850855337
 20
26.2260192291
 30
0.0
 10
14.0727040017
 20
26.2175308043
 30
0.0
 10
14.2520017006
 20
26.2333984136
 30
0.0
 10
14.4214143043
 20
26.2736476728
 30
0.0
 10
14.5793879747
 20
26.3380173253
 30
0.0
 10
14.7244196969
 20
26.4259774558
 30
0.0
 10
14.8551321151
 20
26.5366946065
 30
0.0
 10
14.9703870587
 20
26.6690579089
 30
0.0
 10
15.0692427753
 20
26.8218027331
 30
0.0
 10
15.1365078238
 20
26.9631645985
 30
0.0
 10
15.1817666165
 20
27.0845527808
 30
0.0
 10
15.2221939504
 20
27.2148354537
 30
0.0
 10
15.2609793448
 20
27.3881315184
 30
0.0
 10
15.2884713261
 20
27.6076605951
 30
0.0
 10
15.2942775673
 20
27.7587703193
 30
0.0
 10
15.2942775673
 20
27.8361186067
 30
0.0
  0
SPLINE
  5
2B7
100
AcDbEntity
  8
0
100
AcDbSpline
 62
7
  6
BYLAYER
 70
0
 71
3
 72
15
 73
11
 74
0
 42
0.0000001
 43
0.0000001
 44
0.0000000001
 40
0.0
 40
0.0
 40
0.0
 40
0.0
 40
0.16148157
 40
0.3153308177
 40
0.4594823768
 40
0.5920260863
 40
0.7118023429
 40
0.8188368483
 40
0.9142950726
 40
1.0
 40
1.0
 40
1.0
 40
1.0
 10
13.3581237195
 20
32.5970585873
 30
0.0
 10
13.2279442921
 20
32.5695471793
 30
0.0
 10
12.9733133625
 20
32.5177932845
 30
0.0
 10
12.6007480548
 20
32.4502809454
 30
0.0
 10
12.2499657046
 20
32.3969407532
 30
0.0
 10
11.9253035837
 20
32.3598560411
 30
0.0
 10
11.6297389023
 20
32.3400761157
 30
0.0
 10
11.3640540006
 20
32.3372528849
 30
0.0
 10
11.1267561945
 20
32.3497158311
 30
0.0
 10
10.9784115491
 20
32.367446913
 30
0.0
 10
10.9086237785
 20
32.3782412102
 30
0.0
  0
SPLINE
  5
2B8
100
AcDbEntity
  8
0
100
AcDbSpline
 62
7
  6
BYLAYER
 70
0
 71
3
 72
19
 73
15
 74
0
 42
0.0000001
 43
0.0000001
 44
0.0000000001
 40
0.0
 40
0.0
 40
0.0
 40
0.0
 40
0.1282636448
 40
0.2561560851
 40
0.3198828171
 40
0.3834024873
 40
0.4466690791
 40
0.5096363362
 40
0.5722654227
 40
0.6345242442
 40
0.6963944311
 40
0.7578675467
 40
0.879641588
 40
1.0
 40
1.0
 40
1.0
 40
1.0
 10
15.8076236604
 20
29.549866296
 30
0.0
 10
15.6750081219
 20
29.6544562639
 30
0.0
 10
15.4141227596
 20
29.8684379798
 30
0.0
 10
15.1014325812
 20
30.1509811234
 30
0.0
 10
14.8620885622
 20
30.3868140246
 30
0.0
 10
14.6889169326
 20
30.5683822593
 30
0.0
 10
14.522461768
 20
30.7547929847
 30
0.0
 10
14.363252605
 20
30.9459091483
 30
0.0
 10
14.2116156208
 20
31.141411622
 30
0.0
 10
14.0677794084
 20
31.3409426166
 30
0.0
 10
13.9317080597
 20
31.5440157323
 30
0.0
 10
13.760981995
 20
31.8179940305
 30
0.0
 10
13.5655170712
 20
32.1670185507
 30
0.0
 10
13.424843252
 20
32.4532999567
 30
0.0
 10
13.3581237195
 20
32.5970585873
 30
0.0
  0
SPLINE
  5
2B9
100
AcDbEntity
  8
0
100
AcDbSpline
 62
7
  6
BYLAYER
 70
0
 71
3
 72
11
 73
7
 74
0
 42
0.0000001
 43
0.0000001
 44
0.0000000001
 40
0.0
 40
0.0
 40
0.0
 40
0.0
 40
0.2381704328
 40
0.4852579913
 40
0.7397513505
 40
1.0
 40
1.0
 40
1.0
 40
1.0
 10
15.5888449718
 20
27.7905502809
 30
0.0
 10
15.5888449718
 20
27.9315531331
 30
0.0
 10
15.5996355205
 20
28.2189142066
 30
0.0
 10
15.6444378224
 20
28.6548084032
 30
0.0
 10
15.7145718453
 20
29.1005190754
 30
0.0
 10
15.7747395299
 20
29.3993427376
 30
0.0
 10
15.8076236604
 20
29.549866296
 30
0.0
  0
SPLINE
  5
2BA
100
AcDbEntity
  8
0
100
AcDbSpline
 62
7
  6
BYLAYER
 70
0
 71
3
 72
11
 73
7
 74
0
 42
0.0000001
 43
0.0000001
 44
0.0000000001
 40
0.0
 40
0.0
 40
0.0
 40
0.0
 40
0.2359213485
 40
0.4801629395
 40
0.7344581474
 40
1.0
 40
1.0
 40
1.0
 40
1.0
 10
15.8076236604
 20
26.2838566275
 30
0.0
 10
15.773935923
 20
26.3991595932
 30
0.0
 10
15.7122213542
 20
26.6359143856
 30
0.0
 10
15.6423745868
 20
27.003612909
 30
0.0
 10
15.5983958846
 20
27.3905339264
 30
0.0
 10
15.5888449718
 20
27.6553450637
 30
0.0
 10
15.5888449718
 20
27.7905502809
 30
0.0
  0
SPLINE
  5
2BB
100
AcDbEntity
  8
0
100
AcDbSpline
 62
7
  6
BYLAYER
 70
0
 71
3
 72
21
 73
17
 74
0
 42
0.0000001
 43
0.0000001
 44
0.0000000001
 40
0.0
 40
0.0
 40
0.0
 40
0.0
 40
0.0568534305
 40
0.1158479736
 40
0.1767662873
 40
0.239349949
 40
0.3032987228
 40
0.3682919057
 40
0.5000036655
 40
0.6317155017
 40
0.6967093997
 40
0.7606586956
 40
0.823242219
 40
0.8841639748
 40
0.9431589452
 40
1.0
 40
1.0
 40
1.0
 40
1.0
 10
15.2894983048
 20
28.0085108021
 30
0.0
 10
15.2849971324
 20
28.0909730436
 30
0.0
 10
15.2695680156
 20
28.2587105225
 30
0.0
 10
15.2288203203
 20
28.5123985706
 30
0.0
 10
15.170364939
 20
28.7711388499
 30
0.0
 10
15.0946846956
 20
29.0328559595
 30
0.0
 10
15.0023659992
 20
29.2954580974
 30
0.0
 10
14.8574802384
 20
29.6454325639
 30
0.0
 10
14.6401244289
 20
30.0711308794
 30
0.0
 10
14.3801480446
 20
30.4722242748
 30
0.0
 10
14.1495111154
 20
30.7726940297
 30
0.0
 10
13.9682558043
 20
30.9839521375
 30
0.0
 10
13.7794463981
 20
31.1803634627
 30
0.0
 10
13.5845972527
 20
31.360364308
 30
0.0
 10
13.3852858874
 20
31.5224953625
 30
0.0
 10
13.2477574291
 20
31.6197270067
 30
0.0
 10
13.1786106735
 20
31.6648494966
 30
0.0
  0
SPLINE
  5
2BC
100
AcDbEntity
  8
0
100
AcDbSpline
 62
7
  6
BYLAYER
 70
0
 71
3
 72
23
 73
19
 74
0
 42
0.0000001
 43
0.0000001
 44
0.0000000001
 40
0.0
 40
0.0
 40
0.0
 40
0.0
 40
0.0772179612
 40
0.1507766437
 40
0.2205978549
 40
0.2867362888
 40
0.3493966706
 40
0.4089542252
 40
0.4659653654
 40
0.5211581006
 40
0.5754011734
 40
0.6296434772
 40
0.6848338217
 40
0.7418407207
 40
0.8013938152
 40
0.8640491439
 40
0.9301768361
 40
1.0
 40
1.0
 40
1.0
 40
1.0
 10
13.1786106735
 20
31.6648494966
 30
0.0
 10
13.1091120561
 20
31.7102015979
 30
0.0
 10
12.9700160103
 20
31.7937217173
 30
0.0
 10
12.7569731168
 20
31.8984111314
 30
0.0
 10
12.5461985751
 20
31.9786603818
 30
0.0
 10
12.3395235427
 20
32.0337178649
 30
0.0
 10
12.138718118
 20
32.0630083713
 30
0.0
 10
11.9455372787
 20
32.0661416551
 30
0.0
 10
11.7617279922
 20
32.0429436527
 30
0.0
 10
11.5890505201
 20
31.9934512985
 30
0.0
 10
11.4292616481
 20
31.918023872
 30
0.0
 10
11.2840171497
 20
31.8174011425
 30
0.0
 10
11.1547864947
 20
31.6926470567
 30
0.0
 10
11.042757866
 20
31.5451027949
 30
0.0
 10
10.9488479523
 20
31.3762724815
 30
0.0
 10
10.8737787629
 20
31.1877574632
 30
0.0
 10
10.8180802682
 20
30.9812846274
 30
0.0
 10
10.7947633441
 20
30.8367714478
 30
0.0
 10
10.7861785045
 20
30.7622242481
 30
0.0
  0
SPLINE
  5
2BD
100
AcDbEntity
  8
0
100
AcDbSpline
 62
7
  6
BYLAYER
 70
0
 71
3
 72
26
 73
22
 74
0
 42
0.0000001
 43
0.0000001
 44
0.0000000001
 40
0.0
 40
0.0
 40
0.0
 40
0.0
 40
0.0623762197
 40
0.1287187767
 40
0.1983048881
 40
0.2702784412
 40
0.3436508624
 40
0.4173797051
 40
0.4904014029
 40
0.5616849136
 40
0.6302788399
 40
0.6953630916
 40
0.7563076832
 40
0.8127424296
 40
0.8392662223
 40
0.8646884681
 40
0.9124611301
 40
0.9351047071
 40
0.9571091161
 40
0.9786687817
 40
1.0
 40
1.0
 40
1.0
 40
1.0
 10
18.4626094322
 20
53.0763312318
 30
0.0
 10
18.4626094322
 20
52.991290132
 30
0.0
 10
18.4741365121
 20
52.8156838345
 30
0.0
 10
18.5215381169
 20
52.5490532234
 30
0.0
 10
18.5986307133
 20
52.2758412266
 30
0.0
 10
18.7037245449
 20
52.0018978221
 30
0.0
 10
18.834612349
 20
51.7330219384
 30
0.0
 10
18.9884886146
 20
51.4749505156
 30
0.0
 10
19.162079192
 20
51.2331902085
 30
0.0
 10
19.3516830877
 20
51.0128949362
 30
0.0
 10
19.5532721431
 20
50.8187491963
 30
0.0
 10
19.762617121
 20
50.6548595642
 30
0.0
 10
19.9753261283
 20
50.5247237305
 30
0.0
 10
20.1554679117
 20
50.4450981857
 30
0.0
 10
20.2969694989
 20
50.4019467381
 30
0.0
 10
20.4300208672
 20
50.3735122695
 30
0.0
 10
20.5614052445
 20
50.3638774289
 30
0.0
 10
20.6870897037
 20
50.3756723498
 30
0.0
 10
20.7755878876
 20
50.3945515543
 30
0.0
 10
20.859417271
 20
50.4235196097
 30
0.0
 10
20.9119904665
 20
50.4495479574
 30
0.0
 10
20.9371763491
 20
50.4640888907
 30
0.0
  0
SPLINE
  5
2BE
100
AcDbEntity
  8
0
100
AcDbSpline
 62
7
  6
BYLAYER
 70
0
 71
3
 72
14
 73
10
 74
0
 42
0.0000001
 43
0.0000001
 44
0.0000000001
 40
0.0
 40
0.0
 40
0.0
 40
0.0
 40
0.1485922921
 40
0.2896300159
 40
0.5484426189
 40
0.6678480113
 40
0.7818436021
 40
0.8919405416
 40
1.0
 40
1.0
 40
1.0
 40
1.0
 10
20.8314270115
 20
51.7087247041
 30
0.0
 10
20.8314270115
 20
51.674882106
 30
0.0
 10
20.8286819589
 20
51.6088518621
 30
0.0
 10
20.8118763262
 20
51.4849973598
 30
0.0
 10
20.7779933408
 20
51.370303355
 30
0.0
 10
20.7251827581
 20
51.2710510174
 30
0.0
 10
20.6786247587
 20
51.2077893916
 30
0.0
 10
20.6244687045
 20
51.1545106938
 30
0.0
 10
20.5834948734
 20
51.1259091711
 30
0.0
 10
20.5621807756
 20
51.1136041648
 30
0.0
  0
SPLINE
  5
2BF
100
AcDbEntity
  8
0
100
AcDbSpline
 62
7
  6
BYLAYER
 70
0
 71
3
 72
25
 73
21
 74
0
 42
0.0000001
 43
0.0000001
 44
0.0000000001
 40
0.0
 40
0.0
 40
0.0
 40
0.0
 40
0.0213321201
 40
0.0428929012
 40
0.0648983651
 40
0.087543905
 40
0.1353190794
 40
0.18721976
 40
0.2436575725
 40
0.3046047868
 40
0.3696910419
 40
0.4382871759
 40
0.5095732786
 40
0.5825972302
 40
0.6563273896
 40
0.7297038753
 40
0.8016825185
 40
0.8712694833
 40
0.9376259537
 40
1.0
 40
1.0
 40
1.0
 40
1.0
 10
19.2621879619
 20
53.3652712052
 30
0.0
 10
19.2781595761
 20
53.374491901
 30
0.0
 10
19.3115039663
 20
53.3909863187
 30
0.0
 10
19.364660177
 20
53.4093659842
 30
0.0
 10
19.4207810454
 20
53.4213390042
 30
0.0
 10
19.5004916851
 20
53.428810006
 30
0.0
 10
19.6067689191
 20
53.4210147036
 30
0.0
 10
19.7378055051
 20
53.3861878775
 30
0.0
 10
19.8721350276
 20
53.3268218698
 30
0.0
 10
20.007036565
 20
53.2442858107
 30
0.0
 10
20.1397866665
 20
53.1403616248
 30
0.0
 10
20.2676243788
 20
53.0172472873
 30
0.0
 10
20.3878564279
 20
52.8775481705
 30
0.0
 10
20.4979341055
 20
52.7242386653
 30
0.0
 10
20.595517158
 20
52.560588754
 30
0.0
 10
20.6785219329
 20
52.3900834251
 30
0.0
 10
20.7451646921
 20
52.2163630379
 30
0.0
 10
20.7940589496
 20
52.0430995004
 30
0.0
 10
20.8241110131
 20
51.8740129165
 30
0.0
 10
20.8314270115
 20
51.7626486862
 30
0.0
 10
20.8314270115
 20
51.7087247041
 30
0.0
  0
SPLINE
  5
2C0
100
AcDbEntity
  8
0
100
AcDbSpline
 62
7
  6
BYLAYER
 70
0
 71
3
 72
15
 73
11
 74
0
 42
0.0000001
 43
0.0000001
 44
0.0000000001
 40
0.0
 40
0.0
 40
0.0
 40
0.0
 40
0.1080115518
 40
0.2180586955
 40
0.3319965783
 40
0.4513573605
 40
0.5772651976
 40
0.7104895828
 40
0.8514454119
 40
1.0
 40
1.0
 40
1.0
 40
1.0
 10
18.8871923884
 20
54.0147864793
 30
0.0
 10
18.8535818519
 20
53.9953816175
 30
0.0
 10
18.7889558181
 20
53.9502973701
 30
0.0
 10
18.703576633
 20
53.8662593019
 30
0.0
 10
18.6301384319
 20
53.7665265796
 30
0.0
 10
18.5693395362
 20
53.6522096342
 30
0.0
 10
18.5216355563
 20
53.5244805151
 30
0.0
 10
18.4873986586
 20
53.3845540211
 30
0.0
 10
18.4669242771
 20
53.2338048427
 30
0.0
 10
18.4626094322
 20
53.1297089016
 30
0.0
 10
18.4626094322
 20
53.0763312318
 30
0.0
  0
SPLINE
  5
2C1
100
AcDbEntity
  8
0
100
AcDbSpline
 62
7
  6
BYLAYER
 70
0
 71
3
 72
25
 73
21
 74
0
 42
0.0000001
 43
0.0000001
 44
0.0000000001
 40
0.0
 40
0.0
 40
0.0
 40
0.0
 40
0.0213321201
 40
0.0428929012
 40
0.0648983651
 40
0.087543905
 40
0.1353190794
 40
0.18721976
 40
0.2436575725
 40
0.3046047868
 40
0.3696910419
 40
0.4382871759
 40
0.5095732786
 40
0.5825972302
 40
0.6563273896
 40
0.7297038753
 40
0.8016825185
 40
0.8712694833
 40
0.9376259537
 40
1.0
 40
1.0
 40
1.0
 40
1.0
 10
20.5621807756
 20
51.1136041648
 30
0.0
 10
20.5462091614
 20
51.104383469
 30
0.0
 10
20.5128647712
 20
51.0878890513
 30
0.0
 10
20.4597085605
 20
51.0695093858
 30
0.0
 10
20.4035876921
 20
51.0575363658
 30
0.0
 10
20.3238770524
 20
51.050065364
 30
0.0
 10
20.2175998184
 20
51.0578606664
 30
0.0
 10
20.0865632324
 20
51.0926874925
 30
0.0
 10
19.9522337099
 20
51.1520535002
 30
0.0
 10
19.8173321725
 20
51.2345895593
 30
0.0
 10
19.6845820711
 20
51.3385137452
 30
0.0
 10
19.5567443587
 20
51.4616280827
 30
0.0
 10
19.4365123097
 20
51.6013271995
 30
0.0
 10
19.3264346321
 20
51.7546367047
 30
0.0
 10
19.2288515795
 20
51.918286616
 30
0.0
 10
19.1458468046
 20
52.0887919449
 30
0.0
 10
19.0792040454
 20
52.2625123321
 30
0.0
 10
19.030309788
 20
52.4357758696
 30
0.0
 10
19.0002577244
 20
52.6048624535
 30
0.0
 10
18.9929417261
 20
52.7162266838
 30
0.0
 10
18.9929417261
 20
52.7701506659
 30
0.0
  0
SPLINE
  5
2C2
100
AcDbEntity
  8
0
100
AcDbSpline
 62
7
  6
BYLAYER
 70
0
 71
3
 72
14
 73
10
 74
0
 42
0.0000001
 43
0.0000001
 44
0.0000000001
 40
0.0
 40
0.0
 40
0.0
 40
0.0
 40
0.1485922921
 40
0.2896300159
 40
0.5484426189
 40
0.6678480113
 40
0.7818436021
 40
0.8919405416
 40
1.0
 40
1.0
 40
1.0
 40
1.0
 10
18.9929417261
 20
52.7701506659
 30
0.0
 10
18.9929417261
 20
52.803993264
 30
0.0
 10
18.9956867787
 20
52.8700235079
 30
0.0
 10
19.0124924113
 20
52.9938780102
 30
0.0
 10
19.0463753967
 20
53.108572015
 30
0.0
 10
19.0991859795
 20
53.2078243526
 30
0.0
 10
19.1457439788
 20
53.2710859784
 30
0.0
 10
19.1999000331
 20
53.3243646762
 30
0.0
 10
19.2408738641
 20
53.3529661989
 30
0.0
 10
19.2621879619
 20
53.3652712052
 30
0.0
  0
SPLINE
  5
2C3
100
AcDbEntity
  8
0
100
AcDbSpline
 62
7
  6
BYLAYER
 70
0
 71
3
 72
15
 73
11
 74
0
 42
0.0000001
 43
0.0000001
 44
0.0000000001
 40
0.0
 40
0.0
 40
0.0
 40
0.0
 40
0.1080115518
 40
0.2180586955
 40
0.3319965783
 40
0.4513573605
 40
0.5772651976
 40
0.7104895828
 40
0.8514454119
 40
1.0
 40
1.0
 40
1.0
 40
1.0
 10
20.9371763491
 20
50.4640888907
 30
0.0
 10
20.9707868856
 20
50.4834937525
 30
0.0
 10
21.0354129195
 20
50.5285779999
 30
0.0
 10
21.1207921046
 20
50.6126160681
 30
0.0
 10
21.1942303056
 20
50.7123487904
 30
0.0
 10
21.2550292013
 20
50.8266657358
 30
0.0
 10
21.3027331813
 20
50.9543948549
 30
0.0
 10
21.336970079
 20
51.0943213489
 30
0.0
 10
21.3574444605
 20
51.2450705273
 30
0.0
 10
21.3617593053
 20
51.3491664684
 30
0.0
 10
21.3617593053
 20
51.4025441382
 30
0.0
  0
SPLINE
  5
2C4
100
AcDbEntity
  8
0
100
AcDbSpline
 62
7
  6
BYLAYER
 70
0
 71
3
 72
26
 73
22
 74
0
 42
0.0000001
 43
0.0000001
 44
0.0000000001
 40
0.0
 40
0.0
 40
0.0
 40
0.0
 40
0.0623762197
 40
0.1287187767
 40
0.1983048881
 40
0.2702784412
 40
0.3436508624
 40
0.4173797051
 40
0.4904014029
 40
0.5616849136
 40
0.6302788399
 40
0.6953630916
 40
0.7563076832
 40
0.8127424296
 40
0.8392662223
 40
0.8646884681
 40
0.9124611301
 40
0.9351047071
 40
0.9571091161
 40
0.9786687817
 40
1.0
 40
1.0
 40
1.0
 40
1.0
 10
21.3617593053
 20
51.4025441382
 30
0.0
 10
21.3617593053
 20
51.487585238
 30
0.0
 10
21.3502322254
 20
51.6631915354
 30
0.0
 10
21.3028306206
 20
51.9298221466
 30
0.0
 10
21.2257380242
 20
52.2030341434
 30
0.0
 10
21.1206441927
 20
52.4769775479
 30
0.0
 10
20.9897563885
 20
52.7458534316
 30
0.0
 10
20.835880123
 20
53.0039248544
 30
0.0
 10
20.6622895455
 20
53.2456851615
 30
0.0
 10
20.4726856498
 20
53.4659804338
 30
0.0
 10
20.2710965944
 20
53.6601261736
 30
0.0
 10
20.0617516165
 20
53.8240158058
 30
0.0
 10
19.8490426093
 20
53.9541516395
 30
0.0
 10
19.6689008259
 20
54.0337771843
 30
0.0
 10
19.5273992387
 20
54.0769286319
 30
0.0
 10
19.3943478704
 20
54.1053631005
 30
0.0
 10
19.262963493
 20
54.1149979411
 30
0.0
 10
19.1372790338
 20
54.1032030202
 30
0.0
 10
19.04878085
 20
54.0843238157
 30
0.0
 10
18.9649514665
 20
54.0553557603
 30
0.0
 10
18.912378271
 20
54.0293274126
 30
0.0
 10
18.8871923884
 20
54.0147864793
 30
0.0
  0
SPLINE
  5
2C5
100
AcDbEntity
  8
0
100
AcDbSpline
 62
7
  6
BYLAYER
 70
0
 71
3
 72
18
 73
14
 74
0
 42
0.0000001
 43
0.0000001
 44
0.0000000001
 40
0.0
 40
0.0
 40
0.0
 40
0.0
 40
0.1485489903
 40
0.2894277995
 40
0.4226067831
 40
0.5484936898
 40
0.6678195929
 40
0.7254032594
 40
0.7818084143
 40
0.8372394667
 40
0.8919196626
 40
0.9460889222
 40
1.0
 40
1.0
 40
1.0
 40
1.0
 10
32.640109374
 20
51.831225825
 30
0.0
 10
32.640109374
 20
51.5838078341
 30
0.0
 10
32.6201623036
 20
51.1014135803
 30
0.0
 10
32.5252096487
 20
50.4028547277
 30
0.0
 10
32.3665639537
 20
49.754457159
 30
0.0
 10
32.1455800008
 20
49.1625720354
 30
0.0
 10
31.9078589159
 20
48.715746618
 30
0.0
 10
31.6884564628
 20
48.3946238534
 30
0.0
 10
31.5118189621
 20
48.1741933171
 30
0.0
 10
31.3216323138
 20
47.9719249876
 30
0.0
 10
31.1183426757
 20
47.788309314
 30
0.0
 10
30.9024418597
 20
47.6238669749
 30
0.0
 10
30.7503032152
 20
47.5271642379
 30
0.0
 10
30.6725420956
 20
47.4822656453
 30
0.0
  0
SPLINE
  5
2C6
100
AcDbEntity
  8
0
100
AcDbSpline
 62
7
  6
BYLAYER
 70
0
 71
3
 72
33
 73
29
 74
0
 42
0.0000001
 43
0.0000001
 44
0.0000000001
 40
0.0
 40
0.0
 40
0.0
 40
0.0
 40
0.0213264317
 40
0.0428812274
 40
0.0648808007
 40
0.0875194517
 40
0.110962867
 40
0.1353431419
 40
0.1607597142
 40
0.1872780622
 40
0.214934813
 40
0.2437377557
 40
0.2736716388
 40
0.3046986622
 40
0.3367632071
 40
0.3697929483
 40
0.4383715226
 40
0.5096383929
 40
0.5826425493
 40
0.6563538324
 40
0.7297109961
 40
0.8016677027
 40
0.8368201281
 40
0.8712619349
 40
0.9048865275
 40
0.9376046865
 40
0.9693381061
 40
1.0
 40
1.0
 40
1.0
 40
1.0
 10
21.1725918745
 20
63.9367603405
 30
0.0
 10
21.2893044794
 20
64.0041491812
 30
0.0
 10
21.5329554288
 20
64.1247238803
 30
0.0
 10
21.9214214281
 20
64.2590167007
 30
0.0
 10
22.3315151245
 20
64.346478103
 30
0.0
 10
22.7607783161
 20
64.3867528554
 30
0.0
 10
23.2068266224
 20
64.3797071101
 30
0.0
 10
23.6672211537
 20
64.3255914493
 30
0.0
 10
24.1394807959
 20
64.224732256
 30
0.0
 10
24.6211151997
 20
64.0778394397
 30
0.0
 10
25.1095485349
 20
63.8856899515
 30
0.0
 10
25.6022184682
 20
63.6494169447
 30
0.0
 10
26.096483813
 20
63.3702655419
 30
0.0
 10
26.5897276438
 20
63.0497848875
 30
0.0
 10
27.0793151422
 20
62.6896814206
 30
0.0
 10
27.7318033268
 20
62.1526349155
 30
0.0
 10
28.5200719783
 20
61.3934366257
 30
0.0
 10
29.3986576378
 20
60.3726149925
 30
0.0
 10
30.2030996891
 20
59.2522641227
 30
0.0
 10
30.9161976562
 20
58.0563268883
 30
0.0
 10
31.522715919
 20
56.8103704108
 30
0.0
 10
31.9318383175
 20
55.744056575
 30
0.0
 10
32.1938113954
 20
54.8884679331
 30
0.0
 10
32.3549258113
 20
54.2561208154
 30
0.0
 10
32.48130541
 20
53.6316084292
 30
0.0
 10
32.5722886317
 20
53.0182285331
 30
0.0
 10
32.6273056647
 20
52.4193809047
 30
0.0
 10
32.640109374
 20
52.0249909548
 30
0.0
 10
32.640109374
 20
51.831225825
 30
0.0
  0
SPLINE
  5
2C7
100
AcDbEntity
  8
0
100
AcDbSpline
 62
7
  6
BYLAYER
 70
0
 71
3
 72
18
 73
14
 74
0
 42
0.0000001
 43
0.0000001
 44
0.0000000001
 40
0.0
 40
0.0
 40
0.0
 40
0.0
 40
0.0539108668
 40
0.1080799303
 40
0.1627599609
 40
0.2181908553
 40
0.2745959085
 40
0.3321795196
 40
0.451505458
 40
0.5773924406
 40
0.7105716433
 40
0.8514509537
 40
1.0
 40
1.0
 40
1.0
 40
1.0
 10
17.6370728083
 20
61.8955393609
 30
0.0
 10
17.5593119784
 20
61.850640975
 30
0.0
 10
17.4071737361
 20
61.7539388843
 30
0.0
 10
17.1912737073
 20
61.5894970655
 30
0.0
 10
16.9879848605
 20
61.4058818609
 30
0.0
 10
16.7977980062
 20
61.2036147037
 30
0.0
 10
16.6211610309
 20
60.9831844153
 30
0.0
 10
16.4017582048
 20
60.6620621828
 30
0.0
 10
16.164036917
 20
60.2152367792
 30
0.0
 10
15.9430516628
 20
59.6233515867
 30
0.0
 10
15.7844055365
 20
58.9749527315
 30
0.0
 10
15.6894527618
 20
58.2763926259
 30
0.0
 10
15.6695054101
 20
57.7939974678
 30
0.0
 10
15.6695054101
 20
57.5465793915
 30
0.0
  0
SPLINE
  5
2C8
100
AcDbEntity
  8
0
100
AcDbSpline
 62
7
  6
BYLAYER
 70
0
 71
3
 72
15
 73
11
 74
0
 42
0.0000001
 43
0.0000001
 44
0.0000000001
 40
0.0
 40
0.0
 40
0.0
 40
0.0
 40
0.1123248959
 40
0.229217921
 40
0.3502490158
 40
0.4749979372
 40
0.6029454185
 40
0.7335116492
 40
0.8660800559
 40
1.0
 40
1.0
 40
1.0
 40
1.0
 10
15.6695054101
 20
57.5465793915
 30
0.0
 10
15.6695054101
 20
57.3160737894
 30
0.0
 10
15.6876527647
 20
56.8455471102
 30
0.0
 10
15.7650545698
 20
56.1304681719
 30
0.0
 10
15.8926981537
 20
55.3967442903
 30
0.0
 10
16.0695615995
 20
54.6500296151
 30
0.0
 10
16.2942790819
 20
53.8958858493
 30
0.0
 10
16.5651890168
 20
53.140028143
 30
0.0
 10
16.8802209
 20
52.3882059957
 30
0.0
 10
17.1172716478
 20
51.8950744748
 30
0.0
 10
17.2425509111
 20
51.6504687352
 30
0.0
  0
SPLINE
  5
2C9
100
AcDbEntity
  8
0
100
AcDbSpline
 62
7
  6
BYLAYER
 70
0
 71
3
 72
14
 73
10
 74
0
 42
0.0000001
 43
0.0000001
 44
0.0000000001
 40
0.0
 40
0.0
 40
0.0
 40
0.0
 40
0.2681095288
 40
0.3963993654
 40
0.5213704603
 40
0.6435688161
 40
0.7636112013
 40
0.8821802507
 40
1.0
 40
1.0
 40
1.0
 40
1.0
 10
24.5811052948
 20
45.0702161744
 30
0.0
 10
24.8130165363
 20
45.0288610195
 30
0.0
 10
25.1610483984
 20
44.9911680869
 30
0.0
 10
25.6195003253
 20
44.9976606253
 30
0.0
 10
25.94821078
 20
45.0303195794
 30
0.0
 10
26.2655955222
 20
45.0907338998
 30
0.0
 10
26.5706315585
 20
45.1788153777
 30
0.0
 10
26.8622685522
 20
45.2942090365
 30
0.0
 10
27.0473732125
 20
45.3892822473
 30
0.0
 10
27.1370227897
 20
45.4410450862
 30
0.0
  0
SPLINE
  5
2CA
100
AcDbEntity
  8
0
100
AcDbSpline
 62
7
  6
BYLAYER
 70
0
 71
3
 72
33
 73
29
 74
0
 42
0.0000001
 43
0.0000001
 44
0.0000000001
 40
0.0
 40
0.0
 40
0.0
 40
0.0
 40
0.0306618612
 40
0.0623951524
 40
0.0951131637
 40
0.1287376649
 40
0.1631793823
 40
0.1983317293
 40
0.2702884026
 40
0.3436457108
 40
0.4173572147
 40
0.490361588
 40
0.5616286942
 40
0.6302075171
 40
0.6632373643
 40
0.6953019775
 40
0.7263290334
 40
0.7562628963
 40
0.7850657872
 40
0.8127224534
 40
0.8392407108
 40
0.8646571903
 40
0.8890373867
 40
0.9124807339
 40
0.9351193339
 40
0.9571188595
 40
0.9786736126
 40
1.0
 40
1.0
 40
1.0
 40
1.0
 10
29.1045901879
 20
49.7900050556
 30
0.0
 10
29.1045901879
 20
49.9837699782
 30
0.0
 10
29.0917867241
 20
50.3781589185
 30
0.0
 10
29.0367697452
 20
50.9770045894
 30
0.0
 10
28.9457872729
 20
51.5903822467
 30
0.0
 10
28.8194081246
 20
52.2148925985
 30
0.0
 10
28.6582950761
 20
52.8472383725
 30
0.0
 10
28.396322376
 20
53.7028258089
 30
0.0
 10
27.9872009566
 20
54.769140214
 30
0.0
 10
27.3806824495
 20
56.0150989348
 30
0.0
 10
26.6675831082
 20
57.2110396433
 30
0.0
 10
25.8631387216
 20
58.331394093
 30
0.0
 10
24.9845500417
 20
59.3522190125
 30
0.0
 10
24.1962781909
 20
60.111419367
 30
0.0
 10
23.5437876867
 20
60.6484672786
 30
0.0
 10
23.0541985568
 20
61.0085707266
 30
0.0
 10
22.5609541232
 20
61.3290513999
 30
0.0
 10
22.0666883991
 20
61.6082016204
 30
0.0
 10
21.5740191847
 20
61.844473838
 30
0.0
 10
21.0855867714
 20
62.0366217474
 30
0.0
 10
20.6039538605
 20
62.1835136401
 30
0.0
 10
20.1316956567
 20
62.2843716112
 30
0.0
 10
19.671302589
 20
62.3384867752
 30
0.0
 10
19.2252555352
 20
62.3455317366
 30
0.0
 10
18.7959933834
 20
62.3052570861
 30
0.0
 10
18.3859007441
 20
62.2177951169
 30
0.0
 10
17.9974353901
 20
62.083503015
 30
0.0
 10
17.7537851959
 20
61.9629280169
 30
0.0
 10
17.6370728083
 20
61.8955393609
 30
0.0
  0
SPLINE
  5
2CB
100
AcDbEntity
  8
0
100
AcDbSpline
 62
7
  6
BYLAYER
 70
0
 71
3
 72
18
 73
14
 74
0
 42
0.0000001
 43
0.0000001
 44
0.0000000001
 40
0.0
 40
0.0
 40
0.0
 40
0.0
 40
0.0539108668
 40
0.1080799303
 40
0.1627599609
 40
0.2181908553
 40
0.2745959085
 40
0.3321795196
 40
0.451505458
 40
0.5773924406
 40
0.7105716433
 40
0.8514509537
 40
1.0
 40
1.0
 40
1.0
 40
1.0
 10
27.1370227897
 20
45.4410450862
 30
0.0
 10
27.2147836197
 20
45.4859434721
 30
0.0
 10
27.3669218619
 20
45.5826455628
 30
0.0
 10
27.5828218908
 20
45.7470873816
 30
0.0
 10
27.7861107376
 20
45.9307025862
 30
0.0
 10
27.9762975918
 20
46.1329697434
 30
0.0
 10
28.1529345671
 20
46.3534000318
 30
0.0
 10
28.3723373933
 20
46.6745222643
 30
0.0
 10
28.610058681
 20
47.1213476679
 30
0.0
 10
28.8310439352
 20
47.7132328604
 30
0.0
 10
28.9896900616
 20
48.3616317156
 30
0.0
 10
29.0846428362
 20
49.0601918212
 30
0.0
 10
29.1045901879
 20
49.5425869793
 30
0.0
 10
29.1045901879
 20
49.7900050556
 30
0.0
  0
SPLINE
  5
2CC
100
AcDbEntity
  8
0
100
AcDbSpline
 62
7
  6
BYLAYER
 70
0
 71
3
 72
11
 73
7
 74
0
 42
0.0000001
 43
0.0000001
 44
0.0000000001
 40
0.0
 40
0.0
 40
0.0
 40
0.0
 40
0.2736185161
 40
0.5305902484
 40
0.7719970298
 40
1.0
 40
1.0
 40
1.0
 40
1.0
 10
22.0880374237
 20
29.0011059015
 30
0.0
 10
22.2373341462
 20
28.9324791012
 30
0.0
 10
22.5339256313
 20
28.8139624826
 30
0.0
 10
22.9829651335
 20
28.6938611676
 30
0.0
 10
23.4170763993
 20
28.638614507
 30
0.0
 10
23.7003333442
 20
28.6459982335
 30
0.0
 10
23.8363810091
 20
28.6614382103
 30
0.0
  0
SPLINE
  5
2CD
100
AcDbEntity
  8
0
100
AcDbSpline
 62
7
  6
BYLAYER
 70
0
 71
3
 72
14
 73
10
 74
0
 42
0.0000001
 43
0.0000001
 44
0.0000000001
 40
0.0
 40
0.0
 40
0.0
 40
0.0
 40
0.1080384808
 40
0.2181155941
 40
0.3320834023
 40
0.4514750365
 40
0.577409997
 40
0.7106520706
 40
1.0
 40
1.0
 40
1.0
 40
1.0
 10
9.4480945756
 20
29.9603453879
 30
0.0
 10
9.4071073336
 20
29.9366858802
 30
0.0
 10
9.3283053987
 20
29.8817001215
 30
0.0
 10
9.2241867755
 20
29.7792273065
 30
0.0
 10
9.1346284936
 20
29.657610674
 30
0.0
 10
9.0604946878
 20
29.5182128124
 30
0.0
 10
9.0023047861
 20
29.3624568233
 30
0.0
 10
8.9451073282
 20
29.1286606365
 30
0.0
 10
8.9303352754
 20
28.9426360446
 30
0.0
 10
8.9303220679
 20
28.81588855
 30
0.0
  0
SPLINE
  5
2CE
100
AcDbEntity
  8
0
100
AcDbSpline
 62
7
  6
BYLAYER
 70
0
 71
3
 72
15
 73
11
 74
0
 42
0.0000001
 43
0.0000001
 44
0.0000000001
 40
0.0
 40
0.0
 40
0.0
 40
0.0
 40
0.1464935486
 40
0.2859039345
 40
0.4181942134
 40
0.5438158289
 40
0.6635746915
 40
0.778569766
 40
0.8901690608
 40
1.0
 40
1.0
 40
1.0
 40
1.0
 10
10.8063263061
 20
25.6953670321
 30
0.0
 10
10.8582335271
 20
25.6690759267
 30
0.0
 10
10.961700914
 20
25.6218722016
 30
0.0
 10
11.1187188728
 20
25.5669351293
 30
0.0
 10
11.2725132064
 20
25.5302101359
 30
0.0
 10
11.4217723805
 20
25.5120309867
 30
0.0
 10
11.5653185417
 20
25.5126504039
 30
0.0
 10
11.7019803428
 20
25.5321190777
 30
0.0
 10
11.830520887
 20
25.5703858808
 30
0.0
 10
11.9102956908
 20
25.6084146399
 30
0.0
 10
11.9480767453
 20
25.6302234054
 30
0.0
  0
SPLINE
  5
2CF
100
AcDbEntity
  8
0
100
AcDbSpline
 62
7
  6
BYLAYER
 70
0
 71
3
 72
15
 73
11
 74
0
 42
0.0000001
 43
0.0000001
 44
0.0000000001
 40
0.0
 40
0.0
 40
0.0
 40
0.0
 40
0.1164696476
 40
0.2409802166
 40
0.3710262773
 40
0.5036856294
 40
0.6358336285
 40
0.7643905006
 40
0.886525762
 40
1.0
 40
1.0
 40
1.0
 40
1.0
 10
8.9331080321
 20
28.382689432
 30
0.0
 10
8.9390602932
 20
28.2672128802
 30
0.0
 10
8.9703793804
 20
28.0290610015
 30
0.0
 10
9.065613326
 20
27.6723604699
 30
0.0
 10
9.2076372846
 20
27.31423717
 30
0.0
 10
9.3915161994
 20
26.967170267
 30
0.0
 10
9.6108802465
 20
26.6431423266
 30
0.0
 10
9.8581763404
 20
26.3533821207
 30
0.0
 10
10.1247894178
 20
26.1078754538
 30
0.0
 10
10.3176656071
 20
25.9737021567
 30
0.0
 10
10.4152227338
 20
25.9173639704
 30
0.0
  0
SPLINE
  5
2D0
100
AcDbEntity
  8
0
100
AcDbSpline
 62
7
  6
BYLAYER
 70
0
 71
3
 72
18
 73
14
 74
0
 42
0.0000001
 43
0.0000001
 44
0.0000000001
 40
0.0
 40
0.0
 40
0.0
 40
0.0
 40
0.0574741761
 40
0.1173665548
 40
0.2429657275
 40
0.374125145
 40
0.5076239674
 40
0.6400562962
 40
0.7680997609
 40
0.8295541561
 40
0.8888638983
 40
0.9457681673
 40
1.0
 40
1.0
 40
1.0
 40
1.0
 10
12.4625430796
 20
26.9015833814
 30
0.0
 10
12.4589243094
 20
26.9717891557
 30
0.0
 10
12.4456532594
 20
27.1149023809
 30
0.0
 10
12.3966778009
 20
27.4082261012
 30
0.0
 10
12.2935555575
 20
27.7827865725
 30
0.0
 10
12.1121124607
 20
28.2253999831
 30
0.0
 10
11.8776605073
 20
28.651962345
 30
0.0
 10
11.5990587798
 20
29.0463727381
 30
0.0
 10
11.3351222464
 20
29.3400754655
 30
0.0
 10
11.1103847881
 20
29.5455697168
 30
0.0
 10
10.9401046363
 20
29.6809039493
 30
0.0
 10
10.7674790494
 20
29.7981441277
 30
0.0
 10
10.6490204767
 20
29.865229278
 30
0.0
 10
10.5898450148
 20
29.8952017612
 30
0.0
  0
SPLINE
  5
2D1
100
AcDbEntity
  8
0
100
AcDbSpline
 62
7
  6
BYLAYER
 70
0
 71
3
 72
19
 73
15
 74
0
 42
0.0000001
 43
0.0000001
 44
0.0000000001
 40
0.0
 40
0.0
 40
0.0
 40
0.0
 40
0.146167472
 40
0.2793692348
 40
0.3416315125
 40
0.4014417347
 40
0.4593038577
 40
0.5158190136
 40
0.5716795686
 40
0.6276168521
 40
0.6843599333
 40
0.7425832703
 40
0.8655159758
 40
1.0
 40
1.0
 40
1.0
 40
1.0
 10
10.3243207212
 20
29.395904319
 30
0.0
 10
10.2474591814
 20
29.4348348341
 30
0.0
 10
10.094925646
 20
29.4989548954
 30
0.0
 10
9.8969610272
 20
29.5430594638
 30
0.0
 10
9.7464014885
 20
29.5511232434
 30
0.0
 10
9.6402930563
 20
29.5442295838
 30
0.0
 10
9.5392141469
 20
29.5245853501
 30
0.0
 10
9.4438968015
 20
29.492205429
 30
0.0
 10
9.3550408548
 20
29.4473353195
 30
0.0
 10
9.2733031438
 20
29.3902892768
 30
0.0
 10
9.199292643
 20
29.3214760479
 30
0.0
 10
9.1099704698
 20
29.2128971543
 30
0.0
 10
9.0205198607
 20
29.0476653133
 30
0.0
 10
8.977791672
 20
28.9009967718
 30
0.0
 10
8.9620074565
 20
28.8233124512
 30
0.0
  0
SPLINE
  5
2D2
100
AcDbEntity
  8
0
100
AcDbSpline
 62
7
  6
BYLAYER
 70
0
 71
3
 72
9
 73
5
 74
0
 42
0.0000001
 43
0.0000001
 44
0.0000000001
 40
0.0
 40
0.0
 40
0.0
 40
0.0
 40
0.2395288986
 40
1.0
 40
1.0
 40
1.0
 40
1.0
 10
8.9620074565
 20
28.8233124512
 30
0.0
 10
8.9566681621
 20
28.7970343346
 30
0.0
 10
8.937499703
 20
28.6866980276
 30
0.0
 10
8.9303400304
 20
28.5744213935
 30
0.0
 10
8.9303309877
 20
28.4892872876
 30
0.0
  0
SPLINE
  5
2D3
100
AcDbEntity
  8
0
100
AcDbSpline
 62
7
  6
BYLAYER
 70
0
 71
3
 72
16
 73
12
 74
0
 42
0.0000001
 43
0.0000001
 44
0.0000000001
 40
0.0
 40
0.0
 40
0.0
 40
0.0
 40
0.1173059998
 40
0.2429245646
 40
0.3741035255
 40
0.507621982
 40
0.6400737995
 40
0.7681363759
 40
0.8888463675
 40
0.9457597329
 40
1.0
 40
1.0
 40
1.0
 40
1.0
 10
11.8973764663
 20
26.8812818716
 30
0.0
 10
11.8911732245
 20
27.0016275619
 30
0.0
 10
11.8576849768
 20
27.2500081677
 30
0.0
 10
11.7554452241
 20
27.6214377339
 30
0.0
 10
11.6030072936
 20
27.9932974687
 30
0.0
 10
11.4060845736
 20
28.3515759756
 30
0.0
 10
11.1720296547
 20
28.6829249225
 30
0.0
 10
10.9096393273
 20
28.9748759665
 30
0.0
 10
10.670735009
 20
29.1804252848
 30
0.0
 10
10.4735369672
 20
29.3143763616
 30
0.0
 10
10.3740279364
 20
29.3707275207
 30
0.0
 10
10.3243207212
 20
29.395904319
 30
0.0
  0
SPLINE
  5
2D4
100
AcDbEntity
  8
0
100
AcDbSpline
 62
7
  6
BYLAYER
 70
0
 71
3
 72
9
 73
5
 74
0
 42
0.0000001
 43
0.0000001
 44
0.0000000001
 40
0.0
 40
0.0
 40
0.0
 40
0.0
 40
0.2620175364
 40
1.0
 40
1.0
 40
1.0
 40
1.0
 10
10.5061637772
 20
25.8680669846
 30
0.0
 10
10.5337419181
 20
25.8540986041
 30
0.0
 10
10.6403291471
 20
25.8035366638
 30
0.0
 10
10.7525608169
 20
25.764302933
 30
0.0
 10
10.8373220415
 20
25.7443842293
 30
0.0
  0
SPLINE
  5
2D5
100
AcDbEntity
  8
0
100
AcDbSpline
 62
7
  6
BYLAYER
 70
0
 71
3
 72
19
 73
15
 74
0
 42
0.0000001
 43
0.0000001
 44
0.0000000001
 40
0.0
 40
0.0
 40
0.0
 40
0.0
 40
0.1259902524
 40
0.1850532266
 40
0.2420765962
 40
0.2976785524
 40
0.3525775907
 40
0.4075376874
 40
0.46332112
 40
0.5206313761
 40
0.5800827665
 40
0.7070256325
 40
0.8468344306
 40
1.0
 40
1.0
 40
1.0
 40
1.0
 10
10.8373220415
 20
25.7443842293
 30
0.0
 10
10.9132287988
 20
25.7265463062
 30
0.0
 10
11.0279415991
 20
25.7108415945
 30
0.0
 10
11.1779072697
 20
25.7181214845
 30
0.0
 10
11.2828055075
 20
25.7370447859
 30
0.0
 10
11.3816260681
 20
25.7695427999
 30
0.0
 10
11.4736098101
 20
25.815367392
 30
0.0
 10
11.5580254285
 20
25.8741720168
 30
0.0
 10
11.6341981083
 20
25.9454947667
 30
0.0
 10
11.7016154391
 20
26.0287255254
 30
0.0
 10
11.7808422429
 20
26.1574898427
 30
0.0
 10
11.8545272789
 20
26.3473673418
 30
0.0
 10
11.8997759536
 20
26.6045338114
 30
0.0
 10
11.9022561195
 20
26.7866143966
 30
0.0
 10
11.8973764663
 20
26.8812818716
 30
0.0
  0
SPLINE
  5
2D6
100
AcDbEntity
  8
0
100
AcDbSpline
 62
7
  6
BYLAYER
 70
0
 71
3
 72
15
 73
11
 74
0
 42
0.0000001
 43
0.0000001
 44
0.0000000001
 40
0.0
 40
0.0
 40
0.0
 40
0.0
 40
0.1464935486
 40
0.2859039345
 40
0.4181942134
 40
0.5438158289
 40
0.6635746915
 40
0.778569766
 40
0.8901690608
 40
1.0
 40
1.0
 40
1.0
 40
1.0
 10
10.5898450148
 20
29.8952017612
 30
0.0
 10
10.5379377938
 20
29.9214928667
 30
0.0
 10
10.4344704068
 20
29.9686965918
 30
0.0
 10
10.277452448
 20
30.0236336641
 30
0.0
 10
10.1236581145
 20
30.0603586575
 30
0.0
 10
9.9743989403
 20
30.0785378066
 30
0.0
 10
9.8308527792
 20
30.0779183894
 30
0.0
 10
9.6941909781
 20
30.0584497156
 30
0.0
 10
9.5656504339
 20
30.0201829126
 30
0.0
 10
9.4858756301
 20
29.9821541534
 30
0.0
 10
9.4480945756
 20
29.9603453879
 30
0.0
  0
SPLINE
  5
2D7
100
AcDbEntity
  8
0
100
AcDbSpline
 62
7
  6
BYLAYER
 70
0
 71
3
 72
9
 73
5
 74
0
 42
0.0000001
 43
0.0000001
 44
0.0000000001
 40
0.0
 40
0.0
 40
0.0
 40
0.0
 40
0.2455718115
 40
1.0
 40
1.0
 40
1.0
 40
1.0
 10
21.3022805584
 20
31.4997875662
 30
0.0
 10
21.2866835382
 20
31.5639552051
 30
0.0
 10
21.2191494721
 20
31.8242661683
 30
0.0
 10
21.1359538915
 20
32.0804659981
 30
0.0
 10
21.0654381623
 20
32.2706874625
 30
0.0
  0
SPLINE
  5
2D8
100
AcDbEntity
  8
0
100
AcDbSpline
 62
7
  6
BYLAYER
 70
0
 71
3
 72
15
 73
11
 74
0
 42
0.0000001
 43
0.0000001
 44
0.0000000001
 40
0.0
 40
0.0
 40
0.0
 40
0.0
 40
0.1062308369
 40
0.2147826783
 40
0.3277352792
 40
0.4467471958
 40
0.5729834022
 40
0.7071764079
 40
0.8496307844
 40
1.0
 40
1.0
 40
1.0
 40
1.0
 10
11.9480767453
 20
25.6302234054
 30
0.0
 10
11.9922787886
 20
25.6557386275
 30
0.0
 10
12.0770561027
 20
25.715759783
 30
0.0
 10
12.1876405219
 20
25.8289292546
 30
0.0
 10
12.2810376915
 20
25.9641277226
 30
0.0
 10
12.3563031871
 20
26.1195584254
 30
0.0
 10
12.4127767447
 20
26.293417688
 30
0.0
 10
12.4500006335
 20
26.4837954456
 30
0.0
 10
12.4675861779
 20
26.6885336251
 30
0.0
 10
12.4662619535
 20
26.8294355501
 30
0.0
 10
12.4625430796
 20
26.9015833814
 30
0.0
  0
SPLINE
  5
2D9
100
AcDbEntity
  8
0
100
AcDbSpline
 62
7
  6
BYLAYER
 70
0
 71
3
 72
11
 73
7
 74
0
 42
0.0000001
 43
0.0000001
 44
0.0000000001
 40
0.0
 40
0.0
 40
0.0
 40
0.0
 40
0.2625256741
 40
0.5179114211
 40
0.7642677829
 40
1.0
 40
1.0
 40
1.0
 40
1.0
 10
21.2515975236
 20
31.5048382142
 30
0.0
 10
21.3560855726
 20
31.2359311328
 30
0.0
 10
21.5445658536
 20
30.6983473299
 30
0.0
 10
21.7661010068
 20
29.8874722127
 30
0.0
 10
21.9203797281
 20
29.0910782337
 30
0.0
 10
21.9786120703
 20
28.5637361147
 30
0.0
 10
21.9951745772
 20
28.3052159428
 30
0.0
  0
SPLINE
  5
2DA
100
AcDbEntity
  8
0
100
AcDbSpline
 62
7
  6
BYLAYER
 70
0
 71
3
 72
13
 73
9
 74
0
 42
0.0000001
 43
0.0000001
 44
0.0000000001
 40
0.0
 40
0.0
 40
0.0
 40
0.0
 40
0.1123729889
 40
0.2289446549
 40
0.3494370577
 40
0.4735864415
 40
0.7315759605
 40
1.0
 40
1.0
 40
1.0
 40
1.0
 10
20.3146216505
 20
36.6340315985
 30
0.0
 10
20.3038579609
 20
36.4376397209
 30
0.0
 10
20.2957020716
 20
36.0366638757
 30
0.0
 10
20.3214161657
 20
35.425239015
 30
0.0
 10
20.3848547272
 20
34.7958445139
 30
0.0
 10
20.5208862611
 20
33.9262938166
 30
0.0
 10
20.7848162565
 20
32.8165948789
 30
0.0
 10
21.0814349002
 20
31.9427632678
 30
0.0
 10
21.2515975236
 20
31.5048382142
 30
0.0
  0
SPLINE
  5
2DB
100
AcDbEntity
  8
0
100
AcDbSpline
 62
7
  6
BYLAYER
 70
0
 71
3
 72
24
 73
20
 74
0
 42
0.0000001
 43
0.0000001
 44
0.0000000001
 40
0.0
 40
0.0
 40
0.0
 40
0.0
 40
0.0213629708
 40
0.0429659835
 40
0.0877028214
 40
0.1357886411
 40
0.188163476
 40
0.2452159925
 40
0.3068677546
 40
0.3726870058
 40
0.4419717968
 40
0.5138241503
 40
0.5872199496
 40
0.6610585037
 40
0.7342248001
 40
0.8056280818
 40
0.8742568506
 40
0.9392934961
 40
1.0
 40
1.0
 40
1.0
 40
1.0
 10
19.9103488857
 20
54.6921037094
 30
0.0
 10
19.9371379975
 20
54.7075654165
 30
0.0
 10
19.993136138
 20
54.7351493777
 30
0.0
 10
20.113617614
 20
54.7761878503
 30
0.0
 10
20.2794948313
 20
54.7989644574
 30
0.0
 10
20.4903378989
 20
54.7805333285
 30
0.0
 10
20.7109015478
 20
54.7182229463
 30
0.0
 10
20.9365015287
 20
54.6138858969
 30
0.0
 10
21.1624849865
 20
54.4700999647
 30
0.0
 10
21.3839998674
 20
54.2900801519
 30
0.0
 10
21.5961873244
 20
54.0778197596
 30
0.0
 10
21.7943704489
 20
53.8380792298
 30
0.0
 10
21.9741174165
 20
53.5762160999
 30
0.0
 10
22.1313795584
 20
53.2980843413
 30
0.0
 10
22.2626430295
 20
53.009934009
 30
0.0
 10
22.3649796668
 20
52.7182432502
 30
0.0
 10
22.4360918619
 20
52.4294437352
 30
0.0
 10
22.4742977439
 20
52.1500838327
 30
0.0
 10
22.4774390137
 20
51.967445712
 30
0.0
 10
22.4726289308
 20
51.8796820146
 30
0.0
  0
SPLINE
  5
2DC
100
AcDbEntity
  8
0
100
AcDbSpline
 62
7
  6
BYLAYER
 70
0
 71
3
 72
15
 73
11
 74
0
 42
0.0000001
 43
0.0000001
 44
0.0000000001
 40
0.0
 40
0.0
 40
0.0
 40
0.0
 40
0.1414494905
 40
0.2771269764
 40
0.4072753353
 40
0.5324382356
 40
0.6533445301
 40
0.7708710908
 40
0.886040084
 40
1.0
 40
1.0
 40
1.0
 40
1.0
 10
21.899922809
 20
26.5672734418
 30
0.0
 10
21.8731631627
 20
26.4296662517
 30
0.0
 10
21.8102982637
 20
26.1619392391
 30
0.0
 10
21.6847158044
 20
25.7777966054
 30
0.0
 10
21.5303000054
 20
25.4217319233
 30
0.0
 10
21.3478990722
 20
25.0957550857
 30
0.0
 10
21.1383445002
 20
24.801676376
 30
0.0
 10
20.9027421116
 20
24.5411147381
 30
0.0
 10
20.6423253515
 20
24.3157394585
 30
0.0
 10
20.4527058726
 20
24.1894945438
 30
0.0
 10
20.354894125
 20
24.1330272186
 30
0.0
  0
SPLINE
  5
2DD
100
AcDbEntity
  8
0
100
AcDbSpline
 62
7
  6
BYLAYER
 70
0
 71
3
 72
15
 73
11
 74
0
 42
0.0000001
 43
0.0000001
 44
0.0000000001
 40
0.0
 40
0.0
 40
0.0
 40
0.0
 40
0.1098276901
 40
0.2214214869
 40
0.3364162084
 40
0.4561855185
 40
0.5818077423
 40
0.7140769702
 40
0.8534750849
 40
1.0
 40
1.0
 40
1.0
 40
1.0
 10
18.4728547172
 20
57.1819314397
 30
0.0
 10
18.3972927061
 20
57.1383136915
 30
0.0
 10
18.2516736433
 20
57.0381362705
 30
0.0
 10
18.0568239363
 20
56.8537978731
 30
0.0
 10
17.8864476021
 20
56.6365375492
 30
0.0
 10
17.7418280186
 20
56.3885098852
 30
0.0
 10
17.6240552377
 20
56.1118055686
 30
0.0
 10
17.5338648406
 20
55.8087204893
 30
0.0
 10
17.4719887488
 20
55.4818131857
 30
0.0
 10
17.4502952792
 20
55.2553750334
 30
0.0
 10
17.4439252864
 20
55.1391495657
 30
0.0
  0
SPLINE
  5
2DE
100
AcDbEntity
  8
0
100
AcDbSpline
 62
7
  6
BYLAYER
 70
0
 71
3
 72
25
 73
21
 74
0
 42
0.0000001
 43
0.0000001
 44
0.0000000001
 40
0.0
 40
0.0
 40
0.0
 40
0.0
 40
0.0213620566
 40
0.042964639
 40
0.0650356319
 40
0.0877773245
 40
0.1358606702
 40
0.1882321312
 40
0.2452791675
 40
0.3069269344
 40
0.3727414448
 40
0.4420202486
 40
0.5138675883
 40
0.587257895
 40
0.6610925393
 40
0.7342505739
 40
0.8056471288
 40
0.8742745724
 40
0.9392830378
 40
1.0
 40
1.0
 40
1.0
 40
1.0
 10
19.8870624181
 20
57.9984196704
 30
0.0
 10
19.9500959836
 20
58.0348052294
 30
0.0
 10
20.0818462327
 20
58.0997224747
 30
0.0
 10
20.2921555582
 20
58.1712928414
 30
0.0
 10
20.5144017143
 20
58.2168382687
 30
0.0
 10
20.8304431968
 20
58.2432227942
 30
0.0
 10
21.2519209516
 20
58.2065240181
 30
0.0
 10
21.7707042362
 20
58.0598347992
 30
0.0
 10
22.3016018567
 20
57.8143816061
 30
0.0
 10
22.8333048448
 20
57.4760373427
 30
0.0
 10
23.3545086375
 20
57.0524425413
 30
0.0
 10
23.8537960363
 20
56.5530248228
 30
0.0
 10
24.320104988
 20
55.98891874
 30
0.0
 10
24.7430200092
 20
55.3727431926
 30
0.0
 10
25.1130547643
 20
54.7183188984
 30
0.0
 10
25.4219258461
 20
54.0403277717
 30
0.0
 10
25.6626726174
 20
53.3539749591
 30
0.0
 10
25.8299699048
 20
52.6745134763
 30
0.0
 10
25.9199557206
 20
52.0172161828
 30
0.0
 10
25.9272833564
 20
51.5875018881
 30
0.0
 10
25.9159626372
 20
51.3809465736
 30
0.0
  0
SPLINE
  5
2DF
100
AcDbEntity
  8
0
100
AcDbSpline
 62
7
  6
BYLAYER
 70
0
 71
3
 72
16
 73
12
 74
0
 42
0.0000001
 43
0.0000001
 44
0.0000000001
 40
0.0
 40
0.0
 40
0.0
 40
0.0
 40
0.146011888
 40
0.2849716986
 40
0.4169766587
 40
0.4805457981
 40
0.5425895909
 40
0.6624720068
 40
0.7777301907
 40
0.8897146626
 40
1.0
 40
1.0
 40
1.0
 40
1.0
 10
15.3739879093
 20
23.4817681289
 30
0.0
 10
15.5364987782
 20
23.4023598578
 30
0.0
 10
15.8601657769
 20
23.2601311306
 30
0.0
 10
16.3507069634
 20
23.0960087194
 30
0.0
 10
16.7558351749
 20
23.0047240706
 30
0.0
 10
17.0721596369
 20
22.9612778392
 30
0.0
 10
17.3754993295
 20
22.9377096992
 30
0.0
 10
17.7446975816
 20
22.9428928729
 30
0.0
 10
18.1713138426
 20
23.0070839504
 30
0.0
 10
18.5728618545
 20
23.1288107272
 30
0.0
 10
18.8223700443
 20
23.2482341172
 30
0.0
 10
18.9406864509
 20
23.3165389104
 30
0.0
  0
SPLINE
  5
2E0
100
AcDbEntity
  8
0
100
AcDbSpline
 62
7
  6
BYLAYER
 70
0
 71
3
 72
11
 73
7
 74
0
 42
0.0000001
 43
0.0000001
 44
0.0000000001
 40
0.0
 40
0.0
 40
0.0
 40
0.0
 40
0.2370325024
 40
0.4835556324
 40
0.7382951784
 40
1.0
 40
1.0
 40
1.0
 40
1.0
 10
9.3004467119
 20
33.0007688381
 30
0.0
 10
9.3147462987
 20
32.7775700403
 30
0.0
 10
9.3620445424
 20
32.3232526023
 30
0.0
 10
9.4835279069
 20
31.6367671418
 30
0.0
 10
9.6559759806
 20
30.9373108976
 30
0.0
 10
9.8021492793
 20
30.4720784093
 30
0.0
 10
9.8830908439
 20
30.2387844841
 30
0.0
  0
SPLINE
  5
2E1
100
AcDbEntity
  8
0
100
AcDbSpline
 62
7
  6
BYLAYER
 70
0
 71
3
 72
9
 73
5
 74
0
 42
0.0000001
 43
0.0000001
 44
0.0000000001
 40
0.0
 40
0.0
 40
0.0
 40
0.0
 40
0.5100505009
 40
1.0
 40
1.0
 40
1.0
 40
1.0
 10
12.3955706055
 20
25.8806039952
 30
0.0
 10
12.617116356
 20
25.6238181909
 30
0.0
 10
13.0720887164
 20
25.1377158651
 30
0.0
 10
13.5681676222
 20
24.6933237999
 30
0.0
 10
13.8212653804
 20
24.4882002149
 30
0.0
  0
SPLINE
  5
2E2
100
AcDbEntity
  8
0
100
AcDbSpline
 62
7
  6
BYLAYER
 70
0
 71
3
 72
11
 73
7
 74
0
 42
0.0000001
 43
0.0000001
 44
0.0000000001
 40
0.0
 40
0.0
 40
0.0
 40
0.0
 40
0.2300156641
 40
0.4712754393
 40
0.7272134062
 40
1.0
 40
1.0
 40
1.0
 40
1.0
 10
10.4269502816
 20
36.7879383057
 30
0.0
 10
10.2975831525
 20
36.664878553
 30
0.0
 10
10.056212779
 20
36.3868312488
 30
0.0
 10
9.7640282388
 20
35.9010284494
 30
0.0
 10
9.5380041483
 20
35.3454704796
 30
0.0
 10
9.4361188941
 20
34.9465668361
 30
0.0
 10
9.3956984801
 20
34.7387113391
 30
0.0
  0
SPLINE
  5
2E3
100
AcDbEntity
  8
0
100
AcDbSpline
 62
7
  6
BYLAYER
 70
0
 71
3
 72
14
 73
10
 74
0
 42
0.0000001
 43
0.0000001
 44
0.0000000001
 40
0.0
 40
0.0
 40
0.0
 40
0.0
 40
0.1432535702
 40
0.2808823114
 40
0.5390694486
 40
0.6604503814
 40
0.7772688425
 40
0.8901988819
 40
1.0
 40
1.0
 40
1.0
 40
1.0
 10
11.8425842996
 20
40.3922345906
 30
0.0
 10
11.832229207
 20
40.2032978808
 30
0.0
 10
11.7996272483
 20
39.8333077942
 30
0.0
 10
11.6856756692
 20
39.1301037538
 30
0.0
 10
11.4977965336
 20
38.4690059219
 30
0.0
 10
11.2299251844
 20
37.8695601799
 30
0.0
 10
10.9982202773
 20
37.466742572
 30
0.0
 10
10.7327956652
 20
37.1040958678
 30
0.0
 10
10.5320343201
 20
36.8878989051
 30
0.0
 10
10.4269502816
 20
36.7879383057
 30
0.0
  0
SPLINE
  5
2E4
100
AcDbEntity
  8
0
100
AcDbSpline
 62
7
  6
BYLAYER
 70
0
 71
3
 72
14
 73
10
 74
0
 42
0.0000001
 43
0.0000001
 44
0.0000000001
 40
0.0
 40
0.0
 40
0.0
 40
0.0
 40
0.1465077155
 40
0.2859866935
 40
0.5436453622
 40
0.6634464943
 40
0.7784754552
 40
0.8901239666
 40
1.0
 40
1.0
 40
1.0
 40
1.0
 10
22.4726289308
 20
51.8796820146
 30
0.0
 10
22.4699231431
 20
51.8303128154
 30
0.0
 10
22.4606823979
 20
51.7340705792
 30
0.0
 10
22.4265654163
 20
51.5536782253
 30
0.0
 10
22.3684870529
 20
51.3872501449
 30
0.0
 10
22.2845725149
 20
51.2432860283
 30
0.0
 10
22.2121234432
 20
51.1509821837
 30
0.0
 10
22.1293417789
 20
51.0726155971
 30
0.0
 10
22.0674469264
 20
51.0300400645
 30
0.0
 10
22.0353313635
 20
51.0115041223
 30
0.0
  0
SPLINE
  5
2E5
100
AcDbEntity
  8
0
100
AcDbSpline
 62
7
  6
BYLAYER
 70
0
 71
3
 72
13
 73
9
 74
0
 42
0.0000001
 43
0.0000001
 44
0.0000000001
 40
0.0
 40
0.0
 40
0.0
 40
0.0
 40
0.2684240395
 40
0.5264135585
 40
0.6505629423
 40
0.7710553451
 40
0.8876270111
 40
1.0
 40
1.0
 40
1.0
 40
1.0
 10
19.8373898493
 20
30.6883499062
 30
0.0
 10
19.6672272258
 20
31.1262749598
 30
0.0
 10
19.3706085821
 20
32.000106571
 30
0.0
 10
19.1066785867
 20
33.1098055087
 30
0.0
 10
18.9706470527
 20
33.979356206
 30
0.0
 10
18.9072084912
 20
34.6087507072
 30
0.0
 10
18.8814943972
 20
35.220175568
 30
0.0
 10
18.8896502865
 20
35.6211514131
 30
0.0
 10
18.9004139761
 20
35.8175432907
 30
0.0
  0
SPLINE
  5
2E6
100
AcDbEntity
  8
0
100
AcDbSpline
 62
7
  6
BYLAYER
 70
0
 71
3
 72
11
 73
7
 74
0
 42
0.0000001
 43
0.0000001
 44
0.0000000001
 40
0.0
 40
0.0
 40
0.0
 40
0.0
 40
0.2357322171
 40
0.4820885789
 40
0.7374743259
 40
1.0
 40
1.0
 40
1.0
 40
1.0
 10
20.5809669028
 20
27.4887276351
 30
0.0
 10
20.5644043958
 20
27.7472478069
 30
0.0
 10
20.5061720537
 20
28.2745899259
 30
0.0
 10
20.3518933324
 20
29.0709839048
 30
0.0
 10
20.1303581792
 20
29.881859022
 30
0.0
 10
19.9418778983
 20
30.4194428248
 30
0.0
 10
19.8373898493
 20
30.6883499062
 30
0.0
  0
SPLINE
  5
2E7
100
AcDbEntity
  8
0
100
AcDbSpline
 62
7
  6
BYLAYER
 70
0
 71
3
 72
15
 73
11
 74
0
 42
0.0000001
 43
0.0000001
 44
0.0000000001
 40
0.0
 40
0.0
 40
0.0
 40
0.0
 40
0.1139599145
 40
0.2291289066
 40
0.3466554668
 40
0.4675617602
 40
0.5927246604
 40
0.7228730216
 40
0.8585505104
 40
1.0
 40
1.0
 40
1.0
 40
1.0
 10
18.9406864509
 20
23.3165389104
 30
0.0
 10
19.0384981965
 20
23.3730062359
 30
0.0
 10
19.2281176728
 20
23.4992511495
 30
0.0
 10
19.4885344323
 20
23.7246264252
 30
0.0
 10
19.7241368174
 20
23.9851880624
 30
0.0
 10
19.9336913924
 20
24.2792667677
 30
0.0
 10
20.1160923258
 20
24.6052436064
 30
0.0
 10
20.2705081278
 20
24.9613082926
 30
0.0
 10
20.396090587
 20
25.3454509308
 30
0.0
 10
20.4589554884
 20
25.6131779448
 30
0.0
 10
20.4857151346
 20
25.7507851341
 30
0.0
  0
SPLINE
  5
2E8
100
AcDbEntity
  8
0
100
AcDbSpline
 62
7
  6
BYLAYER
 70
0
 71
3
 72
9
 73
5
 74
0
 42
0.0000001
 43
0.0000001
 44
0.0000000001
 40
0.0
 40
0.0
 40
0.0
 40
0.0
 40
0.5078998643
 40
1.0
 40
1.0
 40
1.0
 40
1.0
 10
19.6740732176
 20
54.4741964522
 30
0.0
 10
19.7057858082
 20
54.5188083418
 30
0.0
 10
19.7769703567
 20
54.6008746657
 30
0.0
 10
19.8644179399
 20
54.6655940274
 30
0.0
 10
19.9103488857
 20
54.6921037094
 30
0.0
  0
SPLINE
  5
2E9
100
AcDbEntity
  8
0
100
AcDbSpline
 62
7
  6
BYLAYER
 70
0
 71
3
 72
25
 73
21
 74
0
 42
0.0000001
 43
0.0000001
 44
0.0000000001
 40
0.0
 40
0.0
 40
0.0
 40
0.0
 40
0.0607163011
 40
0.1257238133
 40
0.1943511107
 40
0.2657477737
 40
0.3389064292
 40
0.4127420927
 40
0.486133611
 40
0.5579820356
 40
0.6272615378
 40
0.6930762892
 40
0.7547238966
 40
0.8117704489
 40
0.8641411986
 40
0.9122237701
 40
0.9349651201
 40
0.9570358028
 40
0.9786381404
 40
1.0
 40
1.0
 40
1.0
 40
1.0
 10
24.5017549628
 20
50.5644582659
 30
0.0
 10
24.5130755589
 20
50.7710113358
 30
0.0
 10
24.5057492849
 20
51.2007201344
 30
0.0
 10
24.4157645384
 20
51.8580115171
 30
0.0
 10
24.2484705608
 20
52.5374703182
 30
0.0
 10
24.0077239954
 20
53.2238253744
 30
0.0
 10
23.6988514318
 20
53.9018223888
 30
0.0
 10
23.3288122705
 20
54.5562554141
 30
0.0
 10
22.9058905212
 20
55.1724401253
 30
0.0
 10
22.4395735892
 20
55.7365529472
 30
0.0
 10
21.9402792562
 20
56.2359735597
 30
0.0
 10
21.4190712792
 20
56.6595674819
 30
0.0
 10
20.8873674684
 20
56.9979079701
 30
0.0
 10
20.3564724357
 20
57.2433557375
 30
0.0
 10
19.8376945241
 20
57.3900395349
 30
0.0
 10
19.4162228315
 20
57.4267342103
 30
0.0
 10
19.1001862786
 20
57.4003491784
 30
0.0
 10
18.877943397
 20
57.3548029652
 30
0.0
 10
18.6676367059
 20
57.2832330474
 30
0.0
 10
18.53588761
 20
57.2183168245
 30
0.0
 10
18.4728547172
 20
57.1819314397
 30
0.0
  0
SPLINE
  5
2EA
100
AcDbEntity
  8
0
100
AcDbSpline
 62
7
  6
BYLAYER
 70
0
 71
3
 72
9
 73
5
 74
0
 42
0.0000001
 43
0.0000001
 44
0.0000000001
 40
0.0
 40
0.0
 40
0.0
 40
0.0
 40
0.4939627104
 40
1.0
 40
1.0
 40
1.0
 40
1.0
 10
22.0353313635
 20
51.0115041223
 30
0.0
 10
21.9954954442
 20
50.9885122694
 30
0.0
 10
21.9100841383
 20
50.9497925627
 30
0.0
 10
21.8189343849
 20
50.928059599
 30
0.0
 10
21.7723237569
 20
50.9211556617
 30
0.0
  0
SPLINE
  5
2EB
100
AcDbEntity
  8
0
100
AcDbSpline
 62
7
  6
BYLAYER
 70
0
 71
3
 72
11
 73
7
 74
0
 42
0.0000001
 43
0.0000001
 44
0.0000000001
 40
0.0
 40
0.0
 40
0.0
 40
0.0
 40
0.2177788803
 40
0.4509038793
 40
0.7102916011
 40
1.0
 40
1.0
 40
1.0
 40
1.0
 10
43.7835683033
 20
18.9769582097
 30
0.0
 10
43.7835682951
 20
18.9502997805
 30
0.0
 10
43.7737160228
 20
18.8947348897
 30
0.0
 10
43.731589244
 20
18.8173162925
 30
0.0
 10
43.6649940463
 20
18.747333685
 30
0.0
 10
43.6092726748
 20
18.7089583599
 30
0.0
 10
43.5785593221
 20
18.6912287275
 30
0.0
  0
SPLINE
  5
2EC
100
AcDbEntity
  8
0
100
AcDbSpline
 62
7
  6
BYLAYER
 70
0
 71
3
 72
15
 73
11
 74
0
 42
0.0000001
 43
0.0000001
 44
0.0000000001
 40
0.0
 40
0.0
 40
0.0
 40
0.0
 40
0.1418779225
 40
0.2809873655
 40
0.4160108358
 40
0.5457730687
 40
0.6693802688
 40
0.7862808185
 40
0.8963623557
 40
1.0
 40
1.0
 40
1.0
 40
1.0
 10
25.9975801949
 20
7.5131180843
 30
0.0
 10
26.4048270854
 20
7.5385906244
 30
0.0
 10
27.2098344562
 20
7.6195176947
 30
0.0
 10
28.3884924962
 20
7.8320887202
 30
0.0
 10
29.5122119882
 20
8.1318917859
 30
0.0
 10
30.5632526446
 20
8.5148175045
 30
0.0
 10
31.5252585438
 20
8.9758304741
 30
0.0
 10
32.3834833147
 20
9.5095421029
 30
0.0
 10
33.1241354632
 20
10.1100250529
 30
0.0
 10
33.5428571316
 20
10.564082371
 30
0.0
 10
33.7253815194
 20
10.7997230374
 30
0.0
  0
SPLINE
  5
2ED
100
AcDbEntity
  8
0
100
AcDbSpline
 62
7
  6
BYLAYER
 70
0
 71
3
 72
12
 73
8
 74
0
 42
0.0000001
 43
0.0000001
 44
0.0000000001
 40
0.0
 40
0.0
 40
0.0
 40
0.0
 40
0.2690917472
 40
0.5277983402
 40
0.6520368931
 40
0.7723071291
 40
1.0
 40
1.0
 40
1.0
 40
1.0
 10
25.9816049213
 20
6.9124289542
 30
0.0
 10
26.3295062036
 20
6.947766557
 30
0.0
 10
27.0087780799
 20
7.0538323086
 30
0.0
 10
27.8274327955
 20
7.2809220216
 30
0.0
 10
28.4379060291
 20
7.516819282
 30
0.0
 10
28.993742086
 20
7.7773911757
 30
0.0
 10
29.3818042829
 20
8.0147039516
 30
0.0
 10
29.6187808229
 20
8.1918888593
 30
0.0
  0
SPLINE
  5
2EE
100
AcDbEntity
  8
0
100
AcDbSpline
 62
7
  6
BYLAYER
 70
0
 71
3
 72
12
 73
8
 74
0
 42
0.0000001
 43
0.0000001
 44
0.0000000001
 40
0.0
 40
0.0
 40
0.0
 40
0.0
 40
0.2287726838
 40
0.349299231
 40
0.4735936886
 40
0.7318745561
 40
1.0
 40
1.0
 40
1.0
 40
1.0
 10
20.4382441724
 20
8.1234719228
 30
0.0
 10
20.6733764695
 20
7.9563686527
 30
0.0
 10
21.0553549554
 20
7.7324399847
 30
0.0
 10
21.599562679
 20
7.4860559119
 30
0.0
 10
22.193992074
 20
7.263203773
 30
0.0
 10
22.987823648
 20
7.0480537695
 30
0.0
 10
23.6452524019
 20
6.9465870196
 30
0.0
 10
23.9816050055
 20
6.9124241458
 30
0.0
  0
SPLINE
  5
2EF
100
AcDbEntity
  8
0
100
AcDbSpline
 62
7
  6
BYLAYER
 70
0
 71
3
 72
13
 73
9
 74
0
 42
0.0000001
 43
0.0000001
 44
0.0000000001
 40
0.0
 40
0.0
 40
0.0
 40
0.0
 40
0.2690444885
 40
0.5280343547
 40
0.6520079601
 40
0.7716398458
 40
0.8874245756
 40
1.0
 40
1.0
 40
1.0
 40
1.0
 10
32.9999190627
 20
9.5405407359
 30
0.0
 10
33.057764622
 20
9.540540875
 30
0.0
 10
33.1719026234
 20
9.5564286164
 30
0.0
 10
33.3016195426
 20
9.6155795911
 30
0.0
 10
33.3862332326
 20
9.6835664065
 30
0.0
 10
33.4372758656
 20
9.7421789978
 30
0.0
 10
33.4750563411
 20
9.8072853576
 30
0.0
 10
33.4907733927
 20
9.8542495829
 30
0.0
 10
33.4959161286
 20
9.8779010583
 30
0.0
  0
LINE
  5
2F0
100
AcDbEntity
  8
0
100
AcDbLine
 62
7
  6
BYLAYER
 10
33.6889638091
 20
10.7658653685
 11
33.4959161286
 21
9.8779010583
  0
SPLINE
  5
2F1
100
AcDbEntity
  8
0
100
AcDbSpline
 62
7
  6
BYLAYER
 70
0
 71
3
 72
13
 73
9
 74
0
 42
0.0000001
 43
0.0000001
 44
0.0000000001
 40
0.0
 40
0.0
 40
0.0
 40
0.0
 40
0.1138872912
 40
0.2317143861
 40
0.3531155618
 40
0.4777807991
 40
0.7351315051
 40
1.0
 40
1.0
 40
1.0
 40
1.0
 10
18.3290886703
 20
9.0581588461
 30
0.0
 10
18.52364808
 20
8.9479115118
 30
0.0
 10
18.9277514239
 20
8.7379139219
 30
0.0
 10
19.563075064
 20
8.4591351715
 30
0.0
 10
20.2342097683
 20
8.2126443559
 30
0.0
 10
21.1806894576
 20
7.9259383363
 30
0.0
 10
22.4250439324
 20
7.6589110024
 30
0.0
 10
23.4460695713
 20
7.5456315383
 30
0.0
 10
23.9651388379
 20
7.5131477389
 30
0.0
  0
SPLINE
  5
2F2
100
AcDbEntity
  8
0
100
AcDbSpline
 62
7
  6
BYLAYER
 70
0
 71
3
 72
11
 73
7
 74
0
 42
0.0000001
 43
0.0000001
 44
0.0000000001
 40
0.0
 40
0.0
 40
0.0
 40
0.0
 40
0.2340059049
 40
0.604360584
 40
0.7990614356
 40
1.0
 40
1.0
 40
1.0
 40
1.0
 10
16.2377810721
 20
10.7997230374
 30
0.0
 10
16.36854948
 20
10.630899818
 30
0.0
 10
16.7333833607
 20
10.2155264292
 30
0.0
 10
17.2873948838
 20
9.7366012647
 30
0.0
 10
17.8606069496
 20
9.3359929653
 30
0.0
 10
18.1695521986
 20
9.1485603884
 30
0.0
 10
18.3290886703
 20
9.0581588461
 30
0.0
  0
SPLINE
  5
2F3
100
AcDbEntity
  8
0
100
AcDbSpline
 62
7
  6
BYLAYER
 70
0
 71
3
 72
13
 73
9
 74
0
 42
0.0000001
 43
0.0000001
 44
0.0000000001
 40
0.0
 40
0.0
 40
0.0
 40
0.0
 40
0.1204495475
 40
0.2414650681
 40
0.3634792452
 40
0.4868722937
 40
0.7388739216
 40
1.0
 40
1.0
 40
1.0
 40
1.0
 10
14.7760637013
 20
13.8376437778
 30
0.0
 10
14.7823358297
 20
13.7339085217
 30
0.0
 10
14.8035811524
 20
13.5263739654
 30
0.0
 10
14.8610693445
 20
13.2177418794
 30
0.0
 10
14.9439613421
 20
12.912288712
 30
0.0
 10
15.0885684467
 20
12.5078174552
 30
0.0
 10
15.3322573685
 20
12.0133209742
 30
0.0
 10
15.5821796584
 20
11.6461105027
 30
0.0
 10
15.7201470256
 20
11.4679933605
 30
0.0
  0
LINE
  5
2F4
100
AcDbEntity
  8
0
100
AcDbLine
 62
7
  6
BYLAYER
 10
16.4672547897
 20
9.8778601265
 11
16.2760067804
 21
10.7575443396
  0
SPLINE
  5
2F5
100
AcDbEntity
  8
0
100
AcDbSpline
 62
7
  6
BYLAYER
 70
0
 71
3
 72
13
 73
9
 74
0
 42
0.0000001
 43
0.0000001
 44
0.0000000001
 40
0.0
 40
0.0
 40
0.0
 40
0.0
 40
0.1125775087
 40
0.2283674766
 40
0.3479994793
 40
0.4719710821
 40
0.7309597898
 40
1.0
 40
1.0
 40
1.0
 40
1.0
 10
16.4672547897
 20
9.8778601265
 30
0.0
 10
16.4723976131
 20
9.8542082739
 30
0.0
 10
16.4881190711
 20
9.8072438354
 30
0.0
 10
16.5258995965
 20
9.7421366728
 30
0.0
 10
16.576938359
 20
9.683519582
 30
0.0
 10
16.6615558805
 20
9.6155384053
 30
0.0
 10
16.7912705036
 20
9.5563895829
 30
0.0
 10
16.9054072744
 20
9.5405020495
 30
0.0
 10
16.9632517683
 20
9.5405021885
 30
0.0
  0
SPLINE
  5
2F6
100
AcDbEntity
  8
0
100
AcDbSpline
 62
7
  6
BYLAYER
 70
0
 71
3
 72
13
 73
9
 74
0
 42
0.0000001
 43
0.0000001
 44
0.0000000001
 40
0.0
 40
0.0
 40
0.0
 40
0.0
 40
0.2611259612
 40
0.5131274706
 40
0.6365204394
 40
0.7585346706
 40
0.8795503836
 40
1.0
 40
1.0
 40
1.0
 40
1.0
 10
34.2430155659
 20
11.4679933605
 30
0.0
 10
34.380983046
 20
11.6461106483
 30
0.0
 10
34.6309054617
 20
12.0133214686
 30
0.0
 10
34.8745945883
 20
12.5078183163
 30
0.0
 10
35.0192018033
 20
12.9122899868
 30
0.0
 10
35.1020936422
 20
13.2177437663
 30
0.0
 10
35.1595817035
 20
13.5263765539
 30
0.0
 10
35.1808269888
 20
13.7339116062
 30
0.0
 10
35.1870990655
 20
13.837647057
 30
0.0
  0
SPLINE
  5
2F7
100
AcDbEntity
  8
0
100
AcDbSpline
 62
7
  6
BYLAYER
 70
0
 71
3
 72
15
 73
11
 74
0
 42
0.0000001
 43
0.0000001
 44
0.0000000001
 40
0.0
 40
0.0
 40
0.0
 40
0.0
 40
0.1141215042
 40
0.2373450237
 40
0.3669706836
 40
0.4999994085
 40
0.633028218
 40
0.7626540997
 40
0.8858780511
 40
1.0
 40
1.0
 40
1.0
 40
1.0
 10
25.476565849
 20
8.2401003078
 30
0.0
 10
25.4426965757
 20
8.2205430953
 30
0.0
 10
25.3686004574
 20
8.1860529399
 30
0.0
 10
25.2479656273
 20
8.1493604802
 30
0.0
 10
25.1173355837
 20
8.1268020271
 30
0.0
 10
24.981659625
 20
8.1191727933
 30
0.0
 10
24.845983552
 20
8.1268013573
 30
0.0
 10
24.7153531477
 20
8.149359214
 30
0.0
 10
24.5947177576
 20
8.1860510807
 30
0.0
 10
24.5206210987
 20
8.2205408078
 30
0.0
 10
24.4867515963
 20
8.2400979283
 30
0.0
  0
SPLINE
  5
2F8
100
AcDbEntity
  8
0
100
AcDbSpline
 62
7
  6
BYLAYER
 70
0
 71
3
 72
11
 73
7
 74
0
 42
0.0000001
 43
0.0000001
 44
0.0000000001
 40
0.0
 40
0.0
 40
0.0
 40
0.0
 40
0.2897087928
 40
0.5490965701
 40
0.782221438
 40
1.0
 40
1.0
 40
1.0
 40
1.0
 10
6.384605848
 20
18.6911402148
 30
0.0
 10
6.353892068
 20
18.7088698325
 30
0.0
 10
6.298169937
 20
18.7472452208
 30
0.0
 10
6.2315737827
 20
18.8172281601
 30
0.0
 10
6.1894463339
 20
18.8946472365
 30
0.0
 10
6.179593874
 20
18.9502125709
 30
0.0
 10
6.1795938809
 20
18.9768711974
 30
0.0
  0
SPLINE
  5
2F9
100
AcDbEntity
  8
0
100
AcDbSpline
 62
7
  6
BYLAYER
 70
0
 71
3
 72
10
 73
6
 74
0
 42
0.0000001
 43
0.0000001
 44
0.0000000001
 40
0.0
 40
0.0
 40
0.0
 40
0.0
 40
0.2680020867
 40
0.5241440847
 40
1.0
 40
1.0
 40
1.0
 40
1.0
 10
17.7604526637
 20
9.8870946536
 30
0.0
 10
17.5602442275
 20
10.0026824332
 30
0.0
 10
17.1765526674
 20
10.2430355493
 30
0.0
 10
16.4841765369
 20
10.7581229428
 30
0.0
 10
16.0264037793
 20
11.2006108551
 30
0.0
 10
15.7649061177
 20
11.5170102838
 30
0.0
  0
SPLINE
  5
2FA
100
AcDbEntity
  8
0
100
AcDbSpline
 62
7
  6
BYLAYER
 70
0
 71
3
 72
13
 73
9
 74
0
 42
0.0000001
 43
0.0000001
 44
0.0000000001
 40
0.0
 40
0.0
 40
0.0
 40
0.0
 40
0.2669706356
 40
0.5203006313
 40
0.642903298
 40
0.7633604848
 40
0.882203795
 40
1.0
 40
1.0
 40
1.0
 40
1.0
 10
15.7649061177
 20
11.5170102838
 30
0.0
 10
15.6198688729
 20
11.6924982828
 30
0.0
 10
15.3581077716
 20
12.052658911
 30
0.0
 10
15.1018074093
 20
12.5398649728
 30
0.0
 10
14.9508915511
 20
12.9358010225
 30
0.0
 10
14.8649890629
 20
13.2326173867
 30
0.0
 10
14.8053771517
 20
13.5316105848
 30
0.0
 10
14.7832420509
 20
13.7325019974
 30
0.0
 10
14.7766614064
 20
13.8327399609
 30
0.0
  0
SPLINE
  5
2FB
100
AcDbEntity
  8
0
100
AcDbSpline
 62
7
  6
BYLAYER
 70
0
 71
3
 72
9
 73
5
 74
0
 42
0.0000001
 43
0.0000001
 44
0.0000000001
 40
0.0
 40
0.0
 40
0.0
 40
0.0
 40
0.2360159075
 40
1.0
 40
1.0
 40
1.0
 40
1.0
 10
6.2673342121
 20
24.0882497564
 30
0.0
 10
6.2753994626
 20
24.0798507046
 30
0.0
 10
6.311079076
 20
24.0457154949
 30
0.0
 10
6.3519593422
 20
24.0172512946
 30
0.0
 10
6.3846037735
 20
23.9984071238
 30
0.0
  0
SPLINE
  5
2FC
100
AcDbEntity
  8
0
100
AcDbSpline
 62
7
  6
BYLAYER
 70
0
 71
3
 72
10
 73
6
 74
0
 42
0.0000001
 43
0.0000001
 44
0.0000000001
 40
0.0
 40
0.0
 40
0.0
 40
0.0
 40
0.2694160873
 40
0.5260165206
 40
1.0
 40
1.0
 40
1.0
 40
1.0
 10
18.2087200109
 20
9.1469822346
 30
0.0
 10
18.0076408862
 20
9.2630726951
 30
0.0
 10
17.6234627696
 20
9.5051021373
 30
0.0
 10
16.9362794147
 20
10.0258349687
 30
0.0
 10
16.4879314698
 20
10.4767857701
 30
0.0
 10
16.2377980205
 20
10.799727413
 30
0.0
  0
SPLINE
  5
2FD
100
AcDbEntity
  8
0
100
AcDbSpline
 62
7
  6
BYLAYER
 70
0
 71
3
 72
9
 73
5
 74
0
 42
0.0000001
 43
0.0000001
 44
0.0000000001
 40
0.0
 40
0.0
 40
0.0
 40
0.0
 40
0.2439315899
 40
1.0
 40
1.0
 40
1.0
 40
1.0
 10
15.7201619226
 20
11.4679972068
 30
0.0
 10
15.7603501843
 20
11.4161148259
 30
0.0
 10
15.9291095591
 20
11.2065415402
 30
0.0
 10
16.1132749654
 20
11.0095010127
 30
0.0
 10
16.2591439453
 20
10.867732701
 30
0.0
  0
SPLINE
  5
2FE
100
AcDbEntity
  8
0
100
AcDbSpline
 62
7
  6
BYLAYER
 70
0
 71
3
 72
9
 73
5
 74
0
 42
0.0000001
 43
0.0000001
 44
0.0000000001
 40
0.0
 40
0.0
 40
0.0
 40
0.0
 40
0.4828414929
 40
1.0
 40
1.0
 40
1.0
 40
1.0
 10
16.2591439453
 20
10.867732701
 30
0.0
 10
16.4822207646
 20
10.6509270164
 30
0.0
 10
16.977468475
 20
10.2354530714
 30
0.0
 10
17.519217839
 20
9.8839995687
 30
0.0
 10
17.8077657915
 20
9.7174100994
 30
0.0
  0
SPLINE
  5
2FF
100
AcDbEntity
  8
0
100
AcDbSpline
 62
7
  6
BYLAYER
 70
0
 71
3
 72
13
 73
9
 74
0
 42
0.0000001
 43
0.0000001
 44
0.0000000001
 40
0.0
 40
0.0
 40
0.0
 40
0.0
 40
0.265773929
 40
0.5236724726
 40
0.6483815914
 40
0.7695965391
 40
0.886937704
 40
1.0
 40
1.0
 40
1.0
 40
1.0
 10
23.970201703
 20
7.5582364599
 30
0.0
 10
23.4497858429
 20
7.5901521005
 30
0.0
 10
22.4266766136
 20
7.7017325655
 30
0.0
 10
21.1797793868
 20
7.9651414789
 30
0.0
 10
20.2321804354
 20
8.2477579176
 30
0.0
 10
19.5615740436
 20
8.490183054
 30
0.0
 10
18.9278758536
 20
8.7637396632
 30
0.0
 10
18.5250023472
 20
8.969584939
 30
0.0
 10
18.3312264912
 20
9.0775123485
 30
0.0
  0
SPLINE
  5
300
100
AcDbEntity
  8
0
100
AcDbSpline
 62
7
  6
BYLAYER
 70
0
 71
3
 72
16
 73
12
 74
0
 42
0.0000001
 43
0.0000001
 44
0.0000000001
 40
0.0
 40
0.0
 40
0.0
 40
0.0
 40
0.1399308467
 40
0.2779117611
 40
0.4125722347
 40
0.5427039952
 40
0.6672232677
 40
0.7852708275
 40
0.84169239
 40
0.8963046678
 40
1.0
 40
1.0
 40
1.0
 40
1.0
 10
25.4816234836
 20
8.0089721166
 30
0.0
 10
25.8958861763
 20
8.0207746919
 30
0.0
 10
26.7181208616
 20
8.0733629751
 30
0.0
 10
27.9297774294
 20
8.2392324125
 30
0.0
 10
29.0973497364
 20
8.4894099548
 30
0.0
 10
30.2033068282
 20
8.8200921517
 30
0.0
 10
31.2311450291
 20
9.2264381372
 30
0.0
 10
32.0216451654
 20
9.6291153985
 30
0.0
 10
32.5995597227
 20
9.9852233167
 30
0.0
 10
33.1213159774
 20
10.3491671323
 30
0.0
 10
33.4816686794
 20
10.6518369984
 30
0.0
 10
33.702002664
 20
10.8657789018
 30
0.0
  0
SPLINE
  5
301
100
AcDbEntity
  8
0
100
AcDbSpline
 62
7
  6
BYLAYER
 70
0
 71
3
 72
9
 73
5
 74
0
 42
0.0000001
 43
0.0000001
 44
0.0000000001
 40
0.0
 40
0.0
 40
0.0
 40
0.0
 40
0.2563585431
 40
1.0
 40
1.0
 40
1.0
 40
1.0
 10
33.702002664
 20
10.8657789018
 30
0.0
 10
33.7516557376
 20
10.9139914964
 30
0.0
 10
33.9422471476
 20
11.1052019093
 30
0.0
 10
34.120064034
 20
11.3092824321
 30
0.0
 10
34.243006591
 20
11.4679956778
 30
0.0
  0
SPLINE
  5
302
100
AcDbEntity
  8
0
100
AcDbSpline
 62
7
  6
BYLAYER
 70
0
 71
3
 72
13
 73
9
 74
0
 42
0.0000001
 43
0.0000001
 44
0.0000000001
 40
0.0
 40
0.0
 40
0.0
 40
0.0
 40
0.1179325118
 40
0.2368815306
 40
0.3574086131
 40
0.4800393807
 40
0.7332940959
 40
1.0
 40
1.0
 40
1.0
 40
1.0
 10
35.1871755256
 20
13.8433192538
 30
0.0
 10
35.1809518163
 20
13.7438050228
 30
0.0
 10
35.1596766402
 20
13.5443595177
 30
0.0
 10
35.101698783
 20
13.2474398107
 30
0.0
 10
35.0177932311
 20
12.9526289937
 30
0.0
 10
34.8701080535
 20
12.5593343288
 30
0.0
 10
34.6187474408
 20
12.0751849864
 30
0.0
 10
34.3615266605
 20
11.7168136395
 30
0.0
 10
34.2189117115
 20
11.5421487883
 30
0.0
  0
SPLINE
  5
303
100
AcDbEntity
  8
0
100
AcDbSpline
 62
7
  6
BYLAYER
 70
0
 71
3
 72
16
 73
12
 74
0
 42
0.0000001
 43
0.0000001
 44
0.0000000001
 40
0.0
 40
0.0
 40
0.0
 40
0.0
 40
0.1004297042
 40
0.1536853827
 40
0.2089880207
 40
0.3255893022
 40
0.4497959513
 40
0.5806888822
 40
0.7170253837
 40
0.8573424993
 40
1.0
 40
1.0
 40
1.0
 40
1.0
 10
34.2189117115
 20
11.5421487883
 30
0.0
 10
34.0151216552
 20
11.2925609285
 30
0.0
 10
33.6687568196
 20
10.9378173775
 30
0.0
 10
33.1512526274
 20
10.5110321807
 30
0.0
 10
32.5635458366
 20
10.090020629
 30
0.0
 10
31.7396625053
 20
9.612118313
 30
0.0
 10
30.6470030653
 20
9.1292855926
 30
0.0
 10
29.4525405585
 20
8.7354705276
 30
0.0
 10
28.1776876525
 20
8.4376362607
 30
0.0
 10
26.8453834691
 20
8.2411082944
 30
0.0
 10
25.9384299952
 20
8.1802061583
 30
0.0
 10
25.4809112037
 20
8.167275294
 30
0.0
  0
SPLINE
  5
304
100
AcDbEntity
  8
0
100
AcDbSpline
 62
7
  6
BYLAYER
 70
0
 71
3
 72
9
 73
5
 74
0
 42
0.0000001
 43
0.0000001
 44
0.0000000001
 40
0.0
 40
0.0
 40
0.0
 40
0.0
 40
0.245197453
 40
1.0
 40
1.0
 40
1.0
 40
1.0
 10
33.7253782688
 20
10.7997238766
 30
0.0
 10
33.6954981335
 20
10.7611455586
 30
0.0
 10
33.5712967282
 20
10.6056301898
 30
0.0
 10
33.4380143065
 20
10.4574162796
 30
0.0
 10
33.333282362
 20
10.3497356576
 30
0.0
  0
SPLINE
  5
305
100
AcDbEntity
  8
0
100
AcDbSpline
 62
7
  6
BYLAYER
 70
0
 71
3
 72
15
 73
11
 74
0
 42
0.0000001
 43
0.0000001
 44
0.0000000001
 40
0.0
 40
0.0
 40
0.0
 40
0.0
 40
0.103419835
 40
0.2139873556
 40
0.3315752066
 40
0.4557108174
 40
0.5856533469
 40
0.720438716
 40
0.8589530954
 40
1.0
 40
1.0
 40
1.0
 40
1.0
 10
33.333282362
 20
10.3497356576
 30
0.0
 10
33.1405164796
 20
10.1515425446
 30
0.0
 10
32.7118092551
 20
9.7698492456
 30
0.0
 10
31.9819219852
 20
9.2637909862
 30
0.0
 10
31.1539538363
 20
8.8115895951
 30
0.0
 10
30.239581433
 20
8.4194400953
 30
0.0
 10
29.2514862438
 20
8.0926497433
 30
0.0
 10
28.2034623065
 20
7.8357106398
 30
0.0
 10
27.1101419204
 20
7.6522017485
 30
0.0
 10
26.3654573931
 20
7.5809964924
 30
0.0
 10
25.9890928424
 20
7.5580018292
 30
0.0
  0
SPLINE
  5
306
100
AcDbEntity
  8
0
100
AcDbSpline
 62
7
  6
BYLAYER
 70
0
 71
3
 72
11
 73
7
 74
0
 42
0.0000001
 43
0.0000001
 44
0.0000000001
 40
0.0
 40
0.0
 40
0.0
 40
0.0
 40
0.2664374238
 40
0.5241912579
 40
0.7696758781
 40
1.0
 40
1.0
 40
1.0
 40
1.0
 10
23.9816058121
 20
7.0555146178
 30
0.0
 10
23.6822474904
 20
7.084864435
 30
0.0
 10
23.0954808602
 20
7.1689856795
 30
0.0
 10
22.2495481746
 20
7.3734889181
 30
0.0
 10
21.4673620391
 20
7.6500965897
 30
0.0
 10
20.9833416322
 20
7.8868302354
 30
0.0
 10
20.7581532702
 20
8.0168398556
 30
0.0
  0
SPLINE
  5
307
100
AcDbEntity
  8
0
100
AcDbSpline
 62
7
  6
BYLAYER
 70
0
 71
3
 72
11
 73
7
 74
0
 42
0.0000001
 43
0.0000001
 44
0.0000000001
 40
0.0
 40
0.0
 40
0.0
 40
0.0
 40
0.2274142302
 40
0.472205483
 40
0.7311279979
 40
1.0
 40
1.0
 40
1.0
 40
1.0
 10
29.4328207168
 20
8.1558808498
 30
0.0
 10
29.2001343068
 20
8.0057292961
 30
0.0
 10
28.6916989365
 20
7.7322526358
 30
0.0
 10
27.8578205075
 20
7.4146759748
 30
0.0
 10
26.9445492719
 20
7.1813469852
 30
0.0
 10
26.3074540735
 20
7.0874679921
 30
0.0
 10
25.9816058121
 20
7.0555194252
 30
0.0
  0
SPLINE
  5
308
100
AcDbEntity
  8
0
100
AcDbSpline
 62
7
  6
BYLAYER
 70
0
 71
3
 72
13
 73
9
 74
0
 42
0.0000001
 43
0.0000001
 44
0.0000000001
 40
0.0
 40
0.0
 40
0.0
 40
0.0
 40
0.2865950142
 40
0.5528924197
 40
0.6747917299
 40
0.7888280924
 40
0.8964559215
 40
1.0
 40
1.0
 40
1.0
 40
1.0
 10
24.6316146796
 20
6.0796146644
 30
0.0
 10
24.6122904518
 20
6.079614618
 30
0.0
 10
24.5748201242
 20
6.0745546191
 30
0.0
 10
24.5325755403
 20
6.0553644265
 30
0.0
 10
24.5066686599
 20
6.0332398612
 30
0.0
 10
24.4924573684
 20
6.0146835485
 30
0.0
 10
24.483666413
 20
5.9943459921
 30
0.0
 10
24.4816152543
 20
5.9800427079
 30
0.0
 10
24.4816152946
 20
5.9730610464
 30
0.0
  0
SPLINE
  5
309
100
AcDbEntity
  8
0
100
AcDbSpline
 62
7
  6
BYLAYER
 70
0
 71
3
 72
10
 73
6
 74
0
 42
0.0000001
 43
0.0000001
 44
0.0000000001
 40
0.0
 40
0.0
 40
0.0
 40
0.0
 40
0.232273252
 40
0.4737072987
 40
1.0
 40
1.0
 40
1.0
 40
1.0
 10
24.4816172861
 20
7.9119540896
 30
0.0
 10
24.4816172458
 20
7.918935751
 30
0.0
 10
24.4836725942
 20
7.9332436818
 30
0.0
 10
24.4956957384
 20
7.9610915873
 30
0.0
 10
24.5126542501
 20
7.9781375039
 30
0.0
 10
24.5255508341
 20
7.9872987261
 30
0.0
  0
SPLINE
  5
30A
100
AcDbEntity
  8
0
100
AcDbSpline
 62
7
  6
BYLAYER
 70
0
 71
3
 72
9
 73
5
 74
0
 42
0.0000001
 43
0.0000001
 44
0.0000000001
 40
0.0
 40
0.0
 40
0.0
 40
0.0
 40
0.2357316381
 40
1.0
 40
1.0
 40
1.0
 40
1.0
 10
24.5255508341
 20
7.9872987261
 30
0.0
 10
24.5326971937
 20
7.9923752167
 30
0.0
 10
24.5650461305
 20
8.0110085125
 30
0.0
 10
24.603196603
 20
8.0185076393
 30
0.0
 10
24.6316166711
 20
8.0185077076
 30
0.0
  0
SPLINE
  5
30B
100
AcDbEntity
  8
0
100
AcDbSpline
 62
7
  6
BYLAYER
 70
0
 71
3
 72
13
 73
9
 74
0
 42
0.0000001
 43
0.0000001
 44
0.0000000001
 40
0.0
 40
0.0
 40
0.0
 40
0.0
 40
0.1035440297
 40
0.2111720332
 40
0.3252085473
 40
0.4471079709
 40
0.7134054087
 40
1.0
 40
1.0
 40
1.0
 40
1.0
 10
25.4816152946
 20
5.9730634502
 30
0.0
 10
25.4816152543
 20
5.9800451229
 30
0.0
 10
25.4795639057
 20
5.9943484186
 30
0.0
 10
25.4707727156
 20
6.0146859391
 30
0.0
 10
25.4565612095
 20
6.0332421858
 30
0.0
 10
25.4306540735
 20
6.0553665875
 30
0.0
 10
25.3884093231
 20
6.0745565672
 30
0.0
 10
25.3509389191
 20
6.0796163936
 30
0.0
 10
25.3316146795
 20
6.0796163471
 30
0.0
  0
SPLINE
  5
30C
100
AcDbEntity
  8
0
100
AcDbSpline
 62
7
  6
BYLAYER
 70
0
 71
3
 72
9
 73
5
 74
0
 42
0.0000001
 43
0.0000001
 44
0.0000000001
 40
0.0
 40
0.0
 40
0.0
 40
0.0
 40
0.2635826935
 40
1.0
 40
1.0
 40
1.0
 40
1.0
 10
25.3316166711
 20
8.018509389
 30
0.0
 10
25.3417213079
 20
8.0185094133
 30
0.0
 10
25.3799137616
 20
8.0157707878
 30
0.0
 10
25.4180412162
 20
8.0021238035
 30
0.0
 10
25.4406092511
 20
7.9851627066
 30
0.0
  0
SPLINE
  5
30D
100
AcDbEntity
  8
0
100
AcDbSpline
 62
7
  6
BYLAYER
 70
0
 71
3
 72
10
 73
6
 74
0
 42
0.0000001
 43
0.0000001
 44
0.0000000001
 40
0.0
 40
0.0
 40
0.0
 40
0.0
 40
0.5249677539
 40
0.7668211324
 40
1.0
 40
1.0
 40
1.0
 40
1.0
 10
25.4406092511
 20
7.9851627066
 30
0.0
 10
25.4527222918
 20
7.9760591024
 30
0.0
 10
25.4685552655
 20
7.9593485992
 30
0.0
 10
25.4797100372
 20
7.9324605937
 30
0.0
 10
25.4816172473
 20
7.9186869373
 30
0.0
 10
25.4816172861
 20
7.9119564921
 30
0.0
  0
SPLINE
  5
30E
100
AcDbEntity
  8
0
100
AcDbSpline
 62
7
  6
BYLAYER
 70
0
 71
3
 72
9
 73
5
 74
0
 42
0.0000001
 43
0.0000001
 44
0.0000000001
 40
0.0
 40
0.0
 40
0.0
 40
0.0
 40
0.2384906261
 40
1.0
 40
1.0
 40
1.0
 40
1.0
 10
24.4867515963
 20
13.5473636396
 30
0.0
 10
24.4984484982
 20
13.5406095481
 30
0.0
 10
24.5483710151
 20
13.5138168795
 30
0.0
 10
24.6013045232
 20
13.4928012703
 30
0.0
 10
24.6423798886
 20
13.479654775
 30
0.0
  0
SPLINE
  5
30F
100
AcDbEntity
  8
0
100
AcDbSpline
 62
7
  6
BYLAYER
 70
0
 71
3
 72
9
 73
5
 74
0
 42
0.0000001
 43
0.0000001
 44
0.0000000001
 40
0.0
 40
0.0
 40
0.0
 40
0.0
 40
0.2611405119
 40
1.0
 40
1.0
 40
1.0
 40
1.0
 10
25.3209489584
 20
13.479659745
 30
0.0
 10
25.3350325824
 20
13.4841675923
 30
0.0
 10
25.3885321102
 20
13.502712809
 30
0.0
 10
25.4403308573
 20
13.5264428741
 30
0.0
 10
25.4765632602
 20
13.5473645245
 30
0.0
  0
SPLINE
  5
310
100
AcDbEntity
  8
0
100
AcDbSpline
 62
7
  6
BYLAYER
 70
0
 71
3
 72
9
 73
5
 74
0
 42
0.0000001
 43
0.0000001
 44
0.0000000001
 40
0.0
 40
0.0
 40
0.0
 40
0.0
 40
0.2643659785
 40
1.0
 40
1.0
 40
1.0
 40
1.0
 10
43.5785619107
 20
23.9984959334
 30
0.0
 10
43.5898570067
 20
24.0050161561
 30
0.0
 10
43.6318126913
 20
24.0309444534
 30
0.0
 10
43.6707010207
 20
24.0621681457
 30
0.0
 10
43.6958363925
 20
24.0883454082
 30
0.0
  0
SPLINE
  5
311
100
AcDbEntity
  8
0
100
AcDbSpline
 62
7
  6
BYLAYER
 70
0
 71
3
 72
15
 73
11
 74
0
 42
0.0000001
 43
0.0000001
 44
0.0000000001
 40
0.0
 40
0.0
 40
0.0
 40
0.0
 40
0.1335903992
 40
0.2661015046
 40
0.3967235824
 40
0.5248113104
 40
0.6497239732
 40
0.7708755656
 40
0.887796172
 40
1.0
 40
1.0
 40
1.0
 40
1.0
 10
24.4823363216
 20
8.1672728937
 30
0.0
 10
24.1728543742
 20
8.1760182979
 30
0.0
 10
23.5567235062
 20
8.209679832
 30
0.0
 10
22.6422009476
 20
8.3086108765
 30
0.0
 10
21.7469677136
 20
8.4551794231
 30
0.0
 10
20.8785839528
 20
8.6481322046
 30
0.0
 10
20.0441225863
 20
8.8858074464
 30
0.0
 10
19.2504117414
 20
9.1663624463
 30
0.0
 10
18.5041725185
 20
9.4874654984
 30
0.0
 10
18.0321611961
 20
9.7320327246
 30
0.0
 10
17.8062519119
 20
9.8608196916
 30
0.0
  0
SPLINE
  5
312
100
AcDbEntity
  8
0
100
AcDbSpline
 62
7
  6
BYLAYER
 70
0
 71
3
 72
15
 73
11
 74
0
 42
0.0000001
 43
0.0000001
 44
0.0000000001
 40
0.0
 40
0.0
 40
0.0
 40
0.0
 40
0.1122068891
 40
0.2291283746
 40
0.3502792474
 40
0.4751901916
 40
0.6032759359
 40
0.7338965557
 40
0.8664075121
 40
1.0
 40
1.0
 40
1.0
 40
1.0
 10
17.8532649612
 20
9.691307292
 30
0.0
 10
18.0775707526
 20
9.5634344485
 30
0.0
 10
18.5462211591
 20
9.320595584
 30
0.0
 10
19.2871315078
 20
9.001735417
 30
0.0
 10
20.0751588385
 20
8.7231117022
 30
0.0
 10
20.9036373027
 20
8.4870376502
 30
0.0
 10
21.7657949734
 20
8.2953416664
 30
0.0
 10
22.6546171616
 20
8.1496728377
 30
0.0
 10
23.5626058976
 20
8.0512753764
 30
0.0
 10
24.1743437846
 20
8.0177228022
 30
0.0
 10
24.4816234836
 20
8.0089697129
 30
0.0
  0
SPLINE
  5
313
100
AcDbEntity
  8
0
100
AcDbSpline
 62
7
  6
BYLAYER
 70
0
 71
3
 72
16
 73
12
 74
0
 42
0.0000001
 43
0.0000001
 44
0.0000000001
 40
0.0
 40
0.0
 40
0.0
 40
0.0
 40
0.0457447738
 40
0.0922398175
 40
0.1899984872
 40
0.2978175461
 40
0.4177231762
 40
0.5497812576
 40
0.6925874257
 40
0.8437006465
 40
1.0
 40
1.0
 40
1.0
 40
1.0
 10
40.783466949
 20
40.1270080532
 30
0.0
 10
40.7836040179
 20
40.09728584
 30
0.0
 10
40.7790082976
 20
40.0372194352
 30
0.0
 10
40.7501341752
 20
39.9167376285
 30
0.0
 10
40.6751906017
 20
39.768376162
 30
0.0
 10
40.5338969909
 20
39.608673604
 30
0.0
 10
40.3456689329
 20
39.4678275428
 30
0.0
 10
40.1168487144
 20
39.3497943652
 30
0.0
 10
39.8548921816
 20
39.2580435765
 30
0.0
 10
39.5684821032
 20
39.1955165387
 30
0.0
 10
39.3693450835
 20
39.1748467271
 30
0.0
 10
39.2679184231
 20
39.1697420466
 30
0.0
  0
SPLINE
  5
314
100
AcDbEntity
  8
0
100
AcDbSpline
 62
7
  6
BYLAYER
 70
0
 71
3
 72
22
 73
18
 74
0
 42
0.0000001
 43
0.0000001
 44
0.0000000001
 40
0.0
 40
0.0
 40
0.0
 40
0.0
 40
0.0429468126
 40
0.0881666903
 40
0.1368487551
 40
0.1897036828
 40
0.2469851274
 40
0.3085634817
 40
0.3740255084
 40
0.4427233874
 40
0.5138553408
 40
0.5865022781
 40
0.7322811961
 40
0.8035401964
 40
0.8724301575
 40
0.9381733701
 40
1.0
 40
1.0
 40
1.0
 40
1.0
 10
12.4367902831
 20
25.8641077865
 30
0.0
 10
12.4323355162
 20
25.8194028434
 30
0.0
 10
12.4114720335
 20
25.7284623392
 30
0.0
 10
12.3475526132
 20
25.5991655716
 30
0.0
 10
12.2526889411
 20
25.4773120534
 30
0.0
 10
12.1291950902
 20
25.36515441
 30
0.0
 10
11.9796696042
 20
25.2646435708
 30
0.0
 10
11.8071575716
 20
25.177552842
 30
0.0
 10
11.6150644397
 20
25.1056101361
 30
0.0
 10
11.4072720869
 20
25.0501699415
 30
0.0
 10
11.1879361243
 20
25.012351452
 30
0.0
 10
10.8858820637
 20
24.9864731897
 30
0.0
 10
10.5813705996
 20
24.9979584209
 30
0.0
 10
10.2860297646
 20
25.0470578191
 30
0.0
 10
10.0772544129
 20
25.1013498781
 30
0.0
 10
9.8840250917
 20
25.1722875736
 30
0.0
 10
9.7640912459
 20
25.2316229633
 30
0.0
 10
9.7080795326
 20
25.2639606094
 30
0.0
  0
SPLINE
  5
315
100
AcDbEntity
  8
0
100
AcDbSpline
 62
7
  6
BYLAYER
 70
0
 71
3
 72
22
 73
18
 74
0
 42
0.0000001
 43
0.0000001
 44
0.0000000001
 40
0.0
 40
0.0
 40
0.0
 40
0.0
 40
0.0428177472
 40
0.0874046513
 40
0.1351914565
 40
0.1871081503
 40
0.2435603495
 40
0.3045235017
 40
0.3696298219
 40
0.4382447358
 40
0.5095525252
 40
0.5825961514
 40
0.7296196263
 40
0.8016146962
 40
0.8712270006
 40
0.9376269157
 40
1.0
 40
1.0
 40
1.0
 40
1.0
 10
26.5816308339
 20
17.7523361656
 30
0.0
 10
26.5816230335
 20
17.7067904573
 30
0.0
 10
26.5694671068
 20
17.6134183062
 30
0.0
 10
26.5158878931
 20
17.4786138636
 30
0.0
 10
26.4290258374
 20
17.350790626
 30
0.0
 10
26.3112408927
 20
17.2325374133
 30
0.0
 10
26.1653134793
 20
17.1259007273
 30
0.0
 10
25.9943337925
 20
17.0328882003
 30
0.0
 10
25.8018660528
 20
16.9553680969
 30
0.0
 10
25.591982787
 20
16.8948589927
 30
0.0
 10
25.3690751452
 20
16.8526745392
 30
0.0
 10
25.0603776254
 20
16.8219886551
 30
0.0
 10
24.7480095568
 20
16.8306070581
 30
0.0
 10
24.4444695697
 20
16.878686372
 30
0.0
 10
24.2296598466
 20
16.9332039821
 30
0.0
 10
24.0309503169
 20
17.0052598204
 30
0.0
 10
23.9077324928
 20
17.0659726137
 30
0.0
 10
23.8502740356
 20
17.099145519
 30
0.0
  0
SPLINE
  5
316
100
AcDbEntity
  8
0
100
AcDbSpline
 62
7
  6
BYLAYER
 70
0
 71
3
 72
14
 73
10
 74
0
 42
0.0000001
 43
0.0000001
 44
0.0000000001
 40
0.0
 40
0.0
 40
0.0
 40
0.0
 40
0.2892183187
 40
0.4225718279
 40
0.5485280977
 40
0.667900251
 40
0.7818628574
 40
0.8919540503
 40
1.0
 40
1.0
 40
1.0
 40
1.0
 10
23.8502740356
 20
17.099145519
 30
0.0
 10
23.7800564217
 20
17.1396847602
 30
0.0
 10
23.6817122195
 20
17.2074295437
 30
0.0
 10
23.5703979368
 20
17.3139047484
 30
0.0
 10
23.5026719669
 20
17.3960222324
 30
0.0
 10
23.4491286895
 20
17.4817132838
 30
0.0
 10
23.4104119974
 20
17.5702755417
 30
0.0
 10
23.386907003
 20
17.6607686847
 30
0.0
 10
23.3816443287
 20
17.7220464164
 30
0.0
 10
23.3816495163
 20
17.7523361648
 30
0.0
  0
SPLINE
  5
317
100
AcDbEntity
  8
0
100
AcDbSpline
 62
7
  6
BYLAYER
 70
0
 71
3
 72
14
 73
10
 74
0
 42
0.0000001
 43
0.0000001
 44
0.0000000001
 40
0.0
 40
0.0
 40
0.0
 40
0.0
 40
0.2892183187
 40
0.4225718279
 40
0.5485280977
 40
0.667900251
 40
0.7818628574
 40
0.8919540503
 40
1.0
 40
1.0
 40
1.0
 40
1.0
 10
9.7080795326
 20
25.2639606094
 30
0.0
 10
9.6378619188
 20
25.3044998506
 30
0.0
 10
9.5395177165
 20
25.3722446341
 30
0.0
 10
9.4282034339
 20
25.4787198388
 30
0.0
 10
9.360477464
 20
25.5608373228
 30
0.0
 10
9.3069341865
 20
25.6465283742
 30
0.0
 10
9.2682174944
 20
25.7350906321
 30
0.0
 10
9.2447125001
 20
25.8255837751
 30
0.0
 10
9.2394498258
 20
25.8868615068
 30
0.0
 10
9.2394550133
 20
25.9171512552
 30
0.0
  0
SPLINE
  5
318
100
AcDbEntity
  8
0
100
AcDbSpline
 62
7
  6
BYLAYER
 70
0
 71
3
 72
14
 73
10
 74
0
 42
0.0000001
 43
0.0000001
 44
0.0000000001
 40
0.0
 40
0.0
 40
0.0
 40
0.0
 40
0.284610946
 40
0.4165950844
 40
0.5421808345
 40
0.6621251235
 40
0.7774774999
 40
0.8895813519
 40
1.0
 40
1.0
 40
1.0
 40
1.0
 10
24.0918289089
 20
29.8028089989
 30
0.0
 10
24.071240784
 20
29.5182469944
 30
0.0
 10
24.0083111214
 20
29.1021944409
 30
0.0
 10
23.8449847405
 20
28.5829232245
 30
0.0
 10
23.6914771465
 20
28.2360337701
 30
0.0
 10
23.5050288016
 20
27.9248610596
 30
0.0
 10
23.2867867856
 20
27.6520017054
 30
0.0
 10
23.0385201752
 20
27.4198753462
 30
0.0
 10
22.8536136184
 20
27.2932807211
 30
0.0
 10
22.7577582045
 20
27.2379307087
 30
0.0
  0
SPLINE
  5
319
100
AcDbEntity
  8
0
100
AcDbSpline
 62
7
  6
BYLAYER
 70
0
 71
3
 72
14
 73
10
 74
0
 42
0.0000001
 43
0.0000001
 44
0.0000000001
 40
0.0
 40
0.0
 40
0.0
 40
0.0
 40
0.2891309083
 40
0.4224859471
 40
0.5484668052
 40
0.6678760973
 40
0.7818733365
 40
0.8919791828
 40
1.0
 40
1.0
 40
1.0
 40
1.0
 10
40.2973435617
 20
40.8019509139
 30
0.0
 10
40.3699420107
 20
40.7600371281
 30
0.0
 10
40.471641805
 20
40.6900183364
 30
0.0
 10
40.5868557243
 20
40.5800239082
 30
0.0
 10
40.6570365121
 20
40.4951896294
 30
0.0
 10
40.7126174861
 20
40.4066660409
 30
0.0
 10
40.7529357476
 20
40.3151715153
 30
0.0
 10
40.7775935036
 20
40.2216700272
 30
0.0
 10
40.783322518
 20
40.1583266701
 30
0.0
 10
40.783466949
 20
40.1270080532
 30
0.0
  0
SPLINE
  5
31A
100
AcDbEntity
  8
0
100
AcDbSpline
 62
7
  6
BYLAYER
 70
0
 71
3
 72
11
 73
7
 74
0
 42
0.0000001
 43
0.0000001
 44
0.0000000001
 40
0.0
 40
0.0
 40
0.0
 40
0.0
 40
0.2282447474
 40
0.4690952149
 40
0.7257249654
 40
1.0
 40
1.0
 40
1.0
 40
1.0
 10
23.7573083254
 20
28.4855129061
 30
0.0
 10
23.6205293405
 20
28.453141842
 30
0.0
 10
23.3324216657
 20
28.4138354006
 30
0.0
 10
22.8839582024
 20
28.4308048076
 30
0.0
 10
22.4157439524
 20
28.5211899612
 30
0.0
 10
22.1049294495
 20
28.6257415784
 30
0.0
 10
21.9481491196
 20
28.6885777474
 30
0.0
  0
SPLINE
  5
31B
100
AcDbEntity
  8
0
100
AcDbSpline
 62
7
  6
BYLAYER
 70
0
 71
3
 72
11
 73
7
 74
0
 42
0.0000001
 43
0.0000001
 44
0.0000000001
 40
0.0
 40
0.0
 40
0.0
 40
0.0
 40
0.2397877337
 40
0.4838729908
 40
0.7361863103
 40
1.0
 40
1.0
 40
1.0
 40
1.0
 10
22.7577582045
 20
27.2379307087
 30
0.0
 10
22.6537186382
 20
27.1778549022
 30
0.0
 10
22.4332046047
 20
27.0740156886
 30
0.0
 10
22.07688951
 20
26.9730030283
 30
0.0
 10
21.6974109137
 20
26.9268873835
 30
0.0
 10
21.4379534268
 20
26.9326168015
 30
0.0
 10
21.3062574277
 20
26.9438749725
 30
0.0
  0
SPLINE
  5
31C
100
AcDbEntity
  8
0
100
AcDbSpline
 62
7
  6
BYLAYER
 70
0
 71
3
 72
14
 73
10
 74
0
 42
0.0000001
 43
0.0000001
 44
0.0000000001
 40
0.0
 40
0.0
 40
0.0
 40
0.0
 40
0.2892183187
 40
0.4225718279
 40
0.5485280977
 40
0.667900251
 40
0.7818628574
 40
0.8919540503
 40
1.0
 40
1.0
 40
1.0
 40
1.0
 10
26.1130063147
 20
18.4055268114
 30
0.0
 10
26.1832239285
 20
18.3649875703
 30
0.0
 10
26.2815681308
 20
18.2972427867
 30
0.0
 10
26.3928824134
 20
18.1907675821
 30
0.0
 10
26.4606083833
 20
18.1086500981
 30
0.0
 10
26.5141516608
 20
18.0229590466
 30
0.0
 10
26.5528683529
 20
17.9343967888
 30
0.0
 10
26.5763733472
 20
17.8439036457
 30
0.0
 10
26.5816360215
 20
17.7826259141
 30
0.0
 10
26.5816308339
 20
17.7523361656
 30
0.0
  0
SPLINE
  5
31D
100
AcDbEntity
  8
0
100
AcDbSpline
 62
7
  6
BYLAYER
 70
0
 71
3
 72
22
 73
18
 74
0
 42
0.0000001
 43
0.0000001
 44
0.0000000001
 40
0.0
 40
0.0
 40
0.0
 40
0.0
 40
0.0428177472
 40
0.0874046513
 40
0.1351914565
 40
0.1871081503
 40
0.2435603495
 40
0.3045235017
 40
0.3696298219
 40
0.4382447358
 40
0.5095525252
 40
0.5825961514
 40
0.7296196263
 40
0.8016146962
 40
0.8712270006
 40
0.9376269157
 40
1.0
 40
1.0
 40
1.0
 40
1.0
 10
23.3816495163
 20
17.7523361648
 30
0.0
 10
23.3816573167
 20
17.7978818732
 30
0.0
 10
23.3938132434
 20
17.8912540242
 30
0.0
 10
23.4473924571
 20
18.0260584669
 30
0.0
 10
23.5342545128
 20
18.1538817044
 30
0.0
 10
23.6520394575
 20
18.2721349172
 30
0.0
 10
23.7979668709
 20
18.3787716032
 30
0.0
 10
23.9689465577
 20
18.4717841302
 30
0.0
 10
24.1614142974
 20
18.5493042335
 30
0.0
 10
24.3712975632
 20
18.6098133377
 30
0.0
 10
24.594205205
 20
18.6519977913
 30
0.0
 10
24.9029027248
 20
18.6826836754
 30
0.0
 10
25.2152707934
 20
18.6740652724
 30
0.0
 10
25.5188107806
 20
18.6259859584
 30
0.0
 10
25.7336205037
 20
18.5714683484
 30
0.0
 10
25.9323300333
 20
18.4994125101
 30
0.0
 10
26.0555478574
 20
18.4386997167
 30
0.0
 10
26.1130063147
 20
18.4055268114
 30
0.0
  0
SPLINE
  5
31E
100
AcDbEntity
  8
0
100
AcDbSpline
 62
7
  6
BYLAYER
 70
0
 71
3
 72
20
 73
16
 74
0
 42
0.0000001
 43
0.0000001
 44
0.0000000001
 40
0.0
 40
0.0
 40
0.0
 40
0.0
 40
0.0457831363
 40
0.0949819714
 40
0.1479293775
 40
0.2046861329
 40
0.26506292
 40
0.3286968832
 40
0.4634540139
 40
0.6038558727
 40
0.7438793969
 40
0.8118936334
 40
0.8776432216
 40
0.9405436627
 40
1.0
 40
1.0
 40
1.0
 40
1.0
 10
37.5405485105
 20
40.4120655884
 30
0.0
 10
37.5625369694
 20
40.452398441
 30
0.0
 10
37.6163637194
 20
40.5317620049
 30
0.0
 10
37.7190370607
 20
40.6396778102
 30
0.0
 10
37.844387116
 20
40.7389562853
 30
0.0
 10
37.9903969278
 20
40.8279957904
 30
0.0
 10
38.1546986541
 20
40.9055568399
 30
0.0
 10
38.399291258
 20
40.9936046082
 30
0.0
 10
38.7330762134
 20
41.0662268837
 30
0.0
 10
39.1501843871
 20
41.0927407211
 30
0.0
 10
39.500073717
 20
41.0640345514
 30
0.0
 10
39.7696436693
 20
41.0099011263
 30
0.0
 10
39.9595243505
 20
40.9552837463
 30
0.0
 10
40.1357841925
 20
40.8871015497
 30
0.0
 10
40.2456792399
 20
40.8317786492
 30
0.0
 10
40.2973435617
 20
40.8019509139
 30
0.0
  0
SPLINE
  5
31F
100
AcDbEntity
  8
0
100
AcDbSpline
 62
7
  6
BYLAYER
 70
0
 71
3
 72
11
 73
7
 74
0
 42
0.0000001
 43
0.0000001
 44
0.0000000001
 40
0.0
 40
0.0
 40
0.0
 40
0.0
 40
0.2698246935
 40
0.525706087
 40
0.7685816958
 40
1.0
 40
1.0
 40
1.0
 40
1.0
 10
22.0028624128
 20
28.2598561468
 30
0.0
 10
22.138954053
 20
28.2053931317
 30
0.0
 10
22.4091576641
 20
28.1112565912
 30
0.0
 10
22.8163990105
 20
28.01543536
 30
0.0
 10
23.211345605
 20
27.9695681054
 30
0.0
 10
23.4699162506
 20
27.972910022
 30
0.0
 10
23.59518822
 20
27.9835181243
 30
0.0
  0
SPLINE
  5
320
100
AcDbEntity
  8
0
100
AcDbSpline
 62
7
  6
BYLAYER
 70
0
 71
3
 72
13
 73
9
 74
0
 42
0.0000001
 43
0.0000001
 44
0.0000000001
 40
0.0
 40
0.0
 40
0.0
 40
0.0
 40
0.1082006927
 40
0.2184221896
 40
0.4513948549
 40
0.5774197919
 40
0.7107222746
 40
1.0
 40
1.0
 40
1.0
 40
1.0
 10
9.2394550133
 20
25.9171512552
 30
0.0
 10
9.2394601807
 20
25.9473230129
 30
0.0
 10
9.244688301
 20
26.0083570717
 30
0.0
 10
9.2762426384
 20
26.13070456
 30
0.0
 10
9.3394635618
 20
26.2477819956
 30
0.0
 10
9.4267728977
 20
26.3539635898
 30
0.0
 10
9.5372419907
 20
26.460232746
 30
0.0
 10
9.6349033079
 20
26.5278253907
 30
0.0
 10
9.7046549829
 20
26.5683415476
 30
0.0
  0
ENDSEC
  0
SECTION
  2
OBJECTS
  0
DICTIONARY
  5
C
100
AcDbDictionary
280
0
281
1
  3
ACAD_GROUP
350
D
  3
ACAD_MLINESTYLE
350
17
  3
ACAD_LAYOUT
350
1A
  3
ACAD_PLOTSETTINGS
350
19
  3
ACAD_PLOTSTYLENAME
350
E
  0
DICTIONARY
  5
D
102
{ACAD_REACTORS
330
C
102
}
100
AcDbDictionary
280
0
281
1
  0
ACDBDICTIONARYWDFLT
  5
E
102
{ACAD_REACTORS
330
C
102
}
100
AcDbDictionary
281
1
  3
Normal
350
F
100
AcDbDictionaryWithDefault
340
F
  0
DICTIONARY
  5
17
102
{ACAD_REACTORS
330
C
102
}
100
AcDbDictionary
280
0
281
1
  3
Standard
350
18
  0
DICTIONARY
  5
19
102
{ACAD_REACTORS
330
C
102
}
100
AcDbDictionary
281
1
  0
DICTIONARY
  5
1A
102
{ACAD_REACTORS
330
C
102
}
100
AcDbDictionary
281
1
  3
Model
350
321
  3
Layout1
350
322
  0
ACDBPLACEHOLDER
  5
F
102
{ACAD_REACTORS
330
E
102
}
  0
MLINESTYLE
  5
18
102
{ACAD_REACTORS
330
17
102
}
100
AcDbMlineStyle
  2
STANDARD
 70
0
  3

 62
256
 51
90.0
 52
90.0
 71
2
 49
0.5
 62
256
  6
BYLAYER
 49
-0.5
 62
256
  6
BYLAYER
  0
LAYOUT
  5
321
102
{ACAD_REACTORS
330
1A
102
}
100
AcDbPlotSettings
  1

  2
none_device
  4

  6

 40
0.0
 41
0.0
 42
0.0
 43
0.0
 44
210.0
 45
297.0
 46
0.0
 47
0.0
 48
0.0
 49
0.0
140
0.0
141
0.0
142
1.0
143
1.0
 70
1024
 72
1
 73
0
 74
0
  7

 75
0
147
1.0
148
0.0
149
0.0
100
AcDbLayout
  1
Model
 70
0
 71
0
 10
0.0
 20
0.0
 11
210.0
 21
297.0
 12
0.0
 22
0.0
 32
0.0
 14
0.0
 24
0.0
 34
0.0
 15
0.0
 25
0.0
 35
0.0
146
0.0
 13
0.0
 23
0.0
 33
0.0
 16
1.0
 26
0.0
 36
0.0
 17
0.0
 27
1.0
 37
0.0
 76
0
330
210
345
0
346
0
  0
LAYOUT
  5
322
102
{ACAD_REACTORS
330
1A
102
}
100
AcDbPlotSettings
  1

  2
none_device
  4

  6

 40
0.0
 41
0.0
 42
0.0
 43
0.0
 44
210.0
 45
297.0
 46
0.0
 47
0.0
 48
0.0
 49
0.0
140
0.0
141
0.0
142
1.0
143
1.0
 70
0
 72
1
 73
0
 74
0
  7

 75
0
147
1.0
148
0.0
149
0.0
100
AcDbLayout
  1
Layout1
 70
0
 71
1
 10
0.0
 20
0.0
 11
210.0
 21
297.0
 12
0.0
 22
0.0
 32
0.0
 14
0.0
 24
0.0
 34
0.0
 15
0.0
 25
0.0
 35
0.0
146
0.0
 13
0.0
 23
0.0
 33
0.0
 16
1.0
 26
0.0
 36
0.0
 17
0.0
 27
1.0
 37
0.0
 76
0
330
211
345
0
346
0
  0
ENDSEC
  0
EOF
